0
SECTION
2
HEADER
9
$INSUNITS
70
4
9
$ACADVER
1
AC1014
9
$HANDSEED
5
FFFF
0
ENDSEC
0
SECTION
2
TABLES
0
TABLE
2
VPORT
5
8
100
AcDbSymbolTable
0
ENDTAB
0
TABLE
2
LTYPE
5
5
100
AcDbSymbolTable
0
LTYPE
5
14
100
AcDbSymbolTableRecord
100
AcDbLinetypeTableRecord
2
BYBLOCK
70
0
0
LTYPE
5
15
100
AcDbSymbolTableRecord
100
AcDbLinetypeTableRecord
2
BYLAYER
70
0
0
ENDTAB
0
TABLE
2
LAYER
5
2
100
AcDbSymbolTable
70
2
0
LAYER
5
50
100
AcDbSymbolTableRecord
100
AcDbLayerTableRecord
2
0
70
0
6
CONTINUOUS
0
ENDTAB
0
TABLE
2
STYLE
5
3
100
AcDbSymbolTable
70
1
0
STYLE
5
11
100
AcDbSymbolTableRecord
100
AcDbTextStyleTableRecord
2
STANDARD
70
0
0
ENDTAB
0
TABLE
2
VIEW
5
6
100
AcDbSymbolTable
70
0
0
ENDTAB
0
TABLE
2
UCS
5
7
100
AcDbSymbolTable
70
0
0
ENDTAB
0
TABLE
2
APPID
5
9
100
AcDbSymbolTable
70
2
0
APPID
5
12
100
AcDbSymbolTableRecord
100
AcDbRegAppTableRecord
2
ACAD
70
0
0
ENDTAB
0
TABLE
2
DIMSTYLE
5
A
100
AcDbSymbolTable
70
1
0
ENDTAB
0
TABLE
2
BLOCK_RECORD
5
1
100
AcDbSymbolTable
70
1
0
BLOCK_RECORD
5
1F
100
AcDbSymbolTableRecord
100
AcDbBlockTableRecord
2
*MODEL_SPACE
0
BLOCK_RECORD
5
1B
100
AcDbSymbolTableRecord
100
AcDbBlockTableRecord
2
*PAPER_SPACE
0
ENDTAB
0
ENDSEC
0
SECTION
2
BLOCKS
0
BLOCK
5
20
100
AcDbEntity
100
AcDbBlockBegin
2
*MODEL_SPACE
0
ENDBLK
5
21
100
AcDbEntity
100
AcDbBlockEnd
0
BLOCK
5
1C
100
AcDbEntity
100
AcDbBlockBegin
2
*PAPER_SPACE
0
ENDBLK
5
1D
100
AcDbEntity
100
AcDbBlockEnd
0
ENDSEC
0
SECTION
2
ENTITIES
0
LWPOLYLINE
5
100
100
AcDbEntity
8
0
100
AcDbPolyline
90
9
70
1
43
0.0
10
70.710678118654755
20
70.710678118654727
10
99.999999999999972
20
-2.6645352591003757e-14
10
70.710678118654698
20
-70.710678118654769
10
32.583700461793484
20
-86.503389356422659
10
-5.3290705182007514e-14
20
-100.00000000000001
10
-70.710678118654755
20
-70.710678118654727
10
-99.999999999999972
20
4.4408920985006262e-14
10
-70.710678118654727
20
70.710678118654769
10
3.5527136788005009e-14
20
100.00000000000001
0
LWPOLYLINE
5
101
100
AcDbEntity
8
0
100
AcDbPolyline
90
10
70
1
43
0.0
10
-84.487281683797931
20
84.487281683798003
10
3.5527136788005009e-14
20
119.48305960526311
10
84.487281683797988
20
84.487281683797946
10
100.83712034743526
20
45.01527943943281
10
103.13322094162579
20
39.472002244365086
10
119.48305960526305
20
-3.5527136788005009e-14
10
84.487281683797946
20
-84.487281683798017
10
-3.5527136788005009e-14
20
-119.48305960526309
10
-84.487281683798017
20
-84.487281683797931
10
-119.48305960526307
20
3.5527136788005009e-14
0
LWPOLYLINE
5
102
100
AcDbEntity
8
0
100
AcDbPolyline
90
8
70
1
43
0.0
10
-88.314116007448831
20
88.314116007448931
10
8.8817841970012523e-14
20
124.8950206067251
10
88.31411600744886
20
88.314116007448874
10
124.895020606725
20
-5.3290705182007514e-14
10
88.31411600744886
20
-88.314116007448888
10
-5.3290705182007514e-14
20
-124.89502060672505
10
-88.314116007448945
20
-88.314116007448831
10
-124.89502060672507
20
3.5527136788005009e-14
0
LWPOLYLINE
5
103
100
AcDbEntity
8
0
100
AcDbPolyline
90
8
70
1
43
0.0
10
-102.09071957259205
20
102.09071957259215
10
1.2434497875801753e-13
20
144.37808021198816
10
102.09071957259214
20
102.09071957259206
10
144.37808021198811
20
-3.5527136788005009e-14
10
102.09071957259205
20
-102.09071957259215
10
-8.8817841970012523e-14
20
-144.37808021198816
10
-102.09071957259214
20
-102.09071957259209
10
-144.37808021198813
20
7.1054273576010019e-14
0
LINE
5
104
100
AcDbEntity
8
0
100
AcDbLine
10
85.355339059327363
20
35.355339059327349
30
0
11
84.207288762232096
21
38.126977656861207
31
0
0
LINE
5
105
100
AcDbEntity
8
0
100
AcDbLine
10
42.243640841898944
20
-101.98517064453056
30
0
11
45.015279439432803
21
-100.83712034743527
31
0
0
LINE
5
106
100
AcDbEntity
8
0
100
AcDbLine
10
53.816998383829862
20
-122.08634959519487
30
0
11
48.273721188762138
21
-124.38245018938542
31
0
0
LINE
5
107
100
AcDbEntity
8
0
100
AcDbLine
10
51.045359786296132
20
123.23439989229013
30
0
11
53.816998383829997
21
122.08634959519486
31
0
0
LINE
5
108
100
AcDbEntity
8
0
100
AcDbLine
10
-48.273721188762273
20
-124.38245018938537
30
0
11
-53.816998383829997
21
-122.08634959519483
31
0
0
LINE
5
109
100
AcDbEntity
8
0
100
AcDbLine
10
-53.816998383829883
20
122.08634959519487
30
0
11
-55.664757448852455
21
121.32098273046469
31
0
0
LINE
5
110
100
AcDbEntity
8
0
100
AcDbLine
10
-55.664757448852455
20
121.32098273046469
30
0
11
-48.776455666280839
21
104.69115114526154
31
0
0
LINE
5
111
100
AcDbEntity
8
0
100
AcDbLine
10
-46.863038504455389
20
100.07175348270509
30
0
11
-39.974736721883772
21
83.441921897501942
31
0
0
LINE
5
112
100
AcDbEntity
8
0
100
AcDbLine
10
-46.425962123739588
20
125.14781705411559
30
0
11
-39.537660341167971
21
108.51798546891246
31
0
0
LINE
5
113
100
AcDbEntity
8
0
100
AcDbLine
10
-37.624243179342521
20
103.89858780635599
30
0
11
-30.735941396770897
21
87.268756221152842
31
0
0
LINE
5
114
100
AcDbEntity
8
0
100
AcDbLine
10
51.045359786296132
20
123.23439989229013
30
0
11
55.664757448852562
21
121.32098273046468
31
0
0
LINE
5
115
100
AcDbEntity
8
0
100
AcDbLine
10
55.664757448852562
20
121.32098273046468
30
0
11
48.776455666280931
21
104.69115114526153
31
0
0
LINE
5
116
100
AcDbEntity
8
0
100
AcDbLine
10
46.863038504455474
20
100.07175348270506
30
0
11
39.974736721883836
21
83.441921897501913
31
0
0
LINE
5
117
100
AcDbEntity
8
0
100
AcDbLine
10
39.974736721883836
20
83.441921897501913
30
0
11
30.735941396770976
21
87.268756221152842
31
0
0
LINE
5
118
100
AcDbEntity
8
0
100
AcDbLine
10
30.735941396770976
20
87.268756221152842
30
0
11
37.624243179342599
21
103.89858780635598
31
0
0
LINE
5
119
100
AcDbEntity
8
0
100
AcDbLine
10
39.537660341168063
20
108.51798546891244
30
0
11
46.42596212373968
21
125.14781705411558
31
0
0
LINE
5
120
100
AcDbEntity
8
0
100
AcDbLine
10
123.23439989229013
20
51.045359786296018
30
0
11
121.32098273046466
21
55.664757448852448
31
0
0
LINE
5
121
100
AcDbEntity
8
0
100
AcDbLine
10
121.32098273046466
20
55.664757448852448
30
0
11
125.14781705411558
21
46.425962123739581
31
0
0
LINE
5
122
100
AcDbEntity
8
0
100
AcDbLine
10
125.14781705411558
20
46.425962123739581
30
0
11
108.51798546891239
21
39.537660341167964
31
0
0
LINE
5
123
100
AcDbEntity
8
0
100
AcDbLine
10
103.89858780635598
20
37.624243179342514
30
0
11
87.268756221152799
21
30.735941396770912
31
0
0
LINE
5
124
100
AcDbEntity
8
0
100
AcDbLine
10
121.32098273046466
20
55.664757448852448
30
0
11
104.69115114526149
21
48.776455666280832
31
0
0
LINE
5
125
100
AcDbEntity
8
0
100
AcDbLine
10
100.07175348270508
20
46.863038504455396
30
0
11
83.441921897501899
21
39.974736721883779
31
0
0
LINE
5
126
100
AcDbEntity
8
0
100
AcDbLine
10
42.243640841898944
20
-101.98517064453056
30
0
11
46.863038504455389
21
-100.07175348270511
31
0
0
LINE
5
127
100
AcDbEntity
8
0
100
AcDbLine
10
46.863038504455389
20
-100.07175348270511
30
0
11
39.974736721883765
21
-83.441921897501942
31
0
0
LINE
5
128
100
AcDbEntity
8
0
100
AcDbLine
10
39.974736721883765
20
-83.441921897501942
30
0
11
30.735941396770905
21
-87.268756221152856
31
0
0
LINE
5
129
100
AcDbEntity
8
0
100
AcDbLine
10
30.735941396770905
20
-87.268756221152856
30
0
11
37.624243179342507
21
-103.89858780635601
31
0
0
LINE
5
130
100
AcDbEntity
8
0
100
AcDbLine
10
48.776455666280832
20
-104.69115114526153
30
0
11
55.664757448852441
21
-121.32098273046469
31
0
0
LINE
5
131
100
AcDbEntity
8
0
100
AcDbLine
10
39.53766034116795
20
-108.51798546891243
30
0
11
46.425962123739559
21
-125.14781705411559
31
0
0
LINE
5
132
100
AcDbEntity
8
0
100
AcDbLine
10
-35.355339059327406
20
-85.355339059327378
30
0
11
-30.735941396770968
21
-87.268756221152842
31
0
0
LINE
5
133
100
AcDbEntity
8
0
100
AcDbLine
10
-46.425962123739666
20
-125.14781705411558
30
0
11
-55.664757448852534
21
-121.32098273046468
31
0
0
LINE
5
134
100
AcDbEntity
8
0
100
AcDbLine
10
-55.664757448852534
20
-121.32098273046468
30
0
11
-48.776455666280896
21
-104.69115114526149
31
0
0
LINE
5
135
100
AcDbEntity
8
0
100
AcDbLine
10
-46.863038504455439
20
-100.07175348270506
30
0
11
-39.974736721883815
21
-83.441921897501913
31
0
0
LINE
5
136
100
AcDbEntity
8
0
100
AcDbLine
10
-30.735941396770968
20
-87.268756221152842
30
0
11
-37.624243179342585
21
-103.89858780635595
31
0
0
LINE
5
137
100
AcDbEntity
8
0
100
AcDbLine
10
-39.537660341168035
20
-108.51798546891239
30
0
11
-46.425962123739666
21
-125.14781705411558
31
0
0
LINE
5
138
100
AcDbEntity
8
0
100
AcDbLine
10
-106.60456830708699
20
-44.157058003724387
30
0
11
-104.69115114526156
21
-48.776455666280825
31
0
0
LINE
5
139
100
AcDbEntity
8
0
100
AcDbLine
10
-100.07175348270509
20
-46.863038504455368
30
0
11
-83.441921897501913
21
-39.974736721883758
31
0
0
LINE
5
140
100
AcDbEntity
8
0
100
AcDbLine
10
-83.441921897501913
20
-39.974736721883758
30
0
11
-87.268756221152813
21
-30.735941396770883
31
0
0
LINE
5
141
100
AcDbEntity
8
0
100
AcDbLine
10
-125.14781705411559
20
-46.425962123739552
30
0
11
-121.32098273046469
21
-55.66475744885242
31
0
0
LINE
5
142
100
AcDbEntity
8
0
100
AcDbLine
10
-121.32098273046469
20
-55.66475744885242
30
0
11
-104.69115114526156
21
-48.776455666280825
31
0
0
LINE
5
143
100
AcDbEntity
8
0
100
AcDbLine
10
-87.268756221152813
20
-30.735941396770883
30
0
11
-103.89858780635599
21
-37.6242431793425
31
0
0
LINE
5
144
100
AcDbEntity
8
0
100
AcDbLine
10
-108.51798546891246
20
-39.53766034116795
30
0
11
-125.14781705411559
21
-46.425962123739552
31
0
0
ENDSEC
0
SECTION
2
OBJECTS
0
DICTIONARY
5
C
100
AcDbDictionary
3
ACAD_GROUP
350
D
3
ACAD_MLINESTYLE
350
17
0
DICTIONARY
5
D
100
AcDbDictionary
0
DICTIONARY
5
1A
330
C
100
AcDbDictionary
0
DICTIONARY
5
17
100
AcDbDictionary
0
ENDSEC
0
EOF
