  0
SECTION
  2
HEADER
  9
$ACADVER
  1
AC1014
  9
$HANDSEED
  5
FFFF
  9
$MEASUREMENT
 70
     1
  0
ENDSEC
  0
SECTION
  2
TABLES
  0
TABLE
  2
VPORT
  5
8
330
0
100
AcDbSymbolTable
 70
     4
  0
VPORT
  5
2E
330
8
100
AcDbSymbolTableRecord
100
AcDbViewportTableRecord
  2
*ACTIVE
 70
     0
 10
0.0
 20
0.0
 11
1.0
 21
1.0
 12
210.0
 22
148.5
 13
0.0
 23
0.0
 14
10.0
 24
10.0
 15
10.0
 25
10.0
 16
0.0
 26
0.0
 36
1.0
 17
0.0
 27
0.0
 37
0.0
 40
341.0
 41
1.24
 42
50.0
 43
0.0
 44
0.0
 50
0.0
 51
0.0
 71
     0
 72
   100
 73
     1
 74
     3
 75
     0
 76
     0
 77
     0
 78
     0
  0
ENDTAB
  0
TABLE
  2
LTYPE
  5
5
330
0
100
AcDbSymbolTable
 70
     1
  0
LTYPE
  5
14
330
5
100
AcDbSymbolTableRecord
100
AcDbLinetypeTableRecord
  2
BYBLOCK
 70
     0
  3

 72
    65
 73
     0
 40
0.0
  0
LTYPE
  5
15
330
5
100
AcDbSymbolTableRecord
100
AcDbLinetypeTableRecord
  2
BYLAYER
 70
     0
  3

 72
    65
 73
     0
 40
0.0
  0
LTYPE
  5
16
330
5
100
AcDbSymbolTableRecord
100
AcDbLinetypeTableRecord
  2
CONTINUOUS
 70
     0
  3
Solid line
 72
    65
 73
     0
 40
0.0
  0
ENDTAB
  0
TABLE
  2
LAYER
  5
2
100
AcDbSymbolTable
 70
2
  0
LAYER
  5
50
100
AcDbSymbolTableRecord
100
AcDbLayerTableRecord
  2
0
 70
0
  6
CONTINUOUS
  0
LAYER
  5
51
100
AcDbSymbolTableRecord
100
AcDbLayerTableRecord
  2
Layer_1
 70
0
  6
CONTINUOUS
  0
ENDTAB
  0
TABLE
  2
STYLE
  5
3
330
0
100
AcDbSymbolTable
 70
     1
  0
STYLE
  5
11
330
3
100
AcDbSymbolTableRecord
100
AcDbTextStyleTableRecord
  2
STANDARD
 70
     0
 40
0.0
 41
1.0
 50
0.0
 71
     0
 42
2.5
  3
txt
  4

  0
ENDTAB
  0
TABLE
  2
VIEW
  5
6
330
0
100
AcDbSymbolTable
 70
     0
  0
ENDTAB
  0
TABLE
  2
UCS
  5
7
330
0
100
AcDbSymbolTable
 70
     0
  0
ENDTAB
  0
TABLE
  2
APPID
  5
9
330
0
100
AcDbSymbolTable
 70
     2
  0
APPID
  5
12
330
9
100
AcDbSymbolTableRecord
100
AcDbRegAppTableRecord
  2
ACAD
 70
     0
  0
ENDTAB
  0
TABLE
  2
DIMSTYLE
  5
A
330
0
100
AcDbSymbolTable
 70
     1
  0
DIMSTYLE
105
27
330
A
100
AcDbSymbolTableRecord
100
AcDbDimStyleTableRecord
  2
ISO-25
 70
     0
  3

  4

  5

  6

  7

 40
1.0
 41
2.5
 42
0.625
 43
3.75
 44
1.25
 45
0.0
 46
0.0
 47
0.0
 48
0.0
140
2.5
141
2.5
142
0.0
143
0.03937007874016
144
1.0
145
0.0
146
1.0
147
0.625
 71
     0
 72
     0
 73
     0
 74
     0
 75
     0
 76
     0
 77
     1
 78
     8
170
     0
171
     3
172
     1
173
     0
174
     0
175
     0
176
     0
177
     0
178
     0
270
     2
271
     2
272
     2
273
     2
274
     3
340
11
275
     0
280
     0
281
     0
282
     0
283
     0
284
     8
285
     0
286
     0
287
     3
288
     0
  0
ENDTAB
  0
TABLE
  2
BLOCK_RECORD
  5
1
330
0
100
AcDbSymbolTable
 70
     1
  0
BLOCK_RECORD
  5
1F
330
1
100
AcDbSymbolTableRecord
100
AcDbBlockTableRecord
  2
*MODEL_SPACE
  0
BLOCK_RECORD
  5
1B
330
1
100
AcDbSymbolTableRecord
100
AcDbBlockTableRecord
  2
*PAPER_SPACE
  0
ENDTAB
  0
ENDSEC
  0
SECTION
  2
BLOCKS
  0
BLOCK
  5
20
330
1F
100
AcDbEntity
  8
0
100
AcDbBlockBegin
  2
*MODEL_SPACE
 70
     0
 10
0.0
 20
0.0
 30
0.0
  3
*MODEL_SPACE
  1

  0
ENDBLK
  5
21
330
1F
100
AcDbEntity
  8
0
100
AcDbBlockEnd
  0
BLOCK
  5
1C
330
1B
100
AcDbEntity
 67
     1
  8
0
100
AcDbBlockBegin
  2
*PAPER_SPACE
  1

  0
ENDBLK
  5
1D
330
1B
100
AcDbEntity
 67
     1
  8
0
100
AcDbBlockEnd
  0
ENDSEC
  0
SECTION
  2
ENTITIES
  0
LWPOLYLINE
  5
100
100
AcDbEntity
  8
Layer_1
 62
7
100
AcDbPolyline
 90
4
 70
1
 10
9.018244
 20
444.417250
 30
0.0
 10
359.018244
 20
444.417250
 30
0.0
 10
359.018244
 20
94.417250
 30
0.0
 10
9.018244
 20
94.417250
 30
0.0
  0
SPLINE
  5
101
100
AcDbEntity
  8
Layer_1
 62
7
100
AcDbSpline
 70
8
 71
3
 72
8
 73
4
 74
0
 40
0
 40
0
 40
0
 40
0
 40
1
 40
1
 40
1
 40
1
 10
537.909840
 20
148.180450
 30
0.0
 10
540.924967
 20
150.007155
 30
0.0
 10
544.685617
 20
150.086513
 30
0.0
 10
547.775188
 20
148.388631
 30
0.0
  0
SPLINE
  5
102
100
AcDbEntity
  8
Layer_1
 62
7
100
AcDbSpline
 70
8
 71
3
 72
8
 73
4
 74
0
 40
0
 40
0
 40
0
 40
0
 40
1
 40
1
 40
1
 40
1
 10
547.775188
 20
148.388631
 30
0.0
 10
550.864759
 20
146.690749
 30
0.0
 10
552.813873
 20
143.473576
 30
0.0
 10
552.888318
 20
139.948989
 30
0.0
  0
SPLINE
  5
103
100
AcDbEntity
  8
Layer_1
 62
7
100
AcDbSpline
 70
8
 71
3
 72
8
 73
4
 74
0
 40
0
 40
0
 40
0
 40
0
 40
1
 40
1
 40
1
 40
1
 10
552.888318
 20
139.948989
 30
0.0
 10
552.962762
 20
136.424403
 30
0.0
 10
551.151226
 20
133.127871
 30
0.0
 10
548.136099
 20
131.301166
 30
0.0
  0
SPLINE
  5
104
100
AcDbEntity
  8
Layer_1
 62
7
100
AcDbSpline
 70
8
 71
3
 72
8
 73
4
 74
0
 40
0
 40
0
 40
0
 40
0
 40
1
 40
1
 40
1
 40
1
 10
548.136099
 20
131.301166
 30
0.0
 10
545.120972
 20
129.474461
 30
0.0
 10
541.360323
 20
129.395103
 30
0.0
 10
538.270751
 20
131.092985
 30
0.0
  0
SPLINE
  5
105
100
AcDbEntity
  8
Layer_1
 62
7
100
AcDbSpline
 70
8
 71
3
 72
8
 73
4
 74
0
 40
0
 40
0
 40
0
 40
0
 40
1
 40
1
 40
1
 40
1
 10
538.270751
 20
131.092985
 30
0.0
 10
535.181180
 20
132.790866
 30
0.0
 10
533.232066
 20
136.008040
 30
0.0
 10
533.157622
 20
139.532626
 30
0.0
  0
SPLINE
  5
106
100
AcDbEntity
  8
Layer_1
 62
7
100
AcDbSpline
 70
8
 71
3
 72
8
 73
4
 74
0
 40
0
 40
0
 40
0
 40
0
 40
1
 40
1
 40
1
 40
1
 10
533.157622
 20
139.532626
 30
0.0
 10
533.083178
 20
143.057213
 30
0.0
 10
534.894713
 20
146.353745
 30
0.0
 10
537.909840
 20
148.180450
 30
0.0
  0
LWPOLYLINE
  5
107
100
AcDbEntity
  8
Layer_1
 62
7
100
AcDbPolyline
 90
300
 70
1
 10
491.877514
 20
216.449419
 30
0.0
 10
490.704103
 20
220.275895
 30
0.0
 10
490.000961
 20
224.383835
 30
0.0
 10
492.548523
 20
225.927272
 30
0.0
 10
495.864064
 20
223.402044
 30
0.0
 10
498.712395
 20
220.590306
 30
0.0
 10
501.894731
 20
222.254653
 30
0.0
 10
501.210145
 20
226.198021
 30
0.0
 10
501.027405
 20
230.361680
 30
0.0
 10
503.748329
 20
231.573641
 30
0.0
 10
506.721242
 20
228.652789
 30
0.0
 10
509.194716
 20
225.506233
 30
0.0
 10
512.560558
 20
226.758592
 30
0.0
 10
512.375604
 20
230.756664
 30
0.0
 10
512.716138
 20
234.910385
 30
0.0
 10
515.567510
 20
235.771755
 30
0.0
 10
518.150909
 20
232.501337
 30
0.0
 10
520.210545
 20
229.069599
 30
0.0
 10
523.706823
 20
229.890226
 30
0.0
 10
524.024403
 20
233.879941
 30
0.0
 10
524.882859
 20
237.958218
 30
0.0
 10
527.819705
 20
238.455426
 30
0.0
 10
529.972872
 20
234.887015
 30
0.0
 10
531.586140
 20
231.224196
 30
0.0
 10
535.157700
 20
231.600149
 30
0.0
 10
535.972820
 20
235.518577
 30
0.0
 10
537.335650
 20
239.457099
 30
0.0
 10
540.311660
 20
239.582294
 30
0.0
 10
542.000600
 20
235.772159
 30
0.0
 10
543.142080
 20
231.936035
 30
0.0
 10
546.732620
 20
231.861385
 30
0.0
 10
548.032410
 20
235.646750
 30
0.0
 10
549.878110
 20
239.383390
 30
0.0
 10
552.846360
 20
239.134605
 30
0.0
 10
554.044450
 20
235.142839
 30
0.0
 10
554.696150
 20
231.193902
 30
0.0
 10
558.249020
 20
230.669819
 30
0.0
 10
560.013000
 20
234.262414
 30
0.0
 10
562.312470
 20
237.738255
 30
0.0
 10
565.226140
 20
237.119407
 30
0.0
 10
565.914500
 20
233.008962
 30
0.0
 10
566.066120
 20
229.009496
 30
0.0
 10
569.525310
 20
228.044250
 30
0.0
 10
571.725640
 20
231.387421
 30
0.0
 10
574.442620
 20
234.547644
 30
0.0
 10
577.255770
 20
233.568490
 30
0.0
 10
577.423520
 20
229.404203
 30
0.0
 10
577.072700
 20
225.417275
 30
0.0
 10
580.383630
 20
224.026084
 30
0.0
 10
582.985640
 20
227.067111
 30
0.0
 10
586.077280
 20
229.861869
 30
0.0
 10
588.745520
 20
228.537861
 30
0.0
 10
588.390030
 20
224.385389
 30
0.0
 10
587.542290
 20
220.473876
 30
0.0
 10
590.652750
 20
218.678691
 30
0.0
 10
593.615380
 20
221.369609
 30
0.0
 10
597.032930
 20
223.754835
 30
0.0
 10
599.514200
 20
222.106840
 30
0.0
 10
598.641080
 20
218.031682
 30
0.0
 10
597.309780
 20
214.257281
 30
0.0
 10
600.170730
 20
212.086403
 30
0.0
 10
603.447270
 20
214.384775
 30
0.0
 10
607.136820
 20
216.322852
 30
0.0
 10
609.391980
 20
214.376870
 30
0.0
 10
608.015000
 20
210.443278
 30
0.0
 10
606.221140
 20
206.865496
 30
0.0
 10
608.787460
 20
204.353176
 30
0.0
 10
612.326230
 20
206.222756
 30
0.0
 10
616.229590
 20
207.683116
 30
0.0
 10
618.223090
 20
205.469836
 30
0.0
 10
616.363950
 20
201.739856
 30
0.0
 10
614.135820
 20
198.415136
 30
0.0
 10
616.367040
 20
195.600976
 30
0.0
 10
620.112230
 20
197.012276
 30
0.0
 10
624.167860
 20
197.971896
 30
0.0
 10
625.868230
 20
195.526216
 30
0.0
 10
623.556270
 20
192.058676
 30
0.0
 10
620.929010
 20
189.039446
 30
0.0
 10
622.789940
 20
185.967826
 30
0.0
 10
626.682490
 20
186.898596
 30
0.0
 10
630.826410
 20
187.342336
 30
0.0
 10
632.206870
 20
184.702836
 30
0.0
 10
629.478540
 20
181.552416
 30
0.0
 10
626.493580
 20
178.886286
 30
0.0
 10
627.954870
 20
175.605656
 30
0.0
 10
631.933390
 20
176.041216
 30
0.0
 10
636.100260
 20
175.962116
 30
0.0
 10
637.139030
 20
173.170416
 30
0.0
 10
634.037350
 20
170.386796
 30
0.0
 10
630.741770
 20
168.115806
 30
0.0
 10
631.780370
 20
164.677906
 30
0.0
 10
635.782120
 20
164.611406
 30
0.0
 10
639.906230
 20
164.010636
 30
0.0
 10
640.586920
 20
161.110766
 30
0.0
 10
637.160810
 20
158.737856
 30
0.0
 10
633.606580
 20
156.897826
 30
0.0
 10
634.206120
 20
153.356876
 30
0.0
 10
638.167980
 20
152.789326
 30
0.0
 10
642.184280
 20
151.676396
 30
0.0
 10
642.496160
 20
148.714076
 30
0.0
 10
638.799660
 20
146.789296
 30
0.0
 10
635.042840
 20
145.409246
 30
0.0
 10
635.193850
 20
141.821086
 30
0.0
 10
639.053350
 20
140.761446
 30
0.0
 10
642.898520
 20
139.153926
 30
0.0
 10
642.836620
 20
136.175896
 30
0.0
 10
638.928030
 20
134.729576
 30
0.0
 10
635.027860
 20
133.831286
 30
0.0
 10
634.727970
 20
130.252496
 30
0.0
 10
638.424240
 20
128.717486
 30
0.0
 10
642.037620
 20
126.640706
 30
0.0
 10
641.603000
 20
123.693906
 30
0.0
 10
637.543940
 20
122.748896
 30
0.0
 10
633.561930
 20
122.346516
 30
0.0
 10
632.815870
 20
118.833536
 30
0.0
 10
636.290620
 20
116.847366
 30
0.0
 10
639.615230
 20
114.334086
 30
0.0
 10
638.814710
 20
111.465006
 30
0.0
 10
634.669200
 20
111.036186
 30
0.0
 10
630.668160
 20
111.136086
 30
0.0
 10
629.487690
 20
107.744326
 30
0.0
 10
632.686120
 20
105.338326
 30
0.0
 10
635.669520
 20
102.428186
 30
0.0
 10
634.515720
 20
99.682066
 30
0.0
 10
630.349160
 20
99.776166
 30
0.0
 10
626.392170
 20
100.376716
 30
0.0
 10
624.795900
 20
97.159656
 30
0.0
 10
627.667570
 20
94.371756
 30
0.0
 10
630.262710
 20
91.110646
 30
0.0
 10
628.773840
 20
88.530806
 30
0.0
 10
624.651920
 20
89.146406
 30
0.0
 10
620.801390
 20
90.238176
 30
0.0
 10
618.814520
 20
87.246556
 30
0.0
 10
621.314120
 20
84.120736
 30
0.0
 10
623.480080
 20
80.560076
 30
0.0
 10
621.679610
 20
78.187186
 30
0.0
 10
617.667330
 20
79.314546
 30
0.0
 10
613.983980
 20
80.880316
 30
0.0
 10
611.637820
 20
78.161316
 30
0.0
 10
613.725950
 20
74.746846
 30
0.0
 10
615.428580
 20
70.942806
 30
0.0
 10
613.344900
 20
68.814296
 30
0.0
 10
609.505560
 20
70.435656
 30
0.0
 10
606.047480
 20
72.450716
 30
0.0
 10
603.379040
 20
70.047226
 30
0.0
 10
605.022780
 20
66.397976
 30
0.0
 10
606.235230
 20
62.410556
 30
0.0
 10
603.901200
 20
60.559986
 30
0.0
 10
600.295320
 20
62.649746
 30
0.0
 10
597.117060
 20
65.082336
 30
0.0
 10
594.168420
 20
63.032246
 30
0.0
 10
595.341840
 20
59.205766
 30
0.0
 10
596.044980
 20
55.097836
 30
0.0
 10
593.497420
 20
53.554396
 30
0.0
 10
590.181870
 20
56.079626
 30
0.0
 10
587.333540
 20
58.891356
 30
0.0
 10
584.151210
 20
57.227016
 30
0.0
 10
584.835790
 20
53.283646
 30
0.0
 10
585.018530
 20
49.119986
 30
0.0
 10
582.297610
 20
47.908026
 30
0.0
 10
579.324700
 20
50.828876
 30
0.0
 10
576.851220
 20
53.975436
 30
0.0
 10
573.485380
 20
52.723076
 30
0.0
 10
573.670340
 20
48.725006
 30
0.0
 10
573.329800
 20
44.571286
 30
0.0
 10
570.478430
 20
43.709916
 30
0.0
 10
567.895030
 20
46.980326
 30
0.0
 10
565.835390
 20
50.412066
 30
0.0
 10
562.339120
 20
49.591436
 30
0.0
 10
562.021540
 20
45.601726
 30
0.0
 10
561.163080
 20
41.523446
 30
0.0
 10
558.226230
 20
41.026246
 30
0.0
 10
556.073070
 20
44.594656
 30
0.0
 10
554.459800
 20
48.257466
 30
0.0
 10
550.888230
 20
47.881516
 30
0.0
 10
550.073110
 20
43.963086
 30
0.0
 10
548.710290
 20
40.024566
 30
0.0
 10
545.734280
 20
39.899376
 30
0.0
 10
544.045340
 20
43.709506
 30
0.0
 10
542.903850
 20
47.545636
 30
0.0
 10
539.313320
 20
47.620236
 30
0.0
 10
538.013530
 20
43.834866
 30
0.0
 10
536.167830
 20
40.098226
 30
0.0
 10
533.199577
 20
40.347016
 30
0.0
 10
532.001480
 20
44.338786
 30
0.0
 10
531.349786
 20
48.287716
 30
0.0
 10
527.796920
 20
48.811806
 30
0.0
 10
526.032936
 20
45.219206
 30
0.0
 10
523.733470
 20
41.743366
 30
0.0
 10
520.819795
 20
42.362216
 30
0.0
 10
520.131443
 20
46.472656
 30
0.0
 10
519.979816
 20
50.472126
 30
0.0
 10
516.520631
 20
51.437366
 30
0.0
 10
514.320295
 20
48.094196
 30
0.0
 10
511.603311
 20
44.933976
 30
0.0
 10
508.790171
 20
45.913126
 30
0.0
 10
508.622414
 20
50.077416
 30
0.0
 10
508.973243
 20
54.064346
 30
0.0
 10
505.662306
 20
55.455536
 30
0.0
 10
503.060304
 20
52.414506
 30
0.0
 10
499.968662
 20
49.619746
 30
0.0
 10
497.300422
 20
50.943756
 30
0.0
 10
497.655903
 20
55.096226
 30
0.0
 10
498.503654
 20
59.007736
 30
0.0
 10
495.393179
 20
60.802926
 30
0.0
 10
492.430549
 20
58.112006
 30
0.0
 10
489.013012
 20
55.726786
 30
0.0
 10
486.531741
 20
57.374776
 30
0.0
 10
487.404854
 20
61.449936
 30
0.0
 10
488.736162
 20
65.224336
 30
0.0
 10
485.875208
 20
67.395216
 30
0.0
 10
482.598666
 20
65.096846
 30
0.0
 10
478.909119
 20
63.158766
 30
0.0
 10
476.653957
 20
65.104746
 30
0.0
 10
478.030938
 20
69.038346
 30
0.0
 10
479.824804
 20
72.616116
 30
0.0
 10
477.258481
 20
75.128446
 30
0.0
 10
473.719711
 20
73.258856
 30
0.0
 10
469.816348
 20
71.798496
 30
0.0
 10
467.822853
 20
74.011776
 30
0.0
 10
469.681991
 20
77.741756
 30
0.0
 10
471.910120
 20
81.066476
 30
0.0
 10
469.678895
 20
83.880636
 30
0.0
 10
465.933707
 20
82.469336
 30
0.0
 10
461.878083
 20
81.509716
 30
0.0
 10
460.177699
 20
83.955406
 30
0.0
 10
462.489668
 20
87.422936
 30
0.0
 10
465.116929
 20
90.442176
 30
0.0
 10
463.255999
 20
93.513796
 30
0.0
 10
459.363450
 20
92.583016
 30
0.0
 10
455.219527
 20
92.139276
 30
0.0
 10
453.839065
 20
94.778776
 30
0.0
 10
456.567399
 20
97.929206
 30
0.0
 10
459.552357
 20
100.595336
 30
0.0
 10
458.091066
 20
103.875966
 30
0.0
 10
454.112553
 20
103.440406
 30
0.0
 10
449.945677
 20
103.519506
 30
0.0
 10
448.906913
 20
106.311216
 30
0.0
 10
452.008583
 20
109.094836
 30
0.0
 10
455.304169
 20
111.365816
 30
0.0
 10
454.265568
 20
114.803716
 30
0.0
 10
450.263818
 20
114.870216
 30
0.0
 10
446.139706
 20
115.470986
 30
0.0
 10
445.459024
 20
118.370866
 30
0.0
 10
448.885129
 20
120.743776
 30
0.0
 10
452.439353
 20
122.583806
 30
0.0
 10
451.839819
 20
126.124756
 30
0.0
 10
447.877954
 20
126.692306
 30
0.0
 10
443.861656
 20
127.805226
 30
0.0
 10
443.549784
 20
130.767546
 30
0.0
 10
447.246282
 20
132.692326
 30
0.0
 10
451.003098
 20
134.072376
 30
0.0
 10
450.852086
 20
137.660536
 30
0.0
 10
446.992586
 20
138.720176
 30
0.0
 10
443.147423
 20
140.327706
 30
0.0
 10
443.209286
 20
143.305736
 30
0.0
 10
447.117880
 20
144.752046
 30
0.0
 10
451.018051
 20
145.650336
 30
0.0
 10
451.317939
 20
149.229136
 30
0.0
 10
447.621670
 20
150.764146
 30
0.0
 10
444.008293
 20
152.840916
 30
0.0
 10
444.442912
 20
155.787716
 30
0.0
 10
448.501969
 20
156.732726
 30
0.0
 10
452.483976
 20
157.135116
 30
0.0
 10
453.230039
 20
160.648096
 30
0.0
 10
449.755291
 20
162.634266
 30
0.0
 10
446.430681
 20
165.147536
 30
0.0
 10
447.231203
 20
168.016616
 30
0.0
 10
451.376700
 20
168.445436
 30
0.0
 10
455.377750
 20
168.345536
 30
0.0
 10
456.558215
 20
171.737296
 30
0.0
 10
453.359792
 20
174.143306
 30
0.0
 10
450.376392
 20
177.053446
 30
0.0
 10
451.530186
 20
179.799566
 30
0.0
 10
455.696748
 20
179.705466
 30
0.0
 10
459.653743
 20
179.104916
 30
0.0
 10
461.250007
 20
182.321966
 30
0.0
 10
458.378342
 20
185.109866
 30
0.0
 10
455.783194
 20
188.370976
 30
0.0
 10
457.272062
 20
190.950826
 30
0.0
 10
461.393989
 20
190.335226
 30
0.0
 10
465.244523
 20
189.243456
 30
0.0
 10
467.231392
 20
192.235066
 30
0.0
 10
464.731784
 20
195.360896
 30
0.0
 10
462.565825
 20
198.921556
 30
0.0
 10
464.366299
 20
201.294436
 30
0.0
 10
468.378579
 20
200.167076
 30
0.0
 10
472.061929
 20
198.601316
 30
0.0
 10
474.408081
 20
201.320306
 30
0.0
 10
472.319963
 20
204.734786
 30
0.0
 10
470.617328
 20
208.538816
 30
0.0
 10
472.701005
 20
210.667331
 30
0.0
 10
476.540351
 20
209.045977
 30
0.0
 10
479.998432
 20
207.030916
 30
0.0
 10
482.666871
 20
209.434402
 30
0.0
 10
481.023130
 20
213.083650
 30
0.0
 10
479.810684
 20
217.071079
 30
0.0
 10
482.144707
 20
218.921643
 30
0.0
 10
485.750590
 20
216.831882
 30
0.0
 10
488.928847
 20
214.399295
 30
0.0
  0
LWPOLYLINE
  5
108
100
AcDbEntity
  8
Layer_1
 62
7
100
AcDbPolyline
 90
1
 70
1
 10
537.909840
 20
148.180450
 30
0.0
  0
SPLINE
  5
109
100
AcDbEntity
  8
Layer_1
 62
7
100
AcDbSpline
 70
8
 71
3
 72
8
 73
4
 74
0
 40
0
 40
0
 40
0
 40
0
 40
1
 40
1
 40
1
 40
1
 10
409.231492
 20
224.732961
 30
0.0
 10
412.458109
 20
226.687796
 30
0.0
 10
416.482540
 20
226.772721
 30
0.0
 10
419.788823
 20
224.955745
 30
0.0
  0
SPLINE
  5
10a
100
AcDbEntity
  8
Layer_1
 62
7
100
AcDbSpline
 70
8
 71
3
 72
8
 73
4
 74
0
 40
0
 40
0
 40
0
 40
0
 40
1
 40
1
 40
1
 40
1
 10
419.788823
 20
224.955745
 30
0.0
 10
423.095105
 20
223.138769
 30
0.0
 10
425.180935
 20
219.695935
 30
0.0
 10
425.260600
 20
215.924124
 30
0.0
  0
SPLINE
  5
10b
100
AcDbEntity
  8
Layer_1
 62
7
100
AcDbSpline
 70
8
 71
3
 72
8
 73
4
 74
0
 40
0
 40
0
 40
0
 40
0
 40
1
 40
1
 40
1
 40
1
 10
425.260600
 20
215.924124
 30
0.0
 10
425.340266
 20
212.152313
 30
0.0
 10
423.401664
 20
208.624554
 30
0.0
 10
420.175048
 20
206.669719
 30
0.0
  0
SPLINE
  5
10c
100
AcDbEntity
  8
Layer_1
 62
7
100
AcDbSpline
 70
8
 71
3
 72
8
 73
4
 74
0
 40
0
 40
0
 40
0
 40
0
 40
1
 40
1
 40
1
 40
1
 10
420.175048
 20
206.669719
 30
0.0
 10
416.948431
 20
204.714884
 30
0.0
 10
412.924000
 20
204.629959
 30
0.0
 10
409.617717
 20
206.446935
 30
0.0
  0
SPLINE
  5
10d
100
AcDbEntity
  8
Layer_1
 62
7
100
AcDbSpline
 70
8
 71
3
 72
8
 73
4
 74
0
 40
0
 40
0
 40
0
 40
0
 40
1
 40
1
 40
1
 40
1
 10
409.617717
 20
206.446935
 30
0.0
 10
406.311435
 20
208.263911
 30
0.0
 10
404.225605
 20
211.706745
 30
0.0
 10
404.145940
 20
215.478556
 30
0.0
  0
SPLINE
  5
10e
100
AcDbEntity
  8
Layer_1
 62
7
100
AcDbSpline
 70
8
 71
3
 72
8
 73
4
 74
0
 40
0
 40
0
 40
0
 40
0
 40
1
 40
1
 40
1
 40
1
 10
404.145940
 20
215.478556
 30
0.0
 10
404.066274
 20
219.250367
 30
0.0
 10
406.004876
 20
222.778126
 30
0.0
 10
409.231492
 20
224.732961
 30
0.0
  0
LWPOLYLINE
  5
10f
100
AcDbEntity
  8
Layer_1
 62
7
100
AcDbPolyline
 90
160
 70
1
 10
394.107527
 20
243.470696
 30
0.0
 10
393.199194
 20
244.695408
 30
0.0
 10
392.281495
 20
246.893812
 30
0.0
 10
391.676956
 20
251.132879
 30
0.0
 10
393.959584
 20
252.515802
 30
0.0
 10
397.437003
 20
250.017259
 30
0.0
 10
398.960674
 20
248.185981
 30
0.0
 10
399.625643
 20
246.813828
 30
0.0
 10
403.696547
 20
248.475902
 30
0.0
 10
403.211119
 20
249.921356
 30
0.0
 10
403.017664
 20
252.295733
 30
0.0
 10
403.752640
 20
256.514118
 30
0.0
 10
406.350910
 20
257.123968
 30
0.0
 10
408.886063
 20
253.673135
 30
0.0
 10
409.769284
 20
251.460651
 30
0.0
 10
409.977694
 20
249.950184
 30
0.0
 10
414.362983
 20
250.272903
 30
0.0
 10
414.347968
 20
251.797609
 30
0.0
 10
414.897703
 20
254.115545
 30
0.0
 10
416.900246
 20
257.900317
 30
0.0
 10
419.559815
 20
257.677399
 30
0.0
 10
420.904556
 20
253.612071
 30
0.0
 10
421.060860
 20
251.234955
 30
0.0
 10
420.792318
 20
249.734013
 30
0.0
 10
425.062723
 20
248.685797
 30
0.0
 10
425.519608
 20
250.140508
 30
0.0
 10
426.758711
 20
252.175107
 30
0.0
 10
429.832805
 20
255.155786
 30
0.0
 10
432.293337
 20
254.121920
 30
0.0
 10
432.316022
 20
249.840035
 30
0.0
 10
431.730120
 20
247.530977
 30
0.0
 10
431.010900
 20
246.186496
 30
0.0
 10
434.748414
 20
243.869949
 30
0.0
 10
435.632460
 20
245.112262
 30
0.0
 10
437.439648
 20
246.664356
 30
0.0
 10
441.284370
 20
248.549181
 30
0.0
 10
443.305014
 20
246.805571
 30
0.0
 10
442.003427
 20
242.726266
 30
0.0
 10
440.732663
 20
240.711297
 30
0.0
 10
439.633182
 20
239.654876
 30
0.0
 10
442.471942
 20
236.296752
 30
0.0
 10
443.696624
 20
237.205070
 30
0.0
 10
445.894988
 20
238.122735
 30
0.0
 10
450.134000
 20
238.727198
 30
0.0
 10
451.516953
 20
236.444520
 30
0.0
 10
449.018504
 20
232.967114
 30
0.0
 10
447.187274
 20
231.443464
 30
0.0
 10
445.815148
 20
230.778514
 30
0.0
 10
447.477285
 20
226.707536
 30
0.0
 10
448.922714
 20
227.192942
 30
0.0
 10
451.297063
 20
227.386352
 30
0.0
 10
455.515420
 20
226.651287
 30
0.0
 10
456.125314
 20
224.052978
 30
0.0
 10
452.674566
 20
221.517867
 30
0.0
 10
450.462121
 20
220.634680
 30
0.0
 10
448.951673
 20
220.426297
 30
0.0
 10
449.274474
 20
216.040957
 30
0.0
 10
450.799165
 20
216.055942
 30
0.0
 10
453.117088
 20
215.506157
 30
0.0
 10
456.901860
 20
213.503520
 30
0.0
 10
456.678997
 20
210.843928
 30
0.0
 10
452.613736
 20
209.499252
 30
0.0
 10
450.236647
 20
209.342993
 30
0.0
 10
448.735716
 20
209.611567
 30
0.0
 10
447.687593
 20
205.341139
 30
0.0
 10
449.142298
 20
204.884221
 30
0.0
 10
451.176900
 20
203.645066
 30
0.0
 10
454.157609
 20
200.570883
 30
0.0
 10
453.123801
 20
198.110345
 30
0.0
 10
448.841960
 20
198.087744
 30
0.0
 10
446.532914
 20
198.673697
 30
0.0
 10
445.188433
 20
199.392951
 30
0.0
 10
442.871983
 20
195.655443
 30
0.0
 10
444.114300
 20
194.771365
 30
0.0
 10
445.666414
 20
192.964127
 30
0.0
 10
447.551294
 20
189.119329
 30
0.0
 10
445.807741
 20
187.098700
 30
0.0
 10
441.728453
 20
188.400379
 30
0.0
 10
439.713479
 20
189.671195
 30
0.0
 10
438.657048
 20
190.770708
 30
0.0
 10
435.299013
 20
187.931984
 30
0.0
 10
436.207346
 20
186.707272
 30
0.0
 10
437.125045
 20
184.508868
 30
0.0
 10
437.729584
 20
180.269801
 30
0.0
 10
435.446956
 20
178.886878
 30
0.0
 10
431.969537
 20
181.385421
 30
0.0
 10
430.445866
 20
183.216699
 30
0.0
 10
429.780897
 20
184.588852
 30
0.0
 10
425.709993
 20
182.926778
 30
0.0
 10
426.195421
 20
181.481324
 30
0.0
 10
426.388876
 20
179.106947
 30
0.0
 10
425.653900
 20
174.888562
 30
0.0
 10
423.055630
 20
174.278712
 30
0.0
 10
420.520477
 20
177.729545
 30
0.0
 10
419.637256
 20
179.942029
 30
0.0
 10
419.428846
 20
181.452496
 30
0.0
 10
415.043557
 20
181.129777
 30
0.0
 10
415.058572
 20
179.605071
 30
0.0
 10
414.508837
 20
177.287135
 30
0.0
 10
412.506294
 20
173.502363
 30
0.0
 10
409.846725
 20
173.725281
 30
0.0
 10
408.501984
 20
177.790609
 30
0.0
 10
408.345680
 20
180.167725
 30
0.0
 10
408.614222
 20
181.668667
 30
0.0
 10
404.343817
 20
182.716883
 30
0.0
 10
403.886932
 20
181.262172
 30
0.0
 10
402.647829
 20
179.227573
 30
0.0
 10
399.573735
 20
176.246894
 30
0.0
 10
397.113203
 20
177.280760
 30
0.0
 10
397.090518
 20
181.562645
 30
0.0
 10
397.676420
 20
183.871703
 30
0.0
 10
398.395640
 20
185.216184
 30
0.0
 10
394.658126
 20
187.532731
 30
0.0
 10
393.774080
 20
186.290418
 30
0.0
 10
391.966892
 20
184.738324
 30
0.0
 10
388.122170
 20
182.853499
 30
0.0
 10
386.101526
 20
184.597109
 30
0.0
 10
387.403113
 20
188.676414
 30
0.0
 10
388.673877
 20
190.691383
 30
0.0
 10
389.773358
 20
191.747804
 30
0.0
 10
386.934598
 20
195.105928
 30
0.0
 10
385.709916
 20
194.197610
 30
0.0
 10
383.511552
 20
193.279945
 30
0.0
 10
379.272540
 20
192.675482
 30
0.0
 10
377.889587
 20
194.958160
 30
0.0
 10
380.388036
 20
198.435566
 30
0.0
 10
382.219266
 20
199.959216
 30
0.0
 10
383.591392
 20
200.624166
 30
0.0
 10
381.929255
 20
204.695144
 30
0.0
 10
380.483826
 20
204.209738
 30
0.0
 10
378.109477
 20
204.016328
 30
0.0
 10
373.891120
 20
204.751393
 30
0.0
 10
373.281226
 20
207.349702
 30
0.0
 10
376.731974
 20
209.884813
 30
0.0
 10
378.944419
 20
210.768000
 30
0.0
 10
380.454867
 20
210.976383
 30
0.0
 10
380.132066
 20
215.361723
 30
0.0
 10
378.607375
 20
215.346738
 30
0.0
 10
376.289452
 20
215.896523
 30
0.0
 10
372.504680
 20
217.899160
 30
0.0
 10
372.727543
 20
220.558752
 30
0.0
 10
376.792804
 20
221.903428
 30
0.0
 10
379.169893
 20
222.059687
 30
0.0
 10
380.670824
 20
221.791113
 30
0.0
 10
381.718947
 20
226.061541
 30
0.0
 10
380.264242
 20
226.518459
 30
0.0
 10
378.229640
 20
227.757614
 30
0.0
 10
375.248931
 20
230.831797
 30
0.0
 10
376.282739
 20
233.292335
 30
0.0
 10
380.564580
 20
233.314936
 30
0.0
 10
382.873626
 20
232.728983
 30
0.0
 10
384.218107
 20
232.009729
 30
0.0
 10
386.534557
 20
235.747237
 30
0.0
 10
385.292240
 20
236.631315
 30
0.0
 10
383.740126
 20
238.438553
 30
0.0
 10
381.855246
 20
242.283351
 30
0.0
 10
383.598799
 20
244.303980
 30
0.0
 10
387.678087
 20
243.002301
 30
0.0
 10
389.693061
 20
241.731485
 30
0.0
 10
390.749492
 20
240.631972
 30
0.0
  0
SPLINE
  5
110
100
AcDbEntity
  8
Layer_1
 62
7
100
AcDbSpline
 70
8
 71
3
 72
8
 73
4
 74
0
 40
0
 40
0
 40
0
 40
0
 40
1
 40
1
 40
1
 40
1
 10
39.171831
 20
59.077249
 30
0.0
 10
39.171831
 20
55.593908
 30
0.0
 10
37.313492
 20
52.375169
 30
0.0
 10
34.296832
 20
50.633499
 30
0.0
  0
SPLINE
  5
111
100
AcDbEntity
  8
Layer_1
 62
7
100
AcDbSpline
 70
8
 71
3
 72
8
 73
4
 74
0
 40
0
 40
0
 40
0
 40
0
 40
1
 40
1
 40
1
 40
1
 10
34.296832
 20
50.633499
 30
0.0
 10
31.280173
 20
48.891829
 30
0.0
 10
27.563495
 20
48.891829
 30
0.0
 10
24.546835
 20
50.633499
 30
0.0
  0
SPLINE
  5
112
100
AcDbEntity
  8
Layer_1
 62
7
100
AcDbSpline
 70
8
 71
3
 72
8
 73
4
 74
0
 40
0
 40
0
 40
0
 40
0
 40
1
 40
1
 40
1
 40
1
 10
24.546835
 20
50.633499
 30
0.0
 10
21.530175
 20
52.375169
 30
0.0
 10
19.671836
 20
55.593908
 30
0.0
 10
19.671836
 20
59.077249
 30
0.0
  0
SPLINE
  5
113
100
AcDbEntity
  8
Layer_1
 62
7
100
AcDbSpline
 70
8
 71
3
 72
8
 73
4
 74
0
 40
0
 40
0
 40
0
 40
0
 40
1
 40
1
 40
1
 40
1
 10
19.671836
 20
59.077249
 30
0.0
 10
19.671836
 20
62.560589
 30
0.0
 10
21.530175
 20
65.779328
 30
0.0
 10
24.546835
 20
67.520998
 30
0.0
  0
SPLINE
  5
114
100
AcDbEntity
  8
Layer_1
 62
7
100
AcDbSpline
 70
8
 71
3
 72
8
 73
4
 74
0
 40
0
 40
0
 40
0
 40
0
 40
1
 40
1
 40
1
 40
1
 10
24.546835
 20
67.520998
 30
0.0
 10
27.563495
 20
69.262668
 30
0.0
 10
31.280173
 20
69.262668
 30
0.0
 10
34.296832
 20
67.520998
 30
0.0
  0
SPLINE
  5
115
100
AcDbEntity
  8
Layer_1
 62
7
100
AcDbSpline
 70
8
 71
3
 72
8
 73
4
 74
0
 40
0
 40
0
 40
0
 40
0
 40
1
 40
1
 40
1
 40
1
 10
34.296832
 20
67.520998
 30
0.0
 10
37.313492
 20
65.779328
 30
0.0
 10
39.171831
 20
62.560589
 30
0.0
 10
39.171831
 20
59.077249
 30
0.0
  0
LWPOLYLINE
  5
116
100
AcDbEntity
  8
Layer_1
 62
7
100
AcDbPolyline
 90
1
 70
1
 10
409.231492
 20
224.732961
 30
0.0
  0
SPLINE
  5
117
100
AcDbEntity
  8
Layer_1
 62
7
100
AcDbSpline
 70
8
 71
3
 72
8
 73
4
 74
0
 40
0
 40
0
 40
0
 40
0
 40
1
 40
1
 40
1
 40
1
 10
28.037207
 20
83.860140
 30
0.0
 10
178.726515
 20
83.860140
 30
0.0
 10
373.566073
 20
74.298655
 30
0.0
 10
446.038838
 20
83.860140
 30
0.0
  0
SPLINE
  5
118
100
AcDbEntity
  8
Layer_1
 62
7
100
AcDbSpline
 70
8
 71
3
 72
8
 73
4
 74
0
 40
0
 40
0
 40
0
 40
0
 40
1
 40
1
 40
1
 40
1
 10
446.038838
 20
83.860140
 30
0.0
 10
458.633688
 20
85.157224
 30
0.0
 10
456.535999
 20
30.705769
 30
0.0
 10
446.038838
 20
34.360141
 30
0.0
  0
SPLINE
  5
119
100
AcDbEntity
  8
Layer_1
 62
7
100
AcDbSpline
 70
8
 71
3
 72
8
 73
4
 74
0
 40
0
 40
0
 40
0
 40
0
 40
1
 40
1
 40
1
 40
1
 10
446.038838
 20
34.360141
 30
0.0
 10
374.396005
 20
46.492121
 30
0.0
 10
179.126390
 20
34.040232
 30
0.0
 10
28.037207
 20
34.360141
 30
0.0
  0
SPLINE
  5
11a
100
AcDbEntity
  8
Layer_1
 62
7
100
AcDbSpline
 70
8
 71
3
 72
8
 73
4
 74
0
 40
0
 40
0
 40
0
 40
0
 40
1
 40
1
 40
1
 40
1
 10
28.037207
 20
34.360141
 30
0.0
 10
-5.137312
 20
37.630975
 30
0.0
 10
-0.172105
 20
82.309100
 30
0.0
 10
28.037207
 20
83.860140
 30
0.0
  0
LWPOLYLINE
  5
11b
100
AcDbEntity
  8
Layer_1
 62
7
100
AcDbPolyline
 90
1
 70
1
 10
39.171831
 20
59.077249
 30
0.0
  0
LWPOLYLINE
  5
11c
100
AcDbEntity
  8
Layer_1
 62
7
100
AcDbPolyline
 90
1
 70
1
 10
28.037207
 20
83.860140
 30
0.0
  0
SPLINE
  5
11d
100
AcDbEntity
  8
Layer_1
 62
7
100
AcDbSpline
 70
8
 71
3
 72
8
 73
4
 74
0
 40
0
 40
0
 40
0
 40
0
 40
1
 40
1
 40
1
 40
1
 10
551.347600
 20
534.466714
 30
0.0
 10
714.884390
 20
495.725354
 30
0.0
 10
793.028040
 20
237.258709
 30
0.0
 10
686.504280
 20
105.733394
 30
0.0
  0
SPLINE
  5
11e
100
AcDbEntity
  8
Layer_1
 62
7
100
AcDbSpline
 70
8
 71
3
 72
8
 73
4
 74
0
 40
0
 40
0
 40
0
 40
0
 40
1
 40
1
 40
1
 40
1
 10
686.504280
 20
105.733394
 30
0.0
 10
686.545280
 20
101.993974
 30
0.0
 10
686.586180
 20
72.324714
 30
0.0
 10
686.627170
 20
65.623804
 30
0.0
  0
LWPOLYLINE
  5
11f
100
AcDbEntity
  8
Layer_1
 62
7
100
AcDbPolyline
 90
4
 70
1
 10
338.592970
 20
62.201334
 30
0.0
 10
438.092970
 20
62.201334
 30
0.0
 10
438.092970
 20
54.701334
 30
0.0
 10
338.592970
 20
54.701334
 30
0.0
  0
SPLINE
  5
120
100
AcDbEntity
  8
Layer_1
 62
7
100
AcDbSpline
 70
8
 71
3
 72
8
 73
4
 74
0
 40
0
 40
0
 40
0
 40
0
 40
1
 40
1
 40
1
 40
1
 10
632.421030
 20
65.456804
 30
0.0
 10
620.746390
 20
61.924844
 30
0.0
 10
616.781050
 20
38.022834
 30
0.0
 10
624.376210
 20
37.982684
 30
0.0
  0
LWPOLYLINE
  5
121
100
AcDbEntity
  8
Layer_1
 62
7
100
AcDbPolyline
 90
2
 70
0
 10
686.627170
 20
65.623804
 30
0.0
 10
632.421030
 20
65.456804
 30
0.0
  0
SPLINE
  5
122
100
AcDbEntity
  8
Layer_1
 62
7
100
AcDbSpline
 70
8
 71
3
 72
8
 73
4
 74
0
 40
0
 40
0
 40
0
 40
0
 40
1
 40
1
 40
1
 40
1
 10
791.456940
 20
65.381944
 30
0.0
 10
833.170240
 20
274.708965
 30
0.0
 10
815.625540
 20
502.889774
 30
0.0
 10
553.464260
 20
587.336904
 30
0.0
  0
SPLINE
  5
123
100
AcDbEntity
  8
Layer_1
 62
7
100
AcDbSpline
 70
8
 71
3
 72
8
 73
4
 74
0
 40
0
 40
0
 40
0
 40
0
 40
1
 40
1
 40
1
 40
1
 10
553.464260
 20
587.336904
 30
0.0
 10
537.490900
 20
589.645214
 30
0.0
 10
528.216920
 20
583.207664
 30
0.0
 10
551.347600
 20
534.466724
 30
0.0
  0
LWPOLYLINE
  5
124
100
AcDbEntity
  8
Layer_1
 62
7
100
AcDbPolyline
 90
3
 70
0
 10
624.376210
 20
37.982684
 30
0.0
 10
791.589240
 20
38.002784
 30
0.0
 10
791.456940
 20
65.381944
 30
0.0
  0
SPLINE
  5
125
100
AcDbEntity
  8
Layer_1
 62
7
100
AcDbSpline
 70
8
 71
3
 72
8
 73
4
 74
0
 40
0
 40
0
 40
0
 40
0
 40
1
 40
1
 40
1
 40
1
 10
570.662180
 20
563.994444
 30
0.0
 10
562.810900
 20
567.199014
 30
0.0
 10
567.985440
 20
552.031254
 30
0.0
 10
570.397600
 20
544.944444
 30
0.0
  0
SPLINE
  5
126
100
AcDbEntity
  8
Layer_1
 62
7
100
AcDbSpline
 70
8
 71
3
 72
8
 73
4
 74
0
 40
0
 40
0
 40
0
 40
0
 40
1
 40
1
 40
1
 40
1
 10
570.397600
 20
544.944444
 30
0.0
 10
712.744410
 20
490.512984
 30
0.0
 10
762.398660
 20
337.013370
 30
0.0
 10
761.955940
 20
264.486114
 30
0.0
  0
LWPOLYLINE
  5
127
100
AcDbEntity
  8
Layer_1
 62
7
100
AcDbPolyline
 90
1
 70
1
 10
551.347600
 20
534.466724
 30
0.0
  0
SPLINE
  5
128
100
AcDbEntity
  8
Layer_1
 62
7
100
AcDbSpline
 70
8
 71
3
 72
8
 73
4
 74
0
 40
0
 40
0
 40
0
 40
0
 40
1
 40
1
 40
1
 40
1
 10
781.005940
 20
264.486114
 30
0.0
 10
778.722540
 20
327.871106
 30
0.0
 10
743.658860
 20
499.747474
 30
0.0
 10
570.662180
 20
563.994444
 30
0.0
  0
LWPOLYLINE
  5
129
100
AcDbEntity
  8
Layer_1
 62
7
100
AcDbPolyline
 90
2
 70
0
 10
761.955940
 20
264.486114
 30
0.0
 10
781.005940
 20
264.486114
 30
0.0
  0
SPLINE
  5
12a
100
AcDbEntity
  8
Layer_1
 62
7
100
AcDbSpline
 70
8
 71
3
 72
8
 73
4
 74
0
 40
0
 40
0
 40
0
 40
0
 40
1
 40
1
 40
1
 40
1
 10
647.525824
 20
386.722126
 30
0.0
 10
647.525824
 20
336.794260
 30
0.0
 10
620.889624
 20
290.659009
 30
0.0
 10
577.650824
 20
265.695076
 30
0.0
  0
SPLINE
  5
12b
100
AcDbEntity
  8
Layer_1
 62
7
100
AcDbSpline
 70
8
 71
3
 72
8
 73
4
 74
0
 40
0
 40
0
 40
0
 40
0
 40
1
 40
1
 40
1
 40
1
 10
577.650824
 20
265.695076
 30
0.0
 10
534.412023
 20
240.731143
 30
0.0
 10
481.139624
 20
240.731143
 30
0.0
 10
437.900824
 20
265.695076
 30
0.0
  0
SPLINE
  5
12c
100
AcDbEntity
  8
Layer_1
 62
7
100
AcDbSpline
 70
8
 71
3
 72
8
 73
4
 74
0
 40
0
 40
0
 40
0
 40
0
 40
1
 40
1
 40
1
 40
1
 10
437.900824
 20
265.695076
 30
0.0
 10
394.662023
 20
290.659009
 30
0.0
 10
368.025824
 20
336.794260
 30
0.0
 10
368.025824
 20
386.722126
 30
0.0
  0
SPLINE
  5
12d
100
AcDbEntity
  8
Layer_1
 62
7
100
AcDbSpline
 70
8
 71
3
 72
8
 73
4
 74
0
 40
0
 40
0
 40
0
 40
0
 40
1
 40
1
 40
1
 40
1
 10
368.025824
 20
386.722126
 30
0.0
 10
368.025824
 20
436.649992
 30
0.0
 10
394.662023
 20
482.785243
 30
0.0
 10
437.900824
 20
507.749176
 30
0.0
  0
SPLINE
  5
12e
100
AcDbEntity
  8
Layer_1
 62
7
100
AcDbSpline
 70
8
 71
3
 72
8
 73
4
 74
0
 40
0
 40
0
 40
0
 40
0
 40
1
 40
1
 40
1
 40
1
 10
437.900824
 20
507.749176
 30
0.0
 10
481.139624
 20
532.713109
 30
0.0
 10
534.412023
 20
532.713109
 30
0.0
 10
577.650824
 20
507.749176
 30
0.0
  0
SPLINE
  5
12f
100
AcDbEntity
  8
Layer_1
 62
7
100
AcDbSpline
 70
8
 71
3
 72
8
 73
4
 74
0
 40
0
 40
0
 40
0
 40
0
 40
1
 40
1
 40
1
 40
1
 10
577.650824
 20
507.749176
 30
0.0
 10
620.889624
 20
482.785243
 30
0.0
 10
647.525824
 20
436.649992
 30
0.0
 10
647.525824
 20
386.722126
 30
0.0
  0
LWPOLYLINE
  5
130
100
AcDbEntity
  8
Layer_1
 62
7
100
AcDbPolyline
 90
1
 70
1
 10
570.662180
 20
563.994444
 30
0.0
  0
SPLINE
  5
131
100
AcDbEntity
  8
Layer_1
 62
7
100
AcDbSpline
 70
8
 71
3
 72
8
 73
4
 74
0
 40
0
 40
0
 40
0
 40
0
 40
1
 40
1
 40
1
 40
1
 10
502.662702
 20
395.161773
 30
0.0
 10
505.677829
 20
396.988478
 30
0.0
 10
509.438479
 20
397.067836
 30
0.0
 10
512.528050
 20
395.369954
 30
0.0
  0
SPLINE
  5
132
100
AcDbEntity
  8
Layer_1
 62
7
100
AcDbSpline
 70
8
 71
3
 72
8
 73
4
 74
0
 40
0
 40
0
 40
0
 40
0
 40
1
 40
1
 40
1
 40
1
 10
512.528050
 20
395.369954
 30
0.0
 10
515.617621
 20
393.672072
 30
0.0
 10
517.566735
 20
390.454899
 30
0.0
 10
517.641179
 20
386.930312
 30
0.0
  0
SPLINE
  5
133
100
AcDbEntity
  8
Layer_1
 62
7
100
AcDbSpline
 70
8
 71
3
 72
8
 73
4
 74
0
 40
0
 40
0
 40
0
 40
0
 40
1
 40
1
 40
1
 40
1
 10
517.641179
 20
386.930312
 30
0.0
 10
517.715624
 20
383.405726
 30
0.0
 10
515.904088
 20
380.109194
 30
0.0
 10
512.888961
 20
378.282489
 30
0.0
  0
SPLINE
  5
134
100
AcDbEntity
  8
Layer_1
 62
7
100
AcDbSpline
 70
8
 71
3
 72
8
 73
4
 74
0
 40
0
 40
0
 40
0
 40
0
 40
1
 40
1
 40
1
 40
1
 10
512.888961
 20
378.282489
 30
0.0
 10
509.873834
 20
376.455784
 30
0.0
 10
506.113185
 20
376.376426
 30
0.0
 10
503.023613
 20
378.074307
 30
0.0
  0
SPLINE
  5
135
100
AcDbEntity
  8
Layer_1
 62
7
100
AcDbSpline
 70
8
 71
3
 72
8
 73
4
 74
0
 40
0
 40
0
 40
0
 40
0
 40
1
 40
1
 40
1
 40
1
 10
503.023613
 20
378.074307
 30
0.0
 10
499.934042
 20
379.772189
 30
0.0
 10
497.984928
 20
382.989363
 30
0.0
 10
497.910484
 20
386.513949
 30
0.0
  0
SPLINE
  5
136
100
AcDbEntity
  8
Layer_1
 62
7
100
AcDbSpline
 70
8
 71
3
 72
8
 73
4
 74
0
 40
0
 40
0
 40
0
 40
0
 40
1
 40
1
 40
1
 40
1
 10
497.910484
 20
386.513949
 30
0.0
 10
497.836039
 20
390.038536
 30
0.0
 10
499.647575
 20
393.335068
 30
0.0
 10
502.662702
 20
395.161773
 30
0.0
  0
LWPOLYLINE
  5
137
100
AcDbEntity
  8
Layer_1
 62
7
100
AcDbPolyline
 90
1
 70
1
 10
647.525824
 20
386.722126
 30
0.0
  0
LWPOLYLINE
  5
138
100
AcDbEntity
  8
Layer_1
 62
7
100
AcDbPolyline
 90
1
 70
1
 10
502.662702
 20
395.161773
 30
0.0
  0
ENDSEC
  0
SECTION
  2
OBJECTS
  0
DICTIONARY
  5
C
330
0
100
AcDbDictionary
  3
ACAD_GROUP
350
D
  3
ACAD_MLINESTYLE
350
17
  0
DICTIONARY
  5
D
330
C
100
AcDbDictionary
  0
DICTIONARY
  5
1A
330
C
100
AcDbDictionary
  0
DICTIONARY
  5
17
330
C
100
AcDbDictionary
  3
STANDARD
350
18
  0
DICTIONARY
  5
19
330
C
100
AcDbDictionary
  0
ENDSEC
  0
EOF
