  0
SECTION
  2
HEADER
  9
$ACADVER
  1
AC1018
  9
$ACADMAINTVER
 70
     0
  9
$DWGCODEPAGE
  3
ANSI_1255
  9
$INSBASE
 10
0.0
 20
0.0
 30
0.0
  9
$EXTMIN
 10
0.0
 20
0.0
 30
0.0
  9
$EXTMAX
 10
14.0
 20
14.0
 30
0.0
  9
$LIMMIN
 10
0.0
 20
0.0
  9
$LIMMAX
 10
12.0
 20
9.0
  9
$ORTHOMODE
 70
     0
  9
$REGENMODE
 70
     1
  9
$FILLMODE
 70
     1
  9
$QTEXTMODE
 70
     0
  9
$MIRRTEXT
 70
     1
  9
$LTSCALE
 40
1.0
  9
$ATTMODE
 70
     1
  9
$TEXTSIZE
 40
0.2
  9
$TRACEWID
 40
0.05
  9
$TEXTSTYLE
  7
Standard
  9
$CLAYER
  8
Layer 01
  9
$CELTYPE
  6
ByLayer
  9
$CECOLOR
 62
   256
  9
$CELTSCALE
 40
1.0
  9
$DISPSILH
 70
     0
  9
$DIMSCALE
 40
1.0
  9
$DIMASZ
 40
0.18
  9
$DIMEXO
 40
0.0625
  9
$DIMDLI
 40
0.38
  9
$DIMRND
 40
0.0
  9
$DIMDLE
 40
0.0
  9
$DIMEXE
 40
0.18
  9
$DIMTP
 40
0.0
  9
$DIMTM
 40
0.0
  9
$DIMTXT
 40
0.18
  9
$DIMCEN
 40
0.09
  9
$DIMTSZ
 40
0.0
  9
$DIMTOL
 70
     0
  9
$DIMLIM
 70
     0
  9
$DIMTIH
 70
     1
  9
$DIMTOH
 70
     1
  9
$DIMSE1
 70
     0
  9
$DIMSE2
 70
     0
  9
$DIMTAD
 70
     0
  9
$DIMZIN
 70
     0
  9
$DIMBLK
  1

  9
$DIMASO
 70
     1
  9
$DIMSHO
 70
     1
  9
$DIMPOST
  1

  9
$DIMAPOST
  1

  9
$DIMALT
 70
     0
  9
$DIMALTD
 70
     2
  9
$DIMALTF
 40
25.4
  9
$DIMLFAC
 40
1.0
  9
$DIMTOFL
 70
     0
  9
$DIMTVP
 40
0.0
  9
$DIMTIX
 70
     0
  9
$DIMSOXD
 70
     0
  9
$DIMSAH
 70
     0
  9
$DIMBLK1
  1

  9
$DIMBLK2
  1

  9
$DIMSTYLE
  2
Standard
  9
$DIMCLRD
 70
     0
  9
$DIMCLRE
 70
     0
  9
$DIMCLRT
 70
     0
  9
$DIMTFAC
 40
1.0
  9
$DIMGAP
 40
0.09
  9
$DIMJUST
 70
     0
  9
$DIMSD1
 70
     0
  9
$DIMSD2
 70
     0
  9
$DIMTOLJ
 70
     1
  9
$DIMTZIN
 70
     0
  9
$DIMALTZ
 70
     0
  9
$DIMALTTZ
 70
     0
  9
$DIMUPT
 70
     0
  9
$DIMDEC
 70
     4
  9
$DIMTDEC
 70
     4
  9
$DIMALTU
 70
     2
  9
$DIMALTTD
 70
     2
  9
$DIMTXSTY
  7
Standard
  9
$DIMAUNIT
 70
     0
  9
$DIMADEC
 70
     0
  9
$DIMALTRND
 40
0.0
  9
$DIMAZIN
 70
     0
  9
$DIMDSEP
 70
    46
  9
$DIMATFIT
 70
     3
  9
$DIMFRAC
 70
     0
  9
$DIMLDRBLK
  1

  9
$DIMLUNIT
 70
     2
  9
$DIMLWD
 70
    -2
  9
$DIMLWE
 70
    -2
  9
$DIMTMOVE
 70
     2
  9
$LUNITS
 70
     2
  9
$LUPREC
 70
     3
  9
$SKETCHINC
 40
0.1
  9
$FILLETRAD
 40
0.5
  9
$AUNITS
 70
     0
  9
$AUPREC
 70
     0
  9
$MENU
  1
.
  9
$ELEVATION
 40
0.0
  9
$PELEVATION
 40
0.0
  9
$THICKNESS
 40
0.0
  9
$LIMCHECK
 70
     0
  9
$CHAMFERA
 40
0.5
  9
$CHAMFERB
 40
0.5
  9
$CHAMFERC
 40
1.0
  9
$CHAMFERD
 40
0.0
  9
$SKPOLY
 70
     0
  9
$TDCREATE
 40
2457138.838497628
  9
$TDUCREATE
 40
2457138.713497628
  9
$TDUPDATE
 40
2457138.838518032
  9
$TDUUPDATE
 40
2457138.713518032
  9
$TDINDWG
 40
0.0000000116
  9
$TDUSRTIMER
 40
0.0000000116
  9
$USRTIMER
 70
     1
  9
$ANGBASE
 50
0.0
  9
$ANGDIR
 70
     0
  9
$PDMODE
 70
     0
  9
$PDSIZE
 40
0.0
  9
$PLINEWID
 40
0.0
  9
$SPLFRAME
 70
     0
  9
$SPLINETYPE
 70
     6
  9
$SPLINESEGS
 70
     8
  9
$HANDSEED
  5
658
  9
$SURFTAB1
 70
     6
  9
$SURFTAB2
 70
     6
  9
$SURFTYPE
 70
     6
  9
$SURFU
 70
     6
  9
$SURFV
 70
     6
  9
$UCSBASE
  2

  9
$UCSNAME
  2

  9
$UCSORG
 10
0.0
 20
0.0
 30
0.0
  9
$UCSXDIR
 10
1.0
 20
0.0
 30
0.0
  9
$UCSYDIR
 10
0.0
 20
1.0
 30
0.0
  9
$UCSORTHOREF
  2

  9
$UCSORTHOVIEW
 70
     0
  9
$UCSORGTOP
 10
0.0
 20
0.0
 30
0.0
  9
$UCSORGBOTTOM
 10
0.0
 20
0.0
 30
0.0
  9
$UCSORGLEFT
 10
0.0
 20
0.0
 30
0.0
  9
$UCSORGRIGHT
 10
0.0
 20
0.0
 30
0.0
  9
$UCSORGFRONT
 10
0.0
 20
0.0
 30
0.0
  9
$UCSORGBACK
 10
0.0
 20
0.0
 30
0.0
  9
$PUCSBASE
  2

  9
$PUCSNAME
  2

  9
$PUCSORG
 10
0.0
 20
0.0
 30
0.0
  9
$PUCSXDIR
 10
1.0
 20
0.0
 30
0.0
  9
$PUCSYDIR
 10
0.0
 20
1.0
 30
0.0
  9
$PUCSORTHOREF
  2

  9
$PUCSORTHOVIEW
 70
     0
  9
$PUCSORGTOP
 10
0.0
 20
0.0
 30
0.0
  9
$PUCSORGBOTTOM
 10
0.0
 20
0.0
 30
0.0
  9
$PUCSORGLEFT
 10
0.0
 20
0.0
 30
0.0
  9
$PUCSORGRIGHT
 10
0.0
 20
0.0
 30
0.0
  9
$PUCSORGFRONT
 10
0.0
 20
0.0
 30
0.0
  9
$PUCSORGBACK
 10
0.0
 20
0.0
 30
0.0
  9
$USERI1
 70
     0
  9
$USERI2
 70
     0
  9
$USERI3
 70
     0
  9
$USERI4
 70
     0
  9
$USERI5
 70
     0
  9
$USERR1
 40
0.0
  9
$USERR2
 40
0.0
  9
$USERR3
 40
0.0
  9
$USERR4
 40
0.0
  9
$USERR5
 40
0.0
  9
$WORLDVIEW
 70
     1
  9
$SHADEDGE
 70
     3
  9
$SHADEDIF
 70
    70
  9
$TILEMODE
 70
     1
  9
$MAXACTVP
 70
    64
  9
$PINSBASE
 10
0.0
 20
0.0
 30
0.0
  9
$PLIMCHECK
 70
     0
  9
$PEXTMIN
 10
1.000000000000000E+20
 20
1.000000000000000E+20
 30
1.000000000000000E+20
  9
$PEXTMAX
 10
-1.000000000000000E+20
 20
-1.000000000000000E+20
 30
-1.000000000000000E+20
  9
$PLIMMIN
 10
0.0
 20
0.0
  9
$PLIMMAX
 10
12.0
 20
9.0
  9
$UNITMODE
 70
     0
  9
$VISRETAIN
 70
     1
  9
$PLINEGEN
 70
     0
  9
$PSLTSCALE
 70
     1
  9
$TREEDEPTH
 70
  3020
  9
$CMLSTYLE
  2
Standard
  9
$CMLJUST
 70
     0
  9
$CMLSCALE
 40
1.0
  9
$PROXYGRAPHICS
 70
     1
  9
$MEASUREMENT
 70
     0
  9
$CELWEIGHT
370
    -1
  9
$ENDCAPS
280
     0
  9
$JOINSTYLE
280
     0
  9
$LWDISPLAY
290
     0
  9
$INSUNITS
 70
     4
  9
$HYPERLINKBASE
  1

  9
$STYLESHEET
  1

  9
$XEDIT
290
     1
  9
$CEPSNTYPE
380
     0
  9
$PSTYLEMODE
290
     1
  9
$FINGERPRINTGUID
  2
{31AB9738-72A6-4F01-B0DA-4727A70F407C}
  9
$VERSIONGUID
  2
{FAEB1C32-E019-11D5-929B-00C0DF256EC4}
  9
$EXTNAMES
290
     1
  9
$PSVPSCALE
 40
0.0
  9
$OLESTARTUP
290
     0
  9
$SORTENTS
280
   127
  9
$INDEXCTL
280
     0
  9
$HIDETEXT
280
     1
  9
$XCLIPFRAME
290
     0
  9
$HALOGAP
280
     0
  9
$OBSCOLOR
 70
   257
  9
$OBSLTYPE
280
     0
  9
$INTERSECTIONDISPLAY
280
     0
  9
$INTERSECTIONCOLOR
 70
   257
  9
$DIMASSOC
280
     2
  9
$PROJECTNAME
  1

  0
ENDSEC
  0
SECTION
  2
CLASSES
  0
CLASS
  1
ACDBDICTIONARYWDFLT
  2
AcDbDictionaryWithDefault
  3
ObjectDBX Classes
 90
        0
 91
        4
280
     0
281
     0
  0
CLASS
  1
VISUALSTYLE
  2
AcDbVisualStyle
  3
ObjectDBX Classes
 90
     4095
 91
        4
280
     0
281
     0
  0
CLASS
  1
MATERIAL
  2
AcDbMaterial
  3
ObjectDBX Classes
 90
     1153
 91
        4
280
     0
281
     0
  0
CLASS
  1
SCALE
  2
AcDbScale
  3
ObjectDBX Classes
 90
     1153
 91
        4
280
     0
281
     0
  0
CLASS
  1
SUN
  2
AcDbSun
  3
SCENEOE
 90
     1153
 91
        4
280
     0
281
     0
  0
CLASS
  1
DICTIONARYVAR
  2
AcDbDictionaryVar
  3
ObjectDBX Classes
 90
        0
 91
        4
280
     0
281
     0
  0
ENDSEC
  0
SECTION
  2
TABLES
  0
TABLE
  2
VPORT
  5
8
330
0
100
AcDbSymbolTable
 70
     1
  0
VPORT
  5
29
330
8
100
AcDbSymbolTableRecord
100
AcDbViewportTableRecord
  2
*Active
 70
     0
 10
0.0
 20
0.0
 11
1.0
 21
1.0
 12
7.0
 22
7.0
 13
0.0
 23
0.0
 14
0.5
 24
0.5
 15
0.5
 25
0.5
 16
0.0
 26
0.0
 36
1.0
 17
0.0
 27
0.0
 37
0.0
 40
14.28
 41
1.0
 42
50.0
 43
0.0
 44
0.0
 50
0.0
 51
0.0
 71
     0
 72
   100
 73
     1
 74
     3
 75
     0
 76
     0
 77
     0
 78
     0
281
     0
 65
     1
110
0.0
120
0.0
130
0.0
111
1.0
121
0.0
131
0.0
112
0.0
122
1.0
132
0.0
 79
     0
146
0.0
  0
ENDTAB
  0
TABLE
  2
LTYPE
  5
5
330
0
100
AcDbSymbolTable
 70
     1
  0
LTYPE
  5
14
330
5
100
AcDbSymbolTableRecord
100
AcDbLinetypeTableRecord
  2
ByBlock
 70
     0
  3

 72
    65
 73
     0
 40
0.0
  0
LTYPE
  5
15
330
5
100
AcDbSymbolTableRecord
100
AcDbLinetypeTableRecord
  2
ByLayer
 70
     0
  3

 72
    65
 73
     0
 40
0.0
  0
LTYPE
  5
16
330
5
100
AcDbSymbolTableRecord
100
AcDbLinetypeTableRecord
  2
Continuous
 70
     0
  3
Solid line
 72
    65
 73
     0
 40
0.0
  0
ENDTAB
  0
TABLE
  2
LAYER
  5
2
330
0
100
AcDbSymbolTable
 70
     3
  0
LAYER
  5
10
330
2
100
AcDbSymbolTableRecord
100
AcDbLayerTableRecord
  2
0
 70
     0
 62
     7
  6
Continuous
370
    -3
390
F
  0
LAYER
  5
62
330
2
100
AcDbSymbolTableRecord
100
AcDbLayerTableRecord
  2
Layer 01
 70
     0
 62
    12
420
 13107200
  6
Continuous
370
    -3
390
F
  0
LAYER
  5
628
330
2
100
AcDbSymbolTableRecord
100
AcDbLayerTableRecord
  2
Default
 70
     0
 62
    18
420
        0
  6
Continuous
370
    -3
390
F
  0
ENDTAB
  0
TABLE
  2
STYLE
  5
3
330
0
100
AcDbSymbolTable
 70
     1
  0
STYLE
  5
11
330
3
100
AcDbSymbolTableRecord
100
AcDbTextStyleTableRecord
  2
Standard
 70
     0
 40
0.0
 41
1.0
 50
0.0
 71
     0
 42
0.2
  3
txt
  4

  0
ENDTAB
  0
TABLE
  2
VIEW
  5
6
330
0
100
AcDbSymbolTable
 70
     0
  0
ENDTAB
  0
TABLE
  2
UCS
  5
7
330
0
100
AcDbSymbolTable
 70
     0
  0
ENDTAB
  0
TABLE
  2
APPID
  5
9
330
0
100
AcDbSymbolTable
 70
     1
  0
APPID
  5
12
330
9
100
AcDbSymbolTableRecord
100
AcDbRegAppTableRecord
  2
ACAD
 70
     0
  0
ENDTAB
  0
TABLE
  2
DIMSTYLE
  5
A
330
0
100
AcDbSymbolTable
 70
     1
100
AcDbDimStyleTable
  0
DIMSTYLE
105
27
330
A
100
AcDbSymbolTableRecord
100
AcDbDimStyleTableRecord
  2
Standard
 70
     0
178
     0
340
11
  0
ENDTAB
  0
TABLE
  2
BLOCK_RECORD
  5
1
330
0
100
AcDbSymbolTable
 70
     1
  0
BLOCK_RECORD
  5
1F
330
1
100
AcDbSymbolTableRecord
100
AcDbBlockTableRecord
  2
*Model_Space
340
22
  0
BLOCK_RECORD
  5
1B
330
1
100
AcDbSymbolTableRecord
100
AcDbBlockTableRecord
  2
*Paper_Space
340
1E
  0
BLOCK_RECORD
  5
23
330
1
100
AcDbSymbolTableRecord
100
AcDbBlockTableRecord
  2
*Paper_Space0
340
26
  0
ENDTAB
  0
ENDSEC
  0
SECTION
  2
BLOCKS
  0
BLOCK
  5
20
330
1F
100
AcDbEntity
  8
0
100
AcDbBlockBegin
  2
*Model_Space
 70
     0
 10
0.0
 20
0.0
 30
0.0
  3
*Model_Space
  1
*Model_Space
  0
ENDBLK
  5
21
330
1F
100
AcDbEntity
  8
0
100
AcDbBlockEnd
  0
BLOCK
  5
1C
330
1B
100
AcDbEntity
 67
     1
  8
0
100
AcDbBlockBegin
  2
*Paper_Space
 70
     0
 10
0.0
 20
0.0
 30
0.0
  3
*Paper_Space
  1
*Paper_Space
  0
ENDBLK
  5
1D
330
1B
100
AcDbEntity
 67
     1
  8
0
100
AcDbBlockEnd
  0
BLOCK
  5
24
330
23
100
AcDbEntity
  8
0
100
AcDbBlockBegin
  2
*Paper_Space0
 70
     0
 10
0.0
 20
0.0
 30
0.0
  3
*Paper_Space0
  1
*Paper_Space0
  0
ENDBLK
  5
25
330
23
100
AcDbEntity
  8
0
100
AcDbBlockEnd
  0
ENDSEC
  0
SECTION
  2
ENTITIES
  0
LINE
  5
63
330
1F
100
AcDbEntity
  8
Layer 01
100
AcDbLine
 10
13.3
 20
7.0
 30
0.0
 11
13.294162130735
 21
7.136137195300983
 31
0.0
  0
LINE
  5
64
330
1F
100
AcDbEntity
  8
Layer 01
100
AcDbLine
 10
13.294162130735
 20
7.136137195300983
 30
0.0
 11
13.28531251653378
 21
7.272568096846397
 31
0.0
  0
LINE
  5
65
330
1F
100
AcDbEntity
  8
Layer 01
100
AcDbLine
 10
13.28531251653378
 20
7.272568096846397
 30
0.0
 11
13.27346637855628
 21
7.409124570633231
 31
0.0
  0
LINE
  5
66
330
1F
100
AcDbEntity
  8
Layer 01
100
AcDbLine
 10
13.27346637855628
 20
7.409124570633231
 30
0.0
 11
13.25863893796239
 21
7.545638482658473
 31
0.0
  0
LINE
  5
67
330
1F
100
AcDbEntity
  8
Layer 01
100
AcDbLine
 10
13.25863893796239
 20
7.545638482658473
 30
0.0
 11
13.24084541591205
 21
7.681941698919115
 31
0.0
  0
LINE
  5
68
330
1F
100
AcDbEntity
  8
Layer 01
100
AcDbLine
 10
13.24084541591205
 20
7.681941698919115
 30
0.0
 11
13.22010103356518
 21
7.817866085412144
 31
0.0
  0
LINE
  5
69
330
1F
100
AcDbEntity
  8
Layer 01
100
AcDbLine
 10
13.22010103356518
 20
7.817866085412144
 30
0.0
 11
13.19642101208168
 21
7.953243508134548
 31
0.0
  0
LINE
  5
6A
330
1F
100
AcDbEntity
  8
Layer 01
100
AcDbLine
 10
13.19642101208168
 20
7.953243508134548
 30
0.0
 11
13.16982057262148
 21
8.087905833083319
 31
0.0
  0
LINE
  5
6B
330
1F
100
AcDbEntity
  8
Layer 01
100
AcDbLine
 10
13.16982057262148
 20
8.087905833083319
 30
0.0
 11
13.14031606227913
 21
8.221707388482901
 31
0.0
  0
LINE
  5
6C
330
1F
100
AcDbEntity
  8
Layer 01
100
AcDbLine
 10
13.14031606227913
 20
8.221707388482901
 30
0.0
 11
13.10792833188765
 21
8.354592351467565
 31
0.0
  0
LINE
  5
6D
330
1F
100
AcDbEntity
  8
Layer 01
100
AcDbLine
 10
13.10792833188765
 20
8.354592351467565
 30
0.0
 11
13.07267935821471
 21
8.486527361399034
 31
0.0
  0
LINE
  5
6E
330
1F
100
AcDbEntity
  8
Layer 01
100
AcDbLine
 10
13.07267935821471
 20
8.486527361399034
 30
0.0
 11
13.03459111802797
 21
8.617479057639038
 31
0.0
  0
LINE
  5
6F
330
1F
100
AcDbEntity
  8
Layer 01
100
AcDbLine
 10
13.03459111802797
 20
8.617479057639038
 30
0.0
 11
12.99368558809509
 21
8.747414079549301
 31
0.0
  0
LINE
  5
70
330
1F
100
AcDbEntity
  8
Layer 01
100
AcDbLine
 10
12.99368558809509
 20
8.747414079549301
 30
0.0
 11
12.94998474518373
 21
8.876299066491551
 31
0.0
  0
LINE
  5
71
330
1F
100
AcDbEntity
  8
Layer 01
100
AcDbLine
 10
12.94998474518373
 20
8.876299066491551
 30
0.0
 11
12.90351056606155
 21
9.004100657827514
 31
0.0
  0
LINE
  5
72
330
1F
100
AcDbEntity
  8
Layer 01
100
AcDbLine
 10
12.90351056606155
 20
9.004100657827514
 30
0.0
 11
12.85428502749621
 21
9.130785492918918
 31
0.0
  0
LINE
  5
73
330
1F
100
AcDbEntity
  8
Layer 01
100
AcDbLine
 10
12.85428502749621
 20
9.130785492918918
 30
0.0
 11
12.80233197810167
 21
9.256315215673865
 31
0.0
  0
LINE
  5
74
330
1F
100
AcDbEntity
  8
Layer 01
100
AcDbLine
 10
12.80233197810167
 20
9.256315215673865
 30
0.0
 11
12.7476827538771
 21
9.380631488185989
 31
0.0
  0
LINE
  5
75
330
1F
100
AcDbEntity
  8
Layer 01
100
AcDbLine
 10
12.7476827538771
 20
9.380631488185989
 30
0.0
 11
12.69037056266794
 21
9.503670977095297
 31
0.0
  0
LINE
  5
76
330
1F
100
AcDbEntity
  8
Layer 01
100
AcDbLine
 10
12.69037056266794
 20
9.503670977095297
 30
0.0
 11
12.63042861231967
 21
9.625370349041804
 31
0.0
  0
LINE
  5
77
330
1F
100
AcDbEntity
  8
Layer 01
100
AcDbLine
 10
12.63042861231967
 20
9.625370349041804
 30
0.0
 11
12.56789011067774
 21
9.745666270665517
 31
0.0
  0
LINE
  5
78
330
1F
100
AcDbEntity
  8
Layer 01
100
AcDbLine
 10
12.56789011067774
 20
9.745666270665517
 30
0.0
 11
12.50278826558761
 21
9.864495408606448
 31
0.0
  0
LINE
  5
79
330
1F
100
AcDbEntity
  8
Layer 01
100
AcDbLine
 10
12.50278826558761
 20
9.864495408606448
 30
0.0
 11
12.43515628489474
 21
9.981794429504605
 31
0.0
  0
LINE
  5
7A
330
1F
100
AcDbEntity
  8
Layer 01
100
AcDbLine
 10
12.43515628489474
 20
9.981794429504605
 30
0.0
 11
12.3650273764446
 21
10.0975
 31
0.0
  0
LINE
  5
7B
330
1F
100
AcDbEntity
  8
Layer 01
100
AcDbLine
 10
12.3650273764446
 20
10.0975
 30
0.0
 11
12.29243619753298
 21
10.21155150417288
 31
0.0
  0
LINE
  5
7C
330
1F
100
AcDbEntity
  8
Layer 01
100
AcDbLine
 10
12.29243619753298
 20
10.21155150417288
 30
0.0
 11
12.21742320325708
 21
10.32389919586448
 31
0.0
  0
LINE
  5
7D
330
1F
100
AcDbEntity
  8
Layer 01
100
AcDbLine
 10
12.21742320325708
 20
10.32389919586448
 30
0.0
 11
12.1400302981644
 21
10.43449604635626
 31
0.0
  0
LINE
  5
7E
330
1F
100
AcDbEntity
  8
Layer 01
100
AcDbLine
 10
12.1400302981644
 20
10.43449604635626
 30
0.0
 11
12.06029938680248
 21
10.54329502692968
 31
0.0
  0
LINE
  5
7F
330
1F
100
AcDbEntity
  8
Layer 01
100
AcDbLine
 10
12.06029938680248
 20
10.54329502692968
 30
0.0
 11
11.97827237371885
 21
10.65024910886621
 31
0.0
  0
LINE
  5
80
330
1F
100
AcDbEntity
  8
Layer 01
100
AcDbLine
 10
11.97827237371885
 20
10.65024910886621
 30
0.0
 11
11.89399116346103
 21
10.75531126344731
 31
0.0
  0
LINE
  5
81
330
1F
100
AcDbEntity
  8
Layer 01
100
AcDbLine
 10
11.89399116346103
 20
10.75531126344731
 30
0.0
 11
11.80749766057654
 21
10.85843446195445
 31
0.0
  0
LINE
  5
82
330
1F
100
AcDbEntity
  8
Layer 01
100
AcDbLine
 10
11.80749766057654
 20
10.85843446195445
 30
0.0
 11
11.71883376961291
 21
10.95957167566909
 31
0.0
  0
LINE
  5
83
330
1F
100
AcDbEntity
  8
Layer 01
100
AcDbLine
 10
11.71883376961291
 20
10.95957167566909
 30
0.0
 11
11.62804267811097
 21
11.05867683627791
 31
0.0
  0
LINE
  5
84
330
1F
100
AcDbEntity
  8
Layer 01
100
AcDbLine
 10
11.62804267811097
 20
11.05867683627791
 30
0.0
 11
11.53517270558477
 21
11.15570771708847
 31
0.0
  0
LINE
  5
85
330
1F
100
AcDbEntity
  8
Layer 01
100
AcDbLine
 10
11.53517270558477
 20
11.15570771708847
 30
0.0
 11
11.44027345454167
 21
11.25062305181355
 31
0.0
  0
LINE
  5
86
330
1F
100
AcDbEntity
  8
Layer 01
100
AcDbLine
 10
11.44027345454167
 20
11.25062305181355
 30
0.0
 11
11.34339452748902
 21
11.34338157416592
 31
0.0
  0
LINE
  5
87
330
1F
100
AcDbEntity
  8
Layer 01
100
AcDbLine
 10
11.34339452748902
 20
11.34338157416592
 30
0.0
 11
11.24458552693417
 21
11.43394201785834
 31
0.0
  0
LINE
  5
88
330
1F
100
AcDbEntity
  8
Layer 01
100
AcDbLine
 10
11.24458552693417
 20
11.43394201785834
 30
0.0
 11
11.1438960553845
 21
11.52226311660361
 31
0.0
  0
LINE
  5
89
330
1F
100
AcDbEntity
  8
Layer 01
100
AcDbLine
 10
11.1438960553845
 20
11.52226311660361
 30
0.0
 11
11.04137571534734
 21
11.60830360411448
 31
0.0
  0
LINE
  5
8A
330
1F
100
AcDbEntity
  8
Layer 01
100
AcDbLine
 10
11.04137571534734
 20
11.60830360411448
 30
0.0
 11
10.93707410933006
 21
11.69202221410374
 31
0.0
  0
LINE
  5
8B
330
1F
100
AcDbEntity
  8
Layer 01
100
AcDbLine
 10
10.93707410933006
 20
11.69202221410374
 30
0.0
 11
10.8310418398658
 21
11.77337936614407
 31
0.0
  0
LINE
  5
8C
330
1F
100
AcDbEntity
  8
Layer 01
100
AcDbLine
 10
10.8310418398658
 20
11.77337936614407
 30
0.0
 11
10.72333350959094
 21
11.8523422232478
 31
0.0
  0
LINE
  5
8D
330
1F
100
AcDbEntity
  8
Layer 01
100
AcDbLine
 10
10.72333350959094
 20
11.8523422232478
 30
0.0
 11
10.61400472116764
 21
11.92887963428717
 31
0.0
  0
LINE
  5
8E
330
1F
100
AcDbEntity
  8
Layer 01
100
AcDbLine
 10
10.61400472116764
 20
11.92887963428717
 30
0.0
 11
10.50311107725804
 21
12.00296044813443
 31
0.0
  0
LINE
  5
8F
330
1F
100
AcDbEntity
  8
Layer 01
100
AcDbLine
 10
10.50311107725804
 20
12.00296044813443
 30
0.0
 11
10.39070818052432
 21
12.07455351366182
 31
0.0
  0
LINE
  5
90
330
1F
100
AcDbEntity
  8
Layer 01
100
AcDbLine
 10
10.39070818052432
 20
12.07455351366182
 30
0.0
 11
10.27685163362863
 21
12.14362767974159
 31
0.0
  0
LINE
  5
91
330
1F
100
AcDbEntity
  8
Layer 01
100
AcDbLine
 10
10.27685163362863
 20
12.14362767974159
 30
0.0
 11
10.16159703923314
 21
12.21015179524598
 31
0.0
  0
LINE
  5
92
330
1F
100
AcDbEntity
  8
Layer 01
100
AcDbLine
 10
10.16159703923314
 20
12.21015179524598
 30
0.0
 11
10.045
 21
12.27409470904723
 31
0.0
  0
LINE
  5
93
330
1F
100
AcDbEntity
  8
Layer 01
100
AcDbLine
 10
10.045
 20
12.27409470904723
 30
0.0
 11
9.927116829482781
 21
12.33542695399424
 31
0.0
  0
LINE
  5
94
330
1F
100
AcDbEntity
  8
Layer 01
100
AcDbLine
 10
9.927116829482781
 20
12.33542695399424
 30
0.0
 11
9.80800668480065
 21
12.39412579884251
 31
0.0
  0
LINE
  5
95
330
1F
100
AcDbEntity
  8
Layer 01
100
AcDbLine
 10
9.80800668480065
 20
12.39412579884251
 30
0.0
 11
9.687729433964185
 21
12.45017019632417
 31
0.0
  0
LINE
  5
96
330
1F
100
AcDbEntity
  8
Layer 01
100
AcDbLine
 10
9.687729433964185
 20
12.45017019632417
 30
0.0
 11
9.566344944983957
 21
12.50353909917139
 31
0.0
  0
LINE
  5
97
330
1F
100
AcDbEntity
  8
Layer 01
100
AcDbLine
 10
9.566344944983957
 20
12.50353909917139
 30
0.0
 11
9.443913085870541
 21
12.5542114601163
 31
0.0
  0
LINE
  5
98
330
1F
100
AcDbEntity
  8
Layer 01
100
AcDbLine
 10
9.443913085870541
 20
12.5542114601163
 30
0.0
 11
9.320493724634515
 21
12.60216623189105
 31
0.0
  0
LINE
  5
99
330
1F
100
AcDbEntity
  8
Layer 01
100
AcDbLine
 10
9.320493724634515
 20
12.60216623189105
 30
0.0
 11
9.19614672928645
 21
12.64738236722779
 31
0.0
  0
LINE
  5
9A
330
1F
100
AcDbEntity
  8
Layer 01
100
AcDbLine
 10
9.19614672928645
 20
12.64738236722779
 30
0.0
 11
9.070931967836923
 21
12.68983881885867
 31
0.0
  0
LINE
  5
9B
330
1F
100
AcDbEntity
  8
Layer 01
100
AcDbLine
 10
9.070931967836923
 20
12.68983881885867
 30
0.0
 11
8.94490970589748
 21
12.72951634913845
 31
0.0
  0
LINE
  5
9C
330
1F
100
AcDbEntity
  8
Layer 01
100
AcDbLine
 10
8.94490970589748
 20
12.72951634913845
 30
0.0
 11
8.81814179948356
 21
12.76640295891238
 31
0.0
  0
LINE
  5
9D
330
1F
100
AcDbEntity
  8
Layer 01
100
AcDbLine
 10
8.81814179948356
 20
12.76640295891238
 30
0.0
 11
8.69069050221157
 21
12.80048845864832
 31
0.0
  0
LINE
  5
9E
330
1F
100
AcDbEntity
  8
Layer 01
100
AcDbLine
 10
8.69069050221157
 20
12.80048845864832
 30
0.0
 11
8.562618067697919
 21
12.83176265881414
 31
0.0
  0
LINE
  5
9F
330
1F
100
AcDbEntity
  8
Layer 01
100
AcDbLine
 10
8.562618067697919
 20
12.83176265881414
 30
0.0
 11
8.433986749559018
 21
12.8602153698777
 31
0.0
  0
LINE
  5
A0
330
1F
100
AcDbEntity
  8
Layer 01
100
AcDbLine
 10
8.433986749559018
 20
12.8602153698777
 30
0.0
 11
8.304858801411278
 21
12.88583640230688
 31
0.0
  0
LINE
  5
A1
330
1F
100
AcDbEntity
  8
Layer 01
100
AcDbLine
 10
8.304858801411278
 20
12.88583640230688
 30
0.0
 11
8.175296476871107
 21
12.90861556656952
 31
0.0
  0
LINE
  5
A2
330
1F
100
AcDbEntity
  8
Layer 01
100
AcDbLine
 10
8.175296476871107
 20
12.90861556656952
 30
0.0
 11
8.045362029554921
 21
12.9285426731335
 31
0.0
  0
LINE
  5
A3
330
1F
100
AcDbEntity
  8
Layer 01
100
AcDbLine
 10
8.045362029554921
 20
12.9285426731335
 30
0.0
 11
7.915117790295803
 21
12.94560936312168
 31
0.0
  0
LINE
  5
A4
330
1F
100
AcDbEntity
  8
Layer 01
100
AcDbLine
 10
7.915117790295803
 20
12.94560936312168
 30
0.0
 11
7.784626398793591
 21
12.95981460027697
 31
0.0
  0
LINE
  5
A5
330
1F
100
AcDbEntity
  8
Layer 01
100
AcDbLine
 10
7.784626398793591
 20
12.95981460027697
 30
0.0
 11
7.653950571964794
 21
12.97115917899725
 31
0.0
  0
LINE
  5
A6
330
1F
100
AcDbEntity
  8
Layer 01
100
AcDbLine
 10
7.653950571964794
 20
12.97115917899725
 30
0.0
 11
7.523153026725925
 21
12.97964389368043
 31
0.0
  0
LINE
  5
A7
330
1F
100
AcDbEntity
  8
Layer 01
100
AcDbLine
 10
7.523153026725925
 20
12.97964389368043
 30
0.0
 11
7.392296479993499
 21
12.98526953872439
 31
0.0
  0
LINE
  5
A8
330
1F
100
AcDbEntity
  8
Layer 01
100
AcDbLine
 10
7.392296479993499
 20
12.98526953872439
 30
0.0
 11
7.261443648684026
 21
12.98803690852705
 31
0.0
  0
LINE
  5
A9
330
1F
100
AcDbEntity
  8
Layer 01
100
AcDbLine
 10
7.261443648684026
 20
12.98803690852705
 30
0.0
 11
7.130657249714022
 21
12.98794679748628
 31
0.0
  0
LINE
  5
AA
330
1F
100
AcDbEntity
  8
Layer 01
100
AcDbLine
 10
7.130657249714022
 20
12.98794679748628
 30
0.0
 11
6.999999999999999
 21
12.985
 31
0.0
  0
LINE
  5
AB
330
1F
100
AcDbEntity
  8
Layer 01
100
AcDbLine
 10
6.999999999999999
 20
12.985
 30
0.0
 11
6.869534374148699
 21
12.979199118854
 31
0.0
  0
LINE
  5
AC
330
1F
100
AcDbEntity
  8
Layer 01
100
AcDbLine
 10
6.869534374148699
 20
12.979199118854
 30
0.0
 11
6.739321877527777
 21
12.97055399038566
 31
0.0
  0
LINE
  5
AD
330
1F
100
AcDbEntity
  8
Layer 01
100
AcDbLine
 10
6.739321877527777
 20
12.97055399038566
 30
0.0
 11
6.609423773195118
 21
12.95907625932027
 31
0.0
  0
LINE
  5
AE
330
1F
100
AcDbEntity
  8
Layer 01
100
AcDbLine
 10
6.609423773195118
 20
12.95907625932027
 30
0.0
 11
6.479901324208608
 21
12.94477757038312
 31
0.0
  0
LINE
  5
AF
330
1F
100
AcDbEntity
  8
Layer 01
100
AcDbLine
 10
6.479901324208608
 20
12.94477757038312
 30
0.0
 11
6.350815793626133
 21
12.92766956829949
 31
0.0
  0
LINE
  5
B0
330
1F
100
AcDbEntity
  8
Layer 01
100
AcDbLine
 10
6.350815793626133
 20
12.92766956829949
 30
0.0
 11
6.222228444505577
 21
12.90776389779468
 31
0.0
  0
LINE
  5
B1
330
1F
100
AcDbEntity
  8
Layer 01
100
AcDbLine
 10
6.222228444505577
 20
12.90776389779468
 30
0.0
 11
6.094200539904826
 21
12.88507220359396
 31
0.0
  0
LINE
  5
B2
330
1F
100
AcDbEntity
  8
Layer 01
100
AcDbLine
 10
6.094200539904826
 20
12.88507220359396
 30
0.0
 11
5.966793342881764
 21
12.85960613042264
 31
0.0
  0
LINE
  5
B3
330
1F
100
AcDbEntity
  8
Layer 01
100
AcDbLine
 10
5.966793342881764
 20
12.85960613042264
 30
0.0
 11
5.840067565802459
 21
12.83137905070677
 31
0.0
  0
LINE
  5
B4
330
1F
100
AcDbEntity
  8
Layer 01
100
AcDbLine
 10
5.840067565802459
 20
12.83137905070677
 30
0.0
 11
5.714081718265694
 21
12.80041124767561
 31
0.0
  0
LINE
  5
B5
330
1F
100
AcDbEntity
  8
Layer 01
100
AcDbLine
 10
5.714081718265694
 20
12.80041124767561
 30
0.0
 11
5.588893759178439
 21
12.76672473225916
 31
0.0
  0
LINE
  5
B6
330
1F
100
AcDbEntity
  8
Layer 01
100
AcDbLine
 10
5.588893759178439
 20
12.76672473225916
 30
0.0
 11
5.464561647447661
 21
12.73034151538747
 31
0.0
  0
LINE
  5
B7
330
1F
100
AcDbEntity
  8
Layer 01
100
AcDbLine
 10
5.464561647447661
 20
12.73034151538747
 30
0.0
 11
5.341143341980329
 21
12.69128360799054
 31
0.0
  0
LINE
  5
B8
330
1F
100
AcDbEntity
  8
Layer 01
100
AcDbLine
 10
5.341143341980329
 20
12.69128360799054
 30
0.0
 11
5.218696801683408
 21
12.64957302099841
 31
0.0
  0
LINE
  5
B9
330
1F
100
AcDbEntity
  8
Layer 01
100
AcDbLine
 10
5.218696801683408
 20
12.64957302099841
 30
0.0
 11
5.097279985463866
 21
12.60523176534111
 31
0.0
  0
LINE
  5
BA
330
1F
100
AcDbEntity
  8
Layer 01
100
AcDbLine
 10
5.097279985463866
 20
12.60523176534111
 30
0.0
 11
4.97695085222867
 21
12.55828185194865
 31
0.0
  0
LINE
  5
BB
330
1F
100
AcDbEntity
  8
Layer 01
100
AcDbLine
 10
4.97695085222867
 20
12.55828185194865
 30
0.0
 11
4.857766522129672
 21
12.5087468878376
 31
0.0
  0
LINE
  5
BC
330
1F
100
AcDbEntity
  8
Layer 01
100
AcDbLine
 10
4.857766522129672
 20
12.5087468878376
 30
0.0
 11
4.739780760298255
 21
12.45665686437065
 31
0.0
  0
LINE
  5
BD
330
1F
100
AcDbEntity
  8
Layer 01
100
AcDbLine
 10
4.739780760298255
 20
12.45665686437065
 30
0.0
 11
4.623046493110689
 21
12.40204336899705
 31
0.0
  0
LINE
  5
BE
330
1F
100
AcDbEntity
  8
Layer 01
100
AcDbLine
 10
4.623046493110689
 20
12.40204336899705
 30
0.0
 11
4.507616646943243
 21
12.34493798916603
 31
0.0
  0
LINE
  5
BF
330
1F
100
AcDbEntity
  8
Layer 01
100
AcDbLine
 10
4.507616646943243
 20
12.34493798916603
 30
0.0
 11
4.393544148172182
 21
12.28537231232683
 31
0.0
  0
LINE
  5
C0
330
1F
100
AcDbEntity
  8
Layer 01
100
AcDbLine
 10
4.393544148172182
 20
12.28537231232683
 30
0.0
 11
4.280881923173776
 21
12.22337792592868
 31
0.0
  0
LINE
  5
C1
330
1F
100
AcDbEntity
  8
Layer 01
100
AcDbLine
 10
4.280881923173776
 20
12.22337792592868
 30
0.0
 11
4.169682898324293
 21
12.15898641742083
 31
0.0
  0
LINE
  5
C2
330
1F
100
AcDbEntity
  8
Layer 01
100
AcDbLine
 10
4.169682898324293
 20
12.15898641742083
 30
0.0
 11
4.06
 21
12.0922293742525
 31
0.0
  0
LINE
  5
C3
330
1F
100
AcDbEntity
  8
Layer 01
100
AcDbLine
 10
4.06
 20
12.0922293742525
 30
0.0
 11
3.951885056702007
 21
12.02313980085535
 31
0.0
  0
LINE
  5
C4
330
1F
100
AcDbEntity
  8
Layer 01
100
AcDbLine
 10
3.951885056702007
 20
12.02313980085535
 30
0.0
 11
3.845385505430773
 21
11.95175636959065
 31
0.0
  0
LINE
  5
C5
330
1F
100
AcDbEntity
  8
Layer 01
100
AcDbLine
 10
3.845385505430773
 20
11.95175636959065
 30
0.0
 11
3.7405476853116
 21
11.87811916980209
 31
0.0
  0
LINE
  5
C6
330
1F
100
AcDbEntity
  8
Layer 01
100
AcDbLine
 10
3.7405476853116
 20
11.87811916980209
 30
0.0
 11
3.637417935469789
 21
11.80226829083335
 31
0.0
  0
LINE
  5
C7
330
1F
100
AcDbEntity
  8
Layer 01
100
AcDbLine
 10
3.637417935469789
 20
11.80226829083335
 30
0.0
 11
3.536042595030641
 21
11.72424382202813
 31
0.0
  0
LINE
  5
C8
330
1F
100
AcDbEntity
  8
Layer 01
100
AcDbLine
 10
3.536042595030641
 20
11.72424382202813
 30
0.0
 11
3.436468003119455
 21
11.64408585273011
 31
0.0
  0
LINE
  5
C9
330
1F
100
AcDbEntity
  8
Layer 01
100
AcDbLine
 10
3.436468003119455
 20
11.64408585273011
 30
0.0
 11
3.338740498861534
 21
11.56183447228298
 31
0.0
  0
LINE
  5
CA
330
1F
100
AcDbEntity
  8
Layer 01
100
AcDbLine
 10
3.338740498861534
 20
11.56183447228298
 30
0.0
 11
3.242906421382177
 21
11.47752977003043
 31
0.0
  0
LINE
  5
CB
330
1F
100
AcDbEntity
  8
Layer 01
100
AcDbLine
 10
3.242906421382177
 20
11.47752977003043
 30
0.0
 11
3.149010789347442
 21
11.39121303204274
 31
0.0
  0
LINE
  5
CC
330
1F
100
AcDbEntity
  8
Layer 01
100
AcDbLine
 10
3.149010789347442
 20
11.39121303204274
 30
0.0
 11
3.057093339586408
 21
11.30293033129663
 31
0.0
  0
LINE
  5
CD
330
1F
100
AcDbEntity
  8
Layer 01
100
AcDbLine
 10
3.057093339586408
 20
11.30293033129663
 30
0.0
 11
2.967192488468912
 21
11.21272893749542
 31
0.0
  0
LINE
  5
CE
330
1F
100
AcDbEntity
  8
Layer 01
100
AcDbLine
 10
2.967192488468912
 20
11.21272893749542
 30
0.0
 11
2.879346652364788
 21
11.12065612034241
 31
0.0
  0
LINE
  5
CF
330
1F
100
AcDbEntity
  8
Layer 01
100
AcDbLine
 10
2.879346652364788
 20
11.12065612034241
 30
0.0
 11
2.793594247643873
 21
11.02675914954093
 31
0.0
  0
LINE
  5
D0
330
1F
100
AcDbEntity
  8
Layer 01
100
AcDbLine
 10
2.793594247643873
 20
11.02675914954093
 30
0.0
 11
2.709973690676003
 21
10.93108529479429
 31
0.0
  0
LINE
  5
D1
330
1F
100
AcDbEntity
  8
Layer 01
100
AcDbLine
 10
2.709973690676003
 20
10.93108529479429
 30
0.0
 11
2.628523397831013
 21
10.83368182580581
 31
0.0
  0
LINE
  5
D2
330
1F
100
AcDbEntity
  8
Layer 01
100
AcDbLine
 10
2.628523397831013
 20
10.83368182580581
 30
0.0
 11
2.549281785478738
 21
10.7345960122788
 31
0.0
  0
LINE
  5
D3
330
1F
100
AcDbEntity
  8
Layer 01
100
AcDbLine
 10
2.549281785478738
 20
10.7345960122788
 30
0.0
 11
2.472285769880356
 21
10.6338760663676
 31
0.0
  0
LINE
  5
D4
330
1F
100
AcDbEntity
  8
Layer 01
100
AcDbLine
 10
2.472285769880356
 20
10.6338760663676
 30
0.0
 11
2.397566266862403
 21
10.53157397003068
 31
0.0
  0
LINE
  5
D5
330
1F
100
AcDbEntity
  8
Layer 01
100
AcDbLine
 10
2.397566266862403
 20
10.53157397003068
 30
0.0
 11
2.325152692142757
 21
10.42774264767751
 31
0.0
  0
LINE
  5
D6
330
1F
100
AcDbEntity
  8
Layer 01
100
AcDbLine
 10
2.325152692142757
 20
10.42774264767751
 30
0.0
 11
2.255074461439297
 21
10.32243502371758
 31
0.0
  0
LINE
  5
D7
330
1F
100
AcDbEntity
  8
Layer 01
100
AcDbLine
 10
2.255074461439297
 20
10.32243502371758
 30
0.0
 11
2.1873609904699
 21
10.21570402256038
 31
0.0
  0
LINE
  5
D8
330
1F
100
AcDbEntity
  8
Layer 01
100
AcDbLine
 10
2.1873609904699
 20
10.21570402256038
 30
0.0
 11
2.122041694952444
 21
10.1076025686154
 31
0.0
  0
LINE
  5
D9
330
1F
100
AcDbEntity
  8
Layer 01
100
AcDbLine
 10
2.122041694952444
 20
10.1076025686154
 30
0.0
 11
2.059145990604806
 21
9.998183586292107
 31
0.0
  0
LINE
  5
DA
330
1F
100
AcDbEntity
  8
Layer 01
100
AcDbLine
 10
2.059145990604806
 20
9.998183586292107
 30
0.0
 11
1.998703293144866
 21
9.8875
 31
0.0
  0
LINE
  5
DB
330
1F
100
AcDbEntity
  8
Layer 01
100
AcDbLine
 10
1.998703293144866
 20
9.8875
 30
0.0
 11
1.940741386472376
 21
9.775605396505522
 31
0.0
  0
LINE
  5
DC
330
1F
100
AcDbEntity
  8
Layer 01
100
AcDbLine
 10
1.940741386472376
 20
9.775605396505522
 30
0.0
 11
1.885281527214602
 21
9.662556012002977
 31
0.0
  0
LINE
  5
DD
330
1F
100
AcDbEntity
  8
Layer 01
100
AcDbLine
 10
1.885281527214602
 20
9.662556012002977
 30
0.0
 11
1.832343340180685
 21
9.548408745043634
 31
0.0
  0
LINE
  5
DE
330
1F
100
AcDbEntity
  8
Layer 01
100
AcDbLine
 10
1.832343340180685
 20
9.548408745043634
 30
0.0
 11
1.781946450179765
 21
9.433220494178762
 31
0.0
  0
LINE
  5
DF
330
1F
100
AcDbEntity
  8
Layer 01
100
AcDbLine
 10
1.781946450179765
 20
9.433220494178762
 30
0.0
 11
1.734110482020984
 21
9.31704815795963
 31
0.0
  0
LINE
  5
E0
330
1F
100
AcDbEntity
  8
Layer 01
100
AcDbLine
 10
1.734110482020984
 20
9.31704815795963
 30
0.0
 11
1.688855060513483
 21
9.199948634937503
 31
0.0
  0
LINE
  5
E1
330
1F
100
AcDbEntity
  8
Layer 01
100
AcDbLine
 10
1.688855060513483
 20
9.199948634937503
 30
0.0
 11
1.646199810466404
 21
9.081978823663649
 31
0.0
  0
LINE
  5
E2
330
1F
100
AcDbEntity
  8
Layer 01
100
AcDbLine
 10
1.646199810466404
 20
9.081978823663649
 30
0.0
 11
1.606164356688886
 21
8.963195622689337
 31
0.0
  0
LINE
  5
E3
330
1F
100
AcDbEntity
  8
Layer 01
100
AcDbLine
 10
1.606164356688886
 20
8.963195622689337
 30
0.0
 11
1.568766611880298
 21
8.843656295881768
 31
0.0
  0
LINE
  5
E4
330
1F
100
AcDbEntity
  8
Layer 01
100
AcDbLine
 10
1.568766611880298
 20
8.843656295881768
 30
0.0
 11
1.534017640300907
 21
8.723419568371899
 31
0.0
  0
LINE
  5
E5
330
1F
100
AcDbEntity
  8
Layer 01
100
AcDbLine
 10
1.534017640300907
 20
8.723419568371899
 30
0.0
 11
1.501926794101207
 21
8.602544530606608
 31
0.0
  0
LINE
  5
E6
330
1F
100
AcDbEntity
  8
Layer 01
100
AcDbLine
 10
1.501926794101207
 20
8.602544530606608
 30
0.0
 11
1.472503425431691
 21
8.481090273032784
 31
0.0
  0
LINE
  5
E7
330
1F
100
AcDbEntity
  8
Layer 01
100
AcDbLine
 10
1.472503425431691
 20
8.481090273032784
 30
0.0
 11
1.445756886442854
 21
8.35911588609731
 31
0.0
  0
LINE
  5
E8
330
1F
100
AcDbEntity
  8
Layer 01
100
AcDbLine
 10
1.445756886442854
 20
8.35911588609731
 30
0.0
 11
1.42169652928519
 21
8.23668046024707
 31
0.0
  0
LINE
  5
E9
330
1F
100
AcDbEntity
  8
Layer 01
100
AcDbLine
 10
1.42169652928519
 20
8.23668046024707
 30
0.0
 11
1.400331706109192
 21
8.113843085928952
 31
0.0
  0
LINE
  5
EA
330
1F
100
AcDbEntity
  8
Layer 01
100
AcDbLine
 10
1.400331706109192
 20
8.113843085928952
 30
0.0
 11
1.381671769065353
 21
7.99066285358984
 31
0.0
  0
LINE
  5
EB
330
1F
100
AcDbEntity
  8
Layer 01
100
AcDbLine
 10
1.381671769065353
 20
7.99066285358984
 30
0.0
 11
1.365724331180084
 21
7.867198914302111
 31
0.0
  0
LINE
  5
EC
330
1F
100
AcDbEntity
  8
Layer 01
100
AcDbLine
 10
1.365724331180084
 20
7.867198914302111
 30
0.0
 11
1.35249004898345
 21
7.743510661640122
 31
0.0
  0
LINE
  5
ED
330
1F
100
AcDbEntity
  8
Layer 01
100
AcDbLine
 10
1.35249004898345
 20
7.743510661640122
 30
0.0
 11
1.341967839881434
 21
7.619657549803714
 31
0.0
  0
LINE
  5
EE
330
1F
100
AcDbEntity
  8
Layer 01
100
AcDbLine
 10
1.341967839881434
 20
7.619657549803714
 30
0.0
 11
1.334156621280018
 21
7.495699032992734
 31
0.0
  0
LINE
  5
EF
330
1F
100
AcDbEntity
  8
Layer 01
100
AcDbLine
 10
1.334156621280018
 20
7.495699032992734
 30
0.0
 11
1.329055310585185
 21
7.371694565407027
 31
0.0
  0
LINE
  5
F0
330
1F
100
AcDbEntity
  8
Layer 01
100
AcDbLine
 10
1.329055310585185
 20
7.371694565407027
 30
0.0
 11
1.326662825202916
 21
7.247703601246439
 31
0.0
  0
LINE
  5
F1
330
1F
100
AcDbEntity
  8
Layer 01
100
AcDbLine
 10
1.326662825202916
 20
7.247703601246439
 30
0.0
 11
1.326978082539194
 21
7.123785594710816
 31
0.0
  0
LINE
  5
F2
330
1F
100
AcDbEntity
  8
Layer 01
100
AcDbLine
 10
1.326978082539194
 20
7.123785594710816
 30
0.0
 11
1.330000000000001
 21
7.000000000000001
 31
0.0
  0
LINE
  5
F3
330
1F
100
AcDbEntity
  8
Layer 01
100
AcDbLine
 10
1.330000000000001
 20
7.000000000000001
 30
0.0
 11
1.335725782332898
 21
6.876406029022551
 31
0.0
  0
LINE
  5
F4
330
1F
100
AcDbEntity
  8
Layer 01
100
AcDbLine
 10
1.335725782332898
 20
6.876406029022551
 30
0.0
 11
1.344145783651768
 21
6.753061924521853
 31
0.0
  0
LINE
  5
F5
330
1F
100
AcDbEntity
  8
Layer 01
100
AcDbLine
 10
1.344145783651768
 20
6.753061924521853
 30
0.0
 11
1.35524864541207
 21
6.630025686950002
 31
0.0
  0
LINE
  5
F6
330
1F
100
AcDbEntity
  8
Layer 01
100
AcDbLine
 10
1.35524864541207
 20
6.630025686950002
 30
0.0
 11
1.369023009069266
 21
6.507355316759098
 31
0.0
  0
LINE
  5
F7
330
1F
100
AcDbEntity
  8
Layer 01
100
AcDbLine
 10
1.369023009069266
 20
6.507355316759098
 30
0.0
 11
1.385457516078817
 21
6.385108814401233
 31
0.0
  0
LINE
  5
F8
330
1F
100
AcDbEntity
  8
Layer 01
100
AcDbLine
 10
1.385457516078817
 20
6.385108814401233
 30
0.0
 11
1.404540807896184
 21
6.263344180328506
 31
0.0
  0
LINE
  5
F9
330
1F
100
AcDbEntity
  8
Layer 01
100
AcDbLine
 10
1.404540807896184
 20
6.263344180328506
 30
0.0
 11
1.426261525976827
 21
6.142119414993013
 31
0.0
  0
LINE
  5
FA
330
1F
100
AcDbEntity
  8
Layer 01
100
AcDbLine
 10
1.426261525976827
 20
6.142119414993013
 30
0.0
 11
1.450608311776207
 21
6.021492518846848
 31
0.0
  0
LINE
  5
FB
330
1F
100
AcDbEntity
  8
Layer 01
100
AcDbLine
 10
1.450608311776207
 20
6.021492518846848
 30
0.0
 11
1.47756817259529
 21
5.901520958167561
 31
0.0
  0
LINE
  5
FC
330
1F
100
AcDbEntity
  8
Layer 01
100
AcDbLine
 10
1.47756817259529
 20
5.901520958167561
 30
0.0
 11
1.507121579117053
 21
5.782260062534508
 31
0.0
  0
LINE
  5
FD
330
1F
100
AcDbEntity
  8
Layer 01
100
AcDbLine
 10
1.507121579117053
 20
5.782260062534508
 30
0.0
 11
1.539247367869979
 21
5.663764627352495
 31
0.0
  0
LINE
  5
FE
330
1F
100
AcDbEntity
  8
Layer 01
100
AcDbLine
 10
1.539247367869979
 20
5.663764627352495
 30
0.0
 11
1.573924375382548
 21
5.546089448026327
 31
0.0
  0
LINE
  5
FF
330
1F
100
AcDbEntity
  8
Layer 01
100
AcDbLine
 10
1.573924375382548
 20
5.546089448026327
 30
0.0
 11
1.611131438183245
 21
5.429289319960813
 31
0.0
  0
LINE
  5
100
330
1F
100
AcDbEntity
  8
Layer 01
100
AcDbLine
 10
1.611131438183245
 20
5.429289319960813
 30
0.0
 11
1.65084739280055
 21
5.31341903856076
 31
0.0
  0
LINE
  5
101
330
1F
100
AcDbEntity
  8
Layer 01
100
AcDbLine
 10
1.65084739280055
 20
5.31341903856076
 30
0.0
 11
1.693051075762945
 21
5.198533399230971
 31
0.0
  0
LINE
  5
102
330
1F
100
AcDbEntity
  8
Layer 01
100
AcDbLine
 10
1.693051075762945
 20
5.198533399230971
 30
0.0
 11
1.737721323598914
 21
5.084687197376255
 31
0.0
  0
LINE
  5
103
330
1F
100
AcDbEntity
  8
Layer 01
100
AcDbLine
 10
1.737721323598914
 20
5.084687197376255
 30
0.0
 11
1.784835466201753
 21
4.971934422190055
 31
0.0
  0
LINE
  5
104
330
1F
100
AcDbEntity
  8
Layer 01
100
AcDbLine
 10
1.784835466201753
 20
4.971934422190055
 30
0.0
 11
1.834364806924034
 21
4.860325838020362
 31
0.0
  0
LINE
  5
105
330
1F
100
AcDbEntity
  8
Layer 01
100
AcDbLine
 10
1.834364806924034
 20
4.860325838020362
 30
0.0
 11
1.886279142483141
 21
4.749911403003804
 31
0.0
  0
LINE
  5
106
330
1F
100
AcDbEntity
  8
Layer 01
100
AcDbLine
 10
1.886279142483141
 20
4.749911403003804
 30
0.0
 11
1.940548269596461
 21
4.640741075277008
 31
0.0
  0
LINE
  5
107
330
1F
100
AcDbEntity
  8
Layer 01
100
AcDbLine
 10
1.940548269596461
 20
4.640741075277008
 30
0.0
 11
1.997141984981381
 21
4.532864812976602
 31
0.0
  0
LINE
  5
108
330
1F
100
AcDbEntity
  8
Layer 01
100
AcDbLine
 10
1.997141984981381
 20
4.532864812976602
 30
0.0
 11
2.056030085355286
 21
4.426332574239213
 31
0.0
  0
LINE
  5
109
330
1F
100
AcDbEntity
  8
Layer 01
100
AcDbLine
 10
2.056030085355286
 20
4.426332574239213
 30
0.0
 11
2.117182367435563
 21
4.321194317201471
 31
0.0
  0
LINE
  5
10A
330
1F
100
AcDbEntity
  8
Layer 01
100
AcDbLine
 10
2.117182367435563
 20
4.321194317201471
 30
0.0
 11
2.180568627939599
 21
4.217499999999999
 31
0.0
  0
LINE
  5
10B
330
1F
100
AcDbEntity
  8
Layer 01
100
AcDbLine
 10
2.180568627939599
 20
4.217499999999999
 30
0.0
 11
2.246157328991494
 21
4.115298530469758
 31
0.0
  0
LINE
  5
10C
330
1F
100
AcDbEntity
  8
Layer 01
100
AcDbLine
 10
2.246157328991494
 20
4.115298530469758
 30
0.0
 11
2.313911594342215
 21
4.014634615239014
 31
0.0
  0
LINE
  5
10D
330
1F
100
AcDbEntity
  8
Layer 01
100
AcDbLine
 10
2.313911594342215
 20
4.014634615239014
 30
0.0
 11
2.383793213149444
 21
3.915551910634364
 31
0.0
  0
LINE
  5
10E
330
1F
100
AcDbEntity
  8
Layer 01
100
AcDbLine
 10
2.383793213149444
 20
3.915551910634364
 30
0.0
 11
2.455763974570861
 21
3.818094072982406
 31
0.0
  0
LINE
  5
10F
330
1F
100
AcDbEntity
  8
Layer 01
100
AcDbLine
 10
2.455763974570861
 20
3.818094072982406
 30
0.0
 11
2.529785667764149
 21
3.722304758609737
 31
0.0
  0
LINE
  5
110
330
1F
100
AcDbEntity
  8
Layer 01
100
AcDbLine
 10
2.529785667764149
 20
3.722304758609737
 30
0.0
 11
2.605820081886989
 21
3.628227623842955
 31
0.0
  0
LINE
  5
111
330
1F
100
AcDbEntity
  8
Layer 01
100
AcDbLine
 10
2.605820081886989
 20
3.628227623842955
 30
0.0
 11
2.683829006097063
 21
3.535906325008656
 31
0.0
  0
LINE
  5
112
330
1F
100
AcDbEntity
  8
Layer 01
100
AcDbLine
 10
2.683829006097063
 20
3.535906325008656
 30
0.0
 11
2.763774229552051
 21
3.445384518433438
 31
0.0
  0
LINE
  5
113
330
1F
100
AcDbEntity
  8
Layer 01
100
AcDbLine
 10
2.763774229552051
 20
3.445384518433438
 30
0.0
 11
2.84561641757339
 21
3.356704601144505
 31
0.0
  0
LINE
  5
114
330
1F
100
AcDbEntity
  8
Layer 01
100
AcDbLine
 10
2.84561641757339
 20
3.356704601144505
 30
0.0
 11
2.929311740137528
 21
3.269903932971491
 31
0.0
  0
LINE
  5
115
330
1F
100
AcDbEntity
  8
Layer 01
100
AcDbLine
 10
2.929311740137528
 20
3.269903932971491
 30
0.0
 11
3.014815243384668
 21
3.185018614444637
 31
0.0
  0
LINE
  5
116
330
1F
100
AcDbEntity
  8
Layer 01
100
AcDbLine
 10
3.014815243384668
 20
3.185018614444637
 30
0.0
 11
3.102081973455011
 21
3.102084746094184
 31
0.0
  0
LINE
  5
117
330
1F
100
AcDbEntity
  8
Layer 01
100
AcDbLine
 10
3.102081973455011
 20
3.102084746094184
 30
0.0
 11
3.191066976488761
 21
3.021138428450374
 31
0.0
  0
LINE
  5
118
330
1F
100
AcDbEntity
  8
Layer 01
100
AcDbLine
 10
3.191066976488761
 20
3.021138428450374
 30
0.0
 11
3.281725298626119
 21
2.942215762043448
 31
0.0
  0
LINE
  5
119
330
1F
100
AcDbEntity
  8
Layer 01
100
AcDbLine
 10
3.281725298626119
 20
2.942215762043448
 30
0.0
 11
3.374011986007288
 21
2.865352847403648
 31
0.0
  0
LINE
  5
11A
330
1F
100
AcDbEntity
  8
Layer 01
100
AcDbLine
 10
3.374011986007288
 20
2.865352847403648
 30
0.0
 11
3.467882084772469
 21
2.790585785061213
 31
0.0
  0
LINE
  5
11B
330
1F
100
AcDbEntity
  8
Layer 01
100
AcDbLine
 10
3.467882084772469
 20
2.790585785061213
 30
0.0
 11
3.563289759769791
 21
2.717949248325061
 31
0.0
  0
LINE
  5
11C
330
1F
100
AcDbEntity
  8
Layer 01
100
AcDbLine
 10
3.563289759769791
 20
2.717949248325061
 30
0.0
 11
3.660185650679077
 21
2.647472201618801
 31
0.0
  0
LINE
  5
11D
330
1F
100
AcDbEntity
  8
Layer 01
100
AcDbLine
 10
3.660185650679077
 20
2.647472201618801
 30
0.0
 11
3.758519515888076
 21
2.579182182144719
 31
0.0
  0
LINE
  5
11E
330
1F
100
AcDbEntity
  8
Layer 01
100
AcDbLine
 10
3.758519515888076
 20
2.579182182144719
 30
0.0
 11
3.858241113784539
 21
2.513106727105101
 31
0.0
  0
LINE
  5
11F
330
1F
100
AcDbEntity
  8
Layer 01
100
AcDbLine
 10
3.858241113784539
 20
2.513106727105101
 30
0.0
 11
3.959300202756213
 21
2.449273373702231
 31
0.0
  0
LINE
  5
120
330
1F
100
AcDbEntity
  8
Layer 01
100
AcDbLine
 10
3.959300202756213
 20
2.449273373702231
 30
0.0
 11
4.061646541190848
 21
2.387709659138395
 31
0.0
  0
LINE
  5
121
330
1F
100
AcDbEntity
  8
Layer 01
100
AcDbLine
 10
4.061646541190848
 20
2.387709659138395
 30
0.0
 11
4.165229887476194
 21
2.328443120615878
 31
0.0
  0
LINE
  5
122
330
1F
100
AcDbEntity
  8
Layer 01
100
AcDbLine
 10
4.165229887476194
 20
2.328443120615878
 30
0.0
 11
4.269999999999998
 21
2.271501295336967
 31
0.0
  0
LINE
  5
123
330
1F
100
AcDbEntity
  8
Layer 01
100
AcDbLine
 10
4.269999999999998
 20
2.271501295336967
 30
0.0
 11
4.375906022367107
 21
2.216910171086146
 31
0.0
  0
LINE
  5
124
330
1F
100
AcDbEntity
  8
Layer 01
100
AcDbLine
 10
4.375906022367107
 20
2.216910171086146
 30
0.0
 11
4.482894639050752
 21
2.164689537976703
 31
0.0
  0
LINE
  5
125
330
1F
100
AcDbEntity
  8
Layer 01
100
AcDbLine
 10
4.482894639050752
 20
2.164689537976703
 30
0.0
 11
4.590911919741261
 21
2.114857636704131
 31
0.0
  0
LINE
  5
126
330
1F
100
AcDbEntity
  8
Layer 01
100
AcDbLine
 10
4.590911919741261
 20
2.114857636704131
 30
0.0
 11
4.699903934128962
 21
2.067432707963917
 31
0.0
  0
LINE
  5
127
330
1F
100
AcDbEntity
  8
Layer 01
100
AcDbLine
 10
4.699903934128962
 20
2.067432707963917
 30
0.0
 11
4.809816751904182
 21
2.022432992451552
 31
0.0
  0
LINE
  5
128
330
1F
100
AcDbEntity
  8
Layer 01
100
AcDbLine
 10
4.809816751904182
 20
2.022432992451552
 30
0.0
 11
4.920596442757251
 21
1.979876730862526
 31
0.0
  0
LINE
  5
129
330
1F
100
AcDbEntity
  8
Layer 01
100
AcDbLine
 10
4.920596442757251
 20
1.979876730862526
 30
0.0
 11
5.032189076378495
 21
1.939782163892328
 31
0.0
  0
LINE
  5
12A
330
1F
100
AcDbEntity
  8
Layer 01
100
AcDbLine
 10
5.032189076378495
 20
1.939782163892328
 30
0.0
 11
5.144540722458244
 21
1.902167532236448
 31
0.0
  0
LINE
  5
12B
330
1F
100
AcDbEntity
  8
Layer 01
100
AcDbLine
 10
5.144540722458244
 20
1.902167532236448
 30
0.0
 11
5.257597117913257
 21
1.867049453890182
 31
0.0
  0
LINE
  5
12C
330
1F
100
AcDbEntity
  8
Layer 01
100
AcDbLine
 10
5.257597117913257
 20
1.867049453890182
 30
0.0
 11
5.371302668566026
 21
1.834438056048049
 31
0.0
  0
LINE
  5
12D
330
1F
100
AcDbEntity
  8
Layer 01
100
AcDbLine
 10
5.371302668566026
 20
1.834438056048049
 30
0.0
 11
5.485601447465474
 21
1.804341843204372
 31
0.0
  0
LINE
  5
12E
330
1F
100
AcDbEntity
  8
Layer 01
100
AcDbLine
 10
5.485601447465474
 20
1.804341843204372
 30
0.0
 11
5.600437527660525
 21
1.776769319853476
 31
0.0
  0
LINE
  5
12F
330
1F
100
AcDbEntity
  8
Layer 01
100
AcDbLine
 10
5.600437527660525
 20
1.776769319853476
 30
0.0
 11
5.715754982200105
 21
1.751728990489687
 31
0.0
  0
LINE
  5
130
330
1F
100
AcDbEntity
  8
Layer 01
100
AcDbLine
 10
5.715754982200105
 20
1.751728990489687
 30
0.0
 11
5.831497884133135
 21
1.729229359607328
 31
0.0
  0
LINE
  5
131
330
1F
100
AcDbEntity
  8
Layer 01
100
AcDbLine
 10
5.831497884133135
 20
1.729229359607328
 30
0.0
 11
5.947610306508541
 21
1.709278931700724
 31
0.0
  0
LINE
  5
132
330
1F
100
AcDbEntity
  8
Layer 01
100
AcDbLine
 10
5.947610306508541
 20
1.709278931700724
 30
0.0
 11
6.064036322375246
 21
1.691886211264199
 31
0.0
  0
LINE
  5
133
330
1F
100
AcDbEntity
  8
Layer 01
100
AcDbLine
 10
6.064036322375246
 20
1.691886211264199
 30
0.0
 11
6.180719960678919
 21
1.677058057370177
 31
0.0
  0
LINE
  5
134
330
1F
100
AcDbEntity
  8
Layer 01
100
AcDbLine
 10
6.180719960678919
 20
1.677058057370177
 30
0.0
 11
6.29760507395221
 21
1.664794747403471
 31
0.0
  0
LINE
  5
135
330
1F
100
AcDbEntity
  8
Layer 01
100
AcDbLine
 10
6.29760507395221
 20
1.664794747403471
 30
0.0
 11
6.414635470624512
 21
1.655094913326994
 31
0.0
  0
LINE
  5
136
330
1F
100
AcDbEntity
  8
Layer 01
100
AcDbLine
 10
6.414635470624512
 20
1.655094913326994
 30
0.0
 11
6.53175495912522
 21
1.64795718710366
 31
0.0
  0
LINE
  5
137
330
1F
100
AcDbEntity
  8
Layer 01
100
AcDbLine
 10
6.53175495912522
 20
1.64795718710366
 30
0.0
 11
6.648907347883729
 21
1.643380200696381
 31
0.0
  0
LINE
  5
138
330
1F
100
AcDbEntity
  8
Layer 01
100
AcDbLine
 10
6.648907347883729
 20
1.643380200696381
 30
0.0
 11
6.766036445329433
 21
1.641362586068069
 31
0.0
  0
LINE
  5
139
330
1F
100
AcDbEntity
  8
Layer 01
100
AcDbLine
 10
6.766036445329433
 20
1.641362586068069
 30
0.0
 11
6.883086059891725
 21
1.641902975181638
 31
0.0
  0
LINE
  5
13A
330
1F
100
AcDbEntity
  8
Layer 01
100
AcDbLine
 10
6.883086059891725
 20
1.641902975181638
 30
0.0
 11
7.000000000000001
 21
1.645
 31
0.0
  0
LINE
  5
13B
330
1F
100
AcDbEntity
  8
Layer 01
100
AcDbLine
 10
7.000000000000001
 20
1.645
 30
0.0
 11
7.116722316374942
 21
1.650650674975338
 31
0.0
  0
LINE
  5
13C
330
1F
100
AcDbEntity
  8
Layer 01
100
AcDbLine
 10
7.116722316374942
 20
1.650650674975338
 30
0.0
 11
7.233198028902379
 21
1.658845544516912
 31
0.0
  0
LINE
  5
13D
330
1F
100
AcDbEntity
  8
Layer 01
100
AcDbLine
 10
7.233198028902379
 20
1.658845544516912
 30
0.0
 11
7.349372399759431
 21
1.669573535523253
 31
0.0
  0
LINE
  5
13E
330
1F
100
AcDbEntity
  8
Layer 01
100
AcDbLine
 10
7.349372399759431
 20
1.669573535523253
 30
0.0
 11
7.465190691123217
 21
1.682823574892893
 31
0.0
  0
LINE
  5
13F
330
1F
100
AcDbEntity
  8
Layer 01
100
AcDbLine
 10
7.465190691123217
 20
1.682823574892893
 30
0.0
 11
7.580598165170855
 21
1.698584589524363
 31
0.0
  0
LINE
  5
140
330
1F
100
AcDbEntity
  8
Layer 01
100
AcDbLine
 10
7.580598165170855
 20
1.698584589524363
 30
0.0
 11
7.695540084079464
 21
1.716845506316192
 31
0.0
  0
LINE
  5
141
330
1F
100
AcDbEntity
  8
Layer 01
100
AcDbLine
 10
7.695540084079464
 20
1.716845506316192
 30
0.0
 11
7.809961710026162
 21
1.737595252166912
 31
0.0
  0
LINE
  5
142
330
1F
100
AcDbEntity
  8
Layer 01
100
AcDbLine
 10
7.809961710026162
 20
1.737595252166912
 30
0.0
 11
7.923808305188068
 21
1.760822753975053
 31
0.0
  0
LINE
  5
143
330
1F
100
AcDbEntity
  8
Layer 01
100
AcDbLine
 10
7.923808305188068
 20
1.760822753975053
 30
0.0
 11
8.037025649394629
 21
1.786515398186833
 31
0.0
  0
LINE
  5
144
330
1F
100
AcDbEntity
  8
Layer 01
100
AcDbLine
 10
8.037025649394629
 20
1.786515398186833
 30
0.0
 11
8.149561593084591
 21
1.814654409439214
 31
0.0
  0
LINE
  5
145
330
1F
100
AcDbEntity
  8
Layer 01
100
AcDbLine
 10
8.149561593084591
 20
1.814654409439214
 30
0.0
 11
8.261364504349032
 21
1.845219471916846
 31
0.0
  0
LINE
  5
146
330
1F
100
AcDbEntity
  8
Layer 01
100
AcDbLine
 10
8.261364504349032
 20
1.845219471916846
 30
0.0
 11
8.372382751279035
 21
1.878190269804377
 31
0.0
  0
LINE
  5
147
330
1F
100
AcDbEntity
  8
Layer 01
100
AcDbLine
 10
8.372382751279035
 20
1.878190269804377
 30
0.0
 11
8.482564701965671
 21
1.913546487286456
 31
0.0
  0
LINE
  5
148
330
1F
100
AcDbEntity
  8
Layer 01
100
AcDbLine
 10
8.482564701965671
 20
1.913546487286456
 30
0.0
 11
8.591858724500021
 21
1.951267808547733
 31
0.0
  0
LINE
  5
149
330
1F
100
AcDbEntity
  8
Layer 01
100
AcDbLine
 10
8.591858724500021
 20
1.951267808547733
 30
0.0
 11
8.700213186973158
 21
1.991333917772856
 31
0.0
  0
LINE
  5
14A
330
1F
100
AcDbEntity
  8
Layer 01
100
AcDbLine
 10
8.700213186973158
 20
1.991333917772856
 30
0.0
 11
8.807576457476161
 21
2.033724499146475
 31
0.0
  0
LINE
  5
14B
330
1F
100
AcDbEntity
  8
Layer 01
100
AcDbLine
 10
8.807576457476161
 20
2.033724499146475
 30
0.0
 11
8.913897677769043
 21
2.078417819627637
 31
0.0
  0
LINE
  5
14C
330
1F
100
AcDbEntity
  8
Layer 01
100
AcDbLine
 10
8.913897677769043
 20
2.078417819627637
 30
0.0
 11
9.019129084287565
 21
2.12538647727299
 31
0.0
  0
LINE
  5
14D
330
1F
100
AcDbEntity
  8
Layer 01
100
AcDbLine
 10
9.019129084287565
 20
2.12538647727299
 30
0.0
 11
9.12322368713642
 21
2.174601652913579
 31
0.0
  0
LINE
  5
14E
330
1F
100
AcDbEntity
  8
Layer 01
100
AcDbLine
 10
9.12322368713642
 20
2.174601652913579
 30
0.0
 11
9.226134496420302
 21
2.226034527380452
 31
0.0
  0
LINE
  5
14F
330
1F
100
AcDbEntity
  8
Layer 01
100
AcDbLine
 10
9.226134496420302
 20
2.226034527380452
 30
0.0
 11
9.327814522243909
 21
2.279656281504654
 31
0.0
  0
LINE
  5
150
330
1F
100
AcDbEntity
  8
Layer 01
100
AcDbLine
 10
9.327814522243909
 20
2.279656281504654
 30
0.0
 11
9.428216774711931
 21
2.335438096117232
 31
0.0
  0
LINE
  5
151
330
1F
100
AcDbEntity
  8
Layer 01
100
AcDbLine
 10
9.428216774711931
 20
2.335438096117232
 30
0.0
 11
9.527294263929065
 21
2.393351152049232
 31
0.0
  0
LINE
  5
152
330
1F
100
AcDbEntity
  8
Layer 01
100
AcDbLine
 10
9.527294263929065
 20
2.393351152049232
 30
0.0
 11
9.625000000000005
 21
2.4533666301317
 31
0.0
  0
LINE
  5
153
330
1F
100
AcDbEntity
  8
Layer 01
100
AcDbLine
 10
9.625000000000005
 20
2.4533666301317
 30
0.0
 11
9.721287995757272
 21
2.515454459002715
 31
0.0
  0
LINE
  5
154
330
1F
100
AcDbEntity
  8
Layer 01
100
AcDbLine
 10
9.721287995757272
 20
2.515454459002715
 30
0.0
 11
9.816116274944703
 21
2.579579558528486
 31
0.0
  0
LINE
  5
155
330
1F
100
AcDbEntity
  8
Layer 01
100
AcDbLine
 10
9.816116274944703
 20
2.579579558528486
 30
0.0
 11
9.909443864033944
 21
2.645705596382255
 31
0.0
  0
LINE
  5
156
330
1F
100
AcDbEntity
  8
Layer 01
100
AcDbLine
 10
9.909443864033944
 20
2.645705596382255
 30
0.0
 11
10.00122978949666
 21
2.713796240237264
 31
0.0
  0
LINE
  5
157
330
1F
100
AcDbEntity
  8
Layer 01
100
AcDbLine
 10
10.00122978949666
 20
2.713796240237264
 30
0.0
 11
10.09143307780449
 21
2.783815157766754
 31
0.0
  0
LINE
  5
158
330
1F
100
AcDbEntity
  8
Layer 01
100
AcDbLine
 10
10.09143307780449
 20
2.783815157766754
 30
0.0
 11
10.18001275542911
 21
2.855726016643967
 31
0.0
  0
LINE
  5
159
330
1F
100
AcDbEntity
  8
Layer 01
100
AcDbLine
 10
10.18001275542911
 20
2.855726016643967
 30
0.0
 11
10.26692784884216
 21
2.929492484542145
 31
0.0
  0
LINE
  5
15A
330
1F
100
AcDbEntity
  8
Layer 01
100
AcDbLine
 10
10.26692784884216
 20
2.929492484542145
 30
0.0
 11
10.35213738451531
 21
3.005078229134529
 31
0.0
  0
LINE
  5
15B
330
1F
100
AcDbEntity
  8
Layer 01
100
AcDbLine
 10
10.35213738451531
 20
3.005078229134529
 30
0.0
 11
10.43560158705984
 21
3.082445867145474
 31
0.0
  0
LINE
  5
15C
330
1F
100
AcDbEntity
  8
Layer 01
100
AcDbLine
 10
10.43560158705984
 20
3.082445867145474
 30
0.0
 11
10.51728547364559
 21
3.161553811503785
 31
0.0
  0
LINE
  5
15D
330
1F
100
AcDbEntity
  8
Layer 01
100
AcDbLine
 10
10.51728547364559
 20
3.161553811503785
 30
0.0
 11
10.59715525958203
 21
3.24235942418938
 31
0.0
  0
LINE
  5
15E
330
1F
100
AcDbEntity
  8
Layer 01
100
AcDbLine
 10
10.59715525958203
 20
3.24235942418938
 30
0.0
 11
10.67517716017865
 21
3.324820067182176
 31
0.0
  0
LINE
  5
15F
330
1F
100
AcDbEntity
  8
Layer 01
100
AcDbLine
 10
10.67517716017865
 20
3.324820067182176
 30
0.0
 11
10.75131739074491
 21
3.408893102462091
 31
0.0
  0
LINE
  5
160
330
1F
100
AcDbEntity
  8
Layer 01
100
AcDbLine
 10
10.75131739074491
 20
3.408893102462091
 30
0.0
 11
10.82554216659029
 21
3.494535892009043
 31
0.0
  0
LINE
  5
161
330
1F
100
AcDbEntity
  8
Layer 01
100
AcDbLine
 10
10.82554216659029
 20
3.494535892009043
 30
0.0
 11
10.89781770302427
 21
3.581705797802949
 31
0.0
  0
LINE
  5
162
330
1F
100
AcDbEntity
  8
Layer 01
100
AcDbLine
 10
10.89781770302427
 20
3.581705797802949
 30
0.0
 11
10.96811021535631
 21
3.670360181823729
 31
0.0
  0
LINE
  5
163
330
1F
100
AcDbEntity
  8
Layer 01
100
AcDbLine
 10
10.96811021535631
 20
3.670360181823729
 30
0.0
 11
11.03638727322986
 21
3.760455585918978
 31
0.0
  0
LINE
  5
164
330
1F
100
AcDbEntity
  8
Layer 01
100
AcDbLine
 10
11.03638727322986
 20
3.760455585918978
 30
0.0
 11
11.10262186362422
 21
3.85194527140702
 31
0.0
  0
LINE
  5
165
330
1F
100
AcDbEntity
  8
Layer 01
100
AcDbLine
 10
11.10262186362422
 20
3.85194527140702
 30
0.0
 11
11.16678832785268
 21
3.944781679473856
 31
0.0
  0
LINE
  5
166
330
1F
100
AcDbEntity
  8
Layer 01
100
AcDbLine
 10
11.16678832785268
 20
3.944781679473856
 30
0.0
 11
11.2288610072285
 21
4.038917251305486
 31
0.0
  0
LINE
  5
167
330
1F
100
AcDbEntity
  8
Layer 01
100
AcDbLine
 10
11.2288610072285
 20
4.038917251305486
 30
0.0
 11
11.28881424306496
 21
4.134304428087915
 31
0.0
  0
LINE
  5
168
330
1F
100
AcDbEntity
  8
Layer 01
100
AcDbLine
 10
11.28881424306496
 20
4.134304428087915
 30
0.0
 11
11.34662237667534
 21
4.230895651007142
 31
0.0
  0
LINE
  5
169
330
1F
100
AcDbEntity
  8
Layer 01
100
AcDbLine
 10
11.34662237667534
 20
4.230895651007142
 30
0.0
 11
11.40225974937291
 21
4.328643361249171
 31
0.0
  0
LINE
  5
16A
330
1F
100
AcDbEntity
  8
Layer 01
100
AcDbLine
 10
11.40225974937291
 20
4.328643361249171
 30
0.0
 11
11.45570070247094
 21
4.427500000000002
 31
0.0
  0
LINE
  5
16B
330
1F
100
AcDbEntity
  8
Layer 01
100
AcDbLine
 10
11.45570070247094
 20
4.427500000000002
 30
0.0
 11
11.50692104430019
 21
4.52741744123658
 31
0.0
  0
LINE
  5
16C
330
1F
100
AcDbEntity
  8
Layer 01
100
AcDbLine
 10
11.50692104430019
 20
4.52741744123658
 30
0.0
 11
11.55590245126136
 21
4.628345290099613
 31
0.0
  0
LINE
  5
16D
330
1F
100
AcDbEntity
  8
Layer 01
100
AcDbLine
 10
11.55590245126136
 20
4.628345290099613
 30
0.0
 11
11.6026280667726
 21
4.730232584520754
 31
0.0
  0
LINE
  5
16E
330
1F
100
AcDbEntity
  8
Layer 01
100
AcDbLine
 10
11.6026280667726
 20
4.730232584520754
 30
0.0
 11
11.6470810342521
 21
4.833028362431651
 31
0.0
  0
LINE
  5
16F
330
1F
100
AcDbEntity
  8
Layer 01
100
AcDbLine
 10
11.6470810342521
 20
4.833028362431651
 30
0.0
 11
11.68924449711801
 21
4.936681661763956
 31
0.0
  0
LINE
  5
170
330
1F
100
AcDbEntity
  8
Layer 01
100
AcDbLine
 10
11.68924449711801
 20
4.936681661763956
 30
0.0
 11
11.72910159878852
 21
5.041141520449321
 31
0.0
  0
LINE
  5
171
330
1F
100
AcDbEntity
  8
Layer 01
100
AcDbLine
 10
11.72910159878852
 20
5.041141520449321
 30
0.0
 11
11.76663548268179
 21
5.146356976419396
 31
0.0
  0
LINE
  5
172
330
1F
100
AcDbEntity
  8
Layer 01
100
AcDbLine
 10
11.76663548268179
 20
5.146356976419396
 30
0.0
 11
11.80182929221599
 21
5.252277067605831
 31
0.0
  0
LINE
  5
173
330
1F
100
AcDbEntity
  8
Layer 01
100
AcDbLine
 10
11.80182929221599
 20
5.252277067605831
 30
0.0
 11
11.83466770409991
 21
5.358850531709137
 31
0.0
  0
LINE
  5
174
330
1F
100
AcDbEntity
  8
Layer 01
100
AcDbLine
 10
11.83466770409991
 20
5.358850531709137
 30
0.0
 11
11.86514152820477
 21
5.466024905505261
 31
0.0
  0
LINE
  5
175
330
1F
100
AcDbEntity
  8
Layer 01
100
AcDbLine
 10
11.86514152820477
 20
5.466024905505261
 30
0.0
 11
11.89324310769242
 21
5.573747425539009
 31
0.0
  0
LINE
  5
176
330
1F
100
AcDbEntity
  8
Layer 01
100
AcDbLine
 10
11.89324310769242
 20
5.573747425539009
 30
0.0
 11
11.9189647857247
 21
5.681965328355187
 31
0.0
  0
LINE
  5
177
330
1F
100
AcDbEntity
  8
Layer 01
100
AcDbLine
 10
11.9189647857247
 20
5.681965328355187
 30
0.0
 11
11.94229890546345
 21
5.790625850498602
 31
0.0
  0
LINE
  5
178
330
1F
100
AcDbEntity
  8
Layer 01
100
AcDbLine
 10
11.94229890546345
 20
5.790625850498602
 30
0.0
 11
11.96323781007051
 21
5.89967622851406
 31
0.0
  0
LINE
  5
179
330
1F
100
AcDbEntity
  8
Layer 01
100
AcDbLine
 10
11.96323781007051
 20
5.89967622851406
 30
0.0
 11
11.98177384270774
 21
6.009063698946367
 31
0.0
  0
LINE
  5
17A
330
1F
100
AcDbEntity
  8
Layer 01
100
AcDbLine
 10
11.98177384270774
 20
6.009063698946367
 30
0.0
 11
11.99789934653696
 21
6.118735498340328
 31
0.0
  0
LINE
  5
17B
330
1F
100
AcDbEntity
  8
Layer 01
100
AcDbLine
 10
11.99789934653696
 20
6.118735498340328
 30
0.0
 11
12.01160821643974
 21
6.228638835659719
 31
0.0
  0
LINE
  5
17C
330
1F
100
AcDbEntity
  8
Layer 01
100
AcDbLine
 10
12.01160821643974
 20
6.228638835659719
 30
0.0
 11
12.02290055417652
 21
6.338720809544187
 31
0.0
  0
LINE
  5
17D
330
1F
100
AcDbEntity
  8
Layer 01
100
AcDbLine
 10
12.02290055417652
 20
6.338720809544187
 30
0.0
 11
12.03177801322746
 21
6.448928491052344
 31
0.0
  0
LINE
  5
17E
330
1F
100
AcDbEntity
  8
Layer 01
100
AcDbLine
 10
12.03177801322746
 20
6.448928491052344
 30
0.0
 11
12.03824224707271
 21
6.559208951242807
 31
0.0
  0
LINE
  5
17F
330
1F
100
AcDbEntity
  8
Layer 01
100
AcDbLine
 10
12.03824224707271
 20
6.559208951242807
 30
0.0
 11
12.04229490919244
 21
6.66950926117419
 31
0.0
  0
LINE
  5
180
330
1F
100
AcDbEntity
  8
Layer 01
100
AcDbLine
 10
12.04229490919244
 20
6.66950926117419
 30
0.0
 11
12.04393765306678
 21
6.779776491905107
 31
0.0
  0
LINE
  5
181
330
1F
100
AcDbEntity
  8
Layer 01
100
AcDbLine
 10
12.04393765306678
 20
6.779776491905107
 30
0.0
 11
12.04317213217592
 21
6.889957714494173
 31
0.0
  0
LINE
  5
182
330
1F
100
AcDbEntity
  8
Layer 01
100
AcDbLine
 10
12.04317213217592
 20
6.889957714494173
 30
0.0
 11
12.04
 21
7.000000000000002
 31
0.0
  0
LINE
  5
183
330
1F
100
AcDbEntity
  8
Layer 01
100
AcDbLine
 10
12.04
 20
7.000000000000002
 30
0.0
 11
12.03442443238222
 21
7.109850661772495
 31
0.0
  0
LINE
  5
184
330
1F
100
AcDbEntity
  8
Layer 01
100
AcDbLine
 10
12.03442443238222
 20
7.109850661772495
 30
0.0
 11
12.02645469461794
 21
7.219457982326706
 31
0.0
  0
LINE
  5
185
330
1F
100
AcDbEntity
  8
Layer 01
100
AcDbLine
 10
12.02645469461794
 20
7.219457982326706
 30
0.0
 11
12.01610157436556
 21
7.328770486468971
 31
0.0
  0
LINE
  5
186
330
1F
100
AcDbEntity
  8
Layer 01
100
AcDbLine
 10
12.01610157436556
 20
7.328770486468971
 30
0.0
 11
12.00337585928347
 21
7.437736699005632
 31
0.0
  0
LINE
  5
187
330
1F
100
AcDbEntity
  8
Layer 01
100
AcDbLine
 10
12.00337585928347
 20
7.437736699005632
 30
0.0
 11
11.98828833703009
 21
7.546305144743026
 31
0.0
  0
LINE
  5
188
330
1F
100
AcDbEntity
  8
Layer 01
100
AcDbLine
 10
11.98828833703009
 20
7.546305144743026
 30
0.0
 11
11.9708497952638
 21
7.65442434848749
 31
0.0
  0
LINE
  5
189
330
1F
100
AcDbEntity
  8
Layer 01
100
AcDbLine
 10
11.9708497952638
 20
7.65442434848749
 30
0.0
 11
11.951071021643
 21
7.762042835045365
 31
0.0
  0
LINE
  5
18A
330
1F
100
AcDbEntity
  8
Layer 01
100
AcDbLine
 10
11.951071021643
 20
7.762042835045365
 30
0.0
 11
11.9289628038261
 21
7.86910912922299
 31
0.0
  0
LINE
  5
18B
330
1F
100
AcDbEntity
  8
Layer 01
100
AcDbLine
 10
11.9289628038261
 20
7.86910912922299
 30
0.0
 11
11.90453737622162
 21
7.975572256956807
 31
0.0
  0
LINE
  5
18C
330
1F
100
AcDbEntity
  8
Layer 01
100
AcDbLine
 10
11.90453737622162
 20
7.975572256956807
 30
0.0
 11
11.87781276023862
 21
8.08138324870367
 31
0.0
  0
LINE
  5
18D
330
1F
100
AcDbEntity
  8
Layer 01
100
AcDbLine
 10
11.87781276023862
 20
8.08138324870367
 30
0.0
 11
11.84880842403629
 21
8.186493636050542
 31
0.0
  0
LINE
  5
18E
330
1F
100
AcDbEntity
  8
Layer 01
100
AcDbLine
 10
11.84880842403629
 20
8.186493636050542
 30
0.0
 11
11.81754383577379
 21
8.290854950584379
 31
0.0
  0
LINE
  5
18F
330
1F
100
AcDbEntity
  8
Layer 01
100
AcDbLine
 10
11.81754383577379
 20
8.290854950584379
 30
0.0
 11
11.78403846361033
 21
8.39441872389214
 31
0.0
  0
LINE
  5
190
330
1F
100
AcDbEntity
  8
Layer 01
100
AcDbLine
 10
11.78403846361033
 20
8.39441872389214
 30
0.0
 11
11.74831177570508
 21
8.497136487560788
 31
0.0
  0
LINE
  5
191
330
1F
100
AcDbEntity
  8
Layer 01
100
AcDbLine
 10
11.74831177570508
 20
8.497136487560788
 30
0.0
 11
11.71038324021723
 21
8.59895977317728
 31
0.0
  0
LINE
  5
192
330
1F
100
AcDbEntity
  8
Layer 01
100
AcDbLine
 10
11.71038324021723
 20
8.59895977317728
 30
0.0
 11
11.67027232530597
 21
8.699840112328577
 31
0.0
  0
LINE
  5
193
330
1F
100
AcDbEntity
  8
Layer 01
100
AcDbLine
 10
11.67027232530597
 20
8.699840112328577
 30
0.0
 11
11.62799982694648
 21
8.799729777728148
 31
0.0
  0
LINE
  5
194
330
1F
100
AcDbEntity
  8
Layer 01
100
AcDbLine
 10
11.62799982694648
 20
8.799729777728148
 30
0.0
 11
11.58359185237806
 21
8.898584006595499
 31
0.0
  0
LINE
  5
195
330
1F
100
AcDbEntity
  8
Layer 01
100
AcDbLine
 10
11.58359185237806
 20
8.898584006595499
 30
0.0
 11
11.53707583665598
 21
8.99635877727665
 31
0.0
  0
LINE
  5
196
330
1F
100
AcDbEntity
  8
Layer 01
100
AcDbLine
 10
11.53707583665598
 20
8.99635877727665
 30
0.0
 11
11.48847921483556
 21
9.093010068117614
 31
0.0
  0
LINE
  5
197
330
1F
100
AcDbEntity
  8
Layer 01
100
AcDbLine
 10
11.48847921483556
 20
9.093010068117614
 30
0.0
 11
11.43782942197208
 21
9.188493857464415
 31
0.0
  0
LINE
  5
198
330
1F
100
AcDbEntity
  8
Layer 01
100
AcDbLine
 10
11.43782942197208
 20
9.188493857464415
 30
0.0
 11
11.38515389312083
 21
9.28276612366307
 31
0.0
  0
LINE
  5
199
330
1F
100
AcDbEntity
  8
Layer 01
100
AcDbLine
 10
11.38515389312083
 20
9.28276612366307
 30
0.0
 11
11.3304800633371
 21
9.375782845059593
 31
0.0
  0
LINE
  5
19A
330
1F
100
AcDbEntity
  8
Layer 01
100
AcDbLine
 10
11.3304800633371
 20
9.375782845059593
 30
0.0
 11
11.2738353676762
 21
9.467500000000005
 31
0.0
  0
LINE
  5
19B
330
1F
100
AcDbEntity
  8
Layer 01
100
AcDbLine
 10
11.2738353676762
 20
9.467500000000005
 30
0.0
 11
11.21524841098607
 21
9.557874521984301
 31
0.0
  0
LINE
  5
19C
330
1F
100
AcDbEntity
  8
Layer 01
100
AcDbLine
 10
11.21524841098607
 20
9.557874521984301
 30
0.0
 11
11.15475247728525
 21
9.646867165128413
 31
0.0
  0
LINE
  5
19D
330
1F
100
AcDbEntity
  8
Layer 01
100
AcDbLine
 10
11.15475247728525
 20
9.646867165128413
 30
0.0
 11
11.09238202038494
 21
9.734439638702245
 31
0.0
  0
LINE
  5
19E
330
1F
100
AcDbEntity
  8
Layer 01
100
AcDbLine
 10
11.09238202038494
 20
9.734439638702245
 30
0.0
 11
11.02817149409633
 21
9.820553651975711
 31
0.0
  0
LINE
  5
19F
330
1F
100
AcDbEntity
  8
Layer 01
100
AcDbLine
 10
11.02817149409633
 20
9.820553651975711
 30
0.0
 11
10.96215535223064
 21
9.905170914218713
 31
0.0
  0
LINE
  5
1A0
330
1F
100
AcDbEntity
  8
Layer 01
100
AcDbLine
 10
10.96215535223064
 20
9.905170914218713
 30
0.0
 11
10.89436804859906
 21
9.988253134701166
 31
0.0
  0
LINE
  5
1A1
330
1F
100
AcDbEntity
  8
Layer 01
100
AcDbLine
 10
10.89436804859906
 20
9.988253134701166
 30
0.0
 11
10.82484403701277
 21
10.06976202269298
 31
0.0
  0
LINE
  5
1A2
330
1F
100
AcDbEntity
  8
Layer 01
100
AcDbLine
 10
10.82484403701277
 20
10.06976202269298
 30
0.0
 11
10.75361777128299
 21
10.14965928746405
 31
0.0
  0
LINE
  5
1A3
330
1F
100
AcDbEntity
  8
Layer 01
100
AcDbLine
 10
10.75361777128299
 20
10.14965928746405
 30
0.0
 11
10.68072468328244
 21
10.22790777526417
 31
0.0
  0
LINE
  5
1A4
330
1F
100
AcDbEntity
  8
Layer 01
100
AcDbLine
 10
10.68072468328244
 20
10.22790777526417
 30
0.0
 11
10.60620411712996
 21
10.30447488026266
 31
0.0
  0
LINE
  5
1A5
330
1F
100
AcDbEntity
  8
Layer 01
100
AcDbLine
 10
10.60620411712996
 20
10.30447488026266
 30
0.0
 11
10.53009639500591
 21
10.3793291336087
 31
0.0
  0
LINE
  5
1A6
330
1F
100
AcDbEntity
  8
Layer 01
100
AcDbLine
 10
10.53009639500591
 20
10.3793291336087
 30
0.0
 11
10.45244183909066
 21
10.45243906645148
 31
0.0
  0
LINE
  5
1A7
330
1F
100
AcDbEntity
  8
Layer 01
100
AcDbLine
 10
10.45244183909066
 20
10.45243906645148
 30
0.0
 11
10.37328077156458
 21
10.5237732099402
 31
0.0
  0
LINE
  5
1A8
330
1F
100
AcDbEntity
  8
Layer 01
100
AcDbLine
 10
10.37328077156458
 20
10.5237732099402
 30
0.0
 11
10.29265351460804
 21
10.59330009522403
 31
0.0
  0
LINE
  5
1A9
330
1F
100
AcDbEntity
  8
Layer 01
100
AcDbLine
 10
10.29265351460804
 20
10.59330009522403
 30
0.0
 11
10.21060039040139
 21
10.66098825345218
 31
0.0
  0
LINE
  5
1AA
330
1F
100
AcDbEntity
  8
Layer 01
100
AcDbLine
 10
10.21060039040139
 20
10.66098825345218
 30
0.0
 11
10.12716172112502
 21
10.72680621577383
 31
0.0
  0
LINE
  5
1AB
330
1F
100
AcDbEntity
  8
Layer 01
100
AcDbLine
 10
10.12716172112502
 20
10.72680621577383
 30
0.0
 11
10.04237858793184
 21
10.79072379478477
 31
0.0
  0
LINE
  5
1AC
330
1F
100
AcDbEntity
  8
Layer 01
100
AcDbLine
 10
10.04237858793184
 20
10.79072379478477
 30
0.0
 11
9.956295107865044
 21
10.85271592886724
 31
0.0
  0
LINE
  5
1AD
330
1F
100
AcDbEntity
  8
Layer 01
100
AcDbLine
 10
9.956295107865044
 20
10.85271592886724
 30
0.0
 11
9.868956156940374
 21
10.91275883785007
 31
0.0
  0
LINE
  5
1AE
330
1F
100
AcDbEntity
  8
Layer 01
100
AcDbLine
 10
9.868956156940374
 20
10.91275883785007
 30
0.0
 11
9.780406611173575
 21
10.9708287415621
 31
0.0
  0
LINE
  5
1AF
330
1F
100
AcDbEntity
  8
Layer 01
100
AcDbLine
 10
9.780406611173575
 20
10.9708287415621
 30
0.0
 11
9.690691346580394
 21
11.02690185983215
 31
0.0
  0
LINE
  5
1B0
330
1F
100
AcDbEntity
  8
Layer 01
100
AcDbLine
 10
9.690691346580394
 20
11.02690185983215
 30
0.0
 11
9.599855239176573
 21
11.08095441248907
 31
0.0
  0
LINE
  5
1B1
330
1F
100
AcDbEntity
  8
Layer 01
100
AcDbLine
 10
9.599855239176573
 20
11.08095441248907
 30
0.0
 11
9.507943164977863
 21
11.13296261936169
 31
0.0
  0
LINE
  5
1B2
330
1F
100
AcDbEntity
  8
Layer 01
100
AcDbLine
 10
9.507943164977863
 20
11.13296261936169
 30
0.0
 11
9.415000000000003
 21
11.18290270027884
 31
0.0
  0
LINE
  5
1B3
330
1F
100
AcDbEntity
  8
Layer 01
100
AcDbLine
 10
9.415000000000003
 20
11.18290270027884
 30
0.0
 11
9.321071139893954
 21
11.23075225968653
 31
0.0
  0
LINE
  5
1B4
330
1F
100
AcDbEntity
  8
Layer 01
100
AcDbLine
 10
9.321071139893954
 20
11.23075225968653
 30
0.0
 11
9.22620405885153
 21
11.27649444049941
 31
0.0
  0
LINE
  5
1B5
330
1F
100
AcDbEntity
  8
Layer 01
100
AcDbLine
 10
9.22620405885153
 20
11.27649444049941
 30
0.0
 11
9.130446750699758
 21
11.32011377024933
 31
0.0
  0
LINE
  5
1B6
330
1F
100
AcDbEntity
  8
Layer 01
100
AcDbLine
 10
9.130446750699758
 20
11.32011377024933
 30
0.0
 11
9.033847209265664
 21
11.36159477646811
 31
0.0
  0
LINE
  5
1B7
330
1F
100
AcDbEntity
  8
Layer 01
100
AcDbLine
 10
9.033847209265664
 20
11.36159477646811
 30
0.0
 11
8.936453428376272
 21
11.40092198668758
 31
0.0
  0
LINE
  5
1B8
330
1F
100
AcDbEntity
  8
Layer 01
100
AcDbLine
 10
8.936453428376272
 20
11.40092198668758
 30
0.0
 11
8.83831340185861
 21
11.43807992843957
 31
0.0
  0
LINE
  5
1B9
330
1F
100
AcDbEntity
  8
Layer 01
100
AcDbLine
 10
8.83831340185861
 20
11.43807992843957
 30
0.0
 11
8.739475123539705
 21
11.47305312925591
 31
0.0
  0
LINE
  5
1BA
330
1F
100
AcDbEntity
  8
Layer 01
100
AcDbLine
 10
8.739475123539705
 20
11.47305312925591
 30
0.0
 11
8.639986587246582
 21
11.50582611666843
 31
0.0
  0
LINE
  5
1BB
330
1F
100
AcDbEntity
  8
Layer 01
100
AcDbLine
 10
8.639986587246582
 20
11.50582611666843
 30
0.0
 11
8.539896054494982
 21
11.53638486209
 31
0.0
  0
LINE
  5
1BC
330
1F
100
AcDbEntity
  8
Layer 01
100
AcDbLine
 10
8.539896054494982
 20
11.53638486209
 30
0.0
 11
8.439252857555502
 21
11.56472111245759
 31
0.0
  0
LINE
  5
1BD
330
1F
100
AcDbEntity
  8
Layer 01
100
AcDbLine
 10
8.439252857555502
 20
11.56472111245759
 30
0.0
 11
8.338106596387455
 21
11.59082805858921
 31
0.0
  0
LINE
  5
1BE
330
1F
100
AcDbEntity
  8
Layer 01
100
AcDbLine
 10
8.338106596387455
 20
11.59082805858921
 30
0.0
 11
8.23650687095015
 21
11.61469889130287
 31
0.0
  0
LINE
  5
1BF
330
1F
100
AcDbEntity
  8
Layer 01
100
AcDbLine
 10
8.23650687095015
 20
11.61469889130287
 30
0.0
 11
8.134503281202898
 21
11.63632680141658
 31
0.0
  0
LINE
  5
1C0
330
1F
100
AcDbEntity
  8
Layer 01
100
AcDbLine
 10
8.134503281202898
 20
11.63632680141658
 30
0.0
 11
8.032145427105014
 21
11.65570497974835
 31
0.0
  0
LINE
  5
1C1
330
1F
100
AcDbEntity
  8
Layer 01
100
AcDbLine
 10
8.032145427105014
 20
11.65570497974835
 30
0.0
 11
7.929482908615807
 21
11.67282661711619
 31
0.0
  0
LINE
  5
1C2
330
1F
100
AcDbEntity
  8
Layer 01
100
AcDbLine
 10
7.929482908615807
 20
11.67282661711619
 30
0.0
 11
7.826565325694588
 21
11.68768490433811
 31
0.0
  0
LINE
  5
1C3
330
1F
100
AcDbEntity
  8
Layer 01
100
AcDbLine
 10
7.826565325694588
 20
11.68768490433811
 30
0.0
 11
7.723442289359478
 21
11.70027449024965
 31
0.0
  0
LINE
  5
1C4
330
1F
100
AcDbEntity
  8
Layer 01
100
AcDbLine
 10
7.723442289359478
 20
11.70027449024965
 30
0.0
 11
7.620163454863834
 21
11.71059585575651
 31
0.0
  0
LINE
  5
1C5
330
1F
100
AcDbEntity
  8
Layer 01
100
AcDbLine
 10
7.620163454863834
 20
11.71059585575651
 30
0.0
 11
7.516778488519821
 21
11.71865093978191
 31
0.0
  0
LINE
  5
1C6
330
1F
100
AcDbEntity
  8
Layer 01
100
AcDbLine
 10
7.516778488519821
 20
11.71865093978191
 30
0.0
 11
7.413337056639604
 21
11.72444168124908
 31
0.0
  0
LINE
  5
1C7
330
1F
100
AcDbEntity
  8
Layer 01
100
AcDbLine
 10
7.413337056639604
 20
11.72444168124908
 30
0.0
 11
7.309888825535348
 21
11.72797001908124
 31
0.0
  0
LINE
  5
1C8
330
1F
100
AcDbEntity
  8
Layer 01
100
AcDbLine
 10
7.309888825535348
 20
11.72797001908124
 30
0.0
 11
7.206483461519218
 21
11.72923789220163
 31
0.0
  0
LINE
  5
1C9
330
1F
100
AcDbEntity
  8
Layer 01
100
AcDbLine
 10
7.206483461519218
 20
11.72923789220163
 30
0.0
 11
7.10317063090338
 21
11.72824723953348
 31
0.0
  0
LINE
  5
1CA
330
1F
100
AcDbEntity
  8
Layer 01
100
AcDbLine
 10
7.10317063090338
 20
11.72824723953348
 30
0.0
 11
6.999999999999998
 21
11.725
 31
0.0
  0
LINE
  5
1CB
330
1F
100
AcDbEntity
  8
Layer 01
100
AcDbLine
 10
6.999999999999998
 20
11.725
 30
0.0
 11
6.897020992829955
 21
11.71949953973978
 31
0.0
  0
LINE
  5
1CC
330
1F
100
AcDbEntity
  8
Layer 01
100
AcDbLine
 10
6.897020992829955
 20
11.71949953973978
 30
0.0
 11
6.794282064248971
 21
11.71175493375279
 31
0.0
  0
LINE
  5
1CD
330
1F
100
AcDbEntity
  8
Layer 01
100
AcDbLine
 10
6.794282064248971
 20
11.71175493375279
 30
0.0
 11
6.691831426821492
 21
11.70177668425437
 31
0.0
  0
LINE
  5
1CE
330
1F
100
AcDbEntity
  8
Layer 01
100
AcDbLine
 10
6.691831426821492
 20
11.70177668425437
 30
0.0
 11
6.589717293111959
 21
11.68957529345984
 31
0.0
  0
LINE
  5
1CF
330
1F
100
AcDbEntity
  8
Layer 01
100
AcDbLine
 10
6.589717293111959
 20
11.68957529345984
 30
0.0
 11
6.487987875684811
 21
11.67516126358454
 31
0.0
  0
LINE
  5
1D0
330
1F
100
AcDbEntity
  8
Layer 01
100
AcDbLine
 10
6.487987875684811
 20
11.67516126358454
 30
0.0
 11
6.386691387104491
 21
11.65854509684379
 31
0.0
  0
LINE
  5
1D1
330
1F
100
AcDbEntity
  8
Layer 01
100
AcDbLine
 10
6.386691387104491
 20
11.65854509684379
 30
0.0
 11
6.285876039935439
 21
11.63973729545291
 31
0.0
  0
LINE
  5
1D2
330
1F
100
AcDbEntity
  8
Layer 01
100
AcDbLine
 10
6.285876039935439
 20
11.63973729545291
 30
0.0
 11
6.185590046742096
 21
11.61874836162725
 31
0.0
  0
LINE
  5
1D3
330
1F
100
AcDbEntity
  8
Layer 01
100
AcDbLine
 10
6.185590046742096
 20
11.61874836162725
 30
0.0
 11
6.085881135481022
 21
11.59559015063008
 31
0.0
  0
LINE
  5
1D4
330
1F
100
AcDbEntity
  8
Layer 01
100
AcDbLine
 10
6.085881135481022
 20
11.59559015063008
 30
0.0
 11
5.986795095677257
 21
11.57027992991646
 31
0.0
  0
LINE
  5
1D5
330
1F
100
AcDbEntity
  8
Layer 01
100
AcDbLine
 10
5.986795095677257
 20
11.57027992991646
 30
0.0
 11
5.88837723224796
 21
11.54283631998942
 31
0.0
  0
LINE
  5
1D6
330
1F
100
AcDbEntity
  8
Layer 01
100
AcDbLine
 10
5.88837723224796
 20
11.54283631998942
 30
0.0
 11
5.790672850110287
 21
11.51327794135197
 31
0.0
  0
LINE
  5
1D7
330
1F
100
AcDbEntity
  8
Layer 01
100
AcDbLine
 10
5.790672850110287
 20
11.51327794135197
 30
0.0
 11
5.693727254181397
 21
11.48162341450712
 31
0.0
  0
LINE
  5
1D8
330
1F
100
AcDbEntity
  8
Layer 01
100
AcDbLine
 10
5.693727254181397
 20
11.48162341450712
 30
0.0
 11
5.597585749378449
 21
11.4478913599579
 31
0.0
  0
LINE
  5
1D9
330
1F
100
AcDbEntity
  8
Layer 01
100
AcDbLine
 10
5.597585749378449
 20
11.4478913599579
 30
0.0
 11
5.5022936406186
 21
11.41210039820732
 31
0.0
  0
LINE
  5
1DA
330
1F
100
AcDbEntity
  8
Layer 01
100
AcDbLine
 10
5.5022936406186
 20
11.41210039820732
 30
0.0
 11
5.407896232819009
 21
11.3742691497584
 31
0.0
  0
LINE
  5
1DB
330
1F
100
AcDbEntity
  8
Layer 01
100
AcDbLine
 10
5.407896232819009
 20
11.3742691497584
 30
0.0
 11
5.314438122312753
 21
11.3344174735206
 31
0.0
  0
LINE
  5
1DC
330
1F
100
AcDbEntity
  8
Layer 01
100
AcDbLine
 10
5.314438122312753
 20
11.3344174735206
 30
0.0
 11
5.221961071096573
 21
11.2925701820291
 31
0.0
  0
LINE
  5
1DD
330
1F
100
AcDbEntity
  8
Layer 01
100
AcDbLine
 10
5.221961071096573
 20
11.2925701820291
 30
0.0
 11
5.130506132583128
 21
11.24875332622555
 31
0.0
  0
LINE
  5
1DE
330
1F
100
AcDbEntity
  8
Layer 01
100
AcDbLine
 10
5.130506132583128
 20
11.24875332622555
 30
0.0
 11
5.040114360185076
 21
11.20299295705157
 31
0.0
  0
LINE
  5
1DF
330
1F
100
AcDbEntity
  8
Layer 01
100
AcDbLine
 10
5.040114360185076
 20
11.20299295705157
 30
0.0
 11
4.950826807315079
 21
11.15531512544881
 31
0.0
  0
LINE
  5
1E0
330
1F
100
AcDbEntity
  8
Layer 01
100
AcDbLine
 10
4.950826807315079
 20
11.15531512544881
 30
0.0
 11
4.862684527385795
 21
11.10574588235889
 31
0.0
  0
LINE
  5
1E1
330
1F
100
AcDbEntity
  8
Layer 01
100
AcDbLine
 10
4.862684527385795
 20
11.10574588235889
 30
0.0
 11
4.775728573809884
 21
11.05431127872344
 31
0.0
  0
LINE
  5
1E2
330
1F
100
AcDbEntity
  8
Layer 01
100
AcDbLine
 10
4.775728573809884
 20
11.05431127872344
 30
0.0
 11
4.690000000000004
 21
11.00103736548411
 31
0.0
  0
LINE
  5
1E3
330
1F
100
AcDbEntity
  8
Layer 01
100
AcDbLine
 10
4.690000000000004
 20
11.00103736548411
 30
0.0
 11
4.605538951788679
 21
10.94595128097485
 31
0.0
  0
LINE
  5
1E4
330
1F
100
AcDbEntity
  8
Layer 01
100
AcDbLine
 10
4.605538951788679
 20
10.94595128097485
 30
0.0
 11
4.522381944687885
 21
10.88908451309898
 31
0.0
  0
LINE
  5
1E5
330
1F
100
AcDbEntity
  8
Layer 01
100
AcDbLine
 10
4.522381944687885
 20
10.88908451309898
 30
0.0
 11
4.440564586629458
 21
10.83046963715213
 31
0.0
  0
LINE
  5
1E6
330
1F
100
AcDbEntity
  8
Layer 01
100
AcDbLine
 10
4.440564586629458
 20
10.83046963715213
 30
0.0
 11
4.36012248554524
 21
10.77013922842994
 31
0.0
  0
LINE
  5
1E7
330
1F
100
AcDbEntity
  8
Layer 01
100
AcDbLine
 10
4.36012248554524
 20
10.77013922842994
 30
0.0
 11
4.281091249367068
 21
10.70812586222804
 31
0.0
  0
LINE
  5
1E8
330
1F
100
AcDbEntity
  8
Layer 01
100
AcDbLine
 10
4.281091249367068
 20
10.70812586222804
 30
0.0
 11
4.203506486026782
 21
10.64446211384208
 31
0.0
  0
LINE
  5
1E9
330
1F
100
AcDbEntity
  8
Layer 01
100
AcDbLine
 10
4.203506486026782
 20
10.64446211384208
 30
0.0
 11
4.12740380345622
 21
10.57918055856769
 31
0.0
  0
LINE
  5
1EA
330
1F
100
AcDbEntity
  8
Layer 01
100
AcDbLine
 10
4.12740380345622
 20
10.57918055856769
 30
0.0
 11
4.052818809587219
 21
10.51231377170052
 31
0.0
  0
LINE
  5
1EB
330
1F
100
AcDbEntity
  8
Layer 01
100
AcDbLine
 10
4.052818809587219
 20
10.51231377170052
 30
0.0
 11
3.979786036531495
 21
10.44389523371036
 31
0.0
  0
LINE
  5
1EC
330
1F
100
AcDbEntity
  8
Layer 01
100
AcDbLine
 10
3.979786036531495
 20
10.44389523371036
 30
0.0
 11
3.908335713120268
 21
10.3739620457637
 31
0.0
  0
LINE
  5
1ED
330
1F
100
AcDbEntity
  8
Layer 01
100
AcDbLine
 10
3.908335713120268
 20
10.3739620457637
 30
0.0
 11
3.838496992364633
 21
10.30255221420119
 31
0.0
  0
LINE
  5
1EE
330
1F
100
AcDbEntity
  8
Layer 01
100
AcDbLine
 10
3.838496992364633
 20
10.30255221420119
 30
0.0
 11
3.770299027275684
 21
10.22970374536349
 31
0.0
  0
LINE
  5
1EF
330
1F
100
AcDbEntity
  8
Layer 01
100
AcDbLine
 10
3.770299027275684
 20
10.22970374536349
 30
0.0
 11
3.703770970864515
 21
10.15545464559125
 31
0.0
  0
LINE
  5
1F0
330
1F
100
AcDbEntity
  8
Layer 01
100
AcDbLine
 10
3.703770970864515
 20
10.15545464559125
 30
0.0
 11
3.638941976142224
 21
10.07984292122511
 31
0.0
  0
LINE
  5
1F1
330
1F
100
AcDbEntity
  8
Layer 01
100
AcDbLine
 10
3.638941976142224
 20
10.07984292122511
 30
0.0
 11
3.575841196119903
 21
10.00290657860572
 31
0.0
  0
LINE
  5
1F2
330
1F
100
AcDbEntity
  8
Layer 01
100
AcDbLine
 10
3.575841196119903
 20
10.00290657860572
 30
0.0
 11
3.51449778380865
 21
9.924683624073753
 31
0.0
  0
LINE
  5
1F3
330
1F
100
AcDbEntity
  8
Layer 01
100
AcDbLine
 10
3.51449778380865
 20
9.924683624073753
 30
0.0
 11
3.454939683660309
 21
9.84521276178265
 31
0.0
  0
LINE
  5
1F4
330
1F
100
AcDbEntity
  8
Layer 01
100
AcDbLine
 10
3.454939683660309
 20
9.84521276178265
 30
0.0
 11
3.397190005889735
 21
9.764535487137099
 31
0.0
  0
LINE
  5
1F5
330
1F
100
AcDbEntity
  8
Layer 01
100
AcDbLine
 10
3.397190005889735
 20
9.764535487137099
 30
0.0
 11
3.341270652152533
 21
9.682693993354595
 31
0.0
  0
LINE
  5
1F6
330
1F
100
AcDbEntity
  8
Layer 01
100
AcDbLine
 10
3.341270652152533
 20
9.682693993354595
 30
0.0
 11
3.287203524104306
 21
9.599730473652631
 31
0.0
  0
LINE
  5
1F7
330
1F
100
AcDbEntity
  8
Layer 01
100
AcDbLine
 10
3.287203524104306
 20
9.599730473652631
 30
0.0
 11
3.235010523400661
 21
9.515687121248696
 31
0.0
  0
LINE
  5
1F8
330
1F
100
AcDbEntity
  8
Layer 01
100
AcDbLine
 10
3.235010523400661
 20
9.515687121248696
 30
0.0
 11
3.184713551697202
 21
9.430606129360285
 31
0.0
  0
LINE
  5
1F9
330
1F
100
AcDbEntity
  8
Layer 01
100
AcDbLine
 10
3.184713551697202
 20
9.430606129360285
 30
0.0
 11
3.136334510649534
 21
9.344529691204892
 31
0.0
  0
LINE
  5
1FA
330
1F
100
AcDbEntity
  8
Layer 01
100
AcDbLine
 10
3.136334510649534
 20
9.344529691204892
 30
0.0
 11
3.089895301913262
 21
9.257500000000006
 31
0.0
  0
LINE
  5
1FB
330
1F
100
AcDbEntity
  8
Layer 01
100
AcDbLine
 10
3.089895301913262
 20
9.257500000000006
 30
0.0
 11
3.045416524927142
 21
9.169559721024488
 31
0.0
  0
LINE
  5
1FC
330
1F
100
AcDbEntity
  8
Layer 01
100
AcDbLine
 10
3.045416524927142
 20
9.169559721024488
 30
0.0
 11
3.002913570262533
 21
9.080753407802675
 31
0.0
  0
LINE
  5
1FD
330
1F
100
AcDbEntity
  8
Layer 01
100
AcDbLine
 10
3.002913570262533
 20
9.080753407802675
 30
0.0
 11
2.962400526273943
 21
8.99112608592027
 31
0.0
  0
LINE
  5
1FE
330
1F
100
AcDbEntity
  8
Layer 01
100
AcDbLine
 10
2.962400526273943
 20
8.99112608592027
 30
0.0
 11
2.923891481315883
 21
8.900722780962976
 31
0.0
  0
LINE
  5
1FF
330
1F
100
AcDbEntity
  8
Layer 01
100
AcDbLine
 10
2.923891481315883
 20
8.900722780962976
 30
0.0
 11
2.887400523742862
 21
8.809588518516499
 31
0.0
  0
LINE
  5
200
330
1F
100
AcDbEntity
  8
Layer 01
100
AcDbLine
 10
2.887400523742862
 20
8.809588518516499
 30
0.0
 11
2.85294174190939
 21
8.717768324166538
 31
0.0
  0
LINE
  5
201
330
1F
100
AcDbEntity
  8
Layer 01
100
AcDbLine
 10
2.85294174190939
 20
8.717768324166538
 30
0.0
 11
2.820529224169976
 21
8.625307223498801
 31
0.0
  0
LINE
  5
202
330
1F
100
AcDbEntity
  8
Layer 01
100
AcDbLine
 10
2.820529224169976
 20
8.625307223498801
 30
0.0
 11
2.790177058879129
 21
8.532250242098991
 31
0.0
  0
LINE
  5
203
330
1F
100
AcDbEntity
  8
Layer 01
100
AcDbLine
 10
2.790177058879129
 20
8.532250242098991
 30
0.0
 11
2.761897979919912
 21
8.438642640699097
 31
0.0
  0
LINE
  5
204
330
1F
100
AcDbEntity
  8
Layer 01
100
AcDbLine
 10
2.761897979919912
 20
8.438642640699097
 30
0.0
 11
2.735699303289595
 21
8.344530620616261
 31
0.0
  0
LINE
  5
205
330
1F
100
AcDbEntity
  8
Layer 01
100
AcDbLine
 10
2.735699303289595
 20
8.344530620616261
 30
0.0
 11
2.711586990514003
 21
8.249960618313914
 31
0.0
  0
LINE
  5
206
330
1F
100
AcDbEntity
  8
Layer 01
100
AcDbLine
 10
2.711586990514003
 20
8.249960618313914
 30
0.0
 11
2.689567003118958
 21
8.154979070255482
 31
0.0
  0
LINE
  5
207
330
1F
100
AcDbEntity
  8
Layer 01
100
AcDbLine
 10
2.689567003118958
 20
8.154979070255482
 30
0.0
 11
2.669645302630286
 21
8.059632412904396
 31
0.0
  0
LINE
  5
208
330
1F
100
AcDbEntity
  8
Layer 01
100
AcDbLine
 10
2.669645302630286
 20
8.059632412904396
 30
0.0
 11
2.651827850573809
 21
7.963967082724086
 31
0.0
  0
LINE
  5
209
330
1F
100
AcDbEntity
  8
Layer 01
100
AcDbLine
 10
2.651827850573809
 20
7.963967082724086
 30
0.0
 11
2.636120608475351
 21
7.868029516177979
 31
0.0
  0
LINE
  5
20A
330
1F
100
AcDbEntity
  8
Layer 01
100
AcDbLine
 10
2.636120608475351
 20
7.868029516177979
 30
0.0
 11
2.622529537860736
 21
7.771866149729505
 31
0.0
  0
LINE
  5
20B
330
1F
100
AcDbEntity
  8
Layer 01
100
AcDbLine
 10
2.622529537860736
 20
7.771866149729505
 30
0.0
 11
2.611059235940433
 21
7.675523414378677
 31
0.0
  0
LINE
  5
20C
330
1F
100
AcDbEntity
  8
Layer 01
100
AcDbLine
 10
2.611059235940433
 20
7.675523414378677
 30
0.0
 11
2.601708842663501
 21
7.579047719271857
 31
0.0
  0
LINE
  5
20D
330
1F
100
AcDbEntity
  8
Layer 01
100
AcDbLine
 10
2.601708842663501
 20
7.579047719271857
 30
0.0
 11
2.594476133663639
 21
7.482485468091988
 31
0.0
  0
LINE
  5
20E
330
1F
100
AcDbEntity
  8
Layer 01
100
AcDbLine
 10
2.594476133663639
 20
7.482485468091988
 30
0.0
 11
2.589358884574553
 21
7.385883064522016
 31
0.0
  0
LINE
  5
20F
330
1F
100
AcDbEntity
  8
Layer 01
100
AcDbLine
 10
2.589358884574553
 20
7.385883064522016
 30
0.0
 11
2.586354871029943
 21
7.289286912244886
 31
0.0
  0
LINE
  5
210
330
1F
100
AcDbEntity
  8
Layer 01
100
AcDbLine
 10
2.586354871029943
 20
7.289286912244886
 30
0.0
 11
2.585461868663513
 21
7.192743414943543
 31
0.0
  0
LINE
  5
211
330
1F
100
AcDbEntity
  8
Layer 01
100
AcDbLine
 10
2.585461868663513
 20
7.192743414943543
 30
0.0
 11
2.586677653108965
 21
7.096298976300933
 31
0.0
  0
LINE
  5
212
330
1F
100
AcDbEntity
  8
Layer 01
100
AcDbLine
 10
2.586677653108965
 20
7.096298976300933
 30
0.0
 11
2.590000000000001
 21
6.999999999999998
 31
0.0
  0
LINE
  5
213
330
1F
100
AcDbEntity
  8
Layer 01
100
AcDbLine
 10
2.590000000000001
 20
6.999999999999998
 30
0.0
 11
2.595425352902664
 21
6.9038926474324
 31
0.0
  0
LINE
  5
214
330
1F
100
AcDbEntity
  8
Layer 01
100
AcDbLine
 10
2.595425352902664
 20
6.9038926474324
 30
0.0
 11
2.602944827112355
 21
6.808022110824644
 31
0.0
  0
LINE
  5
215
330
1F
100
AcDbEntity
  8
Layer 01
100
AcDbLine
 10
2.602944827112355
 20
6.808022110824644
 30
0.0
 11
2.612548205856816
 21
6.712433340111952
 31
0.0
  0
LINE
  5
216
330
1F
100
AcDbEntity
  8
Layer 01
100
AcDbLine
 10
2.612548205856816
 20
6.712433340111952
 30
0.0
 11
2.624225272363787
 21
6.617171285229544
 31
0.0
  0
LINE
  5
217
330
1F
100
AcDbEntity
  8
Layer 01
100
AcDbLine
 10
2.624225272363787
 20
6.617171285229544
 30
0.0
 11
2.637965809861008
 21
6.522280896112642
 31
0.0
  0
LINE
  5
218
330
1F
100
AcDbEntity
  8
Layer 01
100
AcDbLine
 10
2.637965809861008
 20
6.522280896112642
 30
0.0
 11
2.653759601576222
 21
6.427807122696466
 31
0.0
  0
LINE
  5
219
330
1F
100
AcDbEntity
  8
Layer 01
100
AcDbLine
 10
2.653759601576222
 20
6.427807122696466
 30
0.0
 11
2.671596430737169
 21
6.333794914916238
 31
0.0
  0
LINE
  5
21A
330
1F
100
AcDbEntity
  8
Layer 01
100
AcDbLine
 10
2.671596430737169
 20
6.333794914916238
 30
0.0
 11
2.69146608057159
 21
6.240289222707178
 31
0.0
  0
LINE
  5
21B
330
1F
100
AcDbEntity
  8
Layer 01
100
AcDbLine
 10
2.69146608057159
 20
6.240289222707178
 30
0.0
 11
2.713357074961462
 21
6.147334527918849
 31
0.0
  0
LINE
  5
21C
330
1F
100
AcDbEntity
  8
Layer 01
100
AcDbLine
 10
2.713357074961462
 20
6.147334527918849
 30
0.0
 11
2.737252900405697
 21
6.054973440058183
 31
0.0
  0
LINE
  5
21D
330
1F
100
AcDbEntity
  8
Layer 01
100
AcDbLine
 10
2.737252900405697
 20
6.054973440058183
 30
0.0
 11
2.763135784057448
 21
5.963248100546458
 31
0.0
  0
LINE
  5
21E
330
1F
100
AcDbEntity
  8
Layer 01
100
AcDbLine
 10
2.763135784057448
 20
5.963248100546458
 30
0.0
 11
2.790987953069862
 21
5.872200650804951
 31
0.0
  0
LINE
  5
21F
330
1F
100
AcDbEntity
  8
Layer 01
100
AcDbLine
 10
2.790987953069862
 20
5.872200650804951
 30
0.0
 11
2.82079163459609
 21
5.781873232254934
 31
0.0
  0
LINE
  5
220
330
1F
100
AcDbEntity
  8
Layer 01
100
AcDbLine
 10
2.82079163459609
 20
5.781873232254934
 30
0.0
 11
2.852529055789283
 21
5.692307986317687
 31
0.0
  0
LINE
  5
221
330
1F
100
AcDbEntity
  8
Layer 01
100
AcDbLine
 10
2.852529055789283
 20
5.692307986317687
 30
0.0
 11
2.886182443802589
 21
5.603547054414483
 31
0.0
  0
LINE
  5
222
330
1F
100
AcDbEntity
  8
Layer 01
100
AcDbLine
 10
2.886182443802589
 20
5.603547054414483
 30
0.0
 11
2.921734025789158
 21
5.5156325779666
 31
0.0
  0
LINE
  5
223
330
1F
100
AcDbEntity
  8
Layer 01
100
AcDbLine
 10
2.921734025789158
 20
5.5156325779666
 30
0.0
 11
2.959164879905286
 21
5.428606022353654
 31
0.0
  0
LINE
  5
224
330
1F
100
AcDbEntity
  8
Layer 01
100
AcDbLine
 10
2.959164879905286
 20
5.428606022353654
 30
0.0
 11
2.998451488319855
 21
5.342506148788643
 31
0.0
  0
LINE
  5
225
330
1F
100
AcDbEntity
  8
Layer 01
100
AcDbLine
 10
2.998451488319855
 20
5.342506148788643
 30
0.0
 11
3.03956918420489
 21
5.2573710424429
 31
0.0
  0
LINE
  5
226
330
1F
100
AcDbEntity
  8
Layer 01
100
AcDbLine
 10
3.03956918420489
 20
5.2573710424429
 30
0.0
 11
3.082493300732417
 21
5.173238788487764
 31
0.0
  0
LINE
  5
227
330
1F
100
AcDbEntity
  8
Layer 01
100
AcDbLine
 10
3.082493300732417
 20
5.173238788487764
 30
0.0
 11
3.127199171074464
 21
5.090147472094568
 31
0.0
  0
LINE
  5
228
330
1F
100
AcDbEntity
  8
Layer 01
100
AcDbLine
 10
3.127199171074464
 20
5.090147472094568
 30
0.0
 11
3.173662128403058
 21
5.008135178434651
 31
0.0
  0
LINE
  5
229
330
1F
100
AcDbEntity
  8
Layer 01
100
AcDbLine
 10
3.173662128403058
 20
5.008135178434651
 30
0.0
 11
3.221857505890225
 21
4.92723999267935
 31
0.0
  0
LINE
  5
22A
330
1F
100
AcDbEntity
  8
Layer 01
100
AcDbLine
 10
3.221857505890225
 20
4.92723999267935
 30
0.0
 11
3.271760636707991
 21
4.847500000000002
 31
0.0
  0
LINE
  5
22B
330
1F
100
AcDbEntity
  8
Layer 01
100
AcDbLine
 10
3.271760636707991
 20
4.847500000000002
 30
0.0
 11
3.323345849036365
 21
4.76895242556165
 31
0.0
  0
LINE
  5
22C
330
1F
100
AcDbEntity
  8
Layer 01
100
AcDbLine
 10
3.323345849036365
 20
4.76895242556165
 30
0.0
 11
3.376583451087288
 21
4.691631054504173
 31
0.0
  0
LINE
  5
22D
330
1F
100
AcDbEntity
  8
Layer 01
100
AcDbLine
 10
3.376583451087288
 20
4.691631054504173
 30
0.0
 11
3.431442746080681
 21
4.615568811961155
 31
0.0
  0
LINE
  5
22E
330
1F
100
AcDbEntity
  8
Layer 01
100
AcDbLine
 10
3.431442746080681
 20
4.615568811961155
 30
0.0
 11
3.487893037236466
 21
4.540798623066184
 31
0.0
  0
LINE
  5
22F
330
1F
100
AcDbEntity
  8
Layer 01
100
AcDbLine
 10
3.487893037236466
 20
4.540798623066184
 30
0.0
 11
3.545903627774564
 21
4.467353412952846
 31
0.0
  0
LINE
  5
230
330
1F
100
AcDbEntity
  8
Layer 01
100
AcDbLine
 10
3.545903627774564
 20
4.467353412952846
 30
0.0
 11
3.605443820914899
 21
4.395266106754725
 31
0.0
  0
LINE
  5
231
330
1F
100
AcDbEntity
  8
Layer 01
100
AcDbLine
 10
3.605443820914899
 20
4.395266106754725
 30
0.0
 11
3.666482919877391
 21
4.324569629605407
 31
0.0
  0
LINE
  5
232
330
1F
100
AcDbEntity
  8
Layer 01
100
AcDbLine
 10
3.666482919877391
 20
4.324569629605407
 30
0.0
 11
3.728990227881964
 21
4.255296906638479
 31
0.0
  0
LINE
  5
233
330
1F
100
AcDbEntity
  8
Layer 01
100
AcDbLine
 10
3.728990227881964
 20
4.255296906638479
 30
0.0
 11
3.792934215861728
 21
4.187479848327159
 31
0.0
  0
LINE
  5
234
330
1F
100
AcDbEntity
  8
Layer 01
100
AcDbLine
 10
3.792934215861728
 20
4.187479848327159
 30
0.0
 11
3.858280025602559
 21
4.121146306503195
 31
0.0
  0
LINE
  5
235
330
1F
100
AcDbEntity
  8
Layer 01
100
AcDbLine
 10
3.858280025602559
 20
4.121146306503195
 30
0.0
 11
3.924991966603518
 21
4.056323118337966
 31
0.0
  0
LINE
  5
236
330
1F
100
AcDbEntity
  8
Layer 01
100
AcDbLine
 10
3.924991966603518
 20
4.056323118337966
 30
0.0
 11
3.993034348363673
 21
3.993037121002851
 31
0.0
  0
LINE
  5
237
330
1F
100
AcDbEntity
  8
Layer 01
100
AcDbLine
 10
3.993034348363673
 20
3.993037121002851
 30
0.0
 11
4.062371480382084
 21
3.93131515166923
 31
0.0
  0
LINE
  5
238
330
1F
100
AcDbEntity
  8
Layer 01
100
AcDbLine
 10
4.062371480382084
 20
3.93131515166923
 30
0.0
 11
4.132967672157818
 21
3.871184047508482
 31
0.0
  0
LINE
  5
239
330
1F
100
AcDbEntity
  8
Layer 01
100
AcDbLine
 10
4.132967672157818
 20
3.871184047508482
 30
0.0
 11
4.204787233189936
 21
3.812670645691989
 31
0.0
  0
LINE
  5
23A
330
1F
100
AcDbEntity
  8
Layer 01
100
AcDbLine
 10
4.204787233189936
 20
3.812670645691989
 30
0.0
 11
4.277794472977506
 21
3.755801783391128
 31
0.0
  0
LINE
  5
23B
330
1F
100
AcDbEntity
  8
Layer 01
100
AcDbLine
 10
4.277794472977506
 20
3.755801783391128
 30
0.0
 11
4.351953064366539
 21
3.700603162105391
 31
0.0
  0
LINE
  5
23C
330
1F
100
AcDbEntity
  8
Layer 01
100
AcDbLine
 10
4.351953064366539
 20
3.700603162105391
 30
0.0
 11
4.427224133590844
 21
3.647095940646712
 31
0.0
  0
LINE
  5
23D
330
1F
100
AcDbEntity
  8
Layer 01
100
AcDbLine
 10
4.427224133590844
 20
3.647095940646712
 30
0.0
 11
4.503568170231184
 21
3.595300142155135
 31
0.0
  0
LINE
  5
23E
330
1F
100
AcDbEntity
  8
Layer 01
100
AcDbLine
 10
4.503568170231184
 20
3.595300142155135
 30
0.0
 11
4.580945663868318
 21
3.545235789770704
 31
0.0
  0
LINE
  5
23F
330
1F
100
AcDbEntity
  8
Layer 01
100
AcDbLine
 10
4.580945663868318
 20
3.545235789770704
 30
0.0
 11
4.659317104083008
 21
3.496922906633467
 31
0.0
  0
LINE
  5
240
330
1F
100
AcDbEntity
  8
Layer 01
100
AcDbLine
 10
4.659317104083008
 20
3.496922906633467
 30
0.0
 11
4.738642980456012
 21
3.450381515883466
 31
0.0
  0
LINE
  5
241
330
1F
100
AcDbEntity
  8
Layer 01
100
AcDbLine
 10
4.738642980456012
 20
3.450381515883466
 30
0.0
 11
4.818883782568091
 21
3.405631640660747
 31
0.0
  0
LINE
  5
242
330
1F
100
AcDbEntity
  8
Layer 01
100
AcDbLine
 10
4.818883782568091
 20
3.405631640660747
 30
0.0
 11
4.900000000000004
 21
3.362693304105356
 31
0.0
  0
LINE
  5
243
330
1F
100
AcDbEntity
  8
Layer 01
100
AcDbLine
 10
4.900000000000004
 20
3.362693304105356
 30
0.0
 11
4.98195169784499
 21
3.321585309540803
 31
0.0
  0
LINE
  5
244
330
1F
100
AcDbEntity
  8
Layer 01
100
AcDbLine
 10
4.98195169784499
 20
3.321585309540803
 30
0.0
 11
5.064697243246191
 21
3.282321581024472
 31
0.0
  0
LINE
  5
245
330
1F
100
AcDbEntity
  8
Layer 01
100
AcDbLine
 10
5.064697243246191
 20
3.282321581024472
 30
0.0
 11
5.148194578859226
 21
3.244914822797211
 31
0.0
  0
LINE
  5
246
330
1F
100
AcDbEntity
  8
Layer 01
100
AcDbLine
 10
5.148194578859226
 20
3.244914822797211
 30
0.0
 11
5.232401647339715
 21
3.20937773909987
 31
0.0
  0
LINE
  5
247
330
1F
100
AcDbEntity
  8
Layer 01
100
AcDbLine
 10
5.232401647339715
 20
3.20937773909987
 30
0.0
 11
5.317276391343277
 21
3.175723034173298
 31
0.0
  0
LINE
  5
248
330
1F
100
AcDbEntity
  8
Layer 01
100
AcDbLine
 10
5.317276391343277
 20
3.175723034173298
 30
0.0
 11
5.402776753525531
 21
3.143963412258345
 31
0.0
  0
LINE
  5
249
330
1F
100
AcDbEntity
  8
Layer 01
100
AcDbLine
 10
5.402776753525531
 20
3.143963412258345
 30
0.0
 11
5.488860676542098
 21
3.114111577595859
 31
0.0
  0
LINE
  5
24A
330
1F
100
AcDbEntity
  8
Layer 01
100
AcDbLine
 10
5.488860676542098
 20
3.114111577595859
 30
0.0
 11
5.575486103048595
 21
3.086180234426691
 31
0.0
  0
LINE
  5
24B
330
1F
100
AcDbEntity
  8
Layer 01
100
AcDbLine
 10
5.575486103048595
 20
3.086180234426691
 30
0.0
 11
5.662610773096781
 21
3.060180821929823
 31
0.0
  0
LINE
  5
24C
330
1F
100
AcDbEntity
  8
Layer 01
100
AcDbLine
 10
5.662610773096781
 20
3.060180821929823
 30
0.0
 11
5.75019161632297
 21
3.036119719036779
 31
0.0
  0
LINE
  5
24D
330
1F
100
AcDbEntity
  8
Layer 01
100
AcDbLine
 10
5.75019161632297
 20
3.036119719036779
 30
0.0
 11
5.838185359759618
 21
3.014002039617214
 31
0.0
  0
LINE
  5
24E
330
1F
100
AcDbEntity
  8
Layer 01
100
AcDbLine
 10
5.838185359759618
 20
3.014002039617214
 30
0.0
 11
5.926548730439176
 21
2.993832897540787
 31
0.0
  0
LINE
  5
24F
330
1F
100
AcDbEntity
  8
Layer 01
100
AcDbLine
 10
5.926548730439176
 20
2.993832897540787
 30
0.0
 11
6.015238455394098
 21
2.975617406677153
 31
0.0
  0
LINE
  5
250
330
1F
100
AcDbEntity
  8
Layer 01
100
AcDbLine
 10
6.015238455394098
 20
2.975617406677153
 30
0.0
 11
6.104211261656836
 21
2.959360680895969
 31
0.0
  0
LINE
  5
251
330
1F
100
AcDbEntity
  8
Layer 01
100
AcDbLine
 10
6.104211261656836
 20
2.959360680895969
 30
0.0
 11
6.193423876259844
 21
2.945067834066893
 31
0.0
  0
LINE
  5
252
330
1F
100
AcDbEntity
  8
Layer 01
100
AcDbLine
 10
6.193423876259844
 20
2.945067834066893
 30
0.0
 11
6.282833026235576
 21
2.932743980059581
 31
0.0
  0
LINE
  5
253
330
1F
100
AcDbEntity
  8
Layer 01
100
AcDbLine
 10
6.282833026235576
 20
2.932743980059581
 30
0.0
 11
6.372395460602123
 21
2.922392962130519
 31
0.0
  0
LINE
  5
254
330
1F
100
AcDbEntity
  8
Layer 01
100
AcDbLine
 10
6.372395460602123
 20
2.922392962130519
 30
0.0
 11
6.462068016320121
 21
2.91401354108351
 31
0.0
  0
LINE
  5
255
330
1F
100
AcDbEntity
  8
Layer 01
100
AcDbLine
 10
6.462068016320121
 20
2.91401354108351
 30
0.0
 11
6.551807552335847
 21
2.907603207109187
 31
0.0
  0
LINE
  5
256
330
1F
100
AcDbEntity
  8
Layer 01
100
AcDbLine
 10
6.551807552335847
 20
2.907603207109187
 30
0.0
 11
6.641570927595574
 21
2.903159450398183
 31
0.0
  0
LINE
  5
257
330
1F
100
AcDbEntity
  8
Layer 01
100
AcDbLine
 10
6.641570927595574
 20
2.903159450398183
 30
0.0
 11
6.73131500104558
 21
2.90067976114113
 31
0.0
  0
LINE
  5
258
330
1F
100
AcDbEntity
  8
Layer 01
100
AcDbLine
 10
6.73131500104558
 20
2.90067976114113
 30
0.0
 11
6.820996631632137
 21
2.90016162952866
 31
0.0
  0
LINE
  5
259
330
1F
100
AcDbEntity
  8
Layer 01
100
AcDbLine
 10
6.820996631632137
 20
2.90016162952866
 30
0.0
 11
6.910572678301522
 21
2.901602545751406
 31
0.0
  0
LINE
  5
25A
330
1F
100
AcDbEntity
  8
Layer 01
100
AcDbLine
 10
6.910572678301522
 20
2.901602545751406
 30
0.0
 11
7.000000000000009
 21
2.905000000000001
 31
0.0
  0
LINE
  5
25B
330
1F
100
AcDbEntity
  8
Layer 01
100
AcDbLine
 10
7.000000000000009
 20
2.905000000000001
 30
0.0
 11
7.089235697965159
 21
2.910350245545106
 31
0.0
  0
LINE
  5
25C
330
1F
100
AcDbEntity
  8
Layer 01
100
AcDbLine
 10
7.089235697965159
 20
2.910350245545106
 30
0.0
 11
7.178237842599687
 21
2.917644587977503
 31
0.0
  0
LINE
  5
25D
330
1F
100
AcDbEntity
  8
Layer 01
100
AcDbLine
 10
7.178237842599687
 20
2.917644587977503
 30
0.0
 11
7.266964746597591
 21
2.926873095968004
 31
0.0
  0
LINE
  5
25E
330
1F
100
AcDbEntity
  8
Layer 01
100
AcDbLine
 10
7.266964746597591
 20
2.926873095968004
 30
0.0
 11
7.35537472265287
 21
2.938025838187418
 31
0.0
  0
LINE
  5
25F
330
1F
100
AcDbEntity
  8
Layer 01
100
AcDbLine
 10
7.35537472265287
 20
2.938025838187418
 30
0.0
 11
7.443426083459526
 21
2.951092883306557
 31
0.0
  0
LINE
  5
260
330
1F
100
AcDbEntity
  8
Layer 01
100
AcDbLine
 10
7.443426083459526
 20
2.951092883306557
 30
0.0
 11
7.531077141711556
 21
2.966064299996233
 31
0.0
  0
LINE
  5
261
330
1F
100
AcDbEntity
  8
Layer 01
100
AcDbLine
 10
7.531077141711556
 20
2.966064299996233
 30
0.0
 11
7.618286210102961
 21
2.982930156927255
 31
0.0
  0
LINE
  5
262
330
1F
100
AcDbEntity
  8
Layer 01
100
AcDbLine
 10
7.618286210102961
 20
2.982930156927255
 30
0.0
 11
7.705011601327739
 21
3.001680522770436
 31
0.0
  0
LINE
  5
263
330
1F
100
AcDbEntity
  8
Layer 01
100
AcDbLine
 10
7.705011601327739
 20
3.001680522770436
 30
0.0
 11
7.791212079643325
 21
3.022304300553004
 31
0.0
  0
LINE
  5
264
330
1F
100
AcDbEntity
  8
Layer 01
100
AcDbLine
 10
7.791212079643325
 20
3.022304300553004
 30
0.0
 11
7.876848215560892
 21
3.044785730727857
 31
0.0
  0
LINE
  5
265
330
1F
100
AcDbEntity
  8
Layer 01
100
AcDbLine
 10
7.876848215560892
 20
3.044785730727857
 30
0.0
 11
7.961881031155045
 21
3.069107888104313
 31
0.0
  0
LINE
  5
266
330
1F
100
AcDbEntity
  8
Layer 01
100
AcDbLine
 10
7.961881031155045
 20
3.069107888104313
 30
0.0
 11
8.046271548500389
 21
3.095253847491689
 31
0.0
  0
LINE
  5
267
330
1F
100
AcDbEntity
  8
Layer 01
100
AcDbLine
 10
8.046271548500389
 20
3.095253847491689
 30
0.0
 11
8.129980789671533
 21
3.1232066836993
 31
0.0
  0
LINE
  5
268
330
1F
100
AcDbEntity
  8
Layer 01
100
AcDbLine
 10
8.129980789671533
 20
3.1232066836993
 30
0.0
 11
8.21296977674308
 21
3.152949471536465
 31
0.0
  0
LINE
  5
269
330
1F
100
AcDbEntity
  8
Layer 01
100
AcDbLine
 10
8.21296977674308
 20
3.152949471536465
 30
0.0
 11
8.295199531789638
 21
3.184465285812498
 31
0.0
  0
LINE
  5
26A
330
1F
100
AcDbEntity
  8
Layer 01
100
AcDbLine
 10
8.295199531789638
 20
3.184465285812498
 30
0.0
 11
8.376631076885817
 21
3.217737201336718
 31
0.0
  0
LINE
  5
26B
330
1F
100
AcDbEntity
  8
Layer 01
100
AcDbLine
 10
8.376631076885817
 20
3.217737201336718
 30
0.0
 11
8.457226077605448
 21
3.25274723333117
 31
0.0
  0
LINE
  5
26C
330
1F
100
AcDbEntity
  8
Layer 01
100
AcDbLine
 10
8.457226077605448
 20
3.25274723333117
 30
0.0
 11
8.536948773519292
 21
3.289473158668811
 31
0.0
  0
LINE
  5
26D
330
1F
100
AcDbEntity
  8
Layer 01
100
AcDbLine
 10
8.536948773519292
 20
3.289473158668811
 30
0.0
 11
8.615764047697333
 21
3.327891694635328
 31
0.0
  0
LINE
  5
26E
330
1F
100
AcDbEntity
  8
Layer 01
100
AcDbLine
 10
8.615764047697333
 20
3.327891694635328
 30
0.0
 11
8.693636783209556
 21
3.367979558516409
 31
0.0
  0
LINE
  5
26F
330
1F
100
AcDbEntity
  8
Layer 01
100
AcDbLine
 10
8.693636783209556
 20
3.367979558516409
 30
0.0
 11
8.770531863125948
 21
3.409713467597739
 31
0.0
  0
LINE
  5
270
330
1F
100
AcDbEntity
  8
Layer 01
100
AcDbLine
 10
8.770531863125948
 20
3.409713467597739
 30
0.0
 11
8.846414170516496
 21
3.453070139165005
 31
0.0
  0
LINE
  5
271
330
1F
100
AcDbEntity
  8
Layer 01
100
AcDbLine
 10
8.846414170516496
 20
3.453070139165005
 30
0.0
 11
8.921248588451187
 21
3.498026290503895
 31
0.0
  0
LINE
  5
272
330
1F
100
AcDbEntity
  8
Layer 01
100
AcDbLine
 10
8.921248588451187
 20
3.498026290503895
 30
0.0
 11
8.995000000000005
 21
3.544558638900094
 31
0.0
  0
LINE
  5
273
330
1F
100
AcDbEntity
  8
Layer 01
100
AcDbLine
 10
8.995000000000005
 20
3.544558638900094
 30
0.0
 11
9.067634100665384
 21
3.592642979047588
 31
0.0
  0
LINE
  5
274
330
1F
100
AcDbEntity
  8
Layer 01
100
AcDbLine
 10
9.067634100665384
 20
3.592642979047588
 30
0.0
 11
9.139119835679544
 21
3.64225141527356
 31
0.0
  0
LINE
  5
275
330
1F
100
AcDbEntity
  8
Layer 01
100
AcDbLine
 10
9.139119835679544
 20
3.64225141527356
 30
0.0
 11
9.209426962707152
 21
3.693355129313493
 31
0.0
  0
LINE
  5
276
330
1F
100
AcDbEntity
  8
Layer 01
100
AcDbLine
 10
9.209426962707152
 20
3.693355129313493
 30
0.0
 11
9.278525239412875
 21
3.745925302902869
 31
0.0
  0
LINE
  5
277
330
1F
100
AcDbEntity
  8
Layer 01
100
AcDbLine
 10
9.278525239412875
 20
3.745925302902869
 30
0.0
 11
9.346384423461382
 21
3.799933117777169
 31
0.0
  0
LINE
  5
278
330
1F
100
AcDbEntity
  8
Layer 01
100
AcDbLine
 10
9.346384423461382
 20
3.799933117777169
 30
0.0
 11
9.412974272517339
 21
3.855349755671876
 31
0.0
  0
LINE
  5
279
330
1F
100
AcDbEntity
  8
Layer 01
100
AcDbLine
 10
9.412974272517339
 20
3.855349755671876
 30
0.0
 11
9.478264544245409
 21
3.912146398322473
 31
0.0
  0
LINE
  5
27A
330
1F
100
AcDbEntity
  8
Layer 01
100
AcDbLine
 10
9.478264544245409
 20
3.912146398322473
 30
0.0
 11
9.542224996310262
 21
3.97029422746444
 31
0.0
  0
LINE
  5
27B
330
1F
100
AcDbEntity
  8
Layer 01
100
AcDbLine
 10
9.542224996310262
 20
3.97029422746444
 30
0.0
 11
9.604826339877178
 21
4.029763665433811
 31
0.0
  0
LINE
  5
27C
330
1F
100
AcDbEntity
  8
Layer 01
100
AcDbLine
 10
9.604826339877178
 20
4.029763665433811
 30
0.0
 11
9.66604310011388
 21
4.090522096968815
 31
0.0
  0
LINE
  5
27D
330
1F
100
AcDbEntity
  8
Layer 01
100
AcDbLine
 10
9.66604310011388
 20
4.090522096968815
 30
0.0
 11
9.725850755688704
 21
4.152536147408231
 31
0.0
  0
LINE
  5
27E
330
1F
100
AcDbEntity
  8
Layer 01
100
AcDbLine
 10
9.725850755688704
 20
4.152536147408231
 30
0.0
 11
9.784224785269984
 21
4.215772442090837
 31
0.0
  0
LINE
  5
27F
330
1F
100
AcDbEntity
  8
Layer 01
100
AcDbLine
 10
9.784224785269984
 20
4.215772442090837
 30
0.0
 11
9.841140667526057
 21
4.280197606355414
 31
0.0
  0
LINE
  5
280
330
1F
100
AcDbEntity
  8
Layer 01
100
AcDbLine
 10
9.841140667526057
 20
4.280197606355414
 30
0.0
 11
9.89657388112526
 21
4.345778265540742
 31
0.0
  0
LINE
  5
281
330
1F
100
AcDbEntity
  8
Layer 01
100
AcDbLine
 10
9.89657388112526
 20
4.345778265540742
 30
0.0
 11
9.950499904735928
 21
4.4124810449856
 31
0.0
  0
LINE
  5
282
330
1F
100
AcDbEntity
  8
Layer 01
100
AcDbLine
 10
9.950499904735928
 20
4.4124810449856
 30
0.0
 11
10.00289421702639
 21
4.480272570028767
 31
0.0
  0
LINE
  5
283
330
1F
100
AcDbEntity
  8
Layer 01
100
AcDbLine
 10
10.00289421702639
 20
4.480272570028767
 30
0.0
 11
10.05373335944953
 21
4.549118890515726
 31
0.0
  0
LINE
  5
284
330
1F
100
AcDbEntity
  8
Layer 01
100
AcDbLine
 10
10.05373335944953
 20
4.549118890515726
 30
0.0
 11
10.10299812459631
 21
4.618983754318786
 31
0.0
  0
LINE
  5
285
330
1F
100
AcDbEntity
  8
Layer 01
100
AcDbLine
 10
10.10299812459631
 20
4.618983754318786
 30
0.0
 11
10.15067036784226
 21
4.68983033381696
 31
0.0
  0
LINE
  5
286
330
1F
100
AcDbEntity
  8
Layer 01
100
AcDbLine
 10
10.15067036784226
 20
4.68983033381696
 30
0.0
 11
10.1967319445629
 21
4.761621801389262
 31
0.0
  0
LINE
  5
287
330
1F
100
AcDbEntity
  8
Layer 01
100
AcDbLine
 10
10.1967319445629
 20
4.761621801389262
 30
0.0
 11
10.24116471013372
 21
4.834321329414704
 31
0.0
  0
LINE
  5
288
330
1F
100
AcDbEntity
  8
Layer 01
100
AcDbLine
 10
10.24116471013372
 20
4.834321329414704
 30
0.0
 11
10.28395051993026
 21
4.907892090272299
 31
0.0
  0
LINE
  5
289
330
1F
100
AcDbEntity
  8
Layer 01
100
AcDbLine
 10
10.28395051993026
 20
4.907892090272299
 30
0.0
 11
10.32507122932803
 21
4.98229725634106
 31
0.0
  0
LINE
  5
28A
330
1F
100
AcDbEntity
  8
Layer 01
100
AcDbLine
 10
10.32507122932803
 20
4.98229725634106
 30
0.0
 11
10.36450869370255
 21
5.057500000000001
 31
0.0
  0
LINE
  5
28B
330
1F
100
AcDbEntity
  8
Layer 01
100
AcDbLine
 10
10.36450869370255
 20
5.057500000000001
 30
0.0
 11
10.40224590584553
 21
5.133463116714456
 31
0.0
  0
LINE
  5
28C
330
1F
100
AcDbEntity
  8
Layer 01
100
AcDbLine
 10
10.40224590584553
 20
5.133463116714456
 30
0.0
 11
10.43827040821358
 21
5.210147894295044
 31
0.0
  0
LINE
  5
28D
330
1F
100
AcDbEntity
  8
Layer 01
100
AcDbLine
 10
10.43827040821358
 20
5.210147894295044
 30
0.0
 11
10.47257088067952
 21
5.287515243638711
 31
0.0
  0
LINE
  5
28E
330
1F
100
AcDbEntity
  8
Layer 01
100
AcDbLine
 10
10.47257088067952
 20
5.287515243638711
 30
0.0
 11
10.50513600311614
 21
5.365526075642396
 31
0.0
  0
LINE
  5
28F
330
1F
100
AcDbEntity
  8
Layer 01
100
AcDbLine
 10
10.50513600311614
 20
5.365526075642396
 30
0.0
 11
10.53595445539626
 21
5.444141301203043
 31
0.0
  0
LINE
  5
290
330
1F
100
AcDbEntity
  8
Layer 01
100
AcDbLine
 10
10.53595445539626
 20
5.444141301203043
 30
0.0
 11
10.5650149173927
 21
5.523321831217593
 31
0.0
  0
LINE
  5
291
330
1F
100
AcDbEntity
  8
Layer 01
100
AcDbLine
 10
10.5650149173927
 20
5.523321831217593
 30
0.0
 11
10.59230606897825
 21
5.603028576582989
 31
0.0
  0
LINE
  5
292
330
1F
100
AcDbEntity
  8
Layer 01
100
AcDbLine
 10
10.59230606897825
 20
5.603028576582989
 30
0.0
 11
10.61781659002575
 21
5.683222448196174
 31
0.0
  0
LINE
  5
293
330
1F
100
AcDbEntity
  8
Layer 01
100
AcDbLine
 10
10.61781659002575
 20
5.683222448196174
 30
0.0
 11
10.64153633606027
 21
5.763864186892655
 31
0.0
  0
LINE
  5
294
330
1F
100
AcDbEntity
  8
Layer 01
100
AcDbLine
 10
10.64153633606027
 20
5.763864186892655
 30
0.0
 11
10.66345986521604
 21
5.844913853262201
 31
0.0
  0
LINE
  5
295
330
1F
100
AcDbEntity
  8
Layer 01
100
AcDbLine
 10
10.66345986521604
 20
5.844913853262201
 30
0.0
 11
10.68358291127957
 21
5.926331337833149
 31
0.0
  0
LINE
  5
296
330
1F
100
AcDbEntity
  8
Layer 01
100
AcDbLine
 10
10.68358291127957
 20
5.926331337833149
 30
0.0
 11
10.70190120803738
 21
6.008076531133835
 31
0.0
  0
LINE
  5
297
330
1F
100
AcDbEntity
  8
Layer 01
100
AcDbLine
 10
10.70190120803738
 20
6.008076531133835
 30
0.0
 11
10.71841048927598
 21
6.090109323692593
 31
0.0
  0
LINE
  5
298
330
1F
100
AcDbEntity
  8
Layer 01
100
AcDbLine
 10
10.71841048927598
 20
6.090109323692593
 30
0.0
 11
10.73310648878187
 21
6.172389606037759
 31
0.0
  0
LINE
  5
299
330
1F
100
AcDbEntity
  8
Layer 01
100
AcDbLine
 10
10.73310648878187
 20
6.172389606037759
 30
0.0
 11
10.74598494034156
 21
6.254877268697669
 31
0.0
  0
LINE
  5
29A
330
1F
100
AcDbEntity
  8
Layer 01
100
AcDbLine
 10
10.74598494034156
 20
6.254877268697669
 30
0.0
 11
10.75704157774157
 21
6.337532202200659
 31
0.0
  0
LINE
  5
29B
330
1F
100
AcDbEntity
  8
Layer 01
100
AcDbLine
 10
10.75704157774157
 20
6.337532202200659
 30
0.0
 11
10.7662733116794
 21
6.420314335582924
 31
0.0
  0
LINE
  5
29C
330
1F
100
AcDbEntity
  8
Layer 01
100
AcDbLine
 10
10.7662733116794
 20
6.420314335582924
 30
0.0
 11
10.77368176049648
 21
6.503183751912099
 31
0.0
  0
LINE
  5
29D
330
1F
100
AcDbEntity
  8
Layer 01
100
AcDbLine
 10
10.77368176049648
 20
6.503183751912099
 30
0.0
 11
10.77926971944526
 21
6.58610057276368
 31
0.0
  0
LINE
  5
29E
330
1F
100
AcDbEntity
  8
Layer 01
100
AcDbLine
 10
10.77926971944526
 20
6.58610057276368
 30
0.0
 11
10.78303998377819
 21
6.669024919713161
 31
0.0
  0
LINE
  5
29F
330
1F
100
AcDbEntity
  8
Layer 01
100
AcDbLine
 10
10.78303998377819
 20
6.669024919713161
 30
0.0
 11
10.78499534874768
 21
6.751916914336038
 31
0.0
  0
LINE
  5
2A0
330
1F
100
AcDbEntity
  8
Layer 01
100
AcDbLine
 10
10.78499534874768
 20
6.751916914336038
 30
0.0
 11
10.78513860960619
 21
6.834736678207808
 31
0.0
  0
LINE
  5
2A1
330
1F
100
AcDbEntity
  8
Layer 01
100
AcDbLine
 10
10.78513860960619
 20
6.834736678207808
 30
0.0
 11
10.78347256160615
 21
6.917444332903964
 31
0.0
  0
LINE
  5
2A2
330
1F
100
AcDbEntity
  8
Layer 01
100
AcDbLine
 10
10.78347256160615
 20
6.917444332903964
 30
0.0
 11
10.78
 21
7.000000000000002
 31
0.0
  0
LINE
  5
2A3
330
1F
100
AcDbEntity
  8
Layer 01
100
AcDbLine
 10
10.78
 20
7.000000000000002
 30
0.0
 11
10.77472486181246
 21
7.082364043362705
 31
0.0
  0
LINE
  5
2A4
330
1F
100
AcDbEntity
  8
Layer 01
100
AcDbLine
 10
10.77472486181246
 20
7.082364043362705
 30
0.0
 11
10.76765565115735
 21
7.164497796024005
 31
0.0
  0
LINE
  5
2A5
330
1F
100
AcDbEntity
  8
Layer 01
100
AcDbLine
 10
10.76765565115735
 20
7.164497796024005
 30
0.0
 11
10.75880201392081
 21
7.246362833307122
 31
0.0
  0
LINE
  5
2A6
330
1F
100
AcDbEntity
  8
Layer 01
100
AcDbLine
 10
10.75880201392081
 20
7.246362833307122
 30
0.0
 11
10.74817359598895
 21
7.327920730535276
 31
0.0
  0
LINE
  5
2A7
330
1F
100
AcDbEntity
  8
Layer 01
100
AcDbLine
 10
10.74817359598895
 20
7.327920730535276
 30
0.0
 11
10.7357800432479
 21
7.409133063031685
 31
0.0
  0
LINE
  5
2A8
330
1F
100
AcDbEntity
  8
Layer 01
100
AcDbLine
 10
10.7357800432479
 20
7.409133063031685
 30
0.0
 11
10.72163100158376
 21
7.489961406119572
 31
0.0
  0
LINE
  5
2A9
330
1F
100
AcDbEntity
  8
Layer 01
100
AcDbLine
 10
10.72163100158376
 20
7.489961406119572
 30
0.0
 11
10.70573611688266
 21
7.570367335122155
 31
0.0
  0
LINE
  5
2AA
330
1F
100
AcDbEntity
  8
Layer 01
100
AcDbLine
 10
10.70573611688266
 20
7.570367335122155
 30
0.0
 11
10.68810503503072
 21
7.650312425362652
 31
0.0
  0
LINE
  5
2AB
330
1F
100
AcDbEntity
  8
Layer 01
100
AcDbLine
 10
10.68810503503072
 20
7.650312425362652
 30
0.0
 11
10.66874847385546
 21
7.729758687205497
 31
0.0
  0
LINE
  5
2AC
330
1F
100
AcDbEntity
  8
Layer 01
100
AcDbLine
 10
10.66874847385546
 20
7.729758687205497
 30
0.0
 11
10.64768143894998
 21
7.808669871179965
 31
0.0
  0
LINE
  5
2AD
330
1F
100
AcDbEntity
  8
Layer 01
100
AcDbLine
 10
10.64768143894998
 20
7.808669871179965
 30
0.0
 11
10.62492000784882
 21
7.887010162856546
 31
0.0
  0
LINE
  5
2AE
330
1F
100
AcDbEntity
  8
Layer 01
100
AcDbLine
 10
10.62492000784882
 20
7.887010162856546
 30
0.0
 11
10.60048025808648
 21
7.964743747805727
 31
0.0
  0
LINE
  5
2AF
330
1F
100
AcDbEntity
  8
Layer 01
100
AcDbLine
 10
10.60048025808648
 20
7.964743747805727
 30
0.0
 11
10.57437826719749
 21
8.041834811597997
 31
0.0
  0
LINE
  5
2B0
330
1F
100
AcDbEntity
  8
Layer 01
100
AcDbLine
 10
10.57437826719749
 20
8.041834811597997
 30
0.0
 11
10.54663011271635
 21
8.118247539803848
 31
0.0
  0
LINE
  5
2B1
330
1F
100
AcDbEntity
  8
Layer 01
100
AcDbLine
 10
10.54663011271635
 20
8.118247539803848
 30
0.0
 11
10.51725187217759
 21
8.193946117993764
 31
0.0
  0
LINE
  5
2B2
330
1F
100
AcDbEntity
  8
Layer 01
100
AcDbLine
 10
10.51725187217759
 20
8.193946117993764
 30
0.0
 11
10.48625962311572
 21
8.268894731738236
 31
0.0
  0
LINE
  5
2B3
330
1F
100
AcDbEntity
  8
Layer 01
100
AcDbLine
 10
10.48625962311572
 20
8.268894731738236
 30
0.0
 11
10.45367041324294
 21
8.343058177564554
 31
0.0
  0
LINE
  5
2B4
330
1F
100
AcDbEntity
  8
Layer 01
100
AcDbLine
 10
10.45367041324294
 20
8.343058177564554
 30
0.0
 11
10.41950517098223
 21
8.416403695827228
 31
0.0
  0
LINE
  5
2B5
330
1F
100
AcDbEntity
  8
Layer 01
100
AcDbLine
 10
10.41950517098223
 20
8.416403695827228
 30
0.0
 11
10.38378579493423
 21
8.488899137837562
 31
0.0
  0
LINE
  5
2B6
330
1F
100
AcDbEntity
  8
Layer 01
100
AcDbLine
 10
10.38378579493423
 20
8.488899137837562
 30
0.0
 11
10.3465341836996
 21
8.56051235490687
 31
0.0
  0
LINE
  5
2B7
330
1F
100
AcDbEntity
  8
Layer 01
100
AcDbLine
 10
10.3465341836996
 20
8.56051235490687
 30
0.0
 11
10.30777223587899
 21
8.631211198346458
 31
0.0
  0
LINE
  5
2B8
330
1F
100
AcDbEntity
  8
Layer 01
100
AcDbLine
 10
10.30777223587899
 20
8.631211198346458
 30
0.0
 11
10.26752185007305
 21
8.700963519467635
 31
0.0
  0
LINE
  5
2B9
330
1F
100
AcDbEntity
  8
Layer 01
100
AcDbLine
 10
10.26752185007305
 20
8.700963519467635
 30
0.0
 11
10.22580492488244
 21
8.769737169581713
 31
0.0
  0
LINE
  5
2BA
330
1F
100
AcDbEntity
  8
Layer 01
100
AcDbLine
 10
10.22580492488244
 20
8.769737169581713
 30
0.0
 11
10.18264335890781
 21
8.837499999999999
 31
0.0
  0
LINE
  5
2BB
330
1F
100
AcDbEntity
  8
Layer 01
100
AcDbLine
 10
10.18264335890781
 20
8.837499999999999
 30
0.0
 11
10.1380598909412
 21
8.904220626892403
 31
0.0
  0
LINE
  5
2BC
330
1F
100
AcDbEntity
  8
Layer 01
100
AcDbLine
 10
10.1380598909412
 20
8.904220626892403
 30
0.0
 11
10.09208062054017
 21
8.969870725863249
 31
0.0
  0
LINE
  5
2BD
330
1F
100
AcDbEntity
  8
Layer 01
100
AcDbLine
 10
10.09208062054017
 20
8.969870725863249
 30
0.0
 11
10.0447324874537
 21
9.034422737375452
 31
0.0
  0
LINE
  5
2BE
330
1F
100
AcDbEntity
  8
Layer 01
100
AcDbLine
 10
10.0447324874537
 20
9.034422737375452
 30
0.0
 11
9.99604243143073
 21
9.09784910189193
 31
0.0
  0
LINE
  5
2BF
330
1F
100
AcDbEntity
  8
Layer 01
100
AcDbLine
 10
9.99604243143073
 20
9.09784910189193
 30
0.0
 11
9.946037392220227
 21
9.160122259875607
 31
0.0
  0
LINE
  5
2C0
330
1F
100
AcDbEntity
  8
Layer 01
100
AcDbLine
 10
9.946037392220227
 20
9.160122259875607
 30
0.0
 11
9.894744309571145
 21
9.221214651789396
 31
0.0
  0
LINE
  5
2C1
330
1F
100
AcDbEntity
  8
Layer 01
100
AcDbLine
 10
9.894744309571145
 20
9.221214651789396
 30
0.0
 11
9.842190123232442
 21
9.281098718096224
 31
0.0
  0
LINE
  5
2C2
330
1F
100
AcDbEntity
  8
Layer 01
100
AcDbLine
 10
9.842190123232442
 20
9.281098718096224
 30
0.0
 11
9.788401772953076
 21
9.339746899259007
 31
0.0
  0
LINE
  5
2C3
330
1F
100
AcDbEntity
  8
Layer 01
100
AcDbLine
 10
9.788401772953076
 20
9.339746899259007
 30
0.0
 11
9.7334068849941
 21
9.397132528081519
 31
0.0
  0
LINE
  5
2C4
330
1F
100
AcDbEntity
  8
Layer 01
100
AcDbLine
 10
9.7334068849941
 20
9.397132528081519
 30
0.0
 11
9.677235831664923
 21
9.45323250673096
 31
0.0
  0
LINE
  5
2C5
330
1F
100
AcDbEntity
  8
Layer 01
100
AcDbLine
 10
9.677235831664923
 20
9.45323250673096
 30
0.0
 11
9.61991967178705
 21
9.508024629715376
 31
0.0
  0
LINE
  5
2C6
330
1F
100
AcDbEntity
  8
Layer 01
100
AcDbLine
 10
9.61991967178705
 20
9.508024629715376
 30
0.0
 11
9.56148946418199
 21
9.561486691542823
 31
0.0
  0
LINE
  5
2C7
330
1F
100
AcDbEntity
  8
Layer 01
100
AcDbLine
 10
9.56148946418199
 20
9.561486691542823
 30
0.0
 11
9.501976267671246
 21
9.613596486721352
 31
0.0
  0
LINE
  5
2C8
330
1F
100
AcDbEntity
  8
Layer 01
100
AcDbLine
 10
9.501976267671246
 20
9.613596486721352
 30
0.0
 11
9.441411141076324
 21
9.664331809759009
 31
0.0
  0
LINE
  5
2C9
330
1F
100
AcDbEntity
  8
Layer 01
100
AcDbLine
 10
9.441411141076324
 20
9.664331809759009
 30
0.0
 11
9.37982514321873
 21
9.71367045516385
 31
0.0
  0
LINE
  5
2CA
330
1F
100
AcDbEntity
  8
Layer 01
100
AcDbLine
 10
9.37982514321873
 20
9.71367045516385
 30
0.0
 11
9.317249332919967
 21
9.761590217443922
 31
0.0
  0
LINE
  5
2CB
330
1F
100
AcDbEntity
  8
Layer 01
100
AcDbLine
 10
9.317249332919967
 20
9.761590217443922
 30
0.0
 11
9.25371528333508
 21
9.80806988100445
 31
0.0
  0
LINE
  5
2CC
330
1F
100
AcDbEntity
  8
Layer 01
100
AcDbLine
 10
9.25371528333508
 20
9.80806988100445
 30
0.0
 11
9.189256624953266
 21
9.853092189839339
 31
0.0
  0
LINE
  5
2CD
330
1F
100
AcDbEntity
  8
Layer 01
100
AcDbLine
 10
9.189256624953266
 20
9.853092189839339
 30
0.0
 11
9.123907502597255
 21
9.896640877839662
 31
0.0
  0
LINE
  5
2CE
330
1F
100
AcDbEntity
  8
Layer 01
100
AcDbLine
 10
9.123907502597255
 20
9.896640877839662
 30
0.0
 11
9.057702061089788
 21
9.938699678896498
 31
0.0
  0
LINE
  5
2CF
330
1F
100
AcDbEntity
  8
Layer 01
100
AcDbLine
 10
9.057702061089788
 20
9.938699678896498
 30
0.0
 11
8.990674445253592
 21
9.979252326900918
 31
0.0
  0
LINE
  5
2D0
330
1F
100
AcDbEntity
  8
Layer 01
100
AcDbLine
 10
8.990674445253592
 20
9.979252326900918
 30
0.0
 11
8.922858799911406
 21
10.018282555744
 31
0.0
  0
LINE
  5
2D1
330
1F
100
AcDbEntity
  8
Layer 01
100
AcDbLine
 10
8.922858799911406
 20
10.018282555744
 30
0.0
 11
8.854289269885964
 21
10.05577409931682
 31
0.0
  0
LINE
  5
2D2
330
1F
100
AcDbEntity
  8
Layer 01
100
AcDbLine
 10
8.854289269885964
 20
10.05577409931682
 30
0.0
 11
8.784999999999997
 21
10.09171069151045
 31
0.0
  0
LINE
  5
2D3
330
1F
100
AcDbEntity
  8
Layer 01
100
AcDbLine
 10
8.784999999999997
 20
10.09171069151045
 30
0.0
 11
8.715025464416073
 21
10.12607712123187
 31
0.0
  0
LINE
  5
2D4
330
1F
100
AcDbEntity
  8
Layer 01
100
AcDbLine
 10
8.715025464416073
 20
10.12607712123187
 30
0.0
 11
8.644401454656094
 21
10.15886239745164
 31
0.0
  0
LINE
  5
2D5
330
1F
100
AcDbEntity
  8
Layer 01
100
AcDbLine
 10
8.644401454656094
 20
10.15886239745164
 30
0.0
 11
8.573164091581795
 21
10.19005658415624
 31
0.0
  0
LINE
  5
2D6
330
1F
100
AcDbEntity
  8
Layer 01
100
AcDbLine
 10
8.573164091581795
 20
10.19005658415624
 30
0.0
 11
8.501349496054914
 21
10.21964974533215
 31
0.0
  0
LINE
  5
2D7
330
1F
100
AcDbEntity
  8
Layer 01
100
AcDbLine
 10
8.501349496054914
 20
10.21964974533215
 30
0.0
 11
8.428993788937182
 21
10.24763194496583
 31
0.0
  0
LINE
  5
2D8
330
1F
100
AcDbEntity
  8
Layer 01
100
AcDbLine
 10
8.428993788937182
 20
10.24763194496583
 30
0.0
 11
8.356133091090335
 21
10.27399324704374
 31
0.0
  0
LINE
  5
2D9
330
1F
100
AcDbEntity
  8
Layer 01
100
AcDbLine
 10
8.356133091090335
 20
10.27399324704374
 30
0.0
 11
8.28280352337611
 21
10.29872371555237
 31
0.0
  0
LINE
  5
2DA
330
1F
100
AcDbEntity
  8
Layer 01
100
AcDbLine
 10
8.28280352337611
 20
10.29872371555237
 30
0.0
 11
8.209041206656238
 21
10.32181341447819
 31
0.0
  0
LINE
  5
2DB
330
1F
100
AcDbEntity
  8
Layer 01
100
AcDbLine
 10
8.209041206656238
 20
10.32181341447819
 30
0.0
 11
8.134882399311465
 21
10.34325349405036
 31
0.0
  0
LINE
  5
2DC
330
1F
100
AcDbEntity
  8
Layer 01
100
AcDbLine
 10
8.134882399311465
 20
10.34325349405036
 30
0.0
 11
8.06036390979856
 21
10.36303944946886
 31
0.0
  0
LINE
  5
2DD
330
1F
100
AcDbEntity
  8
Layer 01
100
AcDbLine
 10
8.06036390979856
 20
10.36303944946886
 30
0.0
 11
7.985522684093311
 21
10.38116786217637
 31
0.0
  0
LINE
  5
2DE
330
1F
100
AcDbEntity
  8
Layer 01
100
AcDbLine
 10
7.985522684093311
 20
10.38116786217637
 30
0.0
 11
7.910395668171499
 21
10.39763531361556
 31
0.0
  0
LINE
  5
2DF
330
1F
100
AcDbEntity
  8
Layer 01
100
AcDbLine
 10
7.910395668171499
 20
10.39763531361556
 30
0.0
 11
7.835019808008904
 21
10.41243838522912
 31
0.0
  0
LINE
  5
2E0
330
1F
100
AcDbEntity
  8
Layer 01
100
AcDbLine
 10
7.835019808008904
 20
10.41243838522912
 30
0.0
 11
7.75943204958131
 21
10.42557365845971
 31
0.0
  0
LINE
  5
2E1
330
1F
100
AcDbEntity
  8
Layer 01
100
AcDbLine
 10
7.75943204958131
 20
10.42557365845971
 30
0.0
 11
7.683669338864497
 21
10.43703771475002
 31
0.0
  0
LINE
  5
2E2
330
1F
100
AcDbEntity
  8
Layer 01
100
AcDbLine
 10
7.683669338864497
 20
10.43703771475002
 30
0.0
 11
7.607768621834252
 21
10.44682713554273
 31
0.0
  0
LINE
  5
2E3
330
1F
100
AcDbEntity
  8
Layer 01
100
AcDbLine
 10
7.607768621834252
 20
10.44682713554273
 30
0.0
 11
7.531766789436269
 21
10.45493958548931
 31
0.0
  0
LINE
  5
2E4
330
1F
100
AcDbEntity
  8
Layer 01
100
AcDbLine
 10
7.531766789436269
 20
10.45493958548931
 30
0.0
 11
7.455700512495919
 21
10.46137706207647
 31
0.0
  0
LINE
  5
2E5
330
1F
100
AcDbEntity
  8
Layer 01
100
AcDbLine
 10
7.455700512495919
 20
10.46137706207647
 30
0.0
 11
7.379606406808484
 21
10.46614264599972
 31
0.0
  0
LINE
  5
2E6
330
1F
100
AcDbEntity
  8
Layer 01
100
AcDbLine
 10
7.379606406808484
 20
10.46614264599972
 30
0.0
 11
7.303521088169249
 21
10.46923941795455
 31
0.0
  0
LINE
  5
2E7
330
1F
100
AcDbEntity
  8
Layer 01
100
AcDbLine
 10
7.303521088169249
 20
10.46923941795455
 30
0.0
 11
7.227481172373499
 21
10.4706704586365
 31
0.0
  0
LINE
  5
2E8
330
1F
100
AcDbEntity
  8
Layer 01
100
AcDbLine
 10
7.227481172373499
 20
10.4706704586365
 30
0.0
 11
7.151523275216517
 21
10.47043884874105
 31
0.0
  0
LINE
  5
2E9
330
1F
100
AcDbEntity
  8
Layer 01
100
AcDbLine
 10
7.151523275216517
 20
10.47043884874105
 30
0.0
 11
7.075684012493589
 21
10.46854766896371
 31
0.0
  0
LINE
  5
2EA
330
1F
100
AcDbEntity
  8
Layer 01
100
AcDbLine
 10
7.075684012493589
 20
10.46854766896371
 30
0.0
 11
6.999999999999999
 21
10.465
 31
0.0
  0
LINE
  5
2EB
330
1F
100
AcDbEntity
  8
Layer 01
100
AcDbLine
 10
6.999999999999999
 20
10.465
 30
0.0
 11
6.924507611239744
 21
10.45979996917001
 31
0.0
  0
LINE
  5
2EC
330
1F
100
AcDbEntity
  8
Layer 01
100
AcDbLine
 10
6.924507611239744
 20
10.45979996917001
 30
0.0
 11
6.849242250551671
 21
10.4529558902922
 31
0.0
  0
LINE
  5
2ED
330
1F
100
AcDbEntity
  8
Layer 01
100
AcDbLine
 10
6.849242250551671
 20
10.4529558902922
 30
0.0
 11
6.774239079983341
 21
10.44447712380962
 31
0.0
  0
LINE
  5
2EE
330
1F
100
AcDbEntity
  8
Layer 01
100
AcDbLine
 10
6.774239079983341
 20
10.44447712380962
 30
0.0
 11
6.699533261582313
 21
10.43437303016532
 31
0.0
  0
LINE
  5
2EF
330
1F
100
AcDbEntity
  8
Layer 01
100
AcDbLine
 10
6.699533261582313
 20
10.43437303016532
 30
0.0
 11
6.625159957396148
 21
10.42265296980235
 31
0.0
  0
LINE
  5
2F0
330
1F
100
AcDbEntity
  8
Layer 01
100
AcDbLine
 10
6.625159957396148
 20
10.42265296980235
 30
0.0
 11
6.551154329472405
 21
10.40932630316375
 31
0.0
  0
LINE
  5
2F1
330
1F
100
AcDbEntity
  8
Layer 01
100
AcDbLine
 10
6.551154329472405
 20
10.40932630316375
 30
0.0
 11
6.477551539858647
 21
10.39440239069258
 31
0.0
  0
LINE
  5
2F2
330
1F
100
AcDbEntity
  8
Layer 01
100
AcDbLine
 10
6.477551539858647
 20
10.39440239069258
 30
0.0
 11
6.404386750602431
 21
10.37789059283187
 31
0.0
  0
LINE
  5
2F3
330
1F
100
AcDbEntity
  8
Layer 01
100
AcDbLine
 10
6.404386750602431
 20
10.37789059283187
 30
0.0
 11
6.33169470523233
 21
10.35980124826391
 31
0.0
  0
LINE
  5
2F4
330
1F
100
AcDbEntity
  8
Layer 01
100
AcDbLine
 10
6.33169470523233
 20
10.35980124826391
 30
0.0
 11
6.25950847320096
 21
10.34014860862782
 31
0.0
  0
LINE
  5
2F5
330
1F
100
AcDbEntity
  8
Layer 01
100
AcDbLine
 10
6.25950847320096
 20
10.34014860862782
 30
0.0
 11
6.187860705441953
 21
10.31894790380195
 31
0.0
  0
LINE
  5
2F6
330
1F
100
AcDbEntity
  8
Layer 01
100
AcDbLine
 10
6.187860705441953
 20
10.31894790380195
 30
0.0
 11
6.116784052888935
 21
10.29621436366465
 31
0.0
  0
LINE
  5
2F7
330
1F
100
AcDbEntity
  8
Layer 01
100
AcDbLine
 10
6.116784052888935
 20
10.29621436366465
 30
0.0
 11
6.046311166475537
 21
10.27196321809427
 31
0.0
  0
LINE
  5
2F8
330
1F
100
AcDbEntity
  8
Layer 01
100
AcDbLine
 10
6.046311166475537
 20
10.27196321809427
 30
0.0
 11
5.976474697135387
 21
10.24620969696917
 31
0.0
  0
LINE
  5
2F9
330
1F
100
AcDbEntity
  8
Layer 01
100
AcDbLine
 10
5.976474697135387
 20
10.24620969696917
 30
0.0
 11
5.907307295802116
 21
10.21896903016768
 31
0.0
  0
LINE
  5
2FA
330
1F
100
AcDbEntity
  8
Layer 01
100
AcDbLine
 10
5.907307295802116
 20
10.21896903016768
 30
0.0
 11
5.83884161340935
 21
10.19025644756816
 31
0.0
  0
LINE
  5
2FB
330
1F
100
AcDbEntity
  8
Layer 01
100
AcDbLine
 10
5.83884161340935
 20
10.19025644756816
 30
0.0
 11
5.771109722476344
 21
10.16008805981706
 31
0.0
  0
LINE
  5
2FC
330
1F
100
AcDbEntity
  8
Layer 01
100
AcDbLine
 10
5.771109722476344
 20
10.16008805981706
 30
0.0
 11
5.70414138186484
 21
10.12848350063328
 31
0.0
  0
LINE
  5
2FD
330
1F
100
AcDbEntity
  8
Layer 01
100
AcDbLine
 10
5.70414138186484
 20
10.12848350063328
 30
0.0
 11
5.637965772022209
 21
10.0954632845038
 31
0.0
  0
LINE
  5
2FE
330
1F
100
AcDbEntity
  8
Layer 01
100
AcDbLine
 10
5.637965772022209
 20
10.0954632845038
 30
0.0
 11
5.572612073395817
 21
10.06104792591561
 31
0.0
  0
LINE
  5
2FF
330
1F
100
AcDbEntity
  8
Layer 01
100
AcDbLine
 10
5.572612073395817
 20
10.06104792591561
 30
0.0
 11
5.508109466433032
 21
10.02525793935572
 31
0.0
  0
LINE
  5
300
330
1F
100
AcDbEntity
  8
Layer 01
100
AcDbLine
 10
5.508109466433032
 20
10.02525793935572
 30
0.0
 11
5.444487131581223
 21
9.988113839311112
 31
0.0
  0
LINE
  5
301
330
1F
100
AcDbEntity
  8
Layer 01
100
AcDbLine
 10
5.444487131581223
 20
9.988113839311112
 30
0.0
 11
5.381774249287757
 21
9.94963614026878
 31
0.0
  0
LINE
  5
302
330
1F
100
AcDbEntity
  8
Layer 01
100
AcDbLine
 10
5.381774249287757
 20
9.94963614026878
 30
0.0
 11
5.320000000000001
 21
9.909845356715717
 31
0.0
  0
LINE
  5
303
330
1F
100
AcDbEntity
  8
Layer 01
100
AcDbLine
 10
5.320000000000001
 20
9.909845356715717
 30
0.0
 11
5.259192846880568
 21
9.868762760929982
 31
0.0
  0
LINE
  5
304
330
1F
100
AcDbEntity
  8
Layer 01
100
AcDbLine
 10
5.259192846880568
 20
9.868762760929982
 30
0.0
 11
5.19937838395304
 21
9.82641265635391
 31
0.0
  0
LINE
  5
305
330
1F
100
AcDbEntity
  8
Layer 01
100
AcDbLine
 10
5.19937838395304
 20
9.82641265635391
 30
0.0
 11
5.140581487956247
 21
9.782820104220894
 31
0.0
  0
LINE
  5
306
330
1F
100
AcDbEntity
  8
Layer 01
100
AcDbLine
 10
5.140581487956247
 20
9.782820104220894
 30
0.0
 11
5.082827035629016
 21
9.738010165764333
 31
0.0
  0
LINE
  5
307
330
1F
100
AcDbEntity
  8
Layer 01
100
AcDbLine
 10
5.082827035629016
 20
9.738010165764333
 30
0.0
 11
5.026139903710174
 21
9.692007902217625
 31
0.0
  0
LINE
  5
308
330
1F
100
AcDbEntity
  8
Layer 01
100
AcDbLine
 10
5.026139903710174
 20
9.692007902217625
 30
0.0
 11
4.970544968938547
 21
9.64483837481417
 31
0.0
  0
LINE
  5
309
330
1F
100
AcDbEntity
  8
Layer 01
100
AcDbLine
 10
4.970544968938547
 20
9.64483837481417
 30
0.0
 11
4.916067108052965
 21
9.596526644787364
 31
0.0
  0
LINE
  5
30A
330
1F
100
AcDbEntity
  8
Layer 01
100
AcDbLine
 10
4.916067108052965
 20
9.596526644787364
 30
0.0
 11
4.862731197792255
 21
9.547097773370602
 31
0.0
  0
LINE
  5
30B
330
1F
100
AcDbEntity
  8
Layer 01
100
AcDbLine
 10
4.862731197792255
 20
9.547097773370602
 30
0.0
 11
4.810561283714145
 21
9.496577435422015
 31
0.0
  0
LINE
  5
30C
330
1F
100
AcDbEntity
  8
Layer 01
100
AcDbLine
 10
4.810561283714145
 20
9.496577435422015
 30
0.0
 11
4.759578086651969
 21
9.444993760298665
 31
0.0
  0
LINE
  5
30D
330
1F
100
AcDbEntity
  8
Layer 01
100
AcDbLine
 10
4.759578086651969
 20
9.444993760298665
 30
0.0
 11
4.709801496257958
 21
9.39237549098234
 31
0.0
  0
LINE
  5
30E
330
1F
100
AcDbEntity
  8
Layer 01
100
AcDbLine
 10
4.709801496257958
 20
9.39237549098234
 30
0.0
 11
4.661251402184346
 21
9.338751370454828
 31
0.0
  0
LINE
  5
30F
330
1F
100
AcDbEntity
  8
Layer 01
100
AcDbLine
 10
4.661251402184346
 20
9.338751370454828
 30
0.0
 11
4.613947694083368
 21
9.284150141697921
 31
0.0
  0
LINE
  5
310
330
1F
100
AcDbEntity
  8
Layer 01
100
AcDbLine
 10
4.613947694083368
 20
9.284150141697921
 30
0.0
 11
4.567910261607255
 21
9.228600547693405
 31
0.0
  0
LINE
  5
311
330
1F
100
AcDbEntity
  8
Layer 01
100
AcDbLine
 10
4.567910261607255
 20
9.228600547693405
 30
0.0
 11
4.523158994408242
 21
9.172131331423074
 31
0.0
  0
LINE
  5
312
330
1F
100
AcDbEntity
  8
Layer 01
100
AcDbLine
 10
4.523158994408242
 20
9.172131331423074
 30
0.0
 11
4.479713782138562
 21
9.114771235868716
 31
0.0
  0
LINE
  5
313
330
1F
100
AcDbEntity
  8
Layer 01
100
AcDbLine
 10
4.479713782138562
 20
9.114771235868716
 30
0.0
 11
4.437593597440638
 21
9.056549457185902
 31
0.0
  0
LINE
  5
314
330
1F
100
AcDbEntity
  8
Layer 01
100
AcDbLine
 10
4.437593597440638
 20
9.056549457185902
 30
0.0
 11
4.396813744917644
 21
8.997497004225334
 31
0.0
  0
LINE
  5
315
330
1F
100
AcDbEntity
  8
Layer 01
100
AcDbLine
 10
4.396813744917644
 20
8.997497004225334
 30
0.0
 11
4.357388612162946
 21
8.937645339011489
 31
0.0
  0
LINE
  5
316
330
1F
100
AcDbEntity
  8
Layer 01
100
AcDbLine
 10
4.357388612162946
 20
8.937645339011489
 30
0.0
 11
4.319332586769909
 21
8.877025923568853
 31
0.0
  0
LINE
  5
317
330
1F
100
AcDbEntity
  8
Layer 01
100
AcDbLine
 10
4.319332586769909
 20
8.877025923568853
 30
0.0
 11
4.282660056331896
 21
8.815670219921905
 31
0.0
  0
LINE
  5
318
330
1F
100
AcDbEntity
  8
Layer 01
100
AcDbLine
 10
4.282660056331896
 20
8.815670219921905
 30
0.0
 11
4.247385408442273
 21
8.753609690095127
 31
0.0
  0
LINE
  5
319
330
1F
100
AcDbEntity
  8
Layer 01
100
AcDbLine
 10
4.247385408442273
 20
8.753609690095127
 30
0.0
 11
4.213523030694404
 21
8.690875796112998
 31
0.0
  0
LINE
  5
31A
330
1F
100
AcDbEntity
  8
Layer 01
100
AcDbLine
 10
4.213523030694404
 20
8.690875796112998
 30
0.0
 11
4.181087310681653
 21
8.627500000000003
 31
0.0
  0
LINE
  5
31B
330
1F
100
AcDbEntity
  8
Layer 01
100
AcDbLine
 10
4.181087310681653
 20
8.627500000000003
 30
0.0
 11
4.150091663381803
 21
8.56351404554661
 31
0.0
  0
LINE
  5
31C
330
1F
100
AcDbEntity
  8
Layer 01
100
AcDbLine
 10
4.150091663381803
 20
8.56351404554661
 30
0.0
 11
4.120545613310304
 21
8.498950803607242
 31
0.0
  0
LINE
  5
31D
330
1F
100
AcDbEntity
  8
Layer 01
100
AcDbLine
 10
4.120545613310304
 20
8.498950803607242
 30
0.0
 11
4.092457712367027
 21
8.433843426802312
 31
0.0
  0
LINE
  5
31E
330
1F
100
AcDbEntity
  8
Layer 01
100
AcDbLine
 10
4.092457712367027
 20
8.433843426802312
 30
0.0
 11
4.06583651245184
 21
8.368225067752231
 31
0.0
  0
LINE
  5
31F
330
1F
100
AcDbEntity
  8
Layer 01
100
AcDbLine
 10
4.06583651245184
 20
8.368225067752231
 30
0.0
 11
4.040690565464613
 21
8.302128879077413
 31
0.0
  0
LINE
  5
320
330
1F
100
AcDbEntity
  8
Layer 01
100
AcDbLine
 10
4.040690565464613
 20
8.302128879077413
 30
0.0
 11
4.017028423305213
 21
8.235588013398269
 31
0.0
  0
LINE
  5
321
330
1F
100
AcDbEntity
  8
Layer 01
100
AcDbLine
 10
4.017028423305213
 20
8.235588013398269
 30
0.0
 11
3.99485863787351
 21
8.16863562333521
 31
0.0
  0
LINE
  5
322
330
1F
100
AcDbEntity
  8
Layer 01
100
AcDbLine
 10
3.99485863787351
 20
8.16863562333521
 30
0.0
 11
3.974189761069375
 21
8.10130486150865
 31
0.0
  0
LINE
  5
323
330
1F
100
AcDbEntity
  8
Layer 01
100
AcDbLine
 10
3.974189761069375
 20
8.10130486150865
 30
0.0
 11
3.955029347959555
 21
8.03362898551558
 31
0.0
  0
LINE
  5
324
330
1F
100
AcDbEntity
  8
Layer 01
100
AcDbLine
 10
3.955029347959555
 20
8.03362898551558
 30
0.0
 11
3.937380966278328
 21
7.965641672859323
 31
0.0
  0
LINE
  5
325
330
1F
100
AcDbEntity
  8
Layer 01
100
AcDbLine
 10
3.937380966278328
 20
7.965641672859323
 30
0.0
 11
3.921247186926847
 21
7.897376706019775
 31
0.0
  0
LINE
  5
326
330
1F
100
AcDbEntity
  8
Layer 01
100
AcDbLine
 10
3.921247186926847
 20
7.897376706019775
 30
0.0
 11
3.90663058080627
 21
7.828867867476836
 31
0.0
  0
LINE
  5
327
330
1F
100
AcDbEntity
  8
Layer 01
100
AcDbLine
 10
3.90663058080627
 20
7.828867867476836
 30
0.0
 11
3.893533718817753
 21
7.760148939710406
 31
0.0
  0
LINE
  5
328
330
1F
100
AcDbEntity
  8
Layer 01
100
AcDbLine
 10
3.893533718817753
 20
7.760148939710406
 30
0.0
 11
3.881959171862451
 21
7.691253705200388
 31
0.0
  0
LINE
  5
329
330
1F
100
AcDbEntity
  8
Layer 01
100
AcDbLine
 10
3.881959171862451
 20
7.691253705200388
 30
0.0
 11
3.871909510841521
 21
7.622215946426677
 31
0.0
  0
LINE
  5
32A
330
1F
100
AcDbEntity
  8
Layer 01
100
AcDbLine
 10
3.871909510841521
 20
7.622215946426677
 30
0.0
 11
3.863387306656118
 21
7.553069445869175
 31
0.0
  0
LINE
  5
32B
330
1F
100
AcDbEntity
  8
Layer 01
100
AcDbLine
 10
3.863387306656118
 20
7.553069445869175
 30
0.0
 11
3.856394140700776
 21
7.483847914455474
 31
0.0
  0
LINE
  5
32C
330
1F
100
AcDbEntity
  8
Layer 01
100
AcDbLine
 10
3.856394140700776
 20
7.483847914455474
 30
0.0
 11
3.85092763634354
 21
7.414584776903946
 31
0.0
  0
LINE
  5
32D
330
1F
100
AcDbEntity
  8
Layer 01
100
AcDbLine
 10
3.85092763634354
 20
7.414584776903946
 30
0.0
 11
3.846984427445833
 21
7.345313386380655
 31
0.0
  0
LINE
  5
32E
330
1F
100
AcDbEntity
  8
Layer 01
100
AcDbLine
 10
3.846984427445833
 20
7.345313386380655
 30
0.0
 11
3.844561147869076
 21
7.276067096051665
 31
0.0
  0
LINE
  5
32F
330
1F
100
AcDbEntity
  8
Layer 01
100
AcDbLine
 10
3.844561147869076
 20
7.276067096051665
 30
0.0
 11
3.843654431474691
 21
7.206879259083039
 31
0.0
  0
LINE
  5
330
330
1F
100
AcDbEntity
  8
Layer 01
100
AcDbLine
 10
3.843654431474691
 20
7.206879259083039
 30
0.0
 11
3.844260912124103
 21
7.137783228640845
 31
0.0
  0
LINE
  5
331
330
1F
100
AcDbEntity
  8
Layer 01
100
AcDbLine
 10
3.844260912124103
 20
7.137783228640845
 30
0.0
 11
3.846377223678731
 21
7.068812357891145
 31
0.0
  0
LINE
  5
332
330
1F
100
AcDbEntity
  8
Layer 01
100
AcDbLine
 10
3.846377223678731
 20
7.068812357891145
 30
0.0
 11
3.85
 21
7.000000000000001
 31
0.0
  0
LINE
  5
333
330
1F
100
AcDbEntity
  8
Layer 01
100
AcDbLine
 10
3.85
 20
7.000000000000001
 30
0.0
 11
3.855124923472431
 21
6.931379265842192
 31
0.0
  0
LINE
  5
334
330
1F
100
AcDbEntity
  8
Layer 01
100
AcDbLine
 10
3.855124923472431
 20
6.931379265842192
 30
0.0
 11
3.861743870572945
 21
6.862982297127346
 31
0.0
  0
LINE
  5
335
330
1F
100
AcDbEntity
  8
Layer 01
100
AcDbLine
 10
3.861743870572945
 20
6.862982297127346
 30
0.0
 11
3.869847766301564
 21
6.794840993273803
 31
0.0
  0
LINE
  5
336
330
1F
100
AcDbEntity
  8
Layer 01
100
AcDbLine
 10
3.869847766301564
 20
6.794840993273803
 30
0.0
 11
3.879427535658309
 21
6.726987253699901
 31
0.0
  0
LINE
  5
337
330
1F
100
AcDbEntity
  8
Layer 01
100
AcDbLine
 10
3.879427535658309
 20
6.726987253699901
 30
0.0
 11
3.890474103643201
 21
6.659452977823981
 31
0.0
  0
LINE
  5
338
330
1F
100
AcDbEntity
  8
Layer 01
100
AcDbLine
 10
3.890474103643201
 20
6.659452977823981
 30
0.0
 11
3.902978395256262
 21
6.592270065064383
 31
0.0
  0
LINE
  5
339
330
1F
100
AcDbEntity
  8
Layer 01
100
AcDbLine
 10
3.902978395256262
 20
6.592270065064383
 30
0.0
 11
3.916931335497511
 21
6.525470414839447
 31
0.0
  0
LINE
  5
33A
330
1F
100
AcDbEntity
  8
Layer 01
100
AcDbLine
 10
3.916931335497511
 20
6.525470414839447
 30
0.0
 11
3.932323849366973
 21
6.459085926567512
 31
0.0
  0
LINE
  5
33B
330
1F
100
AcDbEntity
  8
Layer 01
100
AcDbLine
 10
3.932323849366973
 20
6.459085926567512
 30
0.0
 11
3.949145977327631
 21
6.393148097670155
 31
0.0
  0
LINE
  5
33C
330
1F
100
AcDbEntity
  8
Layer 01
100
AcDbLine
 10
3.949145977327631
 20
6.393148097670155
 30
0.0
 11
3.967384221694339
 21
6.327686817581885
 31
0.0
  0
LINE
  5
33D
330
1F
100
AcDbEntity
  8
Layer 01
100
AcDbLine
 10
3.967384221694339
 20
6.327686817581885
 30
0.0
 11
3.987024200244914
 21
6.262731573740449
 31
0.0
  0
LINE
  5
33E
330
1F
100
AcDbEntity
  8
Layer 01
100
AcDbLine
 10
3.987024200244914
 20
6.262731573740449
 30
0.0
 11
4.008051530757173
 21
6.198311853583597
 31
0.0
  0
LINE
  5
33F
330
1F
100
AcDbEntity
  8
Layer 01
100
AcDbLine
 10
4.008051530757173
 20
6.198311853583597
 30
0.0
 11
4.030451831008935
 21
6.134457144549073
 31
0.0
  0
LINE
  5
340
330
1F
100
AcDbEntity
  8
Layer 01
100
AcDbLine
 10
4.030451831008935
 20
6.134457144549073
 30
0.0
 11
4.054210718778016
 21
6.071196934074623
 31
0.0
  0
LINE
  5
341
330
1F
100
AcDbEntity
  8
Layer 01
100
AcDbLine
 10
4.054210718778016
 20
6.071196934074623
 30
0.0
 11
4.079313811842233
 21
6.008560709597996
 31
0.0
  0
LINE
  5
342
330
1F
100
AcDbEntity
  8
Layer 01
100
AcDbLine
 10
4.079313811842233
 20
6.008560709597996
 30
0.0
 11
4.105746727979405
 21
5.946577958556936
 31
0.0
  0
LINE
  5
343
330
1F
100
AcDbEntity
  8
Layer 01
100
AcDbLine
 10
4.105746727979405
 20
5.946577958556936
 30
0.0
 11
4.133494293608823
 21
5.885277622517242
 31
0.0
  0
LINE
  5
344
330
1F
100
AcDbEntity
  8
Layer 01
100
AcDbLine
 10
4.133494293608823
 20
5.885277622517242
 30
0.0
 11
4.162538169715679
 21
5.824686459556908
 31
0.0
  0
LINE
  5
345
330
1F
100
AcDbEntity
  8
Layer 01
100
AcDbLine
 10
4.162538169715679
 20
5.824686459556908
 30
0.0
 11
4.192859225926642
 21
5.76483068188198
 31
0.0
  0
LINE
  5
346
330
1F
100
AcDbEntity
  8
Layer 01
100
AcDbLine
 10
4.192859225926642
 20
5.76483068188198
 30
0.0
 11
4.224438331868377
 21
5.705736501698501
 31
0.0
  0
LINE
  5
347
330
1F
100
AcDbEntity
  8
Layer 01
100
AcDbLine
 10
4.224438331868377
 20
5.705736501698501
 30
0.0
 11
4.257256357167552
 21
5.647430131212519
 31
0.0
  0
LINE
  5
348
330
1F
100
AcDbEntity
  8
Layer 01
100
AcDbLine
 10
4.257256357167552
 20
5.647430131212519
 30
0.0
 11
4.291294171450833
 21
5.589937782630077
 31
0.0
  0
LINE
  5
349
330
1F
100
AcDbEntity
  8
Layer 01
100
AcDbLine
 10
4.291294171450833
 20
5.589937782630077
 30
0.0
 11
4.326532644344889
 21
5.533285668157222
 31
0.0
  0
LINE
  5
34A
330
1F
100
AcDbEntity
  8
Layer 01
100
AcDbLine
 10
4.326532644344889
 20
5.533285668157222
 30
0.0
 11
4.362952645476385
 21
5.477499999999997
 31
0.0
  0
LINE
  5
34B
330
1F
100
AcDbEntity
  8
Layer 01
100
AcDbLine
 10
4.362952645476385
 20
5.477499999999997
 30
0.0
 11
4.400534369081239
 21
5.422606320653538
 31
0.0
  0
LINE
  5
34C
330
1F
100
AcDbEntity
  8
Layer 01
100
AcDbLine
 10
4.400534369081239
 20
5.422606320653538
 30
0.0
 11
4.439255307832363
 21
5.368627493769329
 31
0.0
  0
LINE
  5
34D
330
1F
100
AcDbEntity
  8
Layer 01
100
AcDbLine
 10
4.439255307832363
 20
5.368627493769329
 30
0.0
 11
4.479092279011921
 21
5.315585713287944
 31
0.0
  0
LINE
  5
34E
330
1F
100
AcDbEntity
  8
Layer 01
100
AcDbLine
 10
4.479092279011921
 20
5.315585713287944
 30
0.0
 11
4.520022099902071
 21
5.263503173149959
 31
0.0
  0
LINE
  5
34F
330
1F
100
AcDbEntity
  8
Layer 01
100
AcDbLine
 10
4.520022099902071
 20
5.263503173149959
 30
0.0
 11
4.56202158778498
 21
5.21240206729595
 31
0.0
  0
LINE
  5
350
330
1F
100
AcDbEntity
  8
Layer 01
100
AcDbLine
 10
4.56202158778498
 20
5.21240206729595
 30
0.0
 11
4.605067559942809
 21
5.162304589666491
 31
0.0
  0
LINE
  5
351
330
1F
100
AcDbEntity
  8
Layer 01
100
AcDbLine
 10
4.605067559942809
 20
5.162304589666491
 30
0.0
 11
4.649136833657721
 21
5.113232934202155
 31
0.0
  0
LINE
  5
352
330
1F
100
AcDbEntity
  8
Layer 01
100
AcDbLine
 10
4.649136833657721
 20
5.113232934202155
 30
0.0
 11
4.694206226211877
 21
5.065209294843518
 31
0.0
  0
LINE
  5
353
330
1F
100
AcDbEntity
  8
Layer 01
100
AcDbLine
 10
4.694206226211877
 20
5.065209294843518
 30
0.0
 11
4.740252014150068
 21
5.018255095509812
 31
0.0
  0
LINE
  5
354
330
1F
100
AcDbEntity
  8
Layer 01
100
AcDbLine
 10
4.740252014150068
 20
5.018255095509812
 30
0.0
 11
4.78724831106759
 21
4.972388680034897
 31
0.0
  0
LINE
  5
355
330
1F
100
AcDbEntity
  8
Layer 01
100
AcDbLine
 10
4.78724831106759
 20
4.972388680034897
 30
0.0
 11
4.835168689822371
 21
4.927627622231292
 31
0.0
  0
LINE
  5
356
330
1F
100
AcDbEntity
  8
Layer 01
100
AcDbLine
 10
4.835168689822371
 20
4.927627622231292
 30
0.0
 11
4.883986723272336
 21
4.883989495911514
 31
0.0
  0
LINE
  5
357
330
1F
100
AcDbEntity
  8
Layer 01
100
AcDbLine
 10
4.883986723272336
 20
4.883989495911514
 30
0.0
 11
4.933675984275409
 21
4.841491874888083
 31
0.0
  0
LINE
  5
358
330
1F
100
AcDbEntity
  8
Layer 01
100
AcDbLine
 10
4.933675984275409
 20
4.841491874888083
 30
0.0
 11
4.984210045689518
 21
4.800152332973515
 31
0.0
  0
LINE
  5
359
330
1F
100
AcDbEntity
  8
Layer 01
100
AcDbLine
 10
4.984210045689518
 20
4.800152332973515
 30
0.0
 11
5.035562480372588
 21
4.75998844398033
 31
0.0
  0
LINE
  5
35A
330
1F
100
AcDbEntity
  8
Layer 01
100
AcDbLine
 10
5.035562480372588
 20
4.75998844398033
 30
0.0
 11
5.087706861182543
 21
4.721017781721042
 31
0.0
  0
LINE
  5
35B
330
1F
100
AcDbEntity
  8
Layer 01
100
AcDbLine
 10
5.087706861182543
 20
4.721017781721042
 30
0.0
 11
5.140616368963284
 21
4.683257075885722
 31
0.0
  0
LINE
  5
35C
330
1F
100
AcDbEntity
  8
Layer 01
100
AcDbLine
 10
5.140616368963284
 20
4.683257075885722
 30
0.0
 11
5.194262616502609
 21
4.646719679674623
 31
0.0
  0
LINE
  5
35D
330
1F
100
AcDbEntity
  8
Layer 01
100
AcDbLine
 10
5.194262616502609
 20
4.646719679674623
 30
0.0
 11
5.248616824574288
 21
4.611418102165551
 31
0.0
  0
LINE
  5
35E
330
1F
100
AcDbEntity
  8
Layer 01
100
AcDbLine
 10
5.248616824574288
 20
4.611418102165551
 30
0.0
 11
5.303650213952093
 21
4.577364852436311
 31
0.0
  0
LINE
  5
35F
330
1F
100
AcDbEntity
  8
Layer 01
100
AcDbLine
 10
5.303650213952093
 20
4.577364852436311
 30
0.0
 11
5.359334005409794
 21
4.544572439564707
 31
0.0
  0
LINE
  5
360
330
1F
100
AcDbEntity
  8
Layer 01
100
AcDbLine
 10
5.359334005409794
 20
4.544572439564707
 30
0.0
 11
5.415639419721165
 21
4.513053372628542
 31
0.0
  0
LINE
  5
361
330
1F
100
AcDbEntity
  8
Layer 01
100
AcDbLine
 10
5.415639419721165
 20
4.513053372628542
 30
0.0
 11
5.472537677659977
 21
4.482820160705623
 31
0.0
  0
LINE
  5
362
330
1F
100
AcDbEntity
  8
Layer 01
100
AcDbLine
 10
5.472537677659977
 20
4.482820160705623
 30
0.0
 11
5.529999999999999
 21
4.453885312873752
 31
0.0
  0
LINE
  5
363
330
1F
100
AcDbEntity
  8
Layer 01
100
AcDbLine
 10
5.529999999999999
 20
4.453885312873752
 30
0.0
 11
5.58799737332286
 21
4.426260447995469
 31
0.0
  0
LINE
  5
364
330
1F
100
AcDbEntity
  8
Layer 01
100
AcDbLine
 10
5.58799737332286
 20
4.426260447995469
 30
0.0
 11
5.646499847441616
 21
4.39995362407225
 31
0.0
  0
LINE
  5
365
330
1F
100
AcDbEntity
  8
Layer 01
100
AcDbLine
 10
5.646499847441616
 20
4.39995362407225
 30
0.0
 11
5.705477237977176
 21
4.374972008890301
 31
0.0
  0
LINE
  5
366
330
1F
100
AcDbEntity
  8
Layer 01
100
AcDbLine
 10
5.705477237977176
 20
4.374972008890301
 30
0.0
 11
5.764899360550451
 21
4.351322770235832
 31
0.0
  0
LINE
  5
367
330
1F
100
AcDbEntity
  8
Layer 01
100
AcDbLine
 10
5.764899360550451
 20
4.351322770235832
 30
0.0
 11
5.824736030782354
 21
4.329013075895052
 31
0.0
  0
LINE
  5
368
330
1F
100
AcDbEntity
  8
Layer 01
100
AcDbLine
 10
5.824736030782354
 20
4.329013075895052
 30
0.0
 11
5.884957064293793
 21
4.308050093654171
 31
0.0
  0
LINE
  5
369
330
1F
100
AcDbEntity
  8
Layer 01
100
AcDbLine
 10
5.884957064293793
 20
4.308050093654171
 30
0.0
 11
5.945532276705682
 21
4.288440991299398
 31
0.0
  0
LINE
  5
36A
330
1F
100
AcDbEntity
  8
Layer 01
100
AcDbLine
 10
5.945532276705682
 20
4.288440991299398
 30
0.0
 11
6.006431483638929
 21
4.270192936616938
 31
0.0
  0
LINE
  5
36B
330
1F
100
AcDbEntity
  8
Layer 01
100
AcDbLine
 10
6.006431483638929
 20
4.270192936616938
 30
0.0
 11
6.067624428280291
 21
4.253312189969469
 31
0.0
  0
LINE
  5
36C
330
1F
100
AcDbEntity
  8
Layer 01
100
AcDbLine
 10
6.067624428280291
 20
4.253312189969469
 30
0.0
 11
6.129080564079905
 21
4.237801382025513
 31
0.0
  0
LINE
  5
36D
330
1F
100
AcDbEntity
  8
Layer 01
100
AcDbLine
 10
6.129080564079905
 20
4.237801382025513
 30
0.0
 11
6.190769272053754
 21
4.22366223603006
 31
0.0
  0
LINE
  5
36E
330
1F
100
AcDbEntity
  8
Layer 01
100
AcDbLine
 10
6.190769272053754
 20
4.22366223603006
 30
0.0
 11
6.252659933217821
 21
4.2108964752281
 31
0.0
  0
LINE
  5
36F
330
1F
100
AcDbEntity
  8
Layer 01
100
AcDbLine
 10
6.252659933217821
 20
4.2108964752281
 30
0.0
 11
6.314721928588087
 21
4.199505822864621
 31
0.0
  0
LINE
  5
370
330
1F
100
AcDbEntity
  8
Layer 01
100
AcDbLine
 10
6.314721928588087
 20
4.199505822864621
 30
0.0
 11
6.376924639180536
 21
4.189492002184612
 31
0.0
  0
LINE
  5
371
330
1F
100
AcDbEntity
  8
Layer 01
100
AcDbLine
 10
6.376924639180536
 20
4.189492002184612
 30
0.0
 11
6.439237446011149
 21
4.180856736433063
 31
0.0
  0
LINE
  5
372
330
1F
100
AcDbEntity
  8
Layer 01
100
AcDbLine
 10
6.439237446011149
 20
4.180856736433063
 30
0.0
 11
6.50162973009591
 21
4.173601748854963
 31
0.0
  0
LINE
  5
373
330
1F
100
AcDbEntity
  8
Layer 01
100
AcDbLine
 10
6.50162973009591
 20
4.173601748854963
 30
0.0
 11
6.564070960525328
 21
4.167727866890862
 31
0.0
  0
LINE
  5
374
330
1F
100
AcDbEntity
  8
Layer 01
100
AcDbLine
 10
6.564070960525328
 20
4.167727866890862
 30
0.0
 11
6.626530958688033
 21
4.163232334763551
 31
0.0
  0
LINE
  5
375
330
1F
100
AcDbEntity
  8
Layer 01
100
AcDbLine
 10
6.626530958688033
 20
4.163232334763551
 30
0.0
 11
6.68897963404718
 21
4.160111500891382
 31
0.0
  0
LINE
  5
376
330
1F
100
AcDbEntity
  8
Layer 01
100
AcDbLine
 10
6.68897963404718
 20
4.160111500891382
 30
0.0
 11
6.751386896065925
 21
4.158361713692708
 31
0.0
  0
LINE
  5
377
330
1F
100
AcDbEntity
  8
Layer 01
100
AcDbLine
 10
6.751386896065925
 20
4.158361713692708
 30
0.0
 11
6.813722654207423
 21
4.15797932158588
 31
0.0
  0
LINE
  5
378
330
1F
100
AcDbEntity
  8
Layer 01
100
AcDbLine
 10
6.813722654207423
 20
4.15797932158588
 30
0.0
 11
6.87595681793483
 21
4.158960672989251
 31
0.0
  0
LINE
  5
379
330
1F
100
AcDbEntity
  8
Layer 01
100
AcDbLine
 10
6.87595681793483
 20
4.158960672989251
 30
0.0
 11
6.938059296711304
 21
4.161302116321174
 31
0.0
  0
LINE
  5
37A
330
1F
100
AcDbEntity
  8
Layer 01
100
AcDbLine
 10
6.938059296711304
 20
4.161302116321174
 30
0.0
 11
7.0
 21
4.165000000000001
 31
0.0
  0
LINE
  5
37B
330
1F
100
AcDbEntity
  8
Layer 01
100
AcDbLine
 10
7.0
 20
4.165000000000001
 30
0.0
 11
7.06174907955536
 21
4.170049816114873
 31
0.0
  0
LINE
  5
37C
330
1F
100
AcDbEntity
  8
Layer 01
100
AcDbLine
 10
7.06174907955536
 20
4.170049816114873
 30
0.0
 11
7.123277656296979
 21
4.176443631438094
 31
0.0
  0
LINE
  5
37D
330
1F
100
AcDbEntity
  8
Layer 01
100
AcDbLine
 10
7.123277656296979
 20
4.176443631438094
 30
0.0
 11
7.184557093435736
 21
4.184172656412752
 31
0.0
  0
LINE
  5
37E
330
1F
100
AcDbEntity
  8
Layer 01
100
AcDbLine
 10
7.184557093435736
 20
4.184172656412752
 30
0.0
 11
7.245558754182511
 21
4.193228101481941
 31
0.0
  0
LINE
  5
37F
330
1F
100
AcDbEntity
  8
Layer 01
100
AcDbLine
 10
7.245558754182511
 20
4.193228101481941
 30
0.0
 11
7.306254001748185
 21
4.20360117708875
 31
0.0
  0
LINE
  5
380
330
1F
100
AcDbEntity
  8
Layer 01
100
AcDbLine
 10
7.306254001748185
 20
4.20360117708875
 30
0.0
 11
7.366614199343638
 21
4.215283093676272
 31
0.0
  0
LINE
  5
381
330
1F
100
AcDbEntity
  8
Layer 01
100
AcDbLine
 10
7.366614199343638
 20
4.215283093676272
 30
0.0
 11
7.42661071017975
 21
4.228265061687596
 31
0.0
  0
LINE
  5
382
330
1F
100
AcDbEntity
  8
Layer 01
100
AcDbLine
 10
7.42661071017975
 20
4.228265061687596
 30
0.0
 11
7.486214897467402
 21
4.242538291565817
 31
0.0
  0
LINE
  5
383
330
1F
100
AcDbEntity
  8
Layer 01
100
AcDbLine
 10
7.486214897467402
 20
4.242538291565817
 30
0.0
 11
7.545398509892017
 21
4.258093202919172
 31
0.0
  0
LINE
  5
384
330
1F
100
AcDbEntity
  8
Layer 01
100
AcDbLine
 10
7.545398509892017
 20
4.258093202919172
 30
0.0
 11
7.604134838037188
 21
4.274917052016498
 31
0.0
  0
LINE
  5
385
330
1F
100
AcDbEntity
  8
Layer 01
100
AcDbLine
 10
7.604134838037188
 20
4.274917052016498
 30
0.0
 11
7.66239755796105
 21
4.292996304291779
 31
0.0
  0
LINE
  5
386
330
1F
100
AcDbEntity
  8
Layer 01
100
AcDbLine
 10
7.66239755796105
 20
4.292996304291779
 30
0.0
 11
7.720160345721738
 21
4.312317425179
 31
0.0
  0
LINE
  5
387
330
1F
100
AcDbEntity
  8
Layer 01
100
AcDbLine
 10
7.720160345721738
 20
4.312317425179
 30
0.0
 11
7.777396877377389
 21
4.332866880112144
 31
0.0
  0
LINE
  5
388
330
1F
100
AcDbEntity
  8
Layer 01
100
AcDbLine
 10
7.777396877377389
 20
4.332866880112144
 30
0.0
 11
7.834080828986139
 21
4.354631134525198
 31
0.0
  0
LINE
  5
389
330
1F
100
AcDbEntity
  8
Layer 01
100
AcDbLine
 10
7.834080828986139
 20
4.354631134525198
 30
0.0
 11
7.890185876606121
 21
4.377596653852143
 31
0.0
  0
LINE
  5
38A
330
1F
100
AcDbEntity
  8
Layer 01
100
AcDbLine
 10
7.890185876606121
 20
4.377596653852143
 30
0.0
 11
7.945685696295473
 21
4.401749903526964
 31
0.0
  0
LINE
  5
38B
330
1F
100
AcDbEntity
  8
Layer 01
100
AcDbLine
 10
7.945685696295473
 20
4.401749903526964
 30
0.0
 11
8.000554477441852
 21
4.427076647034704
 31
0.0
  0
LINE
  5
38C
330
1F
100
AcDbEntity
  8
Layer 01
100
AcDbLine
 10
8.000554477441852
 20
4.427076647034704
 30
0.0
 11
8.054768462751017
 21
4.453559840064632
 31
0.0
  0
LINE
  5
38D
330
1F
100
AcDbEntity
  8
Layer 01
100
AcDbLine
 10
8.054768462751017
 20
4.453559840064632
 30
0.0
 11
8.10830440825824
 21
4.481181736357076
 31
0.0
  0
LINE
  5
38E
330
1F
100
AcDbEntity
  8
Layer 01
100
AcDbLine
 10
8.10830440825824
 20
4.481181736357076
 30
0.0
 11
8.161139069998804
 21
4.509924589652362
 31
0.0
  0
LINE
  5
38F
330
1F
100
AcDbEntity
  8
Layer 01
100
AcDbLine
 10
8.161139069998804
 20
4.509924589652362
 30
0.0
 11
8.213249204007983
 21
4.53977065369082
 31
0.0
  0
LINE
  5
390
330
1F
100
AcDbEntity
  8
Layer 01
100
AcDbLine
 10
8.213249204007983
 20
4.53977065369082
 30
0.0
 11
8.264611566321058
 21
4.570702182212774
 31
0.0
  0
LINE
  5
391
330
1F
100
AcDbEntity
  8
Layer 01
100
AcDbLine
 10
8.264611566321058
 20
4.570702182212774
 30
0.0
 11
8.315202912973302
 21
4.602701428958552
 31
0.0
  0
LINE
  5
392
330
1F
100
AcDbEntity
  8
Layer 01
100
AcDbLine
 10
8.315202912973302
 20
4.602701428958552
 30
0.0
 11
8.364999999999997
 21
4.635750647668481
 31
0.0
  0
LINE
  5
393
330
1F
100
AcDbEntity
  8
Layer 01
100
AcDbLine
 10
8.364999999999997
 20
4.635750647668481
 30
0.0
 11
8.413980205573484
 21
4.669831499092455
 31
0.0
  0
LINE
  5
394
330
1F
100
AcDbEntity
  8
Layer 01
100
AcDbLine
 10
8.413980205573484
 20
4.669831499092455
 30
0.0
 11
8.462123396414379
 21
4.70492327201863
 31
0.0
  0
LINE
  5
395
330
1F
100
AcDbEntity
  8
Layer 01
100
AcDbLine
 10
8.462123396414379
 20
4.70492327201863
 30
0.0
 11
8.509410061380358
 21
4.741004662244728
 31
0.0
  0
LINE
  5
396
330
1F
100
AcDbEntity
  8
Layer 01
100
AcDbLine
 10
8.509410061380358
 20
4.741004662244728
 30
0.0
 11
8.555820689329096
 21
4.778054365568472
 31
0.0
  0
LINE
  5
397
330
1F
100
AcDbEntity
  8
Layer 01
100
AcDbLine
 10
8.555820689329096
 20
4.778054365568472
 30
0.0
 11
8.601335769118275
 21
4.816051077787586
 31
0.0
  0
LINE
  5
398
330
1F
100
AcDbEntity
  8
Layer 01
100
AcDbLine
 10
8.601335769118275
 20
4.816051077787586
 30
0.0
 11
8.645935789605572
 21
4.85497349469979
 31
0.0
  0
LINE
  5
399
330
1F
100
AcDbEntity
  8
Layer 01
100
AcDbLine
 10
8.645935789605572
 20
4.85497349469979
 30
0.0
 11
8.689601239648663
 21
4.894800312102808
 31
0.0
  0
LINE
  5
39A
330
1F
100
AcDbEntity
  8
Layer 01
100
AcDbLine
 10
8.689601239648663
 20
4.894800312102808
 30
0.0
 11
8.732312608105229
 21
4.93551022579436
 31
0.0
  0
LINE
  5
39B
330
1F
100
AcDbEntity
  8
Layer 01
100
AcDbLine
 10
8.732312608105229
 20
4.93551022579436
 30
0.0
 11
8.774051092694531
 21
4.977081463722158
 31
0.0
  0
LINE
  5
39C
330
1F
100
AcDbEntity
  8
Layer 01
100
AcDbLine
 10
8.774051092694531
 20
4.977081463722158
 30
0.0
 11
8.814800726582185
 21
5.019490382433854
 31
0.0
  0
LINE
  5
39D
330
1F
100
AcDbEntity
  8
Layer 01
100
AcDbLine
 10
8.814800726582185
 20
5.019490382433854
 30
0.0
 11
8.854546251795382
 21
5.06271287062709
 31
0.0
  0
LINE
  5
39E
330
1F
100
AcDbEntity
  8
Layer 01
100
AcDbLine
 10
8.854546251795382
 20
5.06271287062709
 30
0.0
 11
8.893272410361325
 21
5.106724816999508
 31
0.0
  0
LINE
  5
39F
330
1F
100
AcDbEntity
  8
Layer 01
100
AcDbLine
 10
8.893272410361325
 20
5.106724816999508
 30
0.0
 11
8.93096394430721
 21
5.151502110248748
 31
0.0
  0
LINE
  5
3A0
330
1F
100
AcDbEntity
  8
Layer 01
100
AcDbLine
 10
8.93096394430721
 20
5.151502110248748
 30
0.0
 11
8.967605595660233
 21
5.19702063907245
 31
0.0
  0
LINE
  5
3A1
330
1F
100
AcDbEntity
  8
Layer 01
100
AcDbLine
 10
8.967605595660233
 20
5.19702063907245
 30
0.0
 11
9.003182106447593
 21
5.243256292168257
 31
0.0
  0
LINE
  5
3A2
330
1F
100
AcDbEntity
  8
Layer 01
100
AcDbLine
 10
9.003182106447593
 20
5.243256292168257
 30
0.0
 11
9.037678218696483
 21
5.290184958233809
 31
0.0
  0
LINE
  5
3A3
330
1F
100
AcDbEntity
  8
Layer 01
100
AcDbLine
 10
9.037678218696483
 20
5.290184958233809
 30
0.0
 11
9.071079445669202
 21
5.337782195112479
 31
0.0
  0
LINE
  5
3A4
330
1F
100
AcDbEntity
  8
Layer 01
100
AcDbLine
 10
9.071079445669202
 20
5.337782195112479
 30
0.0
 11
9.103374385568404
 21
5.386022237230558
 31
0.0
  0
LINE
  5
3A5
330
1F
100
AcDbEntity
  8
Layer 01
100
AcDbLine
 10
9.103374385568404
 20
5.386022237230558
 30
0.0
 11
9.13455240783185
 21
5.434878988160071
 31
0.0
  0
LINE
  5
3A6
330
1F
100
AcDbEntity
  8
Layer 01
100
AcDbLine
 10
9.13455240783185
 20
5.434878988160071
 30
0.0
 11
9.164602881897292
 21
5.484326351473043
 31
0.0
  0
LINE
  5
3A7
330
1F
100
AcDbEntity
  8
Layer 01
100
AcDbLine
 10
9.164602881897292
 20
5.484326351473043
 30
0.0
 11
9.193515177202489
 21
5.534338230741498
 31
0.0
  0
LINE
  5
3A8
330
1F
100
AcDbEntity
  8
Layer 01
100
AcDbLine
 10
9.193515177202489
 20
5.534338230741498
 30
0.0
 11
9.221278663185192
 21
5.58488852953746
 31
0.0
  0
LINE
  5
3A9
330
1F
100
AcDbEntity
  8
Layer 01
100
AcDbLine
 10
9.221278663185192
 20
5.58488852953746
 30
0.0
 11
9.247882709283164
 21
5.635951151432955
 31
0.0
  0
LINE
  5
3AA
330
1F
100
AcDbEntity
  8
Layer 01
100
AcDbLine
 10
9.247882709283164
 20
5.635951151432955
 30
0.0
 11
9.273316684934153
 21
5.687500000000005
 31
0.0
  0
LINE
  5
3AB
330
1F
100
AcDbEntity
  8
Layer 01
100
AcDbLine
 10
9.273316684934153
 20
5.687500000000005
 30
0.0
 11
9.29757076739087
 21
5.739508792192336
 31
0.0
  0
LINE
  5
3AC
330
1F
100
AcDbEntity
  8
Layer 01
100
AcDbLine
 10
9.29757076739087
 20
5.739508792192336
 30
0.0
 11
9.32063836516581
 21
5.791950498490481
 31
0.0
  0
LINE
  5
3AD
330
1F
100
AcDbEntity
  8
Layer 01
100
AcDbLine
 10
9.32063836516581
 20
5.791950498490481
 30
0.0
 11
9.342513694586433
 21
5.844797902756673
 31
0.0
  0
LINE
  5
3AE
330
1F
100
AcDbEntity
  8
Layer 01
100
AcDbLine
 10
9.342513694586433
 20
5.844797902756673
 30
0.0
 11
9.363190971980181
 21
5.898023788853145
 31
0.0
  0
LINE
  5
3AF
330
1F
100
AcDbEntity
  8
Layer 01
100
AcDbLine
 10
9.363190971980181
 20
5.898023788853145
 30
0.0
 11
9.382664413674515
 21
5.951600940642132
 31
0.0
  0
LINE
  5
3B0
330
1F
100
AcDbEntity
  8
Layer 01
100
AcDbLine
 10
9.382664413674515
 20
5.951600940642132
 30
0.0
 11
9.400928235996876
 21
6.005502141985868
 31
0.0
  0
LINE
  5
3B1
330
1F
100
AcDbEntity
  8
Layer 01
100
AcDbLine
 10
9.400928235996876
 20
6.005502141985868
 30
0.0
 11
9.417976655274725
 21
6.059700176746587
 31
0.0
  0
LINE
  5
3B2
330
1F
100
AcDbEntity
  8
Layer 01
100
AcDbLine
 10
9.417976655274725
 20
6.059700176746587
 30
0.0
 11
9.433803887835504
 21
6.11416782878652
 31
0.0
  0
LINE
  5
3B3
330
1F
100
AcDbEntity
  8
Layer 01
100
AcDbLine
 10
9.433803887835504
 20
6.11416782878652
 30
0.0
 11
9.448404968020624
 21
6.168877842076176
 31
0.0
  0
LINE
  5
3B4
330
1F
100
AcDbEntity
  8
Layer 01
100
AcDbLine
 10
9.448404968020624
 20
6.168877842076176
 30
0.0
 11
9.461778202227308
 21
6.223802801019145
 31
0.0
  0
LINE
  5
3B5
330
1F
100
AcDbEntity
  8
Layer 01
100
AcDbLine
 10
9.461778202227308
 20
6.223802801019145
 30
0.0
 11
9.473922714866731
 21
6.278915250127293
 31
0.0
  0
LINE
  5
3B6
330
1F
100
AcDbEntity
  8
Layer 01
100
AcDbLine
 10
9.473922714866731
 20
6.278915250127293
 30
0.0
 11
9.484837630350075
 21
6.334187733912485
 31
0.0
  0
LINE
  5
3B7
330
1F
100
AcDbEntity
  8
Layer 01
100
AcDbLine
 10
9.484837630350075
 20
6.334187733912485
 30
0.0
 11
9.494522073088515
 21
6.389592796886587
 31
0.0
  0
LINE
  5
3B8
330
1F
100
AcDbEntity
  8
Layer 01
100
AcDbLine
 10
9.494522073088515
 20
6.389592796886587
 30
0.0
 11
9.50297516749323
 21
6.445102983561462
 31
0.0
  0
LINE
  5
3B9
330
1F
100
AcDbEntity
  8
Layer 01
100
AcDbLine
 10
9.50297516749323
 20
6.445102983561462
 30
0.0
 11
9.510196037975394
 21
6.500690838448975
 31
0.0
  0
LINE
  5
3BA
330
1F
100
AcDbEntity
  8
Layer 01
100
AcDbLine
 10
9.510196037975394
 20
6.500690838448975
 30
0.0
 11
9.516183808946192
 21
6.556328906060992
 31
0.0
  0
LINE
  5
3BB
330
1F
100
AcDbEntity
  8
Layer 01
100
AcDbLine
 10
9.516183808946192
 20
6.556328906060992
 30
0.0
 11
9.520938406919054
 21
6.61198983550613
 31
0.0
  0
LINE
  5
3BC
330
1F
100
AcDbEntity
  8
Layer 01
100
AcDbLine
 10
9.520938406919054
 20
6.61198983550613
 30
0.0
 11
9.52446296681644
 21
6.667646694280011
 31
0.0
  0
LINE
  5
3BD
330
1F
100
AcDbEntity
  8
Layer 01
100
AcDbLine
 10
9.52446296681644
 20
6.667646694280011
 30
0.0
 11
9.526761425663071
 21
6.723272654475013
 31
0.0
  0
LINE
  5
3BE
330
1F
100
AcDbEntity
  8
Layer 01
100
AcDbLine
 10
9.526761425663071
 20
6.723272654475013
 30
0.0
 11
9.527837720483662
 21
6.778840888183511
 31
0.0
  0
LINE
  5
3BF
330
1F
100
AcDbEntity
  8
Layer 01
100
AcDbLine
 10
9.527837720483662
 20
6.778840888183511
 30
0.0
 11
9.527695788302932
 21
6.834324567497884
 31
0.0
  0
LINE
  5
3C0
330
1F
100
AcDbEntity
  8
Layer 01
100
AcDbLine
 10
9.527695788302932
 20
6.834324567497884
 30
0.0
 11
9.526339566145602
 21
6.889696864510506
 31
0.0
  0
LINE
  5
3C1
330
1F
100
AcDbEntity
  8
Layer 01
100
AcDbLine
 10
9.526339566145602
 20
6.889696864510506
 30
0.0
 11
9.523772991036385
 21
6.944930951313752
 31
0.0
  0
LINE
  5
3C2
330
1F
100
AcDbEntity
  8
Layer 01
100
AcDbLine
 10
9.523772991036385
 20
6.944930951313752
 30
0.0
 11
9.52
 21
7.000000000000001
 31
0.0
  0
LINE
  5
3C3
330
1F
100
AcDbEntity
  8
Layer 01
100
AcDbLine
 10
9.52
 20
7.000000000000001
 30
0.0
 11
9.515025291242686
 21
7.054877424952915
 31
0.0
  0
LINE
  5
3C4
330
1F
100
AcDbEntity
  8
Layer 01
100
AcDbLine
 10
9.515025291242686
 20
7.054877424952915
 30
0.0
 11
9.50885660769676
 21
7.109537609721307
 31
0.0
  0
LINE
  5
3C5
330
1F
100
AcDbEntity
  8
Layer 01
100
AcDbLine
 10
9.50885660769676
 20
7.109537609721307
 30
0.0
 11
9.501502453476062
 21
7.163955180145278
 31
0.0
  0
LINE
  5
3C6
330
1F
100
AcDbEntity
  8
Layer 01
100
AcDbLine
 10
9.501502453476062
 20
7.163955180145278
 30
0.0
 11
9.49297133269443
 21
7.218104762064927
 31
0.0
  0
LINE
  5
3C7
330
1F
100
AcDbEntity
  8
Layer 01
100
AcDbLine
 10
9.49297133269443
 20
7.218104762064927
 30
0.0
 11
9.4832717494657
 21
7.271960981320357
 31
0.0
  0
LINE
  5
3C8
330
1F
100
AcDbEntity
  8
Layer 01
100
AcDbLine
 10
9.4832717494657
 20
7.271960981320357
 30
0.0
 11
9.472412207903718
 21
7.325498463751666
 31
0.0
  0
LINE
  5
3C9
330
1F
100
AcDbEntity
  8
Layer 01
100
AcDbLine
 10
9.472412207903718
 20
7.325498463751666
 30
0.0
 11
9.460401212122317
 21
7.378691835198955
 31
0.0
  0
LINE
  5
3CA
330
1F
100
AcDbEntity
  8
Layer 01
100
AcDbLine
 10
9.460401212122317
 20
7.378691835198955
 30
0.0
 11
9.447247266235337
 21
7.431515721502326
 31
0.0
  0
LINE
  5
3CB
330
1F
100
AcDbEntity
  8
Layer 01
100
AcDbLine
 10
9.447247266235337
 20
7.431515721502326
 30
0.0
 11
9.432959571489285
 21
7.483945117454198
 31
0.0
  0
LINE
  5
3CC
330
1F
100
AcDbEntity
  8
Layer 01
100
AcDbLine
 10
9.432959571489285
 20
7.483945117454198
 30
0.0
 11
9.41755011766134
 21
7.535956493656268
 31
0.0
  0
LINE
  5
3CD
330
1F
100
AcDbEntity
  8
Layer 01
100
AcDbLine
 10
9.41755011766134
 20
7.535956493656268
 30
0.0
 11
9.401031591661354
 21
7.587526689662557
 31
0.0
  0
LINE
  5
3CE
330
1F
100
AcDbEntity
  8
Layer 01
100
AcDbLine
 10
9.401031591661354
 20
7.587526689662557
 30
0.0
 11
9.383416680399172
 21
7.638632545027081
 31
0.0
  0
LINE
  5
3CF
330
1F
100
AcDbEntity
  8
Layer 01
100
AcDbLine
 10
9.383416680399172
 20
7.638632545027081
 30
0.0
 11
9.364718070784644
 21
7.689250899303858
 31
0.0
  0
LINE
  5
3D0
330
1F
100
AcDbEntity
  8
Layer 01
100
AcDbLine
 10
9.364718070784644
 20
7.689250899303858
 30
0.0
 11
9.344948449727621
 21
7.739358592046907
 31
0.0
  0
LINE
  5
3D1
330
1F
100
AcDbEntity
  8
Layer 01
100
AcDbLine
 10
9.344948449727621
 20
7.739358592046907
 30
0.0
 11
9.324120504137948
 21
7.788932462810245
 31
0.0
  0
LINE
  5
3D2
330
1F
100
AcDbEntity
  8
Layer 01
100
AcDbLine
 10
9.324120504137948
 20
7.788932462810245
 30
0.0
 11
9.302246920925477
 21
7.83794935114789
 31
0.0
  0
LINE
  5
3D3
330
1F
100
AcDbEntity
  8
Layer 01
100
AcDbLine
 10
9.302246920925477
 20
7.83794935114789
 30
0.0
 11
9.279340999539412
 21
7.886386577400959
 31
0.0
  0
LINE
  5
3D4
330
1F
100
AcDbEntity
  8
Layer 01
100
AcDbLine
 10
9.279340999539412
 20
7.886386577400959
 30
0.0
 11
9.255418489586411
 21
7.934223385058954
 31
0.0
  0
LINE
  5
3D5
330
1F
100
AcDbEntity
  8
Layer 01
100
AcDbLine
 10
9.255418489586411
 20
7.934223385058954
 30
0.0
 11
9.230495753212484
 21
7.981439498398476
 31
0.0
  0
LINE
  5
3D6
330
1F
100
AcDbEntity
  8
Layer 01
100
AcDbLine
 10
9.230495753212484
 20
7.981439498398476
 30
0.0
 11
9.204589152563644
 21
8.028014641696124
 31
0.0
  0
LINE
  5
3D7
330
1F
100
AcDbEntity
  8
Layer 01
100
AcDbLine
 10
9.204589152563644
 20
8.028014641696124
 30
0.0
 11
9.177715049785904
 21
8.0739285392285
 31
0.0
  0
LINE
  5
3D8
330
1F
100
AcDbEntity
  8
Layer 01
100
AcDbLine
 10
9.177715049785904
 20
8.0739285392285
 30
0.0
 11
9.149889807025279
 21
8.119160915272206
 31
0.0
  0
LINE
  5
3D9
330
1F
100
AcDbEntity
  8
Layer 01
100
AcDbLine
 10
9.149889807025279
 20
8.119160915272206
 30
0.0
 11
9.12112978642778
 21
8.163691494103839
 31
0.0
  0
LINE
  5
3DA
330
1F
100
AcDbEntity
  8
Layer 01
100
AcDbLine
 10
9.12112978642778
 20
8.163691494103839
 30
0.0
 11
9.091451350139419
 21
8.207500000000003
 31
0.0
  0
LINE
  5
3DB
330
1F
100
AcDbEntity
  8
Layer 01
100
AcDbLine
 10
9.091451350139419
 20
8.207500000000003
 30
0.0
 11
9.060871370896326
 21
8.250566731800516
 31
0.0
  0
LINE
  5
3DC
330
1F
100
AcDbEntity
  8
Layer 01
100
AcDbLine
 10
9.060871370896326
 20
8.250566731800516
 30
0.0
 11
9.0294087637951
 21
8.292874286598092
 31
0.0
  0
LINE
  5
3DD
330
1F
100
AcDbEntity
  8
Layer 01
100
AcDbLine
 10
9.0294087637951
 20
8.292874286598092
 30
0.0
 11
8.997082954522462
 21
8.33440583604866
 31
0.0
  0
LINE
  5
3DE
330
1F
100
AcDbEntity
  8
Layer 01
100
AcDbLine
 10
8.997082954522462
 20
8.33440583604866
 30
0.0
 11
8.963913368765127
 21
8.375144551808152
 31
0.0
  0
LINE
  5
3DF
330
1F
100
AcDbEntity
  8
Layer 01
100
AcDbLine
 10
8.963913368765127
 20
8.375144551808152
 30
0.0
 11
8.929919432209813
 21
8.415073605532497
 31
0.0
  0
LINE
  5
3E0
330
1F
100
AcDbEntity
  8
Layer 01
100
AcDbLine
 10
8.929919432209813
 20
8.415073605532497
 30
0.0
 11
8.895120570543238
 21
8.454176168877627
 31
0.0
  0
LINE
  5
3E1
330
1F
100
AcDbEntity
  8
Layer 01
100
AcDbLine
 10
8.895120570543238
 20
8.454176168877627
 30
0.0
 11
8.859536209452118
 21
8.492435413499472
 31
0.0
  0
LINE
  5
3E2
330
1F
100
AcDbEntity
  8
Layer 01
100
AcDbLine
 10
8.859536209452118
 20
8.492435413499472
 30
0.0
 11
8.82318577462317
 21
8.529834511053963
 31
0.0
  0
LINE
  5
3E3
330
1F
100
AcDbEntity
  8
Layer 01
100
AcDbLine
 10
8.82318577462317
 20
8.529834511053963
 30
0.0
 11
8.786089086705765
 21
8.566357280898863
 31
0.0
  0
LINE
  5
3E4
330
1F
100
AcDbEntity
  8
Layer 01
100
AcDbLine
 10
8.786089086705765
 20
8.566357280898863
 30
0.0
 11
8.748267546199894
 21
8.601990133199253
 31
0.0
  0
LINE
  5
3E5
330
1F
100
AcDbEntity
  8
Layer 01
100
AcDbLine
 10
8.748267546199894
 20
8.601990133199253
 30
0.0
 11
8.709742948568202
 21
8.636720125822047
 31
0.0
  0
LINE
  5
3E6
330
1F
100
AcDbEntity
  8
Layer 01
100
AcDbLine
 10
8.709742948568202
 20
8.636720125822047
 30
0.0
 11
8.670537089273331
 21
8.670534316634155
 31
0.0
  0
LINE
  5
3E7
330
1F
100
AcDbEntity
  8
Layer 01
100
AcDbLine
 10
8.670537089273331
 20
8.670534316634155
 30
0.0
 11
8.630671763777926
 21
8.703419763502492
 31
0.0
  0
LINE
  5
3E8
330
1F
100
AcDbEntity
  8
Layer 01
100
AcDbLine
 10
8.630671763777926
 20
8.703419763502492
 30
0.0
 11
8.590168767544629
 21
8.735363524293971
 31
0.0
  0
LINE
  5
3E9
330
1F
100
AcDbEntity
  8
Layer 01
100
AcDbLine
 10
8.590168767544629
 20
8.735363524293971
 30
0.0
 11
8.549049896036083
 21
8.766352656875505
 31
0.0
  0
LINE
  5
3EA
330
1F
100
AcDbEntity
  8
Layer 01
100
AcDbLine
 10
8.549049896036083
 20
8.766352656875505
 30
0.0
 11
8.507336944714934
 21
8.796374219114004
 31
0.0
  0
LINE
  5
3EB
330
1F
100
AcDbEntity
  8
Layer 01
100
AcDbLine
 10
8.507336944714934
 20
8.796374219114004
 30
0.0
 11
8.465051978738337
 21
8.825415967224115
 31
0.0
  0
LINE
  5
3EC
330
1F
100
AcDbEntity
  8
Layer 01
100
AcDbLine
 10
8.465051978738337
 20
8.825415967224115
 30
0.0
 11
8.422218142041505
 21
8.853468450811423
 31
0.0
  0
LINE
  5
3ED
330
1F
100
AcDbEntity
  8
Layer 01
100
AcDbLine
 10
8.422218142041505
 20
8.853468450811423
 30
0.0
 11
8.378858848254158
 21
8.880522917829243
 31
0.0
  0
LINE
  5
3EE
330
1F
100
AcDbEntity
  8
Layer 01
100
AcDbLine
 10
8.378858848254158
 20
8.880522917829243
 30
0.0
 11
8.33499751100602
 21
8.906570616230887
 31
0.0
  0
LINE
  5
3EF
330
1F
100
AcDbEntity
  8
Layer 01
100
AcDbLine
 10
8.33499751100602
 20
8.906570616230887
 30
0.0
 11
8.29065754392681
 21
8.931602793969674
 31
0.0
  0
LINE
  5
3F0
330
1F
100
AcDbEntity
  8
Layer 01
100
AcDbLine
 10
8.29065754392681
 20
8.931602793969674
 30
0.0
 11
8.245862360646257
 21
8.955610698998921
 31
0.0
  0
LINE
  5
3F1
330
1F
100
AcDbEntity
  8
Layer 01
100
AcDbLine
 10
8.245862360646257
 20
8.955610698998921
 30
0.0
 11
8.20063537479408
 21
8.978585579271943
 31
0.0
  0
LINE
  5
3F2
330
1F
100
AcDbEntity
  8
Layer 01
100
AcDbLine
 10
8.20063537479408
 20
8.978585579271943
 30
0.0
 11
8.155000000000003
 21
9.000518682742054
 31
0.0
  0
LINE
  5
3F3
330
1F
100
AcDbEntity
  8
Layer 01
100
AcDbLine
 10
8.155000000000003
 20
9.000518682742054
 30
0.0
 11
8.108979788938203
 21
9.021401982777203
 31
0.0
  0
LINE
  5
3F4
330
1F
100
AcDbEntity
  8
Layer 01
100
AcDbLine
 10
8.108979788938203
 20
9.021401982777203
 30
0.0
 11
8.062598850460668
 21
9.041230354403869
 31
0.0
  0
LINE
  5
3F5
330
1F
100
AcDbEntity
  8
Layer 01
100
AcDbLine
 10
8.062598850460668
 20
9.041230354403869
 30
0.0
 11
8.015881432463845
 21
9.059999398063162
 31
0.0
  0
LINE
  5
3F6
330
1F
100
AcDbEntity
  8
Layer 01
100
AcDbLine
 10
8.015881432463845
 20
9.059999398063162
 30
0.0
 11
7.968851782844173
 21
9.077704714196194
 31
0.0
  0
LINE
  5
3F7
330
1F
100
AcDbEntity
  8
Layer 01
100
AcDbLine
 10
7.968851782844173
 20
9.077704714196194
 30
0.0
 11
7.921534149498099
 21
9.094341903244075
 31
0.0
  0
LINE
  5
3F8
330
1F
100
AcDbEntity
  8
Layer 01
100
AcDbLine
 10
7.921534149498099
 20
9.094341903244075
 30
0.0
 11
7.873952780322066
 21
9.10990656564792
 31
0.0
  0
LINE
  5
3F9
330
1F
100
AcDbEntity
  8
Layer 01
100
AcDbLine
 10
7.873952780322066
 20
9.10990656564792
 30
0.0
 11
7.826131923212515
 21
9.124394301848838
 31
0.0
  0
LINE
  5
3FA
330
1F
100
AcDbEntity
  8
Layer 01
100
AcDbLine
 10
7.826131923212515
 20
9.124394301848838
 30
0.0
 11
7.778095826065893
 21
9.137800712287941
 31
0.0
  0
LINE
  5
3FB
330
1F
100
AcDbEntity
  8
Layer 01
100
AcDbLine
 10
7.778095826065893
 20
9.137800712287941
 30
0.0
 11
7.729868744127944
 21
9.15012212601071
 31
0.0
  0
LINE
  5
3FC
330
1F
100
AcDbEntity
  8
Layer 01
100
AcDbLine
 10
7.729868744127944
 20
9.15012212601071
 30
0.0
 11
7.681474962041619
 21
9.161357786480123
 31
0.0
  0
LINE
  5
3FD
330
1F
100
AcDbEntity
  8
Layer 01
100
AcDbLine
 10
7.681474962041619
 20
9.161357786480123
 30
0.0
 11
7.63293877179917
 21
9.171507665763519
 31
0.0
  0
LINE
  5
3FE
330
1F
100
AcDbEntity
  8
Layer 01
100
AcDbLine
 10
7.63293877179917
 20
9.171507665763519
 30
0.0
 11
7.58428446539285
 21
9.180571735928245
 31
0.0
  0
LINE
  5
3FF
330
1F
100
AcDbEntity
  8
Layer 01
100
AcDbLine
 10
7.58428446539285
 20
9.180571735928245
 30
0.0
 11
7.535536334814912
 21
9.188549969041645
 31
0.0
  0
LINE
  5
400
330
1F
100
AcDbEntity
  8
Layer 01
100
AcDbLine
 10
7.535536334814912
 20
9.188549969041645
 30
0.0
 11
7.486718672057611
 21
9.195442337171066
 31
0.0
  0
LINE
  5
401
330
1F
100
AcDbEntity
  8
Layer 01
100
AcDbLine
 10
7.486718672057611
 20
9.195442337171066
 30
0.0
 11
7.437855769113197
 21
9.201248812383852
 31
0.0
  0
LINE
  5
402
330
1F
100
AcDbEntity
  8
Layer 01
100
AcDbLine
 10
7.437855769113197
 20
9.201248812383852
 30
0.0
 11
7.388971917973922
 21
9.205969366747345
 31
0.0
  0
LINE
  5
403
330
1F
100
AcDbEntity
  8
Layer 01
100
AcDbLine
 10
7.388971917973922
 20
9.205969366747345
 30
0.0
 11
7.340091289513069
 21
9.209604680728967
 31
0.0
  0
LINE
  5
404
330
1F
100
AcDbEntity
  8
Layer 01
100
AcDbLine
 10
7.340091289513069
 20
9.209604680728967
 30
0.0
 11
7.29123757012801
 21
9.21215826839643
 31
0.0
  0
LINE
  5
405
330
1F
100
AcDbEntity
  8
Layer 01
100
AcDbLine
 10
7.29123757012801
 20
9.21215826839643
 30
0.0
 11
7.242434325097152
 21
9.213634352217522
 31
0.0
  0
LINE
  5
406
330
1F
100
AcDbEntity
  8
Layer 01
100
AcDbLine
 10
7.242434325097152
 20
9.213634352217522
 30
0.0
 11
7.193705119698899
 21
9.21403715466003
 31
0.0
  0
LINE
  5
407
330
1F
100
AcDbEntity
  8
Layer 01
100
AcDbLine
 10
7.193705119698899
 20
9.21403715466003
 30
0.0
 11
7.145073519211653
 21
9.213370898191746
 31
0.0
  0
LINE
  5
408
330
1F
100
AcDbEntity
  8
Layer 01
100
AcDbLine
 10
7.145073519211653
 20
9.213370898191746
 30
0.0
 11
7.09656308891382
 21
9.211639805280452
 31
0.0
  0
LINE
  5
409
330
1F
100
AcDbEntity
  8
Layer 01
100
AcDbLine
 10
7.09656308891382
 20
9.211639805280452
 30
0.0
 11
7.0481973940838
 21
9.20884809839394
 31
0.0
  0
LINE
  5
40A
330
1F
100
AcDbEntity
  8
Layer 01
100
AcDbLine
 10
7.0481973940838
 20
9.20884809839394
 30
0.0
 11
7.000000000000001
 21
9.204999999999998
 31
0.0
  0
LINE
  5
40B
330
1F
100
AcDbEntity
  8
Layer 01
100
AcDbLine
 10
7.000000000000001
 20
9.204999999999998
 30
0.0
 11
6.951994229649536
 21
9.200100398600242
 31
0.0
  0
LINE
  5
40C
330
1F
100
AcDbEntity
  8
Layer 01
100
AcDbLine
 10
6.951994229649536
 20
9.200100398600242
 30
0.0
 11
6.904202436854372
 21
9.19415684683161
 31
0.0
  0
LINE
  5
40D
330
1F
100
AcDbEntity
  8
Layer 01
100
AcDbLine
 10
6.904202436854372
 20
9.19415684683161
 30
0.0
 11
6.856646733145189
 21
9.187177563364873
 31
0.0
  0
LINE
  5
40E
330
1F
100
AcDbEntity
  8
Layer 01
100
AcDbLine
 10
6.856646733145189
 20
9.187177563364873
 30
0.0
 11
6.809349230052666
 21
9.179170766870797
 31
0.0
  0
LINE
  5
40F
330
1F
100
AcDbEntity
  8
Layer 01
100
AcDbLine
 10
6.809349230052666
 20
9.179170766870797
 30
0.0
 11
6.762332039107482
 21
9.170144676020154
 31
0.0
  0
LINE
  5
410
330
1F
100
AcDbEntity
  8
Layer 01
100
AcDbLine
 10
6.762332039107482
 20
9.170144676020154
 30
0.0
 11
6.715617271840318
 21
9.160107509483709
 31
0.0
  0
LINE
  5
411
330
1F
100
AcDbEntity
  8
Layer 01
100
AcDbLine
 10
6.715617271840318
 20
9.160107509483709
 30
0.0
 11
6.669227039781852
 21
9.149067485932232
 31
0.0
  0
LINE
  5
412
330
1F
100
AcDbEntity
  8
Layer 01
100
AcDbLine
 10
6.669227039781852
 20
9.149067485932232
 30
0.0
 11
6.623183454462763
 21
9.137032824036492
 31
0.0
  0
LINE
  5
413
330
1F
100
AcDbEntity
  8
Layer 01
100
AcDbLine
 10
6.623183454462763
 20
9.137032824036492
 30
0.0
 11
6.577508274983636
 21
9.124012345897743
 31
0.0
  0
LINE
  5
414
330
1F
100
AcDbEntity
  8
Layer 01
100
AcDbLine
 10
6.577508274983636
 20
9.124012345897743
 30
0.0
 11
6.532221850724664
 21
9.110017287339181
 31
0.0
  0
LINE
  5
415
330
1F
100
AcDbEntity
  8
Layer 01
100
AcDbLine
 10
6.532221850724664
 20
9.110017287339181
 30
0.0
 11
6.487344178635949
 21
9.095059487614488
 31
0.0
  0
LINE
  5
416
330
1F
100
AcDbEntity
  8
Layer 01
100
AcDbLine
 10
6.487344178635949
 20
9.095059487614488
 30
0.0
 11
6.442895255667588
 21
9.079150785977346
 31
0.0
  0
LINE
  5
417
330
1F
100
AcDbEntity
  8
Layer 01
100
AcDbLine
 10
6.442895255667588
 20
9.079150785977346
 30
0.0
 11
6.398895078769685
 21
9.062303021681437
 31
0.0
  0
LINE
  5
418
330
1F
100
AcDbEntity
  8
Layer 01
100
AcDbLine
 10
6.398895078769685
 20
9.062303021681437
 30
0.0
 11
6.355363644892336
 21
9.04452803398044
 31
0.0
  0
LINE
  5
419
330
1F
100
AcDbEntity
  8
Layer 01
100
AcDbLine
 10
6.355363644892336
 20
9.04452803398044
 30
0.0
 11
6.312320950985642
 21
9.02583766212804
 31
0.0
  0
LINE
  5
41A
330
1F
100
AcDbEntity
  8
Layer 01
100
AcDbLine
 10
6.312320950985642
 20
9.02583766212804
 30
0.0
 11
6.269786993999702
 21
9.006243745377917
 31
0.0
  0
LINE
  5
41B
330
1F
100
AcDbEntity
  8
Layer 01
100
AcDbLine
 10
6.269786993999702
 20
9.006243745377917
 30
0.0
 11
6.227781322639943
 21
8.985758646113531
 31
0.0
  0
LINE
  5
41C
330
1F
100
AcDbEntity
  8
Layer 01
100
AcDbLine
 10
6.227781322639943
 20
8.985758646113531
 30
0.0
 11
6.186321692633117
 21
8.964396819237457
 31
0.0
  0
LINE
  5
41D
330
1F
100
AcDbEntity
  8
Layer 01
100
AcDbLine
 10
6.186321692633117
 20
8.964396819237457
 30
0.0
 11
6.145425411461298
 21
8.942173242782047
 31
0.0
  0
LINE
  5
41E
330
1F
100
AcDbEntity
  8
Layer 01
100
AcDbLine
 10
6.145425411461298
 20
8.942173242782047
 30
0.0
 11
6.105109786606563
 21
8.919102894779655
 31
0.0
  0
LINE
  5
41F
330
1F
100
AcDbEntity
  8
Layer 01
100
AcDbLine
 10
6.105109786606563
 20
8.919102894779655
 30
0.0
 11
6.065392125550988
 21
8.895200753262635
 31
0.0
  0
LINE
  5
420
330
1F
100
AcDbEntity
  8
Layer 01
100
AcDbLine
 10
6.065392125550988
 20
8.895200753262635
 30
0.0
 11
6.026289735776651
 21
8.870481796263334
 31
0.0
  0
LINE
  5
421
330
1F
100
AcDbEntity
  8
Layer 01
100
AcDbLine
 10
6.026289735776651
 20
8.870481796263334
 30
0.0
 11
5.987819924765626
 21
8.84496100181411
 31
0.0
  0
LINE
  5
422
330
1F
100
AcDbEntity
  8
Layer 01
100
AcDbLine
 10
5.987819924765626
 20
8.84496100181411
 30
0.0
 11
5.949999999999993
 21
8.818653347947315
 31
0.0
  0
LINE
  5
423
330
1F
100
AcDbEntity
  8
Layer 01
100
AcDbLine
 10
5.949999999999993
 20
8.818653347947315
 30
0.0
 11
5.91284674197245
 21
8.791574240885101
 31
0.0
  0
LINE
  5
424
330
1F
100
AcDbEntity
  8
Layer 01
100
AcDbLine
 10
5.91284674197245
 20
8.791574240885101
 30
0.0
 11
5.87637482321819
 21
8.763740799608826
 31
0.0
  0
LINE
  5
425
330
1F
100
AcDbEntity
  8
Layer 01
100
AcDbLine
 10
5.87637482321819
 20
8.763740799608826
 30
0.0
 11
5.840598389283031
 21
8.735170571289645
 31
0.0
  0
LINE
  5
426
330
1F
100
AcDbEntity
  8
Layer 01
100
AcDbLine
 10
5.840598389283031
 20
8.735170571289645
 30
0.0
 11
5.805531585712787
 21
8.705881103098719
 31
0.0
  0
LINE
  5
427
330
1F
100
AcDbEntity
  8
Layer 01
100
AcDbLine
 10
5.805531585712787
 20
8.705881103098719
 30
0.0
 11
5.771188558053275
 21
8.675889942207203
 31
0.0
  0
LINE
  5
428
330
1F
100
AcDbEntity
  8
Layer 01
100
AcDbLine
 10
5.771188558053275
 20
8.675889942207203
 30
0.0
 11
5.737583451850311
 21
8.645214635786253
 31
0.0
  0
LINE
  5
429
330
1F
100
AcDbEntity
  8
Layer 01
100
AcDbLine
 10
5.737583451850311
 20
8.645214635786253
 30
0.0
 11
5.704730412649711
 21
8.613872731007028
 31
0.0
  0
LINE
  5
42A
330
1F
100
AcDbEntity
  8
Layer 01
100
AcDbLine
 10
5.704730412649711
 20
8.613872731007028
 30
0.0
 11
5.672643585997293
 21
8.581881775040685
 31
0.0
  0
LINE
  5
42B
330
1F
100
AcDbEntity
  8
Layer 01
100
AcDbLine
 10
5.672643585997293
 20
8.581881775040685
 30
0.0
 11
5.641336530896797
 21
8.549259637133675
 31
0.0
  0
LINE
  5
42C
330
1F
100
AcDbEntity
  8
Layer 01
100
AcDbLine
 10
5.641336530896797
 20
8.549259637133675
 30
0.0
 11
5.610820460183669
 21
8.516025474833633
 31
0.0
  0
LINE
  5
42D
330
1F
100
AcDbEntity
  8
Layer 01
100
AcDbLine
 10
5.610820460183669
 20
8.516025474833633
 30
0.0
 11
5.581106000151282
 21
8.482198767763483
 31
0.0
  0
LINE
  5
42E
330
1F
100
AcDbEntity
  8
Layer 01
100
AcDbLine
 10
5.581106000151282
 20
8.482198767763483
 30
0.0
 11
5.552203777093007
 21
8.44779899554616
 31
0.0
  0
LINE
  5
42F
330
1F
100
AcDbEntity
  8
Layer 01
100
AcDbLine
 10
5.552203777093007
 20
8.44779899554616
 30
0.0
 11
5.524124417302216
 21
8.412845637804589
 31
0.0
  0
LINE
  5
430
330
1F
100
AcDbEntity
  8
Layer 01
100
AcDbLine
 10
5.524124417302216
 20
8.412845637804589
 30
0.0
 11
5.496878547072282
 21
8.377358174161696
 31
0.0
  0
LINE
  5
431
330
1F
100
AcDbEntity
  8
Layer 01
100
AcDbLine
 10
5.496878547072282
 20
8.377358174161696
 30
0.0
 11
5.470476792696576
 21
8.341356084240413
 31
0.0
  0
LINE
  5
432
330
1F
100
AcDbEntity
  8
Layer 01
100
AcDbLine
 10
5.470476792696576
 20
8.341356084240413
 30
0.0
 11
5.44492978046847
 21
8.304858847663668
 31
0.0
  0
LINE
  5
433
330
1F
100
AcDbEntity
  8
Layer 01
100
AcDbLine
 10
5.44492978046847
 20
8.304858847663668
 30
0.0
 11
5.420247511220962
 21
8.267886152589146
 31
0.0
  0
LINE
  5
434
330
1F
100
AcDbEntity
  8
Layer 01
100
AcDbLine
 10
5.420247511220962
 20
8.267886152589146
 30
0.0
 11
5.39643748394555
 21
8.230458521313558
 31
0.0
  0
LINE
  5
435
330
1F
100
AcDbEntity
  8
Layer 01
100
AcDbLine
 10
5.39643748394555
 20
8.230458521313558
 30
0.0
 11
5.373506572173358
 21
8.192596684668375
 31
0.0
  0
LINE
  5
436
330
1F
100
AcDbEntity
  8
Layer 01
100
AcDbLine
 10
5.373506572173358
 20
8.192596684668375
 30
0.0
 11
5.351461649435509
 21
8.154321373485068
 31
0.0
  0
LINE
  5
437
330
1F
100
AcDbEntity
  8
Layer 01
100
AcDbLine
 10
5.351461649435509
 20
8.154321373485068
 30
0.0
 11
5.330309589263129
 21
8.115653318595108
 31
0.0
  0
LINE
  5
438
330
1F
100
AcDbEntity
  8
Layer 01
100
AcDbLine
 10
5.330309589263129
 20
8.115653318595108
 30
0.0
 11
5.310057265187343
 21
8.076613250829961
 31
0.0
  0
LINE
  5
439
330
1F
100
AcDbEntity
  8
Layer 01
100
AcDbLine
 10
5.310057265187343
 20
8.076613250829961
 30
0.0
 11
5.290711550739273
 21
8.037221901021102
 31
0.0
  0
LINE
  5
43A
330
1F
100
AcDbEntity
  8
Layer 01
100
AcDbLine
 10
5.290711550739273
 20
8.037221901021102
 30
0.0
 11
5.272279319450043
 21
7.997499999999998
 31
0.0
  0
LINE
  5
43B
330
1F
100
AcDbEntity
  8
Layer 01
100
AcDbLine
 10
5.272279319450043
 20
7.997499999999998
 30
0.0
 11
5.254766801836461
 21
7.957468370068728
 31
0.0
  0
LINE
  5
43C
330
1F
100
AcDbEntity
  8
Layer 01
100
AcDbLine
 10
5.254766801836461
 20
7.957468370068728
 30
0.0
 11
5.238177656358075
 21
7.917148199411805
 31
0.0
  0
LINE
  5
43D
330
1F
100
AcDbEntity
  8
Layer 01
100
AcDbLine
 10
5.238177656358075
 20
7.917148199411805
 30
0.0
 11
5.22251489846011
 21
7.876560767684351
 31
0.0
  0
LINE
  5
43E
330
1F
100
AcDbEntity
  8
Layer 01
100
AcDbLine
 10
5.22251489846011
 20
7.876560767684351
 30
0.0
 11
5.207781543587796
 21
7.835727354541485
 31
0.0
  0
LINE
  5
43F
330
1F
100
AcDbEntity
  8
Layer 01
100
AcDbLine
 10
5.207781543587796
 20
7.835727354541485
 30
0.0
 11
5.19398060718636
 21
7.794669239638326
 31
0.0
  0
LINE
  5
440
330
1F
100
AcDbEntity
  8
Layer 01
100
AcDbLine
 10
5.19398060718636
 20
7.794669239638326
 30
0.0
 11
5.181115104701034
 21
7.753407702629996
 31
0.0
  0
LINE
  5
441
330
1F
100
AcDbEntity
  8
Layer 01
100
AcDbLine
 10
5.181115104701034
 20
7.753407702629996
 30
0.0
 11
5.169188051577043
 21
7.711964023171618
 31
0.0
  0
LINE
  5
442
330
1F
100
AcDbEntity
  8
Layer 01
100
AcDbLine
 10
5.169188051577043
 20
7.711964023171618
 30
0.0
 11
5.158202463259618
 21
7.670359480918309
 31
0.0
  0
LINE
  5
443
330
1F
100
AcDbEntity
  8
Layer 01
100
AcDbLine
 10
5.158202463259618
 20
7.670359480918309
 30
0.0
 11
5.148160715999198
 21
7.628615330332067
 31
0.0
  0
LINE
  5
444
330
1F
100
AcDbEntity
  8
Layer 01
100
AcDbLine
 10
5.148160715999198
 20
7.628615330332067
 30
0.0
 11
5.139062629267059
 21
7.586752725102385
 31
0.0
  0
LINE
  5
445
330
1F
100
AcDbEntity
  8
Layer 01
100
AcDbLine
 10
5.139062629267059
 20
7.586752725102385
 30
0.0
 11
5.13090738333969
 21
7.544792793725636
 31
0.0
  0
LINE
  5
446
330
1F
100
AcDbEntity
  8
Layer 01
100
AcDbLine
 10
5.13090738333969
 20
7.544792793725636
 30
0.0
 11
5.123694158493581
 21
7.50275666469819
 31
0.0
  0
LINE
  5
447
330
1F
100
AcDbEntity
  8
Layer 01
100
AcDbLine
 10
5.123694158493581
 20
7.50275666469819
 30
0.0
 11
5.11742213500522
 21
7.460665466516417
 31
0.0
  0
LINE
  5
448
330
1F
100
AcDbEntity
  8
Layer 01
100
AcDbLine
 10
5.11742213500522
 20
7.460665466516417
 30
0.0
 11
5.112090493151094
 21
7.418540327676687
 31
0.0
  0
LINE
  5
449
330
1F
100
AcDbEntity
  8
Layer 01
100
AcDbLine
 10
5.112090493151094
 20
7.418540327676687
 30
0.0
 11
5.107698413207691
 21
7.376402376675371
 31
0.0
  0
LINE
  5
44A
330
1F
100
AcDbEntity
  8
Layer 01
100
AcDbLine
 10
5.107698413207691
 20
7.376402376675371
 30
0.0
 11
5.1042450754515
 21
7.33427274200884
 31
0.0
  0
LINE
  5
44B
330
1F
100
AcDbEntity
  8
Layer 01
100
AcDbLine
 10
5.1042450754515
 20
7.33427274200884
 30
0.0
 11
5.101729045461118
 21
7.292172414532266
 31
0.0
  0
LINE
  5
44C
330
1F
100
AcDbEntity
  8
Layer 01
100
AcDbLine
 10
5.101729045461118
 20
7.292172414532266
 30
0.0
 11
5.10014643002358
 21
7.250121834536031
 31
0.0
  0
LINE
  5
44D
330
1F
100
AcDbEntity
  8
Layer 01
100
AcDbLine
 10
5.10014643002358
 20
7.250121834536031
 30
0.0
 11
5.099492721228026
 21
7.208141304669317
 31
0.0
  0
LINE
  5
44E
330
1F
100
AcDbEntity
  8
Layer 01
100
AcDbLine
 10
5.099492721228026
 20
7.208141304669317
 30
0.0
 11
5.099763411163599
 21
7.166251127581308
 31
0.0
  0
LINE
  5
44F
330
1F
100
AcDbEntity
  8
Layer 01
100
AcDbLine
 10
5.099763411163599
 20
7.166251127581308
 30
0.0
 11
5.10095399191944
 21
7.124471605921189
 31
0.0
  0
LINE
  5
450
330
1F
100
AcDbEntity
  8
Layer 01
100
AcDbLine
 10
5.10095399191944
 20
7.124471605921189
 30
0.0
 11
5.103059955584692
 21
7.08282304233814
 31
0.0
  0
LINE
  5
451
330
1F
100
AcDbEntity
  8
Layer 01
100
AcDbLine
 10
5.103059955584692
 20
7.08282304233814
 30
0.0
 11
5.106076794248499
 21
7.041325739481349
 31
0.0
  0
LINE
  5
452
330
1F
100
AcDbEntity
  8
Layer 01
100
AcDbLine
 10
5.106076794248499
 20
7.041325739481349
 30
0.0
 11
5.11
 21
6.999999999999996
 31
0.0
  0
LINE
  5
453
330
1F
100
AcDbEntity
  8
Layer 01
100
AcDbLine
 10
5.11
 20
6.999999999999996
 30
0.0
 11
5.114824494042199
 21
6.958865884251979
 31
0.0
  0
LINE
  5
454
330
1F
100
AcDbEntity
  8
Layer 01
100
AcDbLine
 10
5.114824494042199
 20
6.958865884251979
 30
0.0
 11
5.120542914033536
 21
6.917942483430042
 31
0.0
  0
LINE
  5
455
330
1F
100
AcDbEntity
  8
Layer 01
100
AcDbLine
 10
5.120542914033536
 20
6.917942483430042
 30
0.0
 11
5.127147326746314
 21
6.877248646435646
 31
0.0
  0
LINE
  5
456
330
1F
100
AcDbEntity
  8
Layer 01
100
AcDbLine
 10
5.127147326746314
 20
6.877248646435646
 30
0.0
 11
5.134629798952833
 21
6.836803222170249
 31
0.0
  0
LINE
  5
457
330
1F
100
AcDbEntity
  8
Layer 01
100
AcDbLine
 10
5.134629798952833
 20
6.836803222170249
 30
0.0
 11
5.142982397425395
 21
6.796625059535312
 31
0.0
  0
LINE
  5
458
330
1F
100
AcDbEntity
  8
Layer 01
100
AcDbLine
 10
5.142982397425395
 20
6.796625059535312
 30
0.0
 11
5.152197188936302
 21
6.756733007432293
 31
0.0
  0
LINE
  5
459
330
1F
100
AcDbEntity
  8
Layer 01
100
AcDbLine
 10
5.152197188936302
 20
6.756733007432293
 30
0.0
 11
5.162266240257855
 21
6.71714591476265
 31
0.0
  0
LINE
  5
45A
330
1F
100
AcDbEntity
  8
Layer 01
100
AcDbLine
 10
5.162266240257855
 20
6.71714591476265
 30
0.0
 11
5.173181618162355
 21
6.677882630427844
 31
0.0
  0
LINE
  5
45B
330
1F
100
AcDbEntity
  8
Layer 01
100
AcDbLine
 10
5.173181618162355
 20
6.677882630427844
 30
0.0
 11
5.184934879693801
 21
6.638961667421458
 31
0.0
  0
LINE
  5
45C
330
1F
100
AcDbEntity
  8
Layer 01
100
AcDbLine
 10
5.184934879693801
 20
6.638961667421458
 30
0.0
 11
5.197515542982982
 21
6.600400195105585
 31
0.0
  0
LINE
  5
45D
330
1F
100
AcDbEntity
  8
Layer 01
100
AcDbLine
 10
5.197515542982982
 20
6.600400195105585
 30
0.0
 11
5.210912616432381
 21
6.562215046934442
 31
0.0
  0
LINE
  5
45E
330
1F
100
AcDbEntity
  8
Layer 01
100
AcDbLine
 10
5.210912616432381
 20
6.562215046934442
 30
0.0
 11
5.225115108444485
 21
6.524423056362246
 31
0.0
  0
LINE
  5
45F
330
1F
100
AcDbEntity
  8
Layer 01
100
AcDbLine
 10
5.225115108444485
 20
6.524423056362246
 30
0.0
 11
5.240112027421779
 21
6.487041056843215
 31
0.0
  0
LINE
  5
460
330
1F
100
AcDbEntity
  8
Layer 01
100
AcDbLine
 10
5.240112027421779
 20
6.487041056843215
 30
0.0
 11
5.255892381766747
 21
6.450085881831566
 31
0.0
  0
LINE
  5
461
330
1F
100
AcDbEntity
  8
Layer 01
100
AcDbLine
 10
5.255892381766747
 20
6.450085881831566
 30
0.0
 11
5.272445179881874
 21
6.413574364781516
 31
0.0
  0
LINE
  5
462
330
1F
100
AcDbEntity
  8
Layer 01
100
AcDbLine
 10
5.272445179881874
 20
6.413574364781516
 30
0.0
 11
5.289759430169648
 21
6.377523339147283
 31
0.0
  0
LINE
  5
463
330
1F
100
AcDbEntity
  8
Layer 01
100
AcDbLine
 10
5.289759430169648
 20
6.377523339147283
 30
0.0
 11
5.307823707312355
 21
6.341949222680839
 31
0.0
  0
LINE
  5
464
330
1F
100
AcDbEntity
  8
Layer 01
100
AcDbLine
 10
5.307823707312355
 20
6.341949222680839
 30
0.0
 11
5.326624851111501
 21
6.306866770325184
 31
0.0
  0
LINE
  5
465
330
1F
100
AcDbEntity
  8
Layer 01
100
AcDbLine
 10
5.326624851111501
 20
6.306866770325184
 30
0.0
 11
5.346149267648391
 21
6.272290321321069
 31
0.0
  0
LINE
  5
466
330
1F
100
AcDbEntity
  8
Layer 01
100
AcDbLine
 10
5.346149267648391
 20
6.272290321321069
 30
0.0
 11
5.366383363004335
 21
6.23823421490925
 31
0.0
  0
LINE
  5
467
330
1F
100
AcDbEntity
  8
Layer 01
100
AcDbLine
 10
5.366383363004335
 20
6.23823421490925
 30
0.0
 11
5.387313543260638
 21
6.204712790330479
 31
0.0
  0
LINE
  5
468
330
1F
100
AcDbEntity
  8
Layer 01
100
AcDbLine
 10
5.387313543260638
 20
6.204712790330479
 30
0.0
 11
5.408926214498608
 21
6.171740386825511
 31
0.0
  0
LINE
  5
469
330
1F
100
AcDbEntity
  8
Layer 01
100
AcDbLine
 10
5.408926214498608
 20
6.171740386825511
 30
0.0
 11
5.431207782799553
 21
6.139331343635099
 31
0.0
  0
LINE
  5
46A
330
1F
100
AcDbEntity
  8
Layer 01
100
AcDbLine
 10
5.431207782799553
 20
6.139331343635099
 30
0.0
 11
5.45414465424478
 21
6.107499999999998
 31
0.0
  0
LINE
  5
46B
330
1F
100
AcDbEntity
  8
Layer 01
100
AcDbLine
 10
5.45414465424478
 20
6.107499999999998
 30
0.0
 11
5.477722889126112
 21
6.076260215745429
 31
0.0
  0
LINE
  5
46C
330
1F
100
AcDbEntity
  8
Layer 01
100
AcDbLine
 10
5.477722889126112
 20
6.076260215745429
 30
0.0
 11
5.501927164577436
 21
6.045623933034487
 31
0.0
  0
LINE
  5
46D
330
1F
100
AcDbEntity
  8
Layer 01
100
AcDbLine
 10
5.501927164577436
 20
6.045623933034487
 30
0.0
 11
5.526741811943157
 21
6.015602614614735
 31
0.0
  0
LINE
  5
46E
330
1F
100
AcDbEntity
  8
Layer 01
100
AcDbLine
 10
5.526741811943157
 20
6.015602614614735
 30
0.0
 11
5.552151162567675
 21
5.986207723233738
 31
0.0
  0
LINE
  5
46F
330
1F
100
AcDbEntity
  8
Layer 01
100
AcDbLine
 10
5.552151162567675
 20
5.986207723233738
 30
0.0
 11
5.578139547795394
 21
5.957450721639058
 31
0.0
  0
LINE
  5
470
330
1F
100
AcDbEntity
  8
Layer 01
100
AcDbLine
 10
5.578139547795394
 20
5.957450721639058
 30
0.0
 11
5.604691298970717
 21
5.929343072578259
 31
0.0
  0
LINE
  5
471
330
1F
100
AcDbEntity
  8
Layer 01
100
AcDbLine
 10
5.604691298970717
 20
5.929343072578259
 30
0.0
 11
5.631790747438048
 21
5.901896238798905
 31
0.0
  0
LINE
  5
472
330
1F
100
AcDbEntity
  8
Layer 01
100
AcDbLine
 10
5.631790747438048
 20
5.901896238798905
 30
0.0
 11
5.659422224541787
 21
5.875121683048558
 31
0.0
  0
LINE
  5
473
330
1F
100
AcDbEntity
  8
Layer 01
100
AcDbLine
 10
5.659422224541787
 20
5.875121683048558
 30
0.0
 11
5.687569812438404
 21
5.849030342692464
 31
0.0
  0
LINE
  5
474
330
1F
100
AcDbEntity
  8
Layer 01
100
AcDbLine
 10
5.687569812438404
 20
5.849030342692464
 30
0.0
 11
5.71621659653262
 21
5.823631053566598
 31
0.0
  0
LINE
  5
475
330
1F
100
AcDbEntity
  8
Layer 01
100
AcDbLine
 10
5.71621659653262
 20
5.823631053566598
 30
0.0
 11
5.745345413041223
 21
5.798932126124615
 31
0.0
  0
LINE
  5
476
330
1F
100
AcDbEntity
  8
Layer 01
100
AcDbLine
 10
5.745345413041223
 20
5.798932126124615
 30
0.0
 11
5.774939098181001
 21
5.774941870820175
 31
0.0
  0
LINE
  5
477
330
1F
100
AcDbEntity
  8
Layer 01
100
AcDbLine
 10
5.774939098181001
 20
5.774941870820175
 30
0.0
 11
5.80498048816874
 21
5.751668598106932
 31
0.0
  0
LINE
  5
478
330
1F
100
AcDbEntity
  8
Layer 01
100
AcDbLine
 10
5.80498048816874
 20
5.751668598106932
 30
0.0
 11
5.835452419221225
 21
5.72912061843854
 31
0.0
  0
LINE
  5
479
330
1F
100
AcDbEntity
  8
Layer 01
100
AcDbLine
 10
5.835452419221225
 20
5.72912061843854
 30
0.0
 11
5.866337727555247
 21
5.70730624226866
 31
0.0
  0
LINE
  5
47A
330
1F
100
AcDbEntity
  8
Layer 01
100
AcDbLine
 10
5.866337727555247
 20
5.70730624226866
 30
0.0
 11
5.89761924938759
 21
5.686233780050948
 31
0.0
  0
LINE
  5
47B
330
1F
100
AcDbEntity
  8
Layer 01
100
AcDbLine
 10
5.89761924938759
 20
5.686233780050948
 30
0.0
 11
5.929279673560041
 21
5.665910989666044
 31
0.0
  0
LINE
  5
47C
330
1F
100
AcDbEntity
  8
Layer 01
100
AcDbLine
 10
5.929279673560041
 20
5.665910989666044
 30
0.0
 11
5.961301099414383
 21
5.646343418702527
 31
0.0
  0
LINE
  5
47D
330
1F
100
AcDbEntity
  8
Layer 01
100
AcDbLine
 10
5.961301099414383
 20
5.646343418702527
 30
0.0
 11
5.993665478917402
 21
5.627536062175961
 31
0.0
  0
LINE
  5
47E
330
1F
100
AcDbEntity
  8
Layer 01
100
AcDbLine
 10
5.993665478917402
 20
5.627536062175961
 30
0.0
 11
6.026354764035876
 21
5.609493915101911
 31
0.0
  0
LINE
  5
47F
330
1F
100
AcDbEntity
  8
Layer 01
100
AcDbLine
 10
6.026354764035876
 20
5.609493915101911
 30
0.0
 11
6.05935090673659
 21
5.59222197249594
 31
0.0
  0
LINE
  5
480
330
1F
100
AcDbEntity
  8
Layer 01
100
AcDbLine
 10
6.05935090673659
 20
5.59222197249594
 30
0.0
 11
6.092635858986329
 21
5.575725229373612
 31
0.0
  0
LINE
  5
481
330
1F
100
AcDbEntity
  8
Layer 01
100
AcDbLine
 10
6.092635858986329
 20
5.575725229373612
 30
0.0
 11
6.126191572751871
 21
5.56000868075049
 31
0.0
  0
LINE
  5
482
330
1F
100
AcDbEntity
  8
Layer 01
100
AcDbLine
 10
6.126191572751871
 20
5.56000868075049
 30
0.0
 11
6.160000000000002
 21
5.545077321642141
 31
0.0
  0
LINE
  5
483
330
1F
100
AcDbEntity
  8
Layer 01
100
AcDbLine
 10
6.160000000000002
 20
5.545077321642141
 30
0.0
 11
6.19404304880074
 21
5.530935586450129
 31
0.0
  0
LINE
  5
484
330
1F
100
AcDbEntity
  8
Layer 01
100
AcDbLine
 10
6.19404304880074
 20
5.530935586450129
 30
0.0
 11
6.228302451637052
 21
5.517585667120019
 31
0.0
  0
LINE
  5
485
330
1F
100
AcDbEntity
  8
Layer 01
100
AcDbLine
 10
6.228302451637052
 20
5.517585667120019
 30
0.0
 11
6.262759897095139
 21
5.505029194983383
 31
0.0
  0
LINE
  5
486
330
1F
100
AcDbEntity
  8
Layer 01
100
AcDbLine
 10
6.262759897095139
 20
5.505029194983383
 30
0.0
 11
6.297397073761203
 21
5.493267801371786
 31
0.0
  0
LINE
  5
487
330
1F
100
AcDbEntity
  8
Layer 01
100
AcDbLine
 10
6.297397073761203
 20
5.493267801371786
 30
0.0
 11
6.332195670221447
 21
5.4823031176168
 31
0.0
  0
LINE
  5
488
330
1F
100
AcDbEntity
  8
Layer 01
100
AcDbLine
 10
6.332195670221447
 20
5.4823031176168
 30
0.0
 11
6.367137375062072
 21
5.472136775049991
 31
0.0
  0
LINE
  5
489
330
1F
100
AcDbEntity
  8
Layer 01
100
AcDbLine
 10
6.367137375062072
 20
5.472136775049991
 30
0.0
 11
6.402203876869281
 21
5.462770405002928
 31
0.0
  0
LINE
  5
48A
330
1F
100
AcDbEntity
  8
Layer 01
100
AcDbLine
 10
6.402203876869281
 20
5.462770405002928
 30
0.0
 11
6.437376864229278
 21
5.45420563880718
 31
0.0
  0
LINE
  5
48B
330
1F
100
AcDbEntity
  8
Layer 01
100
AcDbLine
 10
6.437376864229278
 20
5.45420563880718
 30
0.0
 11
6.472638083463814
 21
5.44644355800911
 31
0.0
  0
LINE
  5
48C
330
1F
100
AcDbEntity
  8
Layer 01
100
AcDbLine
 10
6.472638083463814
 20
5.44644355800911
 30
0.0
 11
6.507969511836851
 21
5.439483045014242
 31
0.0
  0
LINE
  5
48D
330
1F
100
AcDbEntity
  8
Layer 01
100
AcDbLine
 10
6.507969511836851
 20
5.439483045014242
 30
0.0
 11
6.5433531843479
 21
5.433322432442902
 31
0.0
  0
LINE
  5
48E
330
1F
100
AcDbEntity
  8
Layer 01
100
AcDbLine
 10
6.5433531843479
 20
5.433322432442902
 30
0.0
 11
6.578771135996474
 21
5.42796005291541
 31
0.0
  0
LINE
  5
48F
330
1F
100
AcDbEntity
  8
Layer 01
100
AcDbLine
 10
6.578771135996474
 20
5.42796005291541
 30
0.0
 11
6.614205401782083
 21
5.423394239052087
 31
0.0
  0
LINE
  5
490
330
1F
100
AcDbEntity
  8
Layer 01
100
AcDbLine
 10
6.614205401782083
 20
5.423394239052087
 30
0.0
 11
6.649638016704239
 21
5.419623323473253
 31
0.0
  0
LINE
  5
491
330
1F
100
AcDbEntity
  8
Layer 01
100
AcDbLine
 10
6.649638016704239
 20
5.419623323473253
 30
0.0
 11
6.685051015762456
 21
5.416645638799233
 31
0.0
  0
LINE
  5
492
330
1F
100
AcDbEntity
  8
Layer 01
100
AcDbLine
 10
6.685051015762456
 20
5.416645638799233
 30
0.0
 11
6.720426433956244
 21
5.414459517650346
 31
0.0
  0
LINE
  5
493
330
1F
100
AcDbEntity
  8
Layer 01
100
AcDbLine
 10
6.720426433956244
 20
5.414459517650346
 30
0.0
 11
6.755746460448536
 21
5.413062771651204
 31
0.0
  0
LINE
  5
494
330
1F
100
AcDbEntity
  8
Layer 01
100
AcDbLine
 10
6.755746460448536
 20
5.413062771651204
 30
0.0
 11
6.790993901055947
 21
5.412451128443591
 31
0.0
  0
LINE
  5
495
330
1F
100
AcDbEntity
  8
Layer 01
100
AcDbLine
 10
6.790993901055947
 20
5.412451128443591
 30
0.0
 11
6.826151715758515
 21
5.412619794673575
 31
0.0
  0
LINE
  5
496
330
1F
100
AcDbEntity
  8
Layer 01
100
AcDbLine
 10
6.826151715758515
 20
5.412619794673575
 30
0.0
 11
6.861202864536278
 21
5.41356397698723
 31
0.0
  0
LINE
  5
497
330
1F
100
AcDbEntity
  8
Layer 01
100
AcDbLine
 10
6.861202864536278
 20
5.41356397698723
 30
0.0
 11
6.89613030736927
 21
5.415278882030627
 31
0.0
  0
LINE
  5
498
330
1F
100
AcDbEntity
  8
Layer 01
100
AcDbLine
 10
6.89613030736927
 20
5.415278882030627
 30
0.0
 11
6.93091700423753
 21
5.41775971644984
 31
0.0
  0
LINE
  5
499
330
1F
100
AcDbEntity
  8
Layer 01
100
AcDbLine
 10
6.93091700423753
 20
5.41775971644984
 30
0.0
 11
6.965545915121095
 21
5.421001686890941
 31
0.0
  0
LINE
  5
49A
330
1F
100
AcDbEntity
  8
Layer 01
100
AcDbLine
 10
6.965545915121095
 20
5.421001686890941
 30
0.0
 11
7.0
 21
5.425
 31
0.0
  0
LINE
  5
49B
330
1F
100
AcDbEntity
  8
Layer 01
100
AcDbLine
 10
7.0
 20
5.425
 30
0.0
 11
7.03426246114557
 21
5.429749386684639
 31
0.0
  0
LINE
  5
49C
330
1F
100
AcDbEntity
  8
Layer 01
100
AcDbLine
 10
7.03426246114557
 20
5.429749386684639
 30
0.0
 11
7.068317469994279
 21
5.435242674898682
 31
0.0
  0
LINE
  5
49D
330
1F
100
AcDbEntity
  8
Layer 01
100
AcDbLine
 10
7.068317469994279
 20
5.435242674898682
 30
0.0
 11
7.102149440273888
 21
5.441472216857499
 31
0.0
  0
LINE
  5
49E
330
1F
100
AcDbEntity
  8
Layer 01
100
AcDbLine
 10
7.102149440273888
 20
5.441472216857499
 30
0.0
 11
7.135742785712159
 21
5.448430364776462
 31
0.0
  0
LINE
  5
49F
330
1F
100
AcDbEntity
  8
Layer 01
100
AcDbLine
 10
7.135742785712159
 20
5.448430364776462
 30
0.0
 11
7.169081920036851
 21
5.456109470870942
 31
0.0
  0
LINE
  5
4A0
330
1F
100
AcDbEntity
  8
Layer 01
100
AcDbLine
 10
7.169081920036851
 20
5.456109470870942
 30
0.0
 11
7.202151256975728
 21
5.464501887356311
 31
0.0
  0
LINE
  5
4A1
330
1F
100
AcDbEntity
  8
Layer 01
100
AcDbLine
 10
7.202151256975728
 20
5.464501887356311
 30
0.0
 11
7.234935210256548
 21
5.47359996644794
 31
0.0
  0
LINE
  5
4A2
330
1F
100
AcDbEntity
  8
Layer 01
100
AcDbLine
 10
7.234935210256548
 20
5.47359996644794
 30
0.0
 11
7.267418193607074
 21
5.4833960603612
 31
0.0
  0
LINE
  5
4A3
330
1F
100
AcDbEntity
  8
Layer 01
100
AcDbLine
 10
7.267418193607074
 20
5.4833960603612
 30
0.0
 11
7.299584940140717
 21
5.493882105285343
 31
0.0
  0
LINE
  5
4A4
330
1F
100
AcDbEntity
  8
Layer 01
100
AcDbLine
 10
7.299584940140717
 20
5.493882105285343
 30
0.0
 11
7.331421460513491
 21
5.505048373305142
 31
0.0
  0
LINE
  5
4A5
330
1F
100
AcDbEntity
  8
Layer 01
100
AcDbLine
 10
7.331421460513491
 20
5.505048373305142
 30
0.0
 11
7.362914084767061
 21
5.516884720479247
 31
0.0
  0
LINE
  5
4A6
330
1F
100
AcDbEntity
  8
Layer 01
100
AcDbLine
 10
7.362914084767061
 20
5.516884720479247
 30
0.0
 11
7.394049142943092
 21
5.529381002866312
 31
0.0
  0
LINE
  5
4A7
330
1F
100
AcDbEntity
  8
Layer 01
100
AcDbLine
 10
7.394049142943092
 20
5.529381002866312
 30
0.0
 11
7.424812965083249
 21
5.542527076524989
 31
0.0
  0
LINE
  5
4A8
330
1F
100
AcDbEntity
  8
Layer 01
100
AcDbLine
 10
7.424812965083249
 20
5.542527076524989
 30
0.0
 11
7.455191881229199
 21
5.556312797513929
 31
0.0
  0
LINE
  5
4A9
330
1F
100
AcDbEntity
  8
Layer 01
100
AcDbLine
 10
7.455191881229199
 20
5.556312797513929
 30
0.0
 11
7.485172221422605
 21
5.570728021891785
 31
0.0
  0
LINE
  5
4AA
330
1F
100
AcDbEntity
  8
Layer 01
100
AcDbLine
 10
7.485172221422605
 20
5.570728021891785
 30
0.0
 11
7.514740315705131
 21
5.585762605717209
 31
0.0
  0
LINE
  5
4AB
330
1F
100
AcDbEntity
  8
Layer 01
100
AcDbLine
 10
7.514740315705131
 20
5.585762605717209
 30
0.0
 11
7.543882877278262
 21
5.601406060738239
 31
0.0
  0
LINE
  5
4AC
330
1F
100
AcDbEntity
  8
Layer 01
100
AcDbLine
 10
7.543882877278262
 20
5.601406060738239
 30
0.0
 11
7.572588151982749
 21
5.617646521460456
 31
0.0
  0
LINE
  5
4AD
330
1F
100
AcDbEntity
  8
Layer 01
100
AcDbLine
 10
7.572588151982749
 20
5.617646521460456
 30
0.0
 11
7.600844768819159
 21
5.634471778078828
 31
0.0
  0
LINE
  5
4AE
330
1F
100
AcDbEntity
  8
Layer 01
100
AcDbLine
 10
7.600844768819159
 20
5.634471778078828
 30
0.0
 11
7.628641356788064
 21
5.651869620788323
 31
0.0
  0
LINE
  5
4AF
330
1F
100
AcDbEntity
  8
Layer 01
100
AcDbLine
 10
7.628641356788064
 20
5.651869620788323
 30
0.0
 11
7.655966544890032
 21
5.669827839783908
 31
0.0
  0
LINE
  5
4B0
330
1F
100
AcDbEntity
  8
Layer 01
100
AcDbLine
 10
7.655966544890032
 20
5.669827839783908
 30
0.0
 11
7.68280896212563
 21
5.68833422526055
 31
0.0
  0
LINE
  5
4B1
330
1F
100
AcDbEntity
  8
Layer 01
100
AcDbLine
 10
7.68280896212563
 20
5.68833422526055
 30
0.0
 11
7.709157237495431
 21
5.707376567413217
 31
0.0
  0
LINE
  5
4B2
330
1F
100
AcDbEntity
  8
Layer 01
100
AcDbLine
 10
7.709157237495431
 20
5.707376567413217
 30
0.0
 11
7.735000000000002
 21
5.726942656436877
 31
0.0
  0
LINE
  5
4B3
330
1F
100
AcDbEntity
  8
Layer 01
100
AcDbLine
 10
7.735000000000002
 20
5.726942656436877
 30
0.0
 11
7.760326310481598
 21
5.747020019137329
 31
0.0
  0
LINE
  5
4B4
330
1F
100
AcDbEntity
  8
Layer 01
100
AcDbLine
 10
7.760326310481598
 20
5.747020019137329
 30
0.0
 11
7.785126957149224
 21
5.767595128763704
 31
0.0
  0
LINE
  5
4B5
330
1F
100
AcDbEntity
  8
Layer 01
100
AcDbLine
 10
7.785126957149224
 20
5.767595128763704
 30
0.0
 11
7.809393160053568
 21
5.788654195175965
 31
0.0
  0
LINE
  5
4B6
330
1F
100
AcDbEntity
  8
Layer 01
100
AcDbLine
 10
7.809393160053568
 20
5.788654195175965
 30
0.0
 11
7.833116139245319
 21
5.810183428234076
 31
0.0
  0
LINE
  5
4B7
330
1F
100
AcDbEntity
  8
Layer 01
100
AcDbLine
 10
7.833116139245319
 20
5.810183428234076
 30
0.0
 11
7.856287114775166
 21
5.832169037797998
 31
0.0
  0
LINE
  5
4B8
330
1F
100
AcDbEntity
  8
Layer 01
100
AcDbLine
 10
7.856287114775166
 20
5.832169037797998
 30
0.0
 11
7.8788973066938
 21
5.854597233727695
 31
0.0
  0
LINE
  5
4B9
330
1F
100
AcDbEntity
  8
Layer 01
100
AcDbLine
 10
7.8788973066938
 20
5.854597233727695
 30
0.0
 11
7.90093793505191
 21
5.87745422588313
 31
0.0
  0
LINE
  5
4BA
330
1F
100
AcDbEntity
  8
Layer 01
100
AcDbLine
 10
7.90093793505191
 20
5.87745422588313
 30
0.0
 11
7.922400219900185
 21
5.900726224124266
 31
0.0
  0
LINE
  5
4BB
330
1F
100
AcDbEntity
  8
Layer 01
100
AcDbLine
 10
7.922400219900185
 20
5.900726224124266
 30
0.0
 11
7.943275845511874
 21
5.924399262010489
 31
0.0
  0
LINE
  5
4BC
330
1F
100
AcDbEntity
  8
Layer 01
100
AcDbLine
 10
7.943275845511874
 20
5.924399262010489
 30
0.0
 11
7.963558353050477
 21
5.948458667898879
 31
0.0
  0
LINE
  5
4BD
330
1F
100
AcDbEntity
  8
Layer 01
100
AcDbLine
 10
7.963558353050477
 20
5.948458667898879
 30
0.0
 11
7.983241747902053
 21
5.972889593845936
 31
0.0
  0
LINE
  5
4BE
330
1F
100
AcDbEntity
  8
Layer 01
100
AcDbLine
 10
7.983241747902053
 20
5.972889593845936
 30
0.0
 11
8.002320035452659
 21
5.997677191908165
 31
0.0
  0
LINE
  5
4BF
330
1F
100
AcDbEntity
  8
Layer 01
100
AcDbLine
 10
8.002320035452659
 20
5.997677191908165
 30
0.0
 11
8.020787221088353
 21
6.022806614142068
 31
0.0
  0
LINE
  5
4C0
330
1F
100
AcDbEntity
  8
Layer 01
100
AcDbLine
 10
8.020787221088353
 20
6.022806614142068
 30
0.0
 11
8.038637310195199
 21
6.048263012604147
 31
0.0
  0
LINE
  5
4C1
330
1F
100
AcDbEntity
  8
Layer 01
100
AcDbLine
 10
8.038637310195199
 20
6.048263012604147
 30
0.0
 11
8.05586430815925
 21
6.074031539350905
 31
0.0
  0
LINE
  5
4C2
330
1F
100
AcDbEntity
  8
Layer 01
100
AcDbLine
 10
8.05586430815925
 20
6.074031539350905
 30
0.0
 11
8.07246222036657
 21
6.100097346438844
 31
0.0
  0
LINE
  5
4C3
330
1F
100
AcDbEntity
  8
Layer 01
100
AcDbLine
 10
8.07246222036657
 20
6.100097346438844
 30
0.0
 11
8.088425531888868
 21
6.126445499709223
 31
0.0
  0
LINE
  5
4C4
330
1F
100
AcDbEntity
  8
Layer 01
100
AcDbLine
 10
8.088425531888868
 20
6.126445499709223
 30
0.0
 11
8.10375064654049
 21
6.153060720142321
 31
0.0
  0
LINE
  5
4C5
330
1F
100
AcDbEntity
  8
Layer 01
100
AcDbLine
 10
8.10375064654049
 20
6.153060720142321
 30
0.0
 11
8.118434447821432
 21
6.179927642503174
 31
0.0
  0
LINE
  5
4C6
330
1F
100
AcDbEntity
  8
Layer 01
100
AcDbLine
 10
8.118434447821432
 20
6.179927642503174
 30
0.0
 11
8.132473819231684
 21
6.207030901556816
 31
0.0
  0
LINE
  5
4C7
330
1F
100
AcDbEntity
  8
Layer 01
100
AcDbLine
 10
8.132473819231684
 20
6.207030901556816
 30
0.0
 11
8.145865644271247
 21
6.234355132068285
 31
0.0
  0
LINE
  5
4C8
330
1F
100
AcDbEntity
  8
Layer 01
100
AcDbLine
 10
8.145865644271247
 20
6.234355132068285
 30
0.0
 11
8.158606806440117
 21
6.261884968802614
 31
0.0
  0
LINE
  5
4C9
330
1F
100
AcDbEntity
  8
Layer 01
100
AcDbLine
 10
8.158606806440117
 20
6.261884968802614
 30
0.0
 11
8.17069418923829
 21
6.289605046524841
 31
0.0
  0
LINE
  5
4CA
330
1F
100
AcDbEntity
  8
Layer 01
100
AcDbLine
 10
8.17069418923829
 20
6.289605046524841
 30
0.0
 11
8.18212467616576
 21
6.317500000000001
 31
0.0
  0
LINE
  5
4CB
330
1F
100
AcDbEntity
  8
Layer 01
100
AcDbLine
 10
8.18212467616576
 20
6.317500000000001
 30
0.0
 11
8.192895628936206
 21
6.345554467670208
 31
0.0
  0
LINE
  5
4CC
330
1F
100
AcDbEntity
  8
Layer 01
100
AcDbLine
 10
8.192895628936206
 20
6.345554467670208
 30
0.0
 11
8.203006322118036
 21
6.373753102685908
 31
0.0
  0
LINE
  5
4CD
330
1F
100
AcDbEntity
  8
Layer 01
100
AcDbLine
 10
8.203006322118036
 20
6.373753102685908
 30
0.0
 11
8.212456508493347
 21
6.402080561874627
 31
0.0
  0
LINE
  5
4CE
330
1F
100
AcDbEntity
  8
Layer 01
100
AcDbLine
 10
8.212456508493347
 20
6.402080561874627
 30
0.0
 11
8.221245940844225
 21
6.430521502063887
 31
0.0
  0
LINE
  5
4CF
330
1F
100
AcDbEntity
  8
Layer 01
100
AcDbLine
 10
8.221245940844225
 20
6.430521502063887
 30
0.0
 11
8.229374371952764
 21
6.459060580081216
 31
0.0
  0
LINE
  5
4D0
330
1F
100
AcDbEntity
  8
Layer 01
100
AcDbLine
 10
8.229374371952764
 20
6.459060580081216
 30
0.0
 11
8.236841554601055
 21
6.487682452754139
 31
0.0
  0
LINE
  5
4D1
330
1F
100
AcDbEntity
  8
Layer 01
100
AcDbLine
 10
8.236841554601055
 20
6.487682452754139
 30
0.0
 11
8.24364724157119
 21
6.516371776910179
 31
0.0
  0
LINE
  5
4D2
330
1F
100
AcDbEntity
  8
Layer 01
100
AcDbLine
 10
8.24364724157119
 20
6.516371776910179
 30
0.0
 11
8.249791185645261
 21
6.545113209376863
 31
0.0
  0
LINE
  5
4D3
330
1F
100
AcDbEntity
  8
Layer 01
100
AcDbLine
 10
8.249791185645261
 20
6.545113209376863
 30
0.0
 11
8.255273599980985
 21
6.573891497259694
 31
0.0
  0
LINE
  5
4D4
330
1F
100
AcDbEntity
  8
Layer 01
100
AcDbLine
 10
8.255273599980985
 20
6.573891497259694
 30
0.0
 11
8.260096539238578
 21
6.602691748776086
 31
0.0
  0
LINE
  5
4D5
330
1F
100
AcDbEntity
  8
Layer 01
100
AcDbLine
 10
8.260096539238578
 20
6.602691748776086
 30
0.0
 11
8.26426251845389
 21
6.631499162421435
 31
0.0
  0
LINE
  5
4D6
330
1F
100
AcDbEntity
  8
Layer 01
100
AcDbLine
 10
8.26426251845389
 20
6.631499162421435
 30
0.0
 11
8.267774052662764
 21
6.660298936691135
 31
0.0
  0
LINE
  5
4D7
330
1F
100
AcDbEntity
  8
Layer 01
100
AcDbLine
 10
8.267774052662764
 20
6.660298936691135
 30
0.0
 11
8.27063365690105
 21
6.68907627008058
 31
0.0
  0
LINE
  5
4D8
330
1F
100
AcDbEntity
  8
Layer 01
100
AcDbLine
 10
8.27063365690105
 20
6.68907627008058
 30
0.0
 11
8.272843846204587
 21
6.717816361085164
 31
0.0
  0
LINE
  5
4D9
330
1F
100
AcDbEntity
  8
Layer 01
100
AcDbLine
 10
8.272843846204587
 20
6.717816361085164
 30
0.0
 11
8.274407135609225
 21
6.746504408200282
 31
0.0
  0
LINE
  5
4DA
330
1F
100
AcDbEntity
  8
Layer 01
100
AcDbLine
 10
8.274407135609225
 20
6.746504408200282
 30
0.0
 11
8.27532604015081
 21
6.775125609921327
 31
0.0
  0
LINE
  5
4DB
330
1F
100
AcDbEntity
  8
Layer 01
100
AcDbLine
 10
8.27532604015081
 20
6.775125609921327
 30
0.0
 11
8.275603502158711
 21
6.803665335429336
 31
0.0
  0
LINE
  5
4DC
330
1F
100
AcDbEntity
  8
Layer 01
100
AcDbLine
 10
8.275603502158711
 20
6.803665335429336
 30
0.0
 11
8.275244173136402
 21
6.832109636647925
 31
0.0
  0
LINE
  5
4DD
330
1F
100
AcDbEntity
  8
Layer 01
100
AcDbLine
 10
8.275244173136402
 20
6.832109636647925
 30
0.0
 11
8.27425313188088
 21
6.86044473618635
 31
0.0
  0
LINE
  5
4DE
330
1F
100
AcDbEntity
  8
Layer 01
100
AcDbLine
 10
8.27425313188088
 20
6.86044473618635
 30
0.0
 11
8.272635457189141
 21
6.888656856653866
 31
0.0
  0
LINE
  5
4DF
330
1F
100
AcDbEntity
  8
Layer 01
100
AcDbLine
 10
8.272635457189141
 20
6.888656856653866
 30
0.0
 11
8.270396227858186
 21
6.916732220659732
 31
0.0
  0
LINE
  5
4E0
330
1F
100
AcDbEntity
  8
Layer 01
100
AcDbLine
 10
8.270396227858186
 20
6.916732220659732
 30
0.0
 11
8.267540522685014
 21
6.944657050813206
 31
0.0
  0
LINE
  5
4E1
330
1F
100
AcDbEntity
  8
Layer 01
100
AcDbLine
 10
8.267540522685014
 20
6.944657050813206
 30
0.0
 11
8.26407342046662
 21
6.972417569723543
 31
0.0
  0
LINE
  5
4E2
330
1F
100
AcDbEntity
  8
Layer 01
100
AcDbLine
 10
8.26407342046662
 20
6.972417569723543
 30
0.0
 11
8.260000000000002
 21
7.0
 31
0.0
  0
LINE
  5
4E3
330
1F
100
AcDbEntity
  8
Layer 01
100
AcDbLine
 10
8.260000000000002
 20
7.0
 30
0.0
 11
8.255325720672921
 21
7.027390806543123
 31
0.0
  0
LINE
  5
4E4
330
1F
100
AcDbEntity
  8
Layer 01
100
AcDbLine
 10
8.255325720672921
 20
7.027390806543123
 30
0.0
 11
8.250057564236172
 21
7.054577423418604
 31
0.0
  0
LINE
  5
4E5
330
1F
100
AcDbEntity
  8
Layer 01
100
AcDbLine
 10
8.250057564236172
 20
7.054577423418604
 30
0.0
 11
8.244202893031316
 21
7.081547526983426
 31
0.0
  0
LINE
  5
4E6
330
1F
100
AcDbEntity
  8
Layer 01
100
AcDbLine
 10
8.244202893031316
 20
7.081547526983426
 30
0.0
 11
8.237769069399908
 21
7.10828879359457
 31
0.0
  0
LINE
  5
4E7
330
1F
100
AcDbEntity
  8
Layer 01
100
AcDbLine
 10
8.237769069399908
 20
7.10828879359457
 30
0.0
 11
8.230763455683512
 21
7.134788899609017
 31
0.0
  0
LINE
  5
4E8
330
1F
100
AcDbEntity
  8
Layer 01
100
AcDbLine
 10
8.230763455683512
 20
7.134788899609017
 30
0.0
 11
8.223193414223681
 21
7.161035521383749
 31
0.0
  0
LINE
  5
4E9
330
1F
100
AcDbEntity
  8
Layer 01
100
AcDbLine
 10
8.223193414223681
 20
7.161035521383749
 30
0.0
 11
8.215066307361976
 21
7.187016335275745
 31
0.0
  0
LINE
  5
4EA
330
1F
100
AcDbEntity
  8
Layer 01
100
AcDbLine
 10
8.215066307361976
 20
7.187016335275745
 30
0.0
 11
8.206389497439957
 21
7.212719017641989
 31
0.0
  0
LINE
  5
4EB
330
1F
100
AcDbEntity
  8
Layer 01
100
AcDbLine
 10
8.206389497439957
 20
7.212719017641989
 30
0.0
 11
8.197170669123118
 21
7.238131547702888
 31
0.0
  0
LINE
  5
4EC
330
1F
100
AcDbEntity
  8
Layer 01
100
AcDbLine
 10
8.197170669123118
 20
7.238131547702888
 30
0.0
 11
8.1874187963727
 21
7.263243116132563
 31
0.0
  0
LINE
  5
4ED
330
1F
100
AcDbEntity
  8
Layer 01
100
AcDbLine
 10
8.1874187963727
 20
7.263243116132563
 30
0.0
 11
8.177143175473887
 21
7.288043216468561
 31
0.0
  0
LINE
  5
4EE
330
1F
100
AcDbEntity
  8
Layer 01
100
AcDbLine
 10
8.177143175473887
 20
7.288043216468561
 30
0.0
 11
8.166353102711863
 21
7.312521342248429
 31
0.0
  0
LINE
  5
4EF
330
1F
100
AcDbEntity
  8
Layer 01
100
AcDbLine
 10
8.166353102711863
 20
7.312521342248429
 30
0.0
 11
8.155057874371803
 21
7.336666987009714
 31
0.0
  0
LINE
  5
4F0
330
1F
100
AcDbEntity
  8
Layer 01
100
AcDbLine
 10
8.155057874371803
 20
7.336666987009714
 30
0.0
 11
8.143266786738891
 21
7.360469644289964
 31
0.0
  0
LINE
  5
4F1
330
1F
100
AcDbEntity
  8
Layer 01
100
AcDbLine
 10
8.143266786738891
 20
7.360469644289964
 30
0.0
 11
8.130989136098307
 21
7.383918807626725
 31
0.0
  0
LINE
  5
4F2
330
1F
100
AcDbEntity
  8
Layer 01
100
AcDbLine
 10
8.130989136098307
 20
7.383918807626725
 30
0.0
 11
8.118234218735232
 21
7.407003970557546
 31
0.0
  0
LINE
  5
4F3
330
1F
100
AcDbEntity
  8
Layer 01
100
AcDbLine
 10
8.118234218735232
 20
7.407003970557546
 30
0.0
 11
8.105011585835879
 21
7.429714977237364
 31
0.0
  0
LINE
  5
4F4
330
1F
100
AcDbEntity
  8
Layer 01
100
AcDbLine
 10
8.105011585835879
 20
7.429714977237364
 30
0.0
 11
8.09133180819059
 21
7.452043074290678
 31
0.0
  0
LINE
  5
4F5
330
1F
100
AcDbEntity
  8
Layer 01
100
AcDbLine
 10
8.09133180819059
 20
7.452043074290678
 30
0.0
 11
8.077205711490738
 21
7.473979858959385
 31
0.0
  0
LINE
  5
4F6
330
1F
100
AcDbEntity
  8
Layer 01
100
AcDbLine
 10
8.077205711490738
 20
7.473979858959385
 30
0.0
 11
8.062644121427692
 21
7.495516928485374
 31
0.0
  0
LINE
  5
4F7
330
1F
100
AcDbEntity
  8
Layer 01
100
AcDbLine
 10
8.062644121427692
 20
7.495516928485374
 30
0.0
 11
8.047657863692823
 21
7.516645880110539
 31
0.0
  0
LINE
  5
4F8
330
1F
100
AcDbEntity
  8
Layer 01
100
AcDbLine
 10
8.047657863692823
 20
7.516645880110539
 30
0.0
 11
8.032257763977508
 21
7.537358311076769
 31
0.0
  0
LINE
  5
4F9
330
1F
100
AcDbEntity
  8
Layer 01
100
AcDbLine
 10
8.032257763977508
 20
7.537358311076769
 30
0.0
 11
8.01645464797312
 21
7.557645818625958
 31
0.0
  0
LINE
  5
4FA
330
1F
100
AcDbEntity
  8
Layer 01
100
AcDbLine
 10
8.01645464797312
 20
7.557645818625958
 30
0.0
 11
8.000259341371027
 21
7.577499999999998
 31
0.0
  0
LINE
  5
4FB
330
1F
100
AcDbEntity
  8
Layer 01
100
AcDbLine
 10
8.000259341371027
 20
7.577499999999998
 30
0.0
 11
7.983682850851455
 21
7.596912836708623
 31
0.0
  0
LINE
  5
4FC
330
1F
100
AcDbEntity
  8
Layer 01
100
AcDbLine
 10
7.983682850851455
 20
7.596912836708623
 30
0.0
 11
7.966736907050029
 21
7.615877847332932
 31
0.0
  0
LINE
  5
4FD
330
1F
100
AcDbEntity
  8
Layer 01
100
AcDbLine
 10
7.966736907050029
 20
7.615877847332932
 30
0.0
 11
7.949433421591225
 21
7.634388934721868
 31
0.0
  0
LINE
  5
4FE
330
1F
100
AcDbEntity
  8
Layer 01
100
AcDbLine
 10
7.949433421591225
 20
7.634388934721868
 30
0.0
 11
7.931784306099522
 21
7.652440001724374
 31
0.0
  0
LINE
  5
4FF
330
1F
100
AcDbEntity
  8
Layer 01
100
AcDbLine
 10
7.931784306099522
 20
7.652440001724374
 30
0.0
 11
7.913801472199395
 21
7.67002495118939
 31
0.0
  0
LINE
  5
500
330
1F
100
AcDbEntity
  8
Layer 01
100
AcDbLine
 10
7.913801472199395
 20
7.67002495118939
 30
0.0
 11
7.895496831515325
 21
7.68713768596586
 31
0.0
  0
LINE
  5
501
330
1F
100
AcDbEntity
  8
Layer 01
100
AcDbLine
 10
7.895496831515325
 20
7.68713768596586
 30
0.0
 11
7.876882295671785
 21
7.703772108902724
 31
0.0
  0
LINE
  5
502
330
1F
100
AcDbEntity
  8
Layer 01
100
AcDbLine
 10
7.876882295671785
 20
7.703772108902724
 30
0.0
 11
7.857969776293253
 21
7.719922122848926
 31
0.0
  0
LINE
  5
503
330
1F
100
AcDbEntity
  8
Layer 01
100
AcDbLine
 10
7.857969776293253
 20
7.719922122848926
 30
0.0
 11
7.838771288417423
 21
7.735582033716213
 31
0.0
  0
LINE
  5
504
330
1F
100
AcDbEntity
  8
Layer 01
100
AcDbLine
 10
7.838771288417423
 20
7.735582033716213
 30
0.0
 11
7.81929926073486
 21
7.750747759667554
 31
0.0
  0
LINE
  5
505
330
1F
100
AcDbEntity
  8
Layer 01
100
AcDbLine
 10
7.81929926073486
 20
7.750747759667554
 30
0.0
 11
7.799566225349348
 21
7.765415621928724
 31
0.0
  0
LINE
  5
506
330
1F
100
AcDbEntity
  8
Layer 01
100
AcDbLine
 10
7.799566225349348
 20
7.765415621928724
 30
0.0
 11
7.779584714364665
 21
7.779581941725494
 31
0.0
  0
LINE
  5
507
330
1F
100
AcDbEntity
  8
Layer 01
100
AcDbLine
 10
7.779584714364665
 20
7.779581941725494
 30
0.0
 11
7.759367259884596
 21
7.793243040283642
 31
0.0
  0
LINE
  5
508
330
1F
100
AcDbEntity
  8
Layer 01
100
AcDbLine
 10
7.759367259884596
 20
7.793243040283642
 30
0.0
 11
7.738926394012923
 21
7.806395238828943
 31
0.0
  0
LINE
  5
509
330
1F
100
AcDbEntity
  8
Layer 01
100
AcDbLine
 10
7.738926394012923
 20
7.806395238828943
 30
0.0
 11
7.718274648853427
 21
7.819034858587168
 31
0.0
  0
LINE
  5
50A
330
1F
100
AcDbEntity
  8
Layer 01
100
AcDbLine
 10
7.718274648853427
 20
7.819034858587168
 30
0.0
 11
7.69742455650989
 21
7.831158220784094
 31
0.0
  0
LINE
  5
50B
330
1F
100
AcDbEntity
  8
Layer 01
100
AcDbLine
 10
7.69742455650989
 20
7.831158220784094
 30
0.0
 11
7.676388674141585
 21
7.842762053443789
 31
0.0
  0
LINE
  5
50C
330
1F
100
AcDbEntity
  8
Layer 01
100
AcDbLine
 10
7.676388674141585
 20
7.842762053443789
 30
0.0
 11
7.655179659129733
 21
7.853844711783514
 31
0.0
  0
LINE
  5
50D
330
1F
100
AcDbEntity
  8
Layer 01
100
AcDbLine
 10
7.655179659129733
 20
7.853844711783514
 30
0.0
 11
7.633810193911045
 21
7.864404957818827
 31
0.0
  0
LINE
  5
50E
330
1F
100
AcDbEntity
  8
Layer 01
100
AcDbLine
 10
7.633810193911045
 20
7.864404957818827
 30
0.0
 11
7.612292960922234
 21
7.874441553565284
 31
0.0
  0
LINE
  5
50F
330
1F
100
AcDbEntity
  8
Layer 01
100
AcDbLine
 10
7.612292960922234
 20
7.874441553565284
 30
0.0
 11
7.590640642600013
 21
7.88395326103844
 31
0.0
  0
LINE
  5
510
330
1F
100
AcDbEntity
  8
Layer 01
100
AcDbLine
 10
7.590640642600013
 20
7.88395326103844
 30
0.0
 11
7.568865921381091
 21
7.89293884225385
 31
0.0
  0
LINE
  5
511
330
1F
100
AcDbEntity
  8
Layer 01
100
AcDbLine
 10
7.568865921381091
 20
7.89293884225385
 30
0.0
 11
7.546981479702183
 21
7.901397059227072
 31
0.0
  0
LINE
  5
512
330
1F
100
AcDbEntity
  8
Layer 01
100
AcDbLine
 10
7.546981479702183
 20
7.901397059227072
 30
0.0
 11
7.524999999999998
 21
7.909326673973661
 31
0.0
  0
LINE
  5
513
330
1F
100
AcDbEntity
  8
Layer 01
100
AcDbLine
 10
7.524999999999998
 20
7.909326673973661
 30
0.0
 11
7.502934113460322
 21
7.91672684432254
 31
0.0
  0
LINE
  5
514
330
1F
100
AcDbEntity
  8
Layer 01
100
AcDbLine
 10
7.502934113460322
 20
7.91672684432254
 30
0.0
 11
7.480796246265234
 21
7.923598311356095
 31
0.0
  0
LINE
  5
515
330
1F
100
AcDbEntity
  8
Layer 01
100
AcDbLine
 10
7.480796246265234
 20
7.923598311356095
 30
0.0
 11
7.458598773345885
 21
7.929942211970076
 31
0.0
  0
LINE
  5
516
330
1F
100
AcDbEntity
  8
Layer 01
100
AcDbLine
 10
7.458598773345885
 20
7.929942211970076
 30
0.0
 11
7.436354069633428
 21
7.935759683060237
 31
0.0
  0
LINE
  5
517
330
1F
100
AcDbEntity
  8
Layer 01
100
AcDbLine
 10
7.436354069633428
 20
7.935759683060237
 30
0.0
 11
7.414074510059013
 21
7.941051861522327
 31
0.0
  0
LINE
  5
518
330
1F
100
AcDbEntity
  8
Layer 01
100
AcDbLine
 10
7.414074510059013
 20
7.941051861522327
 30
0.0
 11
7.391772469553795
 21
7.9458198842521
 31
0.0
  0
LINE
  5
519
330
1F
100
AcDbEntity
  8
Layer 01
100
AcDbLine
 10
7.391772469553795
 20
7.9458198842521
 30
0.0
 11
7.369460323048925
 21
7.950064888145307
 31
0.0
  0
LINE
  5
51A
330
1F
100
AcDbEntity
  8
Layer 01
100
AcDbLine
 10
7.369460323048925
 20
7.950064888145307
 30
0.0
 11
7.347150445475554
 21
7.953788010097699
 31
0.0
  0
LINE
  5
51B
330
1F
100
AcDbEntity
  8
Layer 01
100
AcDbLine
 10
7.347150445475554
 20
7.953788010097699
 30
0.0
 11
7.324855088944431
 21
7.956990757971071
 31
0.0
  0
LINE
  5
51C
330
1F
100
AcDbEntity
  8
Layer 01
100
AcDbLine
 10
7.324855088944431
 20
7.956990757971071
 30
0.0
 11
7.302586014284683
 21
7.959676123491393
 31
0.0
  0
LINE
  5
51D
330
1F
100
AcDbEntity
  8
Layer 01
100
AcDbLine
 10
7.302586014284683
 20
7.959676123491393
 30
0.0
 11
7.280354859505033
 21
7.961847469350677
 31
0.0
  0
LINE
  5
51E
330
1F
100
AcDbEntity
  8
Layer 01
100
AcDbLine
 10
7.280354859505033
 20
7.961847469350677
 30
0.0
 11
7.258173262614205
 21
7.963508158240936
 31
0.0
  0
LINE
  5
51F
330
1F
100
AcDbEntity
  8
Layer 01
100
AcDbLine
 10
7.258173262614205
 20
7.963508158240936
 30
0.0
 11
7.236052861620923
 21
7.964661552854182
 31
0.0
  0
LINE
  5
520
330
1F
100
AcDbEntity
  8
Layer 01
100
AcDbLine
 10
7.236052861620923
 20
7.964661552854182
 30
0.0
 11
7.214005294533912
 21
7.965311015882427
 31
0.0
  0
LINE
  5
521
330
1F
100
AcDbEntity
  8
Layer 01
100
AcDbLine
 10
7.214005294533912
 20
7.965311015882427
 30
0.0
 11
7.192042199361893
 21
7.965459910017683
 31
0.0
  0
LINE
  5
522
330
1F
100
AcDbEntity
  8
Layer 01
100
AcDbLine
 10
7.192042199361893
 20
7.965459910017683
 30
0.0
 11
7.170175214113591
 21
7.965111597951965
 31
0.0
  0
LINE
  5
523
330
1F
100
AcDbEntity
  8
Layer 01
100
AcDbLine
 10
7.170175214113591
 20
7.965111597951965
 30
0.0
 11
7.148415789589863
 21
7.964269775968626
 31
0.0
  0
LINE
  5
524
330
1F
100
AcDbEntity
  8
Layer 01
100
AcDbLine
 10
7.148415789589863
 20
7.964269775968626
 30
0.0
 11
7.126774627760097
 21
7.962939474716391
 31
0.0
  0
LINE
  5
525
330
1F
100
AcDbEntity
  8
Layer 01
100
AcDbLine
 10
7.126774627760097
 20
7.962939474716391
 30
0.0
 11
7.105262243385818
 21
7.961126058435329
 31
0.0
  0
LINE
  5
526
330
1F
100
AcDbEntity
  8
Layer 01
100
AcDbLine
 10
7.105262243385818
 20
7.961126058435329
 30
0.0
 11
7.083889151228546
 21
7.958834891365509
 31
0.0
  0
LINE
  5
527
330
1F
100
AcDbEntity
  8
Layer 01
100
AcDbLine
 10
7.083889151228546
 20
7.958834891365509
 30
0.0
 11
7.062665866049806
 21
7.956071337746998
 31
0.0
  0
LINE
  5
528
330
1F
100
AcDbEntity
  8
Layer 01
100
AcDbLine
 10
7.062665866049806
 20
7.956071337746998
 30
0.0
 11
7.04160290261112
 21
7.952840761819864
 31
0.0
  0
LINE
  5
529
330
1F
100
AcDbEntity
  8
Layer 01
100
AcDbLine
 10
7.04160290261112
 20
7.952840761819864
 30
0.0
 11
7.020710775674011
 21
7.949148527824176
 31
0.0
  0
LINE
  5
52A
330
1F
100
AcDbEntity
  8
Layer 01
100
AcDbLine
 10
7.020710775674011
 20
7.949148527824176
 30
0.0
 11
7.000000000000001
 21
7.945
 31
0.0
  0
LINE
  5
52B
330
1F
100
AcDbEntity
  8
Layer 01
100
AcDbLine
 10
7.000000000000001
 20
7.945
 30
0.0
 11
6.979480848059325
 21
7.940400828030477
 31
0.0
  0
LINE
  5
52C
330
1F
100
AcDbEntity
  8
Layer 01
100
AcDbLine
 10
6.979480848059325
 20
7.940400828030477
 30
0.0
 11
6.95916262315707
 21
7.935357803371021
 31
0.0
  0
LINE
  5
52D
330
1F
100
AcDbEntity
  8
Layer 01
100
AcDbLine
 10
6.95916262315707
 20
7.935357803371021
 30
0.0
 11
6.939054386307033
 21
7.929878002920124
 31
0.0
  0
LINE
  5
52E
330
1F
100
AcDbEntity
  8
Layer 01
100
AcDbLine
 10
6.939054386307033
 20
7.929878002920124
 30
0.0
 11
6.919165198523014
 21
7.923968503576274
 31
0.0
  0
LINE
  5
52F
330
1F
100
AcDbEntity
  8
Layer 01
100
AcDbLine
 10
6.919165198523014
 20
7.923968503576274
 30
0.0
 11
6.899504120818813
 21
7.917636382237959
 31
0.0
  0
LINE
  5
530
330
1F
100
AcDbEntity
  8
Layer 01
100
AcDbLine
 10
6.899504120818813
 20
7.917636382237959
 30
0.0
 11
6.880080214208225
 21
7.910888715803667
 31
0.0
  0
LINE
  5
531
330
1F
100
AcDbEntity
  8
Layer 01
100
AcDbLine
 10
6.880080214208225
 20
7.910888715803667
 30
0.0
 11
6.860902539705052
 21
7.903732581171887
 31
0.0
  0
LINE
  5
532
330
1F
100
AcDbEntity
  8
Layer 01
100
AcDbLine
 10
6.860902539705052
 20
7.903732581171887
 30
0.0
 11
6.841980158323089
 21
7.896175055241107
 31
0.0
  0
LINE
  5
533
330
1F
100
AcDbEntity
  8
Layer 01
100
AcDbLine
 10
6.841980158323089
 20
7.896175055241107
 30
0.0
 11
6.823321844734933
 21
7.888223443531571
 31
0.0
  0
LINE
  5
534
330
1F
100
AcDbEntity
  8
Layer 01
100
AcDbLine
 10
6.823321844734933
 20
7.888223443531571
 30
0.0
 11
6.804935228248358
 21
7.879885966050535
 31
0.0
  0
LINE
  5
535
330
1F
100
AcDbEntity
  8
Layer 01
100
AcDbLine
 10
6.804935228248358
 20
7.879885966050535
 30
0.0
 11
6.786827651829935
 21
7.871171071427018
 31
0.0
  0
LINE
  5
536
330
1F
100
AcDbEntity
  8
Layer 01
100
AcDbLine
 10
6.786827651829935
 20
7.871171071427018
 30
0.0
 11
6.769006458446231
 21
7.862087208290031
 31
0.0
  0
LINE
  5
537
330
1F
100
AcDbEntity
  8
Layer 01
100
AcDbLine
 10
6.769006458446231
 20
7.862087208290031
 30
0.0
 11
6.75147899106382
 21
7.852642825268589
 31
0.0
  0
LINE
  5
538
330
1F
100
AcDbEntity
  8
Layer 01
100
AcDbLine
 10
6.75147899106382
 20
7.852642825268589
 30
0.0
 11
6.734252592649272
 21
7.842846370991706
 31
0.0
  0
LINE
  5
539
330
1F
100
AcDbEntity
  8
Layer 01
100
AcDbLine
 10
6.734252592649272
 20
7.842846370991706
 30
0.0
 11
6.717334606169156
 21
7.832706294088394
 31
0.0
  0
LINE
  5
53A
330
1F
100
AcDbEntity
  8
Layer 01
100
AcDbLine
 10
6.717334606169156
 20
7.832706294088394
 30
0.0
 11
6.700732374590041
 21
7.822231043187671
 31
0.0
  0
LINE
  5
53B
330
1F
100
AcDbEntity
  8
Layer 01
100
AcDbLine
 10
6.700732374590041
 20
7.822231043187671
 30
0.0
 11
6.684452922803535
 21
7.811429232409994
 31
0.0
  0
LINE
  5
53C
330
1F
100
AcDbEntity
  8
Layer 01
100
AcDbLine
 10
6.684452922803535
 20
7.811429232409994
 30
0.0
 11
6.668502003401389
 21
7.800310137841633
 31
0.0
  0
LINE
  5
53D
330
1F
100
AcDbEntity
  8
Layer 01
100
AcDbLine
 10
6.668502003401389
 20
7.800310137841633
 30
0.0
 11
6.652885050900385
 21
7.788883201060298
 31
0.0
  0
LINE
  5
53E
330
1F
100
AcDbEntity
  8
Layer 01
100
AcDbLine
 10
6.652885050900385
 20
7.788883201060298
 30
0.0
 11
6.63760749981731
 21
7.777157863643699
 31
0.0
  0
LINE
  5
53F
330
1F
100
AcDbEntity
  8
Layer 01
100
AcDbLine
 10
6.63760749981731
 20
7.777157863643699
 30
0.0
 11
6.622674784668948
 21
7.765143567169551
 31
0.0
  0
LINE
  5
540
330
1F
100
AcDbEntity
  8
Layer 01
100
AcDbLine
 10
6.622674784668948
 20
7.765143567169551
 30
0.0
 11
6.608092339972086
 21
7.752849753215564
 31
0.0
  0
LINE
  5
541
330
1F
100
AcDbEntity
  8
Layer 01
100
AcDbLine
 10
6.608092339972086
 20
7.752849753215564
 30
0.0
 11
6.593865600243508
 21
7.740285863359452
 31
0.0
  0
LINE
  5
542
330
1F
100
AcDbEntity
  8
Layer 01
100
AcDbLine
 10
6.593865600243508
 20
7.740285863359452
 30
0.0
 11
6.579999999999999
 21
7.727461339178927
 31
0.0
  0
LINE
  5
543
330
1F
100
AcDbEntity
  8
Layer 01
100
AcDbLine
 10
6.579999999999999
 20
7.727461339178927
 30
0.0
 11
6.566500637064348
 21
7.714385720840234
 31
0.0
  0
LINE
  5
544
330
1F
100
AcDbEntity
  8
Layer 01
100
AcDbLine
 10
6.566500637064348
 20
7.714385720840234
 30
0.0
 11
6.553371262483355
 21
7.701068942863758
 31
0.0
  0
LINE
  5
545
330
1F
100
AcDbEntity
  8
Layer 01
100
AcDbLine
 10
6.553371262483355
 20
7.701068942863758
 30
0.0
 11
6.540615290609828
 21
7.687521038358416
 31
0.0
  0
LINE
  5
546
330
1F
100
AcDbEntity
  8
Layer 01
100
AcDbLine
 10
6.540615290609828
 20
7.687521038358416
 30
0.0
 11
6.528236135796571
 21
7.673752040433122
 31
0.0
  0
LINE
  5
547
330
1F
100
AcDbEntity
  8
Layer 01
100
AcDbLine
 10
6.528236135796571
 20
7.673752040433122
 30
0.0
 11
6.516237212396389
 21
7.659771982196796
 31
0.0
  0
LINE
  5
548
330
1F
100
AcDbEntity
  8
Layer 01
100
AcDbLine
 10
6.516237212396389
 20
7.659771982196796
 30
0.0
 11
6.504621934762085
 21
7.645590896758351
 31
0.0
  0
LINE
  5
549
330
1F
100
AcDbEntity
  8
Layer 01
100
AcDbLine
 10
6.504621934762085
 20
7.645590896758351
 30
0.0
 11
6.493393717246466
 21
7.631218817226707
 31
0.0
  0
LINE
  5
54A
330
1F
100
AcDbEntity
  8
Layer 01
100
AcDbLine
 10
6.493393717246466
 20
7.631218817226707
 30
0.0
 11
6.482555974202338
 21
7.61666577671078
 31
0.0
  0
LINE
  5
54B
330
1F
100
AcDbEntity
  8
Layer 01
100
AcDbLine
 10
6.482555974202338
 20
7.61666577671078
 30
0.0
 11
6.472111778079454
 21
7.601941838845343
 31
0.0
  0
LINE
  5
54C
330
1F
100
AcDbEntity
  8
Layer 01
100
AcDbLine
 10
6.472111778079454
 20
7.601941838845343
 30
0.0
 11
6.462062833715375
 21
7.587057189368608
 31
0.0
  0
LINE
  5
54D
330
1F
100
AcDbEntity
  8
Layer 01
100
AcDbLine
 10
6.462062833715375
 20
7.587057189368608
 30
0.0
 11
6.452410504044612
 21
7.572022044544639
 31
0.0
  0
LINE
  5
54E
330
1F
100
AcDbEntity
  8
Layer 01
100
AcDbLine
 10
6.452410504044612
 20
7.572022044544639
 30
0.0
 11
6.443156152001674
 21
7.556846620637502
 31
0.0
  0
LINE
  5
54F
330
1F
100
AcDbEntity
  8
Layer 01
100
AcDbLine
 10
6.443156152001674
 20
7.556846620637502
 30
0.0
 11
6.434301140521072
 21
7.541541133911267
 31
0.0
  0
LINE
  5
550
330
1F
100
AcDbEntity
  8
Layer 01
100
AcDbLine
 10
6.434301140521072
 20
7.541541133911267
 30
0.0
 11
6.425846832537317
 21
7.52611580063
 31
0.0
  0
LINE
  5
551
330
1F
100
AcDbEntity
  8
Layer 01
100
AcDbLine
 10
6.425846832537317
 20
7.52611580063
 30
0.0
 11
6.417794590984918
 21
7.510580837057766
 31
0.0
  0
LINE
  5
552
330
1F
100
AcDbEntity
  8
Layer 01
100
AcDbLine
 10
6.417794590984918
 20
7.510580837057766
 30
0.0
 11
6.410145778798386
 21
7.494946459458633
 31
0.0
  0
LINE
  5
553
330
1F
100
AcDbEntity
  8
Layer 01
100
AcDbLine
 10
6.410145778798386
 20
7.494946459458633
 30
0.0
 11
6.402901425001294
 21
7.4792228479924
 31
0.0
  0
LINE
  5
554
330
1F
100
AcDbEntity
  8
Layer 01
100
AcDbLine
 10
6.402901425001294
 20
7.4792228479924
 30
0.0
 11
6.396061222973462
 21
7.463420038401792
 31
0.0
  0
LINE
  5
555
330
1F
100
AcDbEntity
  8
Layer 01
100
AcDbLine
 10
6.396061222973462
 20
7.463420038401792
 30
0.0
 11
6.389624532183775
 21
7.44754803032527
 31
0.0
  0
LINE
  5
556
330
1F
100
AcDbEntity
  8
Layer 01
100
AcDbLine
 10
6.389624532183775
 20
7.44754803032527
 30
0.0
 11
6.383590712101116
 21
7.431616823401292
 31
0.0
  0
LINE
  5
557
330
1F
100
AcDbEntity
  8
Layer 01
100
AcDbLine
 10
6.383590712101116
 20
7.431616823401292
 30
0.0
 11
6.377959122194369
 21
7.415636417268317
 31
0.0
  0
LINE
  5
558
330
1F
100
AcDbEntity
  8
Layer 01
100
AcDbLine
 10
6.377959122194369
 20
7.415636417268317
 30
0.0
 11
6.372729121932418
 21
7.399616811564804
 31
0.0
  0
LINE
  5
559
330
1F
100
AcDbEntity
  8
Layer 01
100
AcDbLine
 10
6.372729121932418
 20
7.399616811564804
 30
0.0
 11
6.367900070784145
 21
7.383568005929211
 31
0.0
  0
LINE
  5
55A
330
1F
100
AcDbEntity
  8
Layer 01
100
AcDbLine
 10
6.367900070784145
 20
7.383568005929211
 30
0.0
 11
6.363471328218437
 21
7.3675
 31
0.0
  0
LINE
  5
55B
330
1F
100
AcDbEntity
  8
Layer 01
100
AcDbLine
 10
6.363471328218437
 20
7.3675
 30
0.0
 11
6.359441940291125
 21
7.351422694590854
 31
0.0
  0
LINE
  5
55C
330
1F
100
AcDbEntity
  8
Layer 01
100
AcDbLine
 10
6.359441940291125
 20
7.351422694590854
 30
0.0
 11
6.355809699405849
 21
7.335345595216377
 31
0.0
  0
LINE
  5
55D
330
1F
100
AcDbEntity
  8
Layer 01
100
AcDbLine
 10
6.355809699405849
 20
7.335345595216377
 30
0.0
 11
6.352572084553195
 21
7.319278108566396
 31
0.0
  0
LINE
  5
55E
330
1F
100
AcDbEntity
  8
Layer 01
100
AcDbLine
 10
6.352572084553195
 20
7.319278108566396
 30
0.0
 11
6.349726574723753
 21
7.303229641330741
 31
0.0
  0
LINE
  5
55F
330
1F
100
AcDbEntity
  8
Layer 01
100
AcDbLine
 10
6.349726574723753
 20
7.303229641330741
 30
0.0
 11
6.347270648908111
 21
7.287209600199242
 31
0.0
  0
LINE
  5
560
330
1F
100
AcDbEntity
  8
Layer 01
100
AcDbLine
 10
6.347270648908111
 20
7.287209600199242
 30
0.0
 11
6.345201786096856
 21
7.271227391861728
 31
0.0
  0
LINE
  5
561
330
1F
100
AcDbEntity
  8
Layer 01
100
AcDbLine
 10
6.345201786096856
 20
7.271227391861728
 30
0.0
 11
6.343517465280577
 21
7.255292423008026
 31
0.0
  0
LINE
  5
562
330
1F
100
AcDbEntity
  8
Layer 01
100
AcDbLine
 10
6.343517465280577
 20
7.255292423008026
 30
0.0
 11
6.342215165449864
 21
7.239414100327968
 31
0.0
  0
LINE
  5
563
330
1F
100
AcDbEntity
  8
Layer 01
100
AcDbLine
 10
6.342215165449864
 20
7.239414100327968
 30
0.0
 11
6.341292084038842
 21
7.223601675148549
 31
0.0
  0
LINE
  5
564
330
1F
100
AcDbEntity
  8
Layer 01
100
AcDbLine
 10
6.341292084038842
 20
7.223601675148549
 30
0.0
 11
6.340744292255793
 21
7.207863777345445
 31
0.0
  0
LINE
  5
565
330
1F
100
AcDbEntity
  8
Layer 01
100
AcDbLine
 10
6.340744292255793
 20
7.207863777345445
 30
0.0
 11
6.340567579752538
 21
7.192208881431496
 31
0.0
  0
LINE
  5
566
330
1F
100
AcDbEntity
  8
Layer 01
100
AcDbLine
 10
6.340567579752538
 20
7.192208881431496
 30
0.0
 11
6.340757736180895
 21
7.176645461919541
 31
0.0
  0
LINE
  5
567
330
1F
100
AcDbEntity
  8
Layer 01
100
AcDbLine
 10
6.340757736180895
 20
7.176645461919541
 30
0.0
 11
6.341310551192688
 21
7.161181993322424
 31
0.0
  0
LINE
  5
568
330
1F
100
AcDbEntity
  8
Layer 01
100
AcDbLine
 10
6.341310551192688
 20
7.161181993322424
 30
0.0
 11
6.342221814439736
 21
7.145826950152985
 31
0.0
  0
LINE
  5
569
330
1F
100
AcDbEntity
  8
Layer 01
100
AcDbLine
 10
6.342221814439736
 20
7.145826950152985
 30
0.0
 11
6.343487315573861
 21
7.130588806924066
 31
0.0
  0
LINE
  5
56A
330
1F
100
AcDbEntity
  8
Layer 01
100
AcDbLine
 10
6.343487315573861
 20
7.130588806924066
 30
0.0
 11
6.345102844246882
 21
7.115476038148508
 31
0.0
  0
LINE
  5
56B
330
1F
100
AcDbEntity
  8
Layer 01
100
AcDbLine
 10
6.345102844246882
 20
7.115476038148508
 30
0.0
 11
6.347063950221461
 21
7.100496914609062
 31
0.0
  0
LINE
  5
56C
330
1F
100
AcDbEntity
  8
Layer 01
100
AcDbLine
 10
6.347063950221461
 20
7.100496914609062
 30
0.0
 11
6.349365223703618
 21
7.085658892168119
 31
0.0
  0
LINE
  5
56D
330
1F
100
AcDbEntity
  8
Layer 01
100
AcDbLine
 10
6.349365223703618
 20
7.085658892168119
 30
0.0
 11
6.352001015010218
 21
7.070969222957984
 31
0.0
  0
LINE
  5
56E
330
1F
100
AcDbEntity
  8
Layer 01
100
AcDbLine
 10
6.352001015010218
 20
7.070969222957984
 30
0.0
 11
6.35496567445812
 21
7.056435159110958
 31
0.0
  0
LINE
  5
56F
330
1F
100
AcDbEntity
  8
Layer 01
100
AcDbLine
 10
6.35496567445812
 20
7.056435159110958
 30
0.0
 11
6.358253552364187
 21
7.042063952759344
 31
0.0
  0
LINE
  5
570
330
1F
100
AcDbEntity
  8
Layer 01
100
AcDbLine
 10
6.358253552364187
 20
7.042063952759344
 30
0.0
 11
6.361858999045282
 21
7.027862856035444
 31
0.0
  0
LINE
  5
571
330
1F
100
AcDbEntity
  8
Layer 01
100
AcDbLine
 10
6.361858999045282
 20
7.027862856035444
 30
0.0
 11
6.365776364818266
 21
7.013839121071562
 31
0.0
  0
LINE
  5
572
330
1F
100
AcDbEntity
  8
Layer 01
100
AcDbLine
 10
6.365776364818266
 20
7.013839121071562
 30
0.0
 11
6.370000000000001
 21
7.0
 31
0.0
  0
LINE
  5
573
330
1F
100
AcDbEntity
  8
Layer 01
100
AcDbLine
 10
6.370000000000001
 20
7.0
 30
0.0
 11
6.37452406461197
 21
6.986352502661774
 31
0.0
  0
LINE
  5
574
330
1F
100
AcDbEntity
  8
Layer 01
100
AcDbLine
 10
6.37452406461197
 20
6.986352502661774
 30
0.0
 11
6.379341957494134
 21
6.972902669732745
 31
0.0
  0
LINE
  5
575
330
1F
100
AcDbEntity
  8
Layer 01
100
AcDbLine
 10
6.379341957494134
 20
6.972902669732745
 30
0.0
 11
6.384446887191073
 21
6.959656299597498
 31
0.0
  0
LINE
  5
576
330
1F
100
AcDbEntity
  8
Layer 01
100
AcDbLine
 10
6.384446887191073
 20
6.959656299597498
 30
0.0
 11
6.389832062247368
 21
6.946619190640606
 31
0.0
  0
LINE
  5
577
330
1F
100
AcDbEntity
  8
Layer 01
100
AcDbLine
 10
6.389832062247368
 20
6.946619190640606
 30
0.0
 11
6.395490691207601
 21
6.93379714124665
 31
0.0
  0
LINE
  5
578
330
1F
100
AcDbEntity
  8
Layer 01
100
AcDbLine
 10
6.395490691207601
 20
6.93379714124665
 30
0.0
 11
6.401415982616354
 21
6.921195949800207
 31
0.0
  0
LINE
  5
579
330
1F
100
AcDbEntity
  8
Layer 01
100
AcDbLine
 10
6.401415982616354
 20
6.921195949800207
 30
0.0
 11
6.407601145018205
 21
6.908821414685858
 31
0.0
  0
LINE
  5
57A
330
1F
100
AcDbEntity
  8
Layer 01
100
AcDbLine
 10
6.407601145018205
 20
6.908821414685858
 30
0.0
 11
6.414039386957738
 21
6.896679334288177
 31
0.0
  0
LINE
  5
57B
330
1F
100
AcDbEntity
  8
Layer 01
100
AcDbLine
 10
6.414039386957738
 20
6.896679334288177
 30
0.0
 11
6.420723782059961
 21
6.884775237172764
 31
0.0
  0
LINE
  5
57C
330
1F
100
AcDbEntity
  8
Layer 01
100
AcDbLine
 10
6.420723782059961
 20
6.884775237172764
 30
0.0
 11
6.427646864271601
 21
6.873113572629286
 31
0.0
  0
LINE
  5
57D
330
1F
100
AcDbEntity
  8
Layer 01
100
AcDbLine
 10
6.427646864271601
 20
6.873113572629286
 30
0.0
 11
6.434801032619813
 21
6.861698520128434
 31
0.0
  0
LINE
  5
57E
330
1F
100
AcDbEntity
  8
Layer 01
100
AcDbLine
 10
6.434801032619813
 20
6.861698520128434
 30
0.0
 11
6.442178686131752
 21
6.850534259140895
 31
0.0
  0
LINE
  5
57F
330
1F
100
AcDbEntity
  8
Layer 01
100
AcDbLine
 10
6.442178686131752
 20
6.850534259140895
 30
0.0
 11
6.449772223834574
 21
6.839624969137357
 31
0.0
  0
LINE
  5
580
330
1F
100
AcDbEntity
  8
Layer 01
100
AcDbLine
 10
6.449772223834574
 20
6.839624969137357
 30
0.0
 11
6.457574044755434
 21
6.828974829588508
 31
0.0
  0
LINE
  5
581
330
1F
100
AcDbEntity
  8
Layer 01
100
AcDbLine
 10
6.457574044755434
 20
6.828974829588508
 30
0.0
 11
6.465576547921488
 21
6.818588019965035
 31
0.0
  0
LINE
  5
582
330
1F
100
AcDbEntity
  8
Layer 01
100
AcDbLine
 10
6.465576547921488
 20
6.818588019965035
 30
0.0
 11
6.47377213235989
 21
6.808468719737626
 31
0.0
  0
LINE
  5
583
330
1F
100
AcDbEntity
  8
Layer 01
100
AcDbLine
 10
6.47377213235989
 20
6.808468719737626
 30
0.0
 11
6.482153121015928
 21
6.798620822844433
 31
0.0
  0
LINE
  5
584
330
1F
100
AcDbEntity
  8
Layer 01
100
AcDbLine
 10
6.482153121015928
 20
6.798620822844433
 30
0.0
 11
6.490711532507407
 21
6.789047081093456
 31
0.0
  0
LINE
  5
585
330
1F
100
AcDbEntity
  8
Layer 01
100
AcDbLine
 10
6.490711532507407
 20
6.789047081093456
 30
0.0
 11
6.499439309370269
 21
6.779749960760157
 31
0.0
  0
LINE
  5
586
330
1F
100
AcDbEntity
  8
Layer 01
100
AcDbLine
 10
6.499439309370269
 20
6.779749960760157
 30
0.0
 11
6.508328394140451
 21
6.770731928119996
 31
0.0
  0
LINE
  5
587
330
1F
100
AcDbEntity
  8
Layer 01
100
AcDbLine
 10
6.508328394140451
 20
6.770731928119996
 30
0.0
 11
6.517370729353893
 21
6.761995449448438
 31
0.0
  0
LINE
  5
588
330
1F
100
AcDbEntity
  8
Layer 01
100
AcDbLine
 10
6.517370729353893
 20
6.761995449448438
 30
0.0
 11
6.526558257546535
 21
6.753542991020945
 31
0.0
  0
LINE
  5
589
330
1F
100
AcDbEntity
  8
Layer 01
100
AcDbLine
 10
6.526558257546535
 20
6.753542991020945
 30
0.0
 11
6.535882921254315
 21
6.745377019112977
 31
0.0
  0
LINE
  5
58A
330
1F
100
AcDbEntity
  8
Layer 01
100
AcDbLine
 10
6.535882921254315
 20
6.745377019112977
 30
0.0
 11
6.545336663013172
 21
6.7375
 31
0.0
  0
LINE
  5
58B
330
1F
100
AcDbEntity
  8
Layer 01
100
AcDbLine
 10
6.545336663013172
 20
6.7375
 30
0.0
 11
6.554911409170836
 21
6.729914110837321
 31
0.0
  0
LINE
  5
58C
330
1F
100
AcDbEntity
  8
Layer 01
100
AcDbLine
 10
6.554911409170836
 20
6.729914110837321
 30
0.0
 11
6.564599021322191
 21
6.722620372299646
 31
0.0
  0
LINE
  5
58D
330
1F
100
AcDbEntity
  8
Layer 01
100
AcDbLine
 10
6.564599021322191
 20
6.722620372299646
 30
0.0
 11
6.574391344873916
 21
6.715619515941527
 31
0.0
  0
LINE
  5
58E
330
1F
100
AcDbEntity
  8
Layer 01
100
AcDbLine
 10
6.574391344873916
 20
6.715619515941527
 30
0.0
 11
6.584280225232683
 21
6.708912273317516
 31
0.0
  0
LINE
  5
58F
330
1F
100
AcDbEntity
  8
Layer 01
100
AcDbLine
 10
6.584280225232683
 20
6.708912273317516
 30
0.0
 11
6.594257507805169
 21
6.702499375982165
 31
0.0
  0
LINE
  5
590
330
1F
100
AcDbEntity
  8
Layer 01
100
AcDbLine
 10
6.594257507805169
 20
6.702499375982165
 30
0.0
 11
6.604315037998052
 21
6.696381555490026
 31
0.0
  0
LINE
  5
591
330
1F
100
AcDbEntity
  8
Layer 01
100
AcDbLine
 10
6.604315037998052
 20
6.696381555490026
 30
0.0
 11
6.614444661218004
 21
6.690559543395652
 31
0.0
  0
LINE
  5
592
330
1F
100
AcDbEntity
  8
Layer 01
100
AcDbLine
 10
6.614444661218004
 20
6.690559543395652
 30
0.0
 11
6.624638222871702
 21
6.685034071253597
 31
0.0
  0
LINE
  5
593
330
1F
100
AcDbEntity
  8
Layer 01
100
AcDbLine
 10
6.624638222871702
 20
6.685034071253597
 30
0.0
 11
6.634887610727299
 21
6.679805589875117
 31
0.0
  0
LINE
  5
594
330
1F
100
AcDbEntity
  8
Layer 01
100
AcDbLine
 10
6.634887610727299
 20
6.679805589875117
 30
0.0
 11
6.645184881998844
 21
6.674873427098301
 31
0.0
  0
LINE
  5
595
330
1F
100
AcDbEntity
  8
Layer 01
100
AcDbLine
 10
6.645184881998844
 20
6.674873427098301
 30
0.0
 11
6.655522136261867
 21
6.670236630017945
 31
0.0
  0
LINE
  5
596
330
1F
100
AcDbEntity
  8
Layer 01
100
AcDbLine
 10
6.655522136261867
 20
6.670236630017945
 30
0.0
 11
6.665891473091897
 21
6.665894245728841
 31
0.0
  0
LINE
  5
597
330
1F
100
AcDbEntity
  8
Layer 01
100
AcDbLine
 10
6.665891473091897
 20
6.665894245728841
 30
0.0
 11
6.67628499206446
 21
6.661845321325787
 31
0.0
  0
LINE
  5
598
330
1F
100
AcDbEntity
  8
Layer 01
100
AcDbLine
 10
6.67628499206446
 20
6.661845321325787
 30
0.0
 11
6.686694792755084
 21
6.658088903903577
 31
0.0
  0
LINE
  5
599
330
1F
100
AcDbEntity
  8
Layer 01
100
AcDbLine
 10
6.686694792755084
 20
6.658088903903577
 30
0.0
 11
6.697112974739297
 21
6.654624040557005
 31
0.0
  0
LINE
  5
59A
330
1F
100
AcDbEntity
  8
Layer 01
100
AcDbLine
 10
6.697112974739297
 20
6.654624040557005
 30
0.0
 11
6.707531637592627
 21
6.651449778380867
 31
0.0
  0
LINE
  5
59B
330
1F
100
AcDbEntity
  8
Layer 01
100
AcDbLine
 10
6.707531637592627
 20
6.651449778380867
 30
0.0
 11
6.717942978154721
 21
6.648564903446379
 31
0.0
  0
LINE
  5
59C
330
1F
100
AcDbEntity
  8
Layer 01
100
AcDbLine
 10
6.717942978154721
 20
6.648564903446379
 30
0.0
 11
6.728339582321706
 21
6.645967157730441
 31
0.0
  0
LINE
  5
59D
330
1F
100
AcDbEntity
  8
Layer 01
100
AcDbLine
 10
6.728339582321706
 20
6.645967157730441
 30
0.0
 11
6.738714133253825
 21
6.64365402218638
 31
0.0
  0
LINE
  5
59E
330
1F
100
AcDbEntity
  8
Layer 01
100
AcDbLine
 10
6.738714133253825
 20
6.64365402218638
 30
0.0
 11
6.749059314111323
 21
6.641622977767518
 31
0.0
  0
LINE
  5
59F
330
1F
100
AcDbEntity
  8
Layer 01
100
AcDbLine
 10
6.749059314111323
 20
6.641622977767518
 30
0.0
 11
6.759367808054444
 21
6.63987150542718
 31
0.0
  0
LINE
  5
5A0
330
1F
100
AcDbEntity
  8
Layer 01
100
AcDbLine
 10
6.759367808054444
 20
6.63987150542718
 30
0.0
 11
6.769632298243435
 21
6.638397086118687
 31
0.0
  0
LINE
  5
5A1
330
1F
100
AcDbEntity
  8
Layer 01
100
AcDbLine
 10
6.769632298243435
 20
6.638397086118687
 30
0.0
 11
6.779845467838538
 21
6.637197200795364
 31
0.0
  0
LINE
  5
5A2
330
1F
100
AcDbEntity
  8
Layer 01
100
AcDbLine
 10
6.779845467838538
 20
6.637197200795364
 30
0.0
 11
6.790000000000001
 21
6.636269330410536
 31
0.0
  0
LINE
  5
5A3
330
1F
100
AcDbEntity
  8
Layer 01
100
AcDbLine
 10
6.790000000000001
 20
6.636269330410536
 30
0.0
 11
6.800088724286327
 21
6.635610724904792
 31
0.0
  0
LINE
  5
5A4
330
1F
100
AcDbEntity
  8
Layer 01
100
AcDbLine
 10
6.800088724286327
 20
6.635610724904792
 30
0.0
 11
6.810105055849068
 21
6.635217710167792
 31
0.0
  0
LINE
  5
5A5
330
1F
100
AcDbEntity
  8
Layer 01
100
AcDbLine
 10
6.810105055849068
 20
6.635217710167792
 30
0.0
 11
6.820042556238032
 21
6.635086381076467
 31
0.0
  0
LINE
  5
5A6
330
1F
100
AcDbEntity
  8
Layer 01
100
AcDbLine
 10
6.820042556238032
 20
6.635086381076467
 30
0.0
 11
6.829894787003034
 21
6.635212832507743
 31
0.0
  0
LINE
  5
5A7
330
1F
100
AcDbEntity
  8
Layer 01
100
AcDbLine
 10
6.829894787003034
 20
6.635212832507743
 30
0.0
 11
6.839655309693882
 21
6.635593159338549
 31
0.0
  0
LINE
  5
5A8
330
1F
100
AcDbEntity
  8
Layer 01
100
AcDbLine
 10
6.839655309693882
 20
6.635593159338549
 30
0.0
 11
6.849317685860388
 21
6.636223456445812
 31
0.0
  0
LINE
  5
5A9
330
1F
100
AcDbEntity
  8
Layer 01
100
AcDbLine
 10
6.849317685860388
 20
6.636223456445812
 30
0.0
 11
6.858875477052363
 21
6.637099818706462
 31
0.0
  0
LINE
  5
5AA
330
1F
100
AcDbEntity
  8
Layer 01
100
AcDbLine
 10
6.858875477052363
 20
6.637099818706462
 30
0.0
 11
6.868322244819618
 21
6.638218340997426
 31
0.0
  0
LINE
  5
5AB
330
1F
100
AcDbEntity
  8
Layer 01
100
AcDbLine
 10
6.868322244819618
 20
6.638218340997426
 30
0.0
 11
6.877651738618549
 21
6.639574926048753
 31
0.0
  0
LINE
  5
5AC
330
1F
100
AcDbEntity
  8
Layer 01
100
AcDbLine
 10
6.877651738618549
 20
6.639574926048753
 30
0.0
 11
6.886858459531892
 21
6.641164708002975
 31
0.0
  0
LINE
  5
5AD
330
1F
100
AcDbEntity
  8
Layer 01
100
AcDbLine
 10
6.886858459531892
 20
6.641164708002975
 30
0.0
 11
6.895937096548968
 21
6.642982628855746
 31
0.0
  0
LINE
  5
5AE
330
1F
100
AcDbEntity
  8
Layer 01
100
AcDbLine
 10
6.895937096548968
 20
6.642982628855746
 30
0.0
 11
6.904882338659098
 21
6.645023630602721
 31
0.0
  0
LINE
  5
5AF
330
1F
100
AcDbEntity
  8
Layer 01
100
AcDbLine
 10
6.904882338659098
 20
6.645023630602721
 30
0.0
 11
6.913688874851602
 21
6.647282655239552
 31
0.0
  0
LINE
  5
5B0
330
1F
100
AcDbEntity
  8
Layer 01
100
AcDbLine
 10
6.913688874851602
 20
6.647282655239552
 30
0.0
 11
6.922351394115802
 21
6.649754644761895
 31
0.0
  0
LINE
  5
5B1
330
1F
100
AcDbEntity
  8
Layer 01
100
AcDbLine
 10
6.922351394115802
 20
6.649754644761895
 30
0.0
 11
6.93086458544102
 21
6.652434541165402
 31
0.0
  0
LINE
  5
5B2
330
1F
100
AcDbEntity
  8
Layer 01
100
AcDbLine
 10
6.93086458544102
 20
6.652434541165402
 30
0.0
 11
6.939223137816574
 21
6.655317286445727
 31
0.0
  0
LINE
  5
5B3
330
1F
100
AcDbEntity
  8
Layer 01
100
AcDbLine
 10
6.939223137816574
 20
6.655317286445727
 30
0.0
 11
6.947421960479147
 21
6.658397676411548
 31
0.0
  0
LINE
  5
5B4
330
1F
100
AcDbEntity
  8
Layer 01
100
AcDbLine
 10
6.947421960479147
 20
6.658397676411548
 30
0.0
 11
6.95545684365486
 21
6.66166992212363
 31
0.0
  0
LINE
  5
5B5
330
1F
100
AcDbEntity
  8
Layer 01
100
AcDbLine
 10
6.95545684365486
 20
6.66166992212363
 30
0.0
 11
6.963323797817194
 21
6.665128088455768
 31
0.0
  0
LINE
  5
5B6
330
1F
100
AcDbEntity
  8
Layer 01
100
AcDbLine
 10
6.963323797817194
 20
6.665128088455768
 30
0.0
 11
6.971018833439628
 21
6.668766240281753
 31
0.0
  0
LINE
  5
5B7
330
1F
100
AcDbEntity
  8
Layer 01
100
AcDbLine
 10
6.971018833439628
 20
6.668766240281753
 30
0.0
 11
6.978537960995645
 21
6.672578442475377
 31
0.0
  0
LINE
  5
5B8
330
1F
100
AcDbEntity
  8
Layer 01
100
AcDbLine
 10
6.978537960995645
 20
6.672578442475377
 30
0.0
 11
6.985877190958726
 21
6.676558759910431
 31
0.0
  0
LINE
  5
5B9
330
1F
100
AcDbEntity
  8
Layer 01
100
AcDbLine
 10
6.985877190958726
 20
6.676558759910431
 30
0.0
 11
6.993032533802351
 21
6.680701257460709
 31
0.0
  0
LINE
  5
5BA
330
1F
100
AcDbEntity
  8
Layer 01
100
AcDbLine
 10
6.993032533802351
 20
6.680701257460709
 30
0.0
 11
7.000000000000001
 21
6.685000000000001
 31
0.0
  0
LINE
  5
5BB
330
1F
100
AcDbEntity
  8
Layer 01
100
AcDbLine
 10
7.000000000000001
 20
6.685000000000001
 30
0.0
 11
7.00677584233493
 21
6.68944895725441
 31
0.0
  0
LINE
  5
5BC
330
1F
100
AcDbEntity
  8
Layer 01
100
AcDbLine
 10
7.00677584233493
 20
6.68944895725441
 30
0.0
 11
7.013357282829473
 21
6.694041718359276
 31
0.0
  0
LINE
  5
5BD
330
1F
100
AcDbEntity
  8
Layer 01
100
AcDbLine
 10
7.013357282829473
 20
6.694041718359276
 30
0.0
 11
7.019741785815739
 21
6.698771777302252
 31
0.0
  0
LINE
  5
5BE
330
1F
100
AcDbEntity
  8
Layer 01
100
AcDbLine
 10
7.019741785815739
 20
6.698771777302252
 30
0.0
 11
7.025926815625839
 21
6.703632628070988
 31
0.0
  0
LINE
  5
5BF
330
1F
100
AcDbEntity
  8
Layer 01
100
AcDbLine
 10
7.025926815625839
 20
6.703632628070988
 30
0.0
 11
7.031909836591881
 21
6.708617764653138
 31
0.0
  0
LINE
  5
5C0
330
1F
100
AcDbEntity
  8
Layer 01
100
AcDbLine
 10
7.031909836591881
 20
6.708617764653138
 30
0.0
 11
7.037688313045972
 21
6.713720681036352
 31
0.0
  0
LINE
  5
5C1
330
1F
100
AcDbEntity
  8
Layer 01
100
AcDbLine
 10
7.037688313045972
 20
6.713720681036352
 30
0.0
 11
7.043259709320223
 21
6.718934871208283
 31
0.0
  0
LINE
  5
5C2
330
1F
100
AcDbEntity
  8
Layer 01
100
AcDbLine
 10
7.043259709320223
 20
6.718934871208283
 30
0.0
 11
7.048621489746742
 21
6.724253829156583
 31
0.0
  0
LINE
  5
5C3
330
1F
100
AcDbEntity
  8
Layer 01
100
AcDbLine
 10
7.048621489746742
 20
6.724253829156583
 30
0.0
 11
7.053771371885412
 21
6.729671007651513
 31
0.0
  0
LINE
  5
5C4
330
1F
100
AcDbEntity
  8
Layer 01
100
AcDbLine
 10
7.053771371885412
 20
6.729671007651513
 30
0.0
 11
7.058708086207225
 21
6.735179694593784
 31
0.0
  0
LINE
  5
5C5
330
1F
100
AcDbEntity
  8
Layer 01
100
AcDbLine
 10
7.058708086207225
 20
6.735179694593784
 30
0.0
 11
7.06343061641094
 21
6.740773136666714
 31
0.0
  0
LINE
  5
5C6
330
1F
100
AcDbEntity
  8
Layer 01
100
AcDbLine
 10
7.06343061641094
 20
6.740773136666714
 30
0.0
 11
7.067937946195322
 21
6.746444580553624
 31
0.0
  0
LINE
  5
5C7
330
1F
100
AcDbEntity
  8
Layer 01
100
AcDbLine
 10
7.067937946195322
 20
6.746444580553624
 30
0.0
 11
7.072229059259134
 21
6.752187272937833
 31
0.0
  0
LINE
  5
5C8
330
1F
100
AcDbEntity
  8
Layer 01
100
AcDbLine
 10
7.072229059259134
 20
6.752187272937833
 30
0.0
 11
7.07630293930114
 21
6.757994460502661
 31
0.0
  0
LINE
  5
5C9
330
1F
100
AcDbEntity
  8
Layer 01
100
AcDbLine
 10
7.07630293930114
 20
6.757994460502661
 30
0.0
 11
7.080158570020105
 21
6.763859389931428
 31
0.0
  0
LINE
  5
5CA
330
1F
100
AcDbEntity
  8
Layer 01
100
AcDbLine
 10
7.080158570020105
 20
6.763859389931428
 30
0.0
 11
7.083794935114788
 21
6.769775307907453
 31
0.0
  0
LINE
  5
5CB
330
1F
100
AcDbEntity
  8
Layer 01
100
AcDbLine
 10
7.083794935114788
 20
6.769775307907453
 30
0.0
 11
7.087211271531515
 21
6.775735474441772
 31
0.0
  0
LINE
  5
5CC
330
1F
100
AcDbEntity
  8
Layer 01
100
AcDbLine
 10
7.087211271531515
 20
6.775735474441772
 30
0.0
 11
7.090407829206843
 21
6.781733202856278
 31
0.0
  0
LINE
  5
5CD
330
1F
100
AcDbEntity
  8
Layer 01
100
AcDbLine
 10
7.090407829206843
 20
6.781733202856278
 30
0.0
 11
7.093385111324888
 21
6.787761819800577
 31
0.0
  0
LINE
  5
5CE
330
1F
100
AcDbEntity
  8
Layer 01
100
AcDbLine
 10
7.093385111324888
 20
6.787761819800577
 30
0.0
 11
7.096143621069769
 21
6.793814651924279
 31
0.0
  0
LINE
  5
5CF
330
1F
100
AcDbEntity
  8
Layer 01
100
AcDbLine
 10
7.096143621069769
 20
6.793814651924279
 30
0.0
 11
7.098683861625604
 21
6.799885025876992
 31
0.0
  0
LINE
  5
5D0
330
1F
100
AcDbEntity
  8
Layer 01
100
AcDbLine
 10
7.098683861625604
 20
6.799885025876992
 30
0.0
 11
7.101006336176511
 21
6.805966268308322
 31
0.0
  0
LINE
  5
5D1
330
1F
100
AcDbEntity
  8
Layer 01
100
AcDbLine
 10
7.101006336176511
 20
6.805966268308322
 30
0.0
 11
7.103111547906604
 21
6.812051705867878
 31
0.0
  0
LINE
  5
5D2
330
1F
100
AcDbEntity
  8
Layer 01
100
AcDbLine
 10
7.103111547906604
 20
6.812051705867878
 30
0.0
 11
7.105000000000001
 21
6.818134665205268
 31
0.0
  0
LINE
  5
5D3
330
1F
100
AcDbEntity
  8
Layer 01
100
AcDbLine
 10
7.105000000000001
 20
6.818134665205268
 30
0.0
 11
7.106672436226318
 21
6.8242085391822
 31
0.0
  0
LINE
  5
5D4
330
1F
100
AcDbEntity
  8
Layer 01
100
AcDbLine
 10
7.106672436226318
 20
6.8242085391822
 30
0.0
 11
7.108130562697163
 21
6.830266985508777
 31
0.0
  0
LINE
  5
5D5
330
1F
100
AcDbEntity
  8
Layer 01
100
AcDbLine
 10
7.108130562697163
 20
6.830266985508777
 30
0.0
 11
7.109376326109638
 21
6.836303728107202
 31
0.0
  0
LINE
  5
5D6
330
1F
100
AcDbEntity
  8
Layer 01
100
AcDbLine
 10
7.109376326109638
 20
6.836303728107202
 30
0.0
 11
7.11041167316085
 21
6.84231249089968
 31
0.0
  0
LINE
  5
5D7
330
1F
100
AcDbEntity
  8
Layer 01
100
AcDbLine
 10
7.11041167316085
 20
6.84231249089968
 30
0.0
 11
7.111238550547902
 21
6.848286997808413
 31
0.0
  0
LINE
  5
5D8
330
1F
100
AcDbEntity
  8
Layer 01
100
AcDbLine
 10
7.111238550547902
 20
6.848286997808413
 30
0.0
 11
7.111858904967899
 21
6.854220972755604
 31
0.0
  0
LINE
  5
5D9
330
1F
100
AcDbEntity
  8
Layer 01
100
AcDbLine
 10
7.111858904967899
 20
6.854220972755604
 30
0.0
 11
7.112274683117945
 21
6.860108139663458
 31
0.0
  0
LINE
  5
5DA
330
1F
100
AcDbEntity
  8
Layer 01
100
AcDbLine
 10
7.112274683117945
 20
6.860108139663458
 30
0.0
 11
7.112487831695145
 21
6.865942222454178
 31
0.0
  0
LINE
  5
5DB
330
1F
100
AcDbEntity
  8
Layer 01
100
AcDbLine
 10
7.112487831695145
 20
6.865942222454178
 30
0.0
 11
7.112500520565925
 21
6.871717060298828
 31
0.0
  0
LINE
  5
5DC
330
1F
100
AcDbEntity
  8
Layer 01
100
AcDbLine
 10
7.112500520565925
 20
6.871717060298828
 30
0.0
 11
7.112315812274014
 21
6.87742695336391
 31
0.0
  0
LINE
  5
5DD
330
1F
100
AcDbEntity
  8
Layer 01
100
AcDbLine
 10
7.112315812274014
 20
6.87742695336391
 30
0.0
 11
7.111936992532456
 21
6.88306631706479
 31
0.0
  0
LINE
  5
5DE
330
1F
100
AcDbEntity
  8
Layer 01
100
AcDbLine
 10
7.111936992532456
 20
6.88306631706479
 30
0.0
 11
7.111675817653388
 21
6.885857805220954
 31
0.0
  0
LINE
  5
5DF
330
1F
100
AcDbEntity
  8
Layer 01
100
AcDbLine
 10
7.111675817653388
 20
6.885857805220954
 30
0.0
 11
7.111367347054301
 21
6.88862956681683
 31
0.0
  0
LINE
  5
5E0
330
1F
100
AcDbEntity
  8
Layer 01
100
AcDbLine
 10
7.111367347054301
 20
6.88862956681683
 30
0.0
 11
7.111011991449327
 21
6.891380903779337
 31
0.0
  0
LINE
  5
5E1
330
1F
100
AcDbEntity
  8
Layer 01
100
AcDbLine
 10
7.111011991449327
 20
6.891380903779337
 30
0.0
 11
7.110610161552597
 21
6.894111118035397
 31
0.0
  0
LINE
  5
5E2
330
1F
100
AcDbEntity
  8
Layer 01
100
AcDbLine
 10
7.110610161552597
 20
6.894111118035397
 30
0.0
 11
7.11016226807824
 21
6.896819511511929
 31
0.0
  0
LINE
  5
5E3
330
1F
100
AcDbEntity
  8
Layer 01
100
AcDbLine
 10
7.11016226807824
 20
6.896819511511929
 30
0.0
 11
7.109668721740389
 21
6.899505386135852
 31
0.0
  0
LINE
  5
5E4
330
1F
100
AcDbEntity
  8
Layer 01
100
AcDbLine
 10
7.109668721740389
 20
6.899505386135852
 30
0.0
 11
7.109129933253175
 21
6.902168043834089
 31
0.0
  0
LINE
  5
5E5
330
1F
100
AcDbEntity
  8
Layer 01
100
AcDbLine
 10
7.109129933253175
 20
6.902168043834089
 30
0.0
 11
7.108546313330727
 21
6.904806786533561
 31
0.0
  0
LINE
  5
5E6
330
1F
100
AcDbEntity
  8
Layer 01
100
AcDbLine
 10
7.108546313330727
 20
6.904806786533561
 30
0.0
 11
7.107918272687177
 21
6.907420916161186
 31
0.0
  0
LINE
  5
5E7
330
1F
100
AcDbEntity
  8
Layer 01
100
AcDbLine
 10
7.107918272687177
 20
6.907420916161186
 30
0.0
 11
7.107246222036657
 21
6.910009734643887
 31
0.0
  0
LINE
  5
5E8
330
1F
100
AcDbEntity
  8
Layer 01
100
AcDbLine
 10
7.107246222036657
 20
6.910009734643887
 30
0.0
 11
7.106530593937533
 21
6.912572563711555
 31
0.0
  0
LINE
  5
5E9
330
1F
100
AcDbEntity
  8
Layer 01
100
AcDbLine
 10
7.106530593937533
 20
6.912572563711555
 30
0.0
 11
7.105771908325108
 21
6.915108804305974
 31
0.0
  0
LINE
  5
5EA
330
1F
100
AcDbEntity
  8
Layer 01
100
AcDbLine
 10
7.105771908325108
 20
6.915108804305974
 30
0.0
 11
7.104970706978926
 21
6.917617877171901
 31
0.0
  0
LINE
  5
5EB
330
1F
100
AcDbEntity
  8
Layer 01
100
AcDbLine
 10
7.104970706978926
 20
6.917617877171901
 30
0.0
 11
7.104127531678524
 21
6.920099203054091
 31
0.0
  0
LINE
  5
5EC
330
1F
100
AcDbEntity
  8
Layer 01
100
AcDbLine
 10
7.104127531678524
 20
6.920099203054091
 30
0.0
 11
7.103242924203445
 21
6.9225522026973
 31
0.0
  0
LINE
  5
5ED
330
1F
100
AcDbEntity
  8
Layer 01
100
AcDbLine
 10
7.103242924203445
 20
6.9225522026973
 30
0.0
 11
7.102317426333228
 21
6.924976296846283
 31
0.0
  0
LINE
  5
5EE
330
1F
100
AcDbEntity
  8
Layer 01
100
AcDbLine
 10
7.102317426333228
 20
6.924976296846283
 30
0.0
 11
7.101351579847414
 21
6.927370906245796
 31
0.0
  0
LINE
  5
5EF
330
1F
100
AcDbEntity
  8
Layer 01
100
AcDbLine
 10
7.101351579847414
 20
6.927370906245796
 30
0.0
 11
7.100345926525542
 21
6.929735451640596
 31
0.0
  0
LINE
  5
5F0
330
1F
100
AcDbEntity
  8
Layer 01
100
AcDbLine
 10
7.100345926525542
 20
6.929735451640596
 30
0.0
 11
7.099301008147153
 21
6.932069353775439
 31
0.0
  0
LINE
  5
5F1
330
1F
100
AcDbEntity
  8
Layer 01
100
AcDbLine
 10
7.099301008147153
 20
6.932069353775439
 30
0.0
 11
7.098217366491789
 21
6.934372033395078
 31
0.0
  0
LINE
  5
5F2
330
1F
100
AcDbEntity
  8
Layer 01
100
AcDbLine
 10
7.098217366491789
 20
6.934372033395078
 30
0.0
 11
7.097095543338989
 21
6.936642911244272
 31
0.0
  0
LINE
  5
5F3
330
1F
100
AcDbEntity
  8
Layer 01
100
AcDbLine
 10
7.097095543338989
 20
6.936642911244272
 30
0.0
 11
7.095936080468293
 21
6.938881408067775
 31
0.0
  0
LINE
  5
5F4
330
1F
100
AcDbEntity
  8
Layer 01
100
AcDbLine
 10
7.095936080468293
 20
6.938881408067775
 30
0.0
 11
7.094739519659242
 21
6.941086944610344
 31
0.0
  0
LINE
  5
5F5
330
1F
100
AcDbEntity
  8
Layer 01
100
AcDbLine
 10
7.094739519659242
 20
6.941086944610344
 30
0.0
 11
7.093506402691378
 21
6.943258941616734
 31
0.0
  0
LINE
  5
5F6
330
1F
100
AcDbEntity
  8
Layer 01
100
AcDbLine
 10
7.093506402691378
 20
6.943258941616734
 30
0.0
 11
7.092237271344239
 21
6.945396819831701
 31
0.0
  0
LINE
  5
5F7
330
1F
100
AcDbEntity
  8
Layer 01
100
AcDbLine
 10
7.092237271344239
 20
6.945396819831701
 30
0.0
 11
7.090932667397365
 21
6.947500000000001
 31
0.0
  0
LINE
  5
5F8
330
1F
100
AcDbEntity
  8
Layer 01
100
AcDbLine
 10
7.090932667397365
 20
6.947500000000001
 30
0.0
 11
7.089593157449797
 21
6.949567927112946
 31
0.0
  0
LINE
  5
5F9
330
1F
100
AcDbEntity
  8
Layer 01
100
AcDbLine
 10
7.089593157449797
 20
6.949567927112946
 30
0.0
 11
7.088219407378569
 21
6.951600143148084
 31
0.0
  0
LINE
  5
5FA
330
1F
100
AcDbEntity
  8
Layer 01
100
AcDbLine
 10
7.088219407378569
 20
6.951600143148084
 30
0.0
 11
7.086812107880212
 21
6.953596214329515
 31
0.0
  0
LINE
  5
5FB
330
1F
100
AcDbEntity
  8
Layer 01
100
AcDbLine
 10
7.086812107880212
 20
6.953596214329515
 30
0.0
 11
7.085371949651257
 21
6.95555570688134
 31
0.0
  0
LINE
  5
5FC
330
1F
100
AcDbEntity
  8
Layer 01
100
AcDbLine
 10
7.085371949651257
 20
6.95555570688134
 30
0.0
 11
7.083899623388239
 21
6.957478187027662
 31
0.0
  0
LINE
  5
5FD
330
1F
100
AcDbEntity
  8
Layer 01
100
AcDbLine
 10
7.083899623388239
 20
6.957478187027662
 30
0.0
 11
7.082395819787688
 21
6.959363220992584
 31
0.0
  0
LINE
  5
5FE
330
1F
100
AcDbEntity
  8
Layer 01
100
AcDbLine
 10
7.082395819787688
 20
6.959363220992584
 30
0.0
 11
7.080861229546137
 21
6.961210375000206
 31
0.0
  0
LINE
  5
5FF
330
1F
100
AcDbEntity
  8
Layer 01
100
AcDbLine
 10
7.080861229546137
 20
6.961210375000206
 30
0.0
 11
7.079296543360119
 21
6.963019215274632
 31
0.0
  0
LINE
  5
600
330
1F
100
AcDbEntity
  8
Layer 01
100
AcDbLine
 10
7.079296543360119
 20
6.963019215274632
 30
0.0
 11
7.077702451926165
 21
6.964789308039963
 31
0.0
  0
LINE
  5
601
330
1F
100
AcDbEntity
  8
Layer 01
100
AcDbLine
 10
7.077702451926165
 20
6.964789308039963
 30
0.0
 11
7.076079645940808
 21
6.966520219520302
 31
0.0
  0
LINE
  5
602
330
1F
100
AcDbEntity
  8
Layer 01
100
AcDbLine
 10
7.076079645940808
 20
6.966520219520302
 30
0.0
 11
7.074428816100581
 21
6.96821151593975
 31
0.0
  0
LINE
  5
603
330
1F
100
AcDbEntity
  8
Layer 01
100
AcDbLine
 10
7.074428816100581
 20
6.96821151593975
 30
0.0
 11
7.072750653102016
 21
6.969862763522409
 31
0.0
  0
LINE
  5
604
330
1F
100
AcDbEntity
  8
Layer 01
100
AcDbLine
 10
7.072750653102016
 20
6.969862763522409
 30
0.0
 11
7.071045847641644
 21
6.971473528492382
 31
0.0
  0
LINE
  5
605
330
1F
100
AcDbEntity
  8
Layer 01
100
AcDbLine
 10
7.071045847641644
 20
6.971473528492382
 30
0.0
 11
7.069315090415998
 21
6.973043377073772
 31
0.0
  0
LINE
  5
606
330
1F
100
AcDbEntity
  8
Layer 01
100
AcDbLine
 10
7.069315090415998
 20
6.973043377073772
 30
0.0
 11
7.067559072121611
 21
6.974571875490678
 31
0.0
  0
LINE
  5
607
330
1F
100
AcDbEntity
  8
Layer 01
100
AcDbLine
 10
7.067559072121611
 20
6.974571875490678
 30
0.0
 11
7.065778483455015
 21
6.976058589967204
 31
0.0
  0
LINE
  5
608
330
1F
100
AcDbEntity
  8
Layer 01
100
AcDbLine
 10
7.065778483455015
 20
6.976058589967204
 30
0.0
 11
7.063974004655909
 21
6.977503114283413
 31
0.0
  0
LINE
  5
609
330
1F
100
AcDbEntity
  8
Layer 01
100
AcDbLine
 10
7.063974004655909
 20
6.977503114283413
 30
0.0
 11
7.062146274136666
 21
6.978905152443208
 31
0.0
  0
LINE
  5
60A
330
1F
100
AcDbEntity
  8
Layer 01
100
AcDbLine
 10
7.062146274136666
 20
6.978905152443208
 30
0.0
 11
7.060295919852827
 21
6.980264436006458
 31
0.0
  0
LINE
  5
60B
330
1F
100
AcDbEntity
  8
Layer 01
100
AcDbLine
 10
7.060295919852827
 20
6.980264436006458
 30
0.0
 11
7.05842356975993
 21
6.981580696533024
 31
0.0
  0
LINE
  5
60C
330
1F
100
AcDbEntity
  8
Layer 01
100
AcDbLine
 10
7.05842356975993
 20
6.981580696533024
 30
0.0
 11
7.056529851813518
 21
6.982853665582775
 31
0.0
  0
LINE
  5
60D
330
1F
100
AcDbEntity
  8
Layer 01
100
AcDbLine
 10
7.056529851813518
 20
6.982853665582775
 30
0.0
 11
7.054615393969129
 21
6.984083074715574
 31
0.0
  0
LINE
  5
60E
330
1F
100
AcDbEntity
  8
Layer 01
100
AcDbLine
 10
7.054615393969129
 20
6.984083074715574
 30
0.0
 11
7.052680824182306
 21
6.985268655491288
 31
0.0
  0
LINE
  5
60F
330
1F
100
AcDbEntity
  8
Layer 01
100
AcDbLine
 10
7.052680824182306
 20
6.985268655491288
 30
0.0
 11
7.050726770408587
 21
6.986410139469781
 31
0.0
  0
LINE
  5
610
330
1F
100
AcDbEntity
  8
Layer 01
100
AcDbLine
 10
7.050726770408587
 20
6.986410139469781
 30
0.0
 11
7.048753860603512
 21
6.98750725821092
 31
0.0
  0
LINE
  5
611
330
1F
100
AcDbEntity
  8
Layer 01
100
AcDbLine
 10
7.048753860603512
 20
6.98750725821092
 30
0.0
 11
7.046762722722622
 21
6.988559743274569
 31
0.0
  0
LINE
  5
612
330
1F
100
AcDbEntity
  8
Layer 01
100
AcDbLine
 10
7.046762722722622
 20
6.988559743274569
 30
0.0
 11
7.044753984721458
 21
6.989567326220595
 31
0.0
  0
LINE
  5
613
330
1F
100
AcDbEntity
  8
Layer 01
100
AcDbLine
 10
7.044753984721458
 20
6.989567326220595
 30
0.0
 11
7.04272827455556
 21
6.990529738608863
 31
0.0
  0
LINE
  5
614
330
1F
100
AcDbEntity
  8
Layer 01
100
AcDbLine
 10
7.04272827455556
 20
6.990529738608863
 30
0.0
 11
7.040686220180468
 21
6.991446711999236
 31
0.0
  0
LINE
  5
615
330
1F
100
AcDbEntity
  8
Layer 01
100
AcDbLine
 10
7.040686220180468
 20
6.991446711999236
 30
0.0
 11
7.03862844955172
 21
6.992317977951584
 31
0.0
  0
LINE
  5
616
330
1F
100
AcDbEntity
  8
Layer 01
100
AcDbLine
 10
7.03862844955172
 20
6.992317977951584
 30
0.0
 11
7.036555590624859
 21
6.993143268025769
 31
0.0
  0
LINE
  5
617
330
1F
100
AcDbEntity
  8
Layer 01
100
AcDbLine
 10
7.036555590624859
 20
6.993143268025769
 30
0.0
 11
7.034468271355426
 21
6.993922313781657
 31
0.0
  0
LINE
  5
618
330
1F
100
AcDbEntity
  8
Layer 01
100
AcDbLine
 10
7.034468271355426
 20
6.993922313781657
 30
0.0
 11
7.032367213212588
 21
6.994654876375931
 31
0.0
  0
LINE
  5
619
330
1F
100
AcDbEntity
  8
Layer 01
100
AcDbLine
 10
7.032367213212588
 20
6.994654876375931
 30
0.0
 11
7.030253511720031
 21
6.995340835352541
 31
0.0
  0
LINE
  5
61A
330
1F
100
AcDbEntity
  8
Layer 01
100
AcDbLine
 10
7.030253511720031
 20
6.995340835352541
 30
0.0
 11
7.02812835591507
 21
6.995980099852254
 31
0.0
  0
LINE
  5
61B
330
1F
100
AcDbEntity
  8
Layer 01
100
AcDbLine
 10
7.02812835591507
 20
6.995980099852254
 30
0.0
 11
7.025992934835021
 21
6.996572579015837
 31
0.0
  0
LINE
  5
61C
330
1F
100
AcDbEntity
  8
Layer 01
100
AcDbLine
 10
7.025992934835021
 20
6.996572579015837
 30
0.0
 11
7.023848437517196
 21
6.997118181984057
 31
0.0
  0
LINE
  5
61D
330
1F
100
AcDbEntity
  8
Layer 01
100
AcDbLine
 10
7.023848437517196
 20
6.997118181984057
 30
0.0
 11
7.021696052998911
 21
6.997616817897683
 31
0.0
  0
LINE
  5
61E
330
1F
100
AcDbEntity
  8
Layer 01
100
AcDbLine
 10
7.021696052998911
 20
6.997616817897683
 30
0.0
 11
7.019536970317482
 21
6.99806839589748
 31
0.0
  0
LINE
  5
61F
330
1F
100
AcDbEntity
  8
Layer 01
100
AcDbLine
 10
7.019536970317482
 20
6.99806839589748
 30
0.0
 11
7.01737237851022
 21
6.998472825124218
 31
0.0
  0
LINE
  5
620
330
1F
100
AcDbEntity
  8
Layer 01
100
AcDbLine
 10
7.01737237851022
 20
6.998472825124218
 30
0.0
 11
7.015203466614444
 21
6.998830014718663
 31
0.0
  0
LINE
  5
621
330
1F
100
AcDbEntity
  8
Layer 01
100
AcDbLine
 10
7.015203466614444
 20
6.998830014718663
 30
0.0
 11
7.013031423667467
 21
6.99913987382158
 31
0.0
  0
LINE
  5
622
330
1F
100
AcDbEntity
  8
Layer 01
100
AcDbLine
 10
7.013031423667467
 20
6.99913987382158
 30
0.0
 11
7.010857438706603
 21
6.999402311573738
 31
0.0
  0
LINE
  5
623
330
1F
100
AcDbEntity
  8
Layer 01
100
AcDbLine
 10
7.010857438706603
 20
6.999402311573738
 30
0.0
 11
7.008682700769167
 21
6.999617237115905
 31
0.0
  0
LINE
  5
624
330
1F
100
AcDbEntity
  8
Layer 01
100
AcDbLine
 10
7.008682700769167
 20
6.999617237115905
 30
0.0
 11
7.006508398892475
 21
6.999784559588847
 31
0.0
  0
LINE
  5
625
330
1F
100
AcDbEntity
  8
Layer 01
100
AcDbLine
 10
7.006508398892475
 20
6.999784559588847
 30
0.0
 11
7.00433572211384
 21
6.999904188133332
 31
0.0
  0
LINE
  5
626
330
1F
100
AcDbEntity
  8
Layer 01
100
AcDbLine
 10
7.00433572211384
 20
6.999904188133332
 30
0.0
 11
7.002165859470576
 21
6.999976031890127
 31
0.0
  0
LINE
  5
627
330
1F
100
AcDbEntity
  8
Layer 01
100
AcDbLine
 10
7.002165859470576
 20
6.999976031890127
 30
0.0
 11
7.0
 21
7.0
 31
0.0
  0
LINE
  5
629
330
1F
100
AcDbEntity
  8
Default
100
AcDbLine
 10
0.0
 20
0.0
 30
0.0
 11
0.0
 21
14.0
 31
0.0
  0
LINE
  5
62A
330
1F
100
AcDbEntity
  8
Default
100
AcDbLine
 10
0.0
 20
14.0
 30
0.0
 11
14.0
 21
14.0
 31
0.0
  0
LINE
  5
62B
330
1F
100
AcDbEntity
  8
Default
100
AcDbLine
 10
14.0
 20
14.0
 30
0.0
 11
14.0
 21
0.0
 31
0.0
  0
LINE
  5
62C
330
1F
100
AcDbEntity
  8
Default
100
AcDbLine
 10
14.0
 20
0.0
 30
0.0
 11
0.0
 21
0.0
 31
0.0
  0
ENDSEC
  0
SECTION
  2
OBJECTS
  0
DICTIONARY
  5
C
330
0
100
AcDbDictionary
281
     1
  3
ACAD_GROUP
350
D
  3
ACAD_LAYOUT
350
1A
  3
ACAD_MATERIAL
350
3B
  3
ACAD_MLEADERSTYLE
350
657
  3
ACAD_MLINESTYLE
350
17
  3
ACAD_PLOTSETTINGS
350
19
  3
ACAD_PLOTSTYLENAME
350
E
  3
ACAD_SCALELIST
350
3F
  3
ACAD_TABLESTYLE
350
656
  3
ACAD_VISUALSTYLE
350
2A
  3
AcDbVariableDictionary
350
62D
  0
DICTIONARY
  5
D
102
{ACAD_REACTORS
330
C
102
}
330
C
100
AcDbDictionary
281
     1
  0
DICTIONARY
  5
1A
102
{ACAD_REACTORS
330
C
102
}
330
C
100
AcDbDictionary
281
     1
  3
Layout1
350
1E
  3
Layout2
350
26
  3
Model
350
22
  0
DICTIONARY
  5
3B
102
{ACAD_REACTORS
330
C
102
}
330
C
100
AcDbDictionary
281
     1
  3
ByBlock
350
3D
  3
ByLayer
350
3C
  3
Global
350
3E
  0
DICTIONARY
  5
657
102
{ACAD_REACTORS
330
C
102
}
330
C
100
AcDbDictionary
281
     1
  0
DICTIONARY
  5
17
102
{ACAD_REACTORS
330
C
102
}
330
C
100
AcDbDictionary
281
     1
  3
Standard
350
18
  0
DICTIONARY
  5
19
102
{ACAD_REACTORS
330
C
102
}
330
C
100
AcDbDictionary
281
     1
  0
ACDBDICTIONARYWDFLT
  5
E
102
{ACAD_REACTORS
330
C
102
}
330
C
100
AcDbDictionary
281
     1
  3
Normal
350
F
100
AcDbDictionaryWithDefault
340
F
  0
DICTIONARY
  5
3F
102
{ACAD_REACTORS
330
C
102
}
330
C
100
AcDbDictionary
281
     1
  3
A0
350
40
  3
A1
350
41
  3
A2
350
42
  3
A3
350
43
  3
A4
350
44
  3
A5
350
45
  3
A6
350
46
  3
A7
350
47
  3
A8
350
48
  3
A9
350
49
  3
B0
350
4A
  3
B1
350
4B
  3
B2
350
4C
  3
B3
350
4D
  3
B4
350
4E
  3
B5
350
4F
  3
B6
350
50
  3
B7
350
51
  3
B8
350
52
  3
B9
350
53
  3
C0
350
54
  3
C1
350
55
  3
C2
350
56
  3
C3
350
57
  3
C4
350
58
  3
C5
350
59
  3
C6
350
5A
  3
C7
350
5B
  3
C8
350
5C
  3
C9
350
5D
  3
D0
350
5E
  3
D1
350
5F
  3
D2
350
60
  0
DICTIONARY
  5
656
102
{ACAD_REACTORS
330
C
102
}
330
C
100
AcDbDictionary
281
     1
  0
DICTIONARY
  5
2A
102
{ACAD_REACTORS
330
C
102
}
330
C
100
AcDbDictionary
281
     1
  3
2dWireframe
350
2F
  3
3D Hidden
350
31
  3
3dWireframe
350
30
  3
Basic
350
32
  3
Brighten
350
36
  3
ColorChange
350
3A
  3
Conceptual
350
34
  3
Dim
350
35
  3
Facepattern
350
39
  3
Flat
350
2B
  3
FlatWithEdges
350
2C
  3
Gouraud
350
2D
  3
GouraudWithEdges
350
2E
  3
Linepattern
350
38
  3
Realistic
350
33
  3
Thicken
350
37
  0
DICTIONARY
  5
62D
102
{ACAD_REACTORS
330
C
102
}
330
C
100
AcDbDictionary
281
     1
  3
CANNOSCALE
350
62E
  3
MSLTSCALE
350
62F
  0
LAYOUT
  5
1E
102
{ACAD_REACTORS
330
1A
102
}
330
1A
100
AcDbPlotSettings
  1

  2
none_device
  4

  6

 40
0.0
 41
0.0
 42
0.0
 43
0.0
 44
0.0
 45
0.0
 46
0.0
 47
0.0
 48
0.0
 49
0.0
140
0.0
141
0.0
142
1.0
143
1.0
 70
   688
 72
     0
 73
     0
 74
     5
  7

 75
    16
 76
     0
 77
     2
 78
   300
147
1.0
148
0.0
149
0.0
100
AcDbLayout
  1
Layout1
 70
     1
 71
     1
 10
0.0
 20
0.0
 11
12.0
 21
9.0
 12
0.0
 22
0.0
 32
0.0
 14
1.000000000000000E+20
 24
1.000000000000000E+20
 34
1.000000000000000E+20
 15
-1.000000000000000E+20
 25
-1.000000000000000E+20
 35
-1.000000000000000E+20
146
0.0
 13
0.0
 23
0.0
 33
0.0
 16
1.0
 26
0.0
 36
0.0
 17
0.0
 27
1.0
 37
0.0
 76
     0
330
1B
  0
LAYOUT
  5
26
102
{ACAD_REACTORS
330
1A
102
}
330
1A
100
AcDbPlotSettings
  1

  2
none_device
  4

  6

 40
0.0
 41
0.0
 42
0.0
 43
0.0
 44
0.0
 45
0.0
 46
0.0
 47
0.0
 48
0.0
 49
0.0
140
0.0
141
0.0
142
1.0
143
1.0
 70
   688
 72
     0
 73
     0
 74
     5
  7

 75
    16
 76
     0
 77
     2
 78
   300
147
1.0
148
0.0
149
0.0
100
AcDbLayout
  1
Layout2
 70
     1
 71
     2
 10
0.0
 20
0.0
 11
0.0
 21
0.0
 12
0.0
 22
0.0
 32
0.0
 14
0.0
 24
0.0
 34
0.0
 15
0.0
 25
0.0
 35
0.0
146
0.0
 13
0.0
 23
0.0
 33
0.0
 16
1.0
 26
0.0
 36
0.0
 17
0.0
 27
1.0
 37
0.0
 76
     0
330
23
  0
LAYOUT
  5
22
102
{ACAD_REACTORS
330
1A
102
}
330
1A
100
AcDbPlotSettings
  1

  2
none_device
  4
Letter_(8.50_x_11.00_Inches)
  6

 40
6.35
 41
6.35
 42
6.35000508
 43
6.35000508
 44
215.9
 45
279.4
 46
0.0
 47
0.0
 48
0.0
 49
0.0
140
0.0
141
0.0
142
1.0
143
1.0
 70
  1712
 72
     0
 73
     0
 74
     0
  7

 75
     0
 76
     0
 77
     2
 78
   300
147
1.0
148
0.0
149
0.0
100
AcDbLayout
  1
Model
 70
     1
 71
     0
 10
0.0
 20
0.0
 11
12.0
 21
9.0
 12
0.0
 22
0.0
 32
0.0
 14
0.0
 24
0.0
 34
0.0
 15
14.0
 25
14.0
 35
0.0
146
0.0
 13
0.0
 23
0.0
 33
0.0
 16
1.0
 26
0.0
 36
0.0
 17
0.0
 27
1.0
 37
0.0
 76
     0
330
1F
331
29
  0
MATERIAL
  5
3D
102
{ACAD_REACTORS
330
3B
102
}
102
{ACAD_XDICTIONARY
360
652
102
}
330
3B
100
AcDbMaterial
  1
ByBlock
  0
MATERIAL
  5
3C
102
{ACAD_REACTORS
330
3B
102
}
102
{ACAD_XDICTIONARY
360
650
102
}
330
3B
100
AcDbMaterial
  1
ByLayer
  0
MATERIAL
  5
3E
102
{ACAD_REACTORS
330
3B
102
}
102
{ACAD_XDICTIONARY
360
654
102
}
330
3B
100
AcDbMaterial
  1
Global
  0
MLINESTYLE
  5
18
102
{ACAD_REACTORS
330
17
102
}
330
17
100
AcDbMlineStyle
  2
Standard
 70
     0
  3

 62
   256
 51
90.0
 52
90.0
 71
     2
 49
0.5
 62
   256
  6
BYLAYER
 49
-0.5
 62
   256
  6
BYLAYER
  0
ACDBPLACEHOLDER
  5
F
102
{ACAD_REACTORS
330
E
102
}
330
E
  0
SCALE
  5
40
102
{ACAD_REACTORS
330
3F
102
}
330
3F
100
AcDbScale
 70
     0
300
1:1
140
1.0
141
1.0
290
     1
  0
SCALE
  5
41
102
{ACAD_REACTORS
330
3F
102
}
330
3F
100
AcDbScale
 70
     0
300
1:2
140
1.0
141
2.0
290
     0
  0
SCALE
  5
42
102
{ACAD_REACTORS
330
3F
102
}
330
3F
100
AcDbScale
 70
     0
300
1:4
140
1.0
141
4.0
290
     0
  0
SCALE
  5
43
102
{ACAD_REACTORS
330
3F
102
}
330
3F
100
AcDbScale
 70
     0
300
1:5
140
1.0
141
5.0
290
     0
  0
SCALE
  5
44
102
{ACAD_REACTORS
330
3F
102
}
330
3F
100
AcDbScale
 70
     0
300
1:8
140
1.0
141
8.0
290
     0
  0
SCALE
  5
45
102
{ACAD_REACTORS
330
3F
102
}
330
3F
100
AcDbScale
 70
     0
300
1:10
140
1.0
141
10.0
290
     0
  0
SCALE
  5
46
102
{ACAD_REACTORS
330
3F
102
}
330
3F
100
AcDbScale
 70
     0
300
1:16
140
1.0
141
16.0
290
     0
  0
SCALE
  5
47
102
{ACAD_REACTORS
330
3F
102
}
330
3F
100
AcDbScale
 70
     0
300
1:20
140
1.0
141
20.0
290
     0
  0
SCALE
  5
48
102
{ACAD_REACTORS
330
3F
102
}
330
3F
100
AcDbScale
 70
     0
300
1:30
140
1.0
141
30.0
290
     0
  0
SCALE
  5
49
102
{ACAD_REACTORS
330
3F
102
}
330
3F
100
AcDbScale
 70
     0
300
1:40
140
1.0
141
40.0
290
     0
  0
SCALE
  5
4A
102
{ACAD_REACTORS
330
3F
102
}
330
3F
100
AcDbScale
 70
     0
300
1:50
140
1.0
141
50.0
290
     0
  0
SCALE
  5
4B
102
{ACAD_REACTORS
330
3F
102
}
330
3F
100
AcDbScale
 70
     0
300
1:100
140
1.0
141
100.0
290
     0
  0
SCALE
  5
4C
102
{ACAD_REACTORS
330
3F
102
}
330
3F
100
AcDbScale
 70
     0
300
2:1
140
2.0
141
1.0
290
     0
  0
SCALE
  5
4D
102
{ACAD_REACTORS
330
3F
102
}
330
3F
100
AcDbScale
 70
     0
300
4:1
140
4.0
141
1.0
290
     0
  0
SCALE
  5
4E
102
{ACAD_REACTORS
330
3F
102
}
330
3F
100
AcDbScale
 70
     0
300
8:1
140
8.0
141
1.0
290
     0
  0
SCALE
  5
4F
102
{ACAD_REACTORS
330
3F
102
}
330
3F
100
AcDbScale
 70
     0
300
10:1
140
10.0
141
1.0
290
     0
  0
SCALE
  5
50
102
{ACAD_REACTORS
330
3F
102
}
330
3F
100
AcDbScale
 70
     0
300
100:1
140
100.0
141
1.0
290
     0
  0
SCALE
  5
51
102
{ACAD_REACTORS
330
3F
102
}
330
3F
100
AcDbScale
 70
     0
300
1/128" = 1'-0"
140
0.0078125
141
12.0
290
     0
  0
SCALE
  5
52
102
{ACAD_REACTORS
330
3F
102
}
330
3F
100
AcDbScale
 70
     0
300
1/64" = 1'-0"
140
0.015625
141
12.0
290
     0
  0
SCALE
  5
53
102
{ACAD_REACTORS
330
3F
102
}
330
3F
100
AcDbScale
 70
     0
300
1/32" = 1'-0"
140
0.03125
141
12.0
290
     0
  0
SCALE
  5
54
102
{ACAD_REACTORS
330
3F
102
}
330
3F
100
AcDbScale
 70
     0
300
1/16" = 1'-0"
140
0.0625
141
12.0
290
     0
  0
SCALE
  5
55
102
{ACAD_REACTORS
330
3F
102
}
330
3F
100
AcDbScale
 70
     0
300
3/32" = 1'-0"
140
0.09375
141
12.0
290
     0
  0
SCALE
  5
56
102
{ACAD_REACTORS
330
3F
102
}
330
3F
100
AcDbScale
 70
     0
300
1/8" = 1'-0"
140
0.125
141
12.0
290
     0
  0
SCALE
  5
57
102
{ACAD_REACTORS
330
3F
102
}
330
3F
100
AcDbScale
 70
     0
300
3/16" = 1'-0"
140
0.1875
141
12.0
290
     0
  0
SCALE
  5
58
102
{ACAD_REACTORS
330
3F
102
}
330
3F
100
AcDbScale
 70
     0
300
1/4" = 1'-0"
140
0.25
141
12.0
290
     0
  0
SCALE
  5
59
102
{ACAD_REACTORS
330
3F
102
}
330
3F
100
AcDbScale
 70
     0
300
3/8" = 1'-0"
140
0.375
141
12.0
290
     0
  0
SCALE
  5
5A
102
{ACAD_REACTORS
330
3F
102
}
330
3F
100
AcDbScale
 70
     0
300
1/2" = 1'-0"
140
0.5
141
12.0
290
     0
  0
SCALE
  5
5B
102
{ACAD_REACTORS
330
3F
102
}
330
3F
100
AcDbScale
 70
     0
300
3/4" = 1'-0"
140
0.75
141
12.0
290
     0
  0
SCALE
  5
5C
102
{ACAD_REACTORS
330
3F
102
}
330
3F
100
AcDbScale
 70
     0
300
1" = 1'-0"
140
1.0
141
12.0
290
     0
  0
SCALE
  5
5D
102
{ACAD_REACTORS
330
3F
102
}
330
3F
100
AcDbScale
 70
     0
300
1-1/2" = 1'-0"
140
1.5
141
12.0
290
     0
  0
SCALE
  5
5E
102
{ACAD_REACTORS
330
3F
102
}
330
3F
100
AcDbScale
 70
     0
300
3" = 1'-0"
140
3.0
141
12.0
290
     0
  0
SCALE
  5
5F
102
{ACAD_REACTORS
330
3F
102
}
330
3F
100
AcDbScale
 70
     0
300
6" = 1'-0"
140
6.0
141
12.0
290
     0
  0
SCALE
  5
60
102
{ACAD_REACTORS
330
3F
102
}
330
3F
100
AcDbScale
 70
     0
300
1'-0" = 1'-0"
140
12.0
141
12.0
290
     0
  0
VISUALSTYLE
  5
2F
102
{ACAD_REACTORS
330
2A
102
}
102
{ACAD_XDICTIONARY
360
638
102
}
330
2A
100
AcDbVisualStyle
  2
2dWireframe
 70
     4
 71
     0
 72
     2
 73
     0
 90
        0
 40
0.6
 41
30.0
 62
     5
 63
     7
421
 16777215
 74
     1
 91
        4
 64
     7
 65
   257
 75
     1
175
     1
 42
1.0
 92
        0
 66
   257
 43
1.0
 76
     1
 77
     6
 78
     2
 67
     7
 79
     5
170
     0
171
     0
290
     0
174
     0
 93
        1
 44
0.0
173
     0
291
     0
 45
0.0
1001
ACAD
1000
AcDbSavedByObjectVersion
1070
     0
  0
VISUALSTYLE
  5
31
102
{ACAD_REACTORS
330
2A
102
}
102
{ACAD_XDICTIONARY
360
63C
102
}
330
2A
100
AcDbVisualStyle
  2
3D Hidden
 70
     6
 71
     1
 72
     2
 73
     2
 90
        0
 40
0.6
 41
30.0
 62
     5
 63
     7
421
 16777215
 74
     2
 91
        2
 64
     7
 65
   257
 75
     2
175
     1
 42
40.0
 92
        0
 66
   257
 43
1.0
 76
     1
 77
     6
 78
     2
 67
     7
 79
     3
170
     0
171
     0
290
     0
174
     0
 93
        1
 44
0.0
173
     0
291
     0
 45
0.0
1001
ACAD
1000
AcDbSavedByObjectVersion
1070
     0
  0
VISUALSTYLE
  5
30
102
{ACAD_REACTORS
330
2A
102
}
102
{ACAD_XDICTIONARY
360
63A
102
}
330
2A
100
AcDbVisualStyle
  2
3dWireframe
 70
     5
 71
     0
 72
     2
 73
     0
 90
        0
 40
0.6
 41
30.0
 62
     5
 63
     7
421
 16777215
 74
     1
 91
        4
 64
     7
 65
   257
 75
     1
175
     1
 42
1.0
 92
        0
 66
   257
 43
1.0
 76
     1
 77
     6
 78
     2
 67
     7
 79
     5
170
     0
171
     0
290
     0
174
     0
 93
        1
 44
0.0
173
     0
291
     0
 45
0.0
1001
ACAD
1000
AcDbSavedByObjectVersion
1070
     0
  0
VISUALSTYLE
  5
32
102
{ACAD_REACTORS
330
2A
102
}
102
{ACAD_XDICTIONARY
360
63E
102
}
330
2A
100
AcDbVisualStyle
  2
Basic
 70
     7
 71
     1
 72
     0
 73
     1
 90
        0
 40
0.6
 41
30.0
 62
     5
 63
     7
421
 16777215
 74
     0
 91
        4
 64
     7
 65
   257
 75
     1
175
     1
 42
1.0
 92
        8
 66
     7
 43
1.0
 76
     1
 77
     6
 78
     2
 67
     7
 79
     5
170
     0
171
     0
290
     0
174
     0
 93
        1
 44
0.0
173
     0
291
     1
 45
0.0
1001
ACAD
1000
AcDbSavedByObjectVersion
1070
     0
  0
VISUALSTYLE
  5
36
102
{ACAD_REACTORS
330
2A
102
}
102
{ACAD_XDICTIONARY
360
646
102
}
330
2A
100
AcDbVisualStyle
  2
Brighten
 70
    12
 71
     2
 72
     2
 73
     0
 90
        0
 40
0.6
 41
30.0
 62
     5
 63
     7
421
 16777215
 74
     1
 91
        4
 64
     7
 65
   257
 75
     1
175
     1
 42
1.0
 92
        8
 66
     7
 43
1.0
 76
     1
 77
     6
 78
     2
 67
     7
 79
     5
170
     0
171
     0
290
     0
174
     0
 93
        1
 44
50.0
173
     0
291
     1
 45
0.0
1001
ACAD
1000
AcDbSavedByObjectVersion
1070
     0
  0
VISUALSTYLE
  5
3A
102
{ACAD_REACTORS
330
2A
102
}
102
{ACAD_XDICTIONARY
360
64E
102
}
330
2A
100
AcDbVisualStyle
  2
ColorChange
 70
    16
 71
     2
 72
     2
 73
     3
 90
        0
 40
0.6
 41
30.0
 62
     5
 63
     8
421
  8421504
 74
     1
 91
        4
 64
     7
 65
   257
 75
     1
175
     1
 42
1.0
 92
        8
 66
     8
424
  8421504
 43
1.0
 76
     1
 77
     6
 78
     2
 67
     7
 79
     5
170
     0
171
     0
290
     0
174
     0
 93
        1
 44
0.0
173
     0
291
     1
 45
0.0
1001
ACAD
1000
AcDbSavedByObjectVersion
1070
     0
  0
VISUALSTYLE
  5
34
102
{ACAD_REACTORS
330
2A
102
}
102
{ACAD_XDICTIONARY
360
642
102
}
330
2A
100
AcDbVisualStyle
  2
Conceptual
 70
     9
 71
     3
 72
     2
 73
     0
 90
        0
 40
0.6
 41
30.0
 62
     5
 63
     7
421
 16777215
 74
     2
 91
        2
 64
     7
 65
   257
 75
     1
175
     1
 42
40.0
 92
        8
 66
     7
 43
1.0
 76
     1
 77
     6
 78
     2
 67
     7
 79
     3
170
     0
171
     0
290
     0
174
     0
 93
        1
 44
0.0
173
     0
291
     0
 45
0.0
1001
ACAD
1000
AcDbSavedByObjectVersion
1070
     0
  0
VISUALSTYLE
  5
35
102
{ACAD_REACTORS
330
2A
102
}
102
{ACAD_XDICTIONARY
360
644
102
}
330
2A
100
AcDbVisualStyle
  2
Dim
 70
    11
 71
     2
 72
     2
 73
     0
 90
        0
 40
0.6
 41
30.0
 62
     5
 63
     7
421
 16777215
 74
     1
 91
        4
 64
     7
 65
   257
 75
     1
175
     1
 42
1.0
 92
        8
 66
     7
 43
1.0
 76
     1
 77
     6
 78
     2
 67
     7
 79
     5
170
     0
171
     0
290
     0
174
     0
 93
        1
 44
-50.0
173
     0
291
     1
 45
0.0
1001
ACAD
1000
AcDbSavedByObjectVersion
1070
     0
  0
VISUALSTYLE
  5
39
102
{ACAD_REACTORS
330
2A
102
}
102
{ACAD_XDICTIONARY
360
64C
102
}
330
2A
100
AcDbVisualStyle
  2
Facepattern
 70
    15
 71
     2
 72
     2
 73
     0
 90
        0
 40
0.6
 41
30.0
 62
     5
 63
     7
421
 16777215
 74
     1
 91
        4
 64
     7
 65
   257
 75
     1
175
     1
 42
1.0
 92
        8
 66
     7
 43
1.0
 76
     1
 77
     6
 78
     2
 67
     7
 79
     5
170
     0
171
     0
290
     0
174
     0
 93
        1
 44
0.0
173
     0
291
     1
 45
0.0
1001
ACAD
1000
AcDbSavedByObjectVersion
1070
     0
  0
VISUALSTYLE
  5
2B
102
{ACAD_REACTORS
330
2A
102
}
102
{ACAD_XDICTIONARY
360
630
102
}
330
2A
100
AcDbVisualStyle
  2
Flat
 70
     0
 71
     2
 72
     1
 73
     1
 90
        2
 40
0.6
 41
30.0
 62
     5
 63
     7
421
 16777215
 74
     0
 91
        4
 64
     7
 65
   257
 75
     1
175
     1
 42
1.0
 92
        8
 66
     7
 43
1.0
 76
     1
 77
     6
 78
     2
 67
     7
 79
     5
170
     0
171
     0
290
     0
174
     0
 93
       13
 44
0.0
173
     0
291
     1
 45
0.0
1001
ACAD
1000
AcDbSavedByObjectVersion
1070
     0
  0
VISUALSTYLE
  5
2C
102
{ACAD_REACTORS
330
2A
102
}
102
{ACAD_XDICTIONARY
360
632
102
}
330
2A
100
AcDbVisualStyle
  2
FlatWithEdges
 70
     1
 71
     2
 72
     1
 73
     1
 90
        2
 40
0.6
 41
30.0
 62
     5
 63
     7
421
 16777215
 74
     1
 91
        4
 64
     7
 65
   257
 75
     1
175
     1
 42
1.0
 92
        0
 66
   257
 43
1.0
 76
     1
 77
     6
 78
     2
 67
     7
 79
     5
170
     0
171
     0
290
     0
174
     0
 93
       13
 44
0.0
173
     0
291
     1
 45
0.0
1001
ACAD
1000
AcDbSavedByObjectVersion
1070
     0
  0
VISUALSTYLE
  5
2D
102
{ACAD_REACTORS
330
2A
102
}
102
{ACAD_XDICTIONARY
360
634
102
}
330
2A
100
AcDbVisualStyle
  2
Gouraud
 70
     2
 71
     2
 72
     2
 73
     1
 90
        2
 40
0.6
 41
30.0
 62
     5
 63
     7
421
 16777215
 74
     0
 91
        4
 64
     7
 65
   257
 75
     1
175
     1
 42
1.0
 92
        0
 66
     7
 43
1.0
 76
     1
 77
     6
 78
     2
 67
     7
 79
     5
170
     0
171
     0
290
     0
174
     0
 93
       13
 44
0.0
173
     0
291
     1
 45
0.0
1001
ACAD
1000
AcDbSavedByObjectVersion
1070
     0
  0
VISUALSTYLE
  5
2E
102
{ACAD_REACTORS
330
2A
102
}
102
{ACAD_XDICTIONARY
360
636
102
}
330
2A
100
AcDbVisualStyle
  2
GouraudWithEdges
 70
     3
 71
     2
 72
     2
 73
     1
 90
        2
 40
0.6
 41
30.0
 62
     5
 63
     7
421
 16777215
 74
     1
 91
        4
 64
     7
 65
   257
 75
     1
175
     1
 42
1.0
 92
        0
 66
   257
 43
1.0
 76
     1
 77
     6
 78
     2
 67
     7
 79
     5
170
     0
171
     0
290
     0
174
     0
 93
       13
 44
0.0
173
     0
291
     1
 45
0.0
1001
ACAD
1000
AcDbSavedByObjectVersion
1070
     0
  0
VISUALSTYLE
  5
38
102
{ACAD_REACTORS
330
2A
102
}
102
{ACAD_XDICTIONARY
360
64A
102
}
330
2A
100
AcDbVisualStyle
  2
Linepattern
 70
    14
 71
     2
 72
     2
 73
     0
 90
        0
 40
0.6
 41
30.0
 62
     5
 63
     7
421
 16777215
 74
     1
 91
        4
 64
     7
 65
   257
 75
     7
175
     7
 42
1.0
 92
        8
 66
     7
 43
1.0
 76
     1
 77
     6
 78
     2
 67
     7
 79
     5
170
     0
171
     0
290
     0
174
     0
 93
        1
 44
0.0
173
     0
291
     1
 45
0.0
1001
ACAD
1000
AcDbSavedByObjectVersion
1070
     0
  0
VISUALSTYLE
  5
33
102
{ACAD_REACTORS
330
2A
102
}
102
{ACAD_XDICTIONARY
360
640
102
}
330
2A
100
AcDbVisualStyle
  2
Realistic
 70
     8
 71
     2
 72
     3
 73
     0
 90
        2
 40
0.6
 41
30.0
 62
     5
 63
     7
421
 16777215
 74
     0
 91
        0
 64
     7
 65
   257
 75
     1
175
     1
 42
1.0
 92
        8
 66
   257
 43
1.0
 76
     1
 77
     6
 78
     2
 67
     7
 79
     3
170
     0
171
     0
290
     0
174
     0
 93
       13
 44
0.0
173
     0
291
     0
 45
0.0
1001
ACAD
1000
AcDbSavedByObjectVersion
1070
     0
  0
VISUALSTYLE
  5
37
102
{ACAD_REACTORS
330
2A
102
}
102
{ACAD_XDICTIONARY
360
648
102
}
330
2A
100
AcDbVisualStyle
  2
Thicken
 70
    13
 71
     2
 72
     2
 73
     0
 90
        0
 40
0.6
 41
30.0
 62
     5
 63
     7
421
 16777215
 74
     1
 91
        4
 64
     7
 65
   257
 75
     1
175
     1
 42
1.0
 92
       12
 66
     7
 43
1.0
 76
     1
 77
     6
 78
     2
 67
     7
 79
     5
170
     0
171
     0
290
     0
174
     0
 93
        1
 44
0.0
173
     0
291
     1
 45
0.0
1001
ACAD
1000
AcDbSavedByObjectVersion
1070
     0
  0
DICTIONARYVAR
  5
62E
102
{ACAD_REACTORS
330
62D
102
}
330
62D
100
DictionaryVariables
280
     0
  1
1:1
  0
DICTIONARYVAR
  5
62F
102
{ACAD_REACTORS
330
62D
102
}
330
62D
100
DictionaryVariables
280
     0
  1
1
  0
DICTIONARY
  5
652
330
3D
100
AcDbDictionary
280
     1
281
     1
  3
ACAD_XREC_ROUNDTRIP
360
653
  0
DICTIONARY
  5
650
330
3C
100
AcDbDictionary
280
     1
281
     1
  3
ACAD_XREC_ROUNDTRIP
360
651
  0
DICTIONARY
  5
654
330
3E
100
AcDbDictionary
280
     1
281
     1
  3
ACAD_XREC_ROUNDTRIP
360
655
  0
DICTIONARY
  5
638
330
2F
100
AcDbDictionary
280
     1
281
     1
  3
ACAD_XREC_ROUNDTRIP
360
639
  0
DICTIONARY
  5
63C
330
31
100
AcDbDictionary
280
     1
281
     1
  3
ACAD_XREC_ROUNDTRIP
360
63D
  0
DICTIONARY
  5
63A
330
30
100
AcDbDictionary
280
     1
281
     1
  3
ACAD_XREC_ROUNDTRIP
360
63B
  0
DICTIONARY
  5
63E
330
32
100
AcDbDictionary
280
     1
281
     1
  3
ACAD_XREC_ROUNDTRIP
360
63F
  0
DICTIONARY
  5
646
330
36
100
AcDbDictionary
280
     1
281
     1
  3
ACAD_XREC_ROUNDTRIP
360
647
  0
DICTIONARY
  5
64E
330
3A
100
AcDbDictionary
280
     1
281
     1
  3
ACAD_XREC_ROUNDTRIP
360
64F
  0
DICTIONARY
  5
642
330
34
100
AcDbDictionary
280
     1
281
     1
  3
ACAD_XREC_ROUNDTRIP
360
643
  0
DICTIONARY
  5
644
330
35
100
AcDbDictionary
280
     1
281
     1
  3
ACAD_XREC_ROUNDTRIP
360
645
  0
DICTIONARY
  5
64C
330
39
100
AcDbDictionary
280
     1
281
     1
  3
ACAD_XREC_ROUNDTRIP
360
64D
  0
DICTIONARY
  5
630
330
2B
100
AcDbDictionary
280
     1
281
     1
  3
ACAD_XREC_ROUNDTRIP
360
631
  0
DICTIONARY
  5
632
330
2C
100
AcDbDictionary
280
     1
281
     1
  3
ACAD_XREC_ROUNDTRIP
360
633
  0
DICTIONARY
  5
634
330
2D
100
AcDbDictionary
280
     1
281
     1
  3
ACAD_XREC_ROUNDTRIP
360
635
  0
DICTIONARY
  5
636
330
2E
100
AcDbDictionary
280
     1
281
     1
  3
ACAD_XREC_ROUNDTRIP
360
637
  0
DICTIONARY
  5
64A
330
38
100
AcDbDictionary
280
     1
281
     1
  3
ACAD_XREC_ROUNDTRIP
360
64B
  0
DICTIONARY
  5
640
330
33
100
AcDbDictionary
280
     1
281
     1
  3
ACAD_XREC_ROUNDTRIP
360
641
  0
DICTIONARY
  5
648
330
37
100
AcDbDictionary
280
     1
281
     1
  3
ACAD_XREC_ROUNDTRIP
360
649
  0
XRECORD
  5
653
102
{ACAD_REACTORS
330
652
102
}
330
652
100
AcDbXrecord
280
     1
102
MATERIAL
148
0.0
149
0.0
149
0.0
 93
        0
 94
      127
282
     0
 72
     1
 77
     1
171
     1
175
     1
179
     1
273
     0
  0
XRECORD
  5
651
102
{ACAD_REACTORS
330
650
102
}
330
650
100
AcDbXrecord
280
     1
102
MATERIAL
148
0.0
149
0.0
149
0.0
 93
        0
 94
      127
282
     0
 72
     1
 77
     1
171
     1
175
     1
179
     1
273
     0
  0
XRECORD
  5
655
102
{ACAD_REACTORS
330
654
102
}
330
654
100
AcDbXrecord
280
     1
102
MATERIAL
148
0.0
149
0.0
149
0.0
 93
        0
 94
      127
282
     0
 72
     1
 77
     1
171
     1
175
     1
179
     1
273
     0
  0
XRECORD
  5
639
102
{ACAD_REACTORS
330
638
102
}
330
638
100
AcDbXrecord
280
     1
102
RTVSPropertyOp0
 70
     1
102
RTVSPropertyOp1
 70
     1
102
RTVSPropertyOp2
 70
     1
102
RTVSPropertyOp3
 70
     1
102
RTVSPropertyOp4
 70
     1
102
RTVSPropertyOp5
 70
     1
102
RTVSPropertyOp6
 70
     1
102
RTVSPropertyOp7
 70
     1
102
RTVSPropertyOp8
 70
     1
102
RTVSPropertyOp9
 70
     1
102
RTVSPropertyOp10
 70
     1
102
RTVSPropertyOp11
 70
     1
102
RTVSPropertyOp12
 70
     1
102
RTVSPropertyOp13
 70
     1
102
RTVSPropertyOp14
 70
     1
102
RTVSPropertyOp15
 70
     1
102
RTVSPropertyOp16
 70
     1
102
RTVSPropertyOp17
 70
     1
102
RTVSPropertyOp18
 70
     1
102
RTVSPropertyOp19
 70
     1
102
RTVSPropertyOp20
 70
     1
102
RTVSPropertyOp21
 70
     1
102
RTVSPropertyOp22
 70
     1
102
RTVSPropertyOp23
 70
     1
102
RTVSPropertyOp24
 70
     1
102
RTVSPropertyOp25
 70
     1
102
RTVSPropertyOp26
 70
     1
102
RTVSPropertyOp27
 70
     1
102
RTVSPropertyOp28
 70
     1
102
RTVSPropertyOp29
 70
     1
102
RTVSPropertyOp30
 70
     1
102
RTVSPropertyOp31
 70
     1
102
RTVSPropertyOp32
 70
     1
102
RTVSPropertyOp33
 70
     1
102
RTVSPropertyOp34
 70
     1
102
RTVSPropertyOp35
 70
     1
102
RTVSPropertyOp36
 70
     1
102
RTVSPropertyOp37
 70
     1
102
RTVSPropertyOp38
 70
     1
102
RTVSPropertyOp39
 70
     1
102
RTVSPropertyOp40
 70
     1
102
RTVSPropertyOp41
 70
     1
102
RTVSPropertyOp42
 70
     1
102
RTVSPropertyOp43
 70
     1
102
RTVSPropertyOp44
 70
     1
102
RTVSPropertyOp45
 70
     1
102
RTVSPropertyOp46
 70
     1
102
RTVSPropertyOp47
 70
     1
102
RTVSPropertyOp48
 70
     1
102
RTVSPropertyOp49
 70
     1
102
RTVSPropertyOp50
 70
     1
102
RTVSPropertyOp51
 70
     0
102
RTVSPropertyOp52
 70
     0
102
RTVSPropertyOp53
 70
     1
102
RTVSPropertyOp54
 70
     1
102
RTVSPropertyOp55
 70
     1
102
RTVSPropertyOp56
 70
     1
102
RTVSPropertyOp57
 70
     1
102
RTVSPost2010Prop28
280
     1
102
RTVSPost2010PropOp28
 70
     1
102
RTVSPost2010Prop29
280
     1
102
RTVSPost2010PropOp29
 70
     1
102
RTVSPost2010Prop30
280
     0
102
RTVSPost2010PropOp30
 70
     1
102
RTVSPost2010Prop31
280
     0
102
RTVSPost2010PropOp31
 70
     1
102
RTVSPost2010Prop32
280
     0
102
RTVSPost2010PropOp32
 70
     1
102
RTVSPost2010Prop33
280
     0
102
RTVSPost2010PropOp33
 70
     1
102
RTVSPost2010Prop34
280
     0
102
RTVSPost2010PropOp34
 70
     1
102
RTVSPost2010Prop35
280
     0
102
RTVSPost2010PropOp35
 70
     1
102
RTVSPost2010Prop36
280
     0
102
RTVSPost2010PropOp36
 70
     1
102
RTVSPost2010Prop37
 90
       50
102
RTVSPost2010PropOp37
 70
     1
102
RTVSPost2010Prop38
140
0.0
102
RTVSPost2010PropOp38
 70
     1
102
RTVSPost2010Prop39
140
1.0
102
RTVSPost2010PropOp39
 70
     1
102
RTVSPost2010Prop40
 90
        0
102
RTVSPost2010PropOp40
 70
     1
102
RTVSPost2010Prop41ColorIndex
 90
       18
102
RTVSPost2010Prop41ColorRGB
 90
        0
102
RTVSPost2010PropOp41
 70
     1
102
RTVSPost2010Prop42
 90
       50
102
RTVSPost2010PropOp42
 70
     1
102
RTVSPost2010Prop43
 90
        3
102
RTVSPost2010PropOp43
 70
     1
102
RTVSPost2010Prop44ColorIndex
 90
        5
102
RTVSPost2010Prop44ColorRGB
 90
      255
102
RTVSPost2010PropOp44
 70
     1
102
RTVSPost2010Prop45
280
     0
102
RTVSPost2010PropOp45
 70
     1
102
RTVSPost2010Prop46
 90
       50
102
RTVSPost2010PropOp46
 70
     1
102
RTVSPost2010Prop47
 90
       50
102
RTVSPost2010PropOp47
 70
     1
102
RTVSPost2010Prop48
 90
       50
102
RTVSPost2010PropOp48
 70
     1
102
RTVSPost2010Prop49
280
     0
102
RTVSPost2010PropOp49
 70
     1
102
RTVSPost2010Prop50
 90
       50
102
RTVSPost2010PropOp50
 70
     1
102
RTVSPost2010Prop51ColorIndex
 90
      256
102
RTVSPost2010Prop51ColorRGB
 90
-16777216
102
RTVSPost2010PropOp51
 70
     0
102
RTVSPost2010Prop52
140
1.0
102
RTVSPost2010PropOp52
 70
     0
102
RTVSPost2010Prop53
 90
        2
102
RTVSPost2010PropOp53
 70
     1
102
RTVSPost2010Prop54
  1
strokes_ogs.tif
102
RTVSPost2010PropOp54
 70
     1
102
RTVSPost2010Prop55
280
     0
102
RTVSPost2010PropOp55
 70
     1
102
RTVSPost2010Prop56
140
1.0
102
RTVSPost2010PropOp56
 70
     1
102
RTVSPost2010Prop57
140
1.0
102
RTVSPost2010PropOp57
 70
     1
  0
XRECORD
  5
63D
102
{ACAD_REACTORS
330
63C
102
}
330
63C
100
AcDbXrecord
280
     1
102
RTVSPropertyOp0
 70
     1
102
RTVSPropertyOp1
 70
     1
102
RTVSPropertyOp2
 70
     1
102
RTVSPropertyOp3
 70
     1
102
RTVSPropertyOp4
 70
     1
102
RTVSPropertyOp5
 70
     1
102
RTVSPropertyOp6
 70
     1
102
RTVSPropertyOp7
 70
     1
102
RTVSPropertyOp8
 70
     1
102
RTVSPropertyOp9
 70
     1
102
RTVSPropertyOp10
 70
     1
102
RTVSPropertyOp11
 70
     1
102
RTVSPropertyOp12
 70
     1
102
RTVSPropertyOp13
 70
     1
102
RTVSPropertyOp14
 70
     1
102
RTVSPropertyOp15
 70
     1
102
RTVSPropertyOp16
 70
     1
102
RTVSPropertyOp17
 70
     1
102
RTVSPropertyOp18
 70
     1
102
RTVSPropertyOp19
 70
     1
102
RTVSPropertyOp20
 70
     1
102
RTVSPropertyOp21
 70
     1
102
RTVSPropertyOp22
 70
     1
102
RTVSPropertyOp23
 70
     1
102
RTVSPropertyOp24
 70
     1
102
RTVSPropertyOp25
 70
     1
102
RTVSPropertyOp26
 70
     1
102
RTVSPropertyOp27
 70
     1
102
RTVSPropertyOp28
 70
     1
102
RTVSPropertyOp29
 70
     1
102
RTVSPropertyOp30
 70
     1
102
RTVSPropertyOp31
 70
     1
102
RTVSPropertyOp32
 70
     1
102
RTVSPropertyOp33
 70
     1
102
RTVSPropertyOp34
 70
     1
102
RTVSPropertyOp35
 70
     1
102
RTVSPropertyOp36
 70
     1
102
RTVSPropertyOp37
 70
     1
102
RTVSPropertyOp38
 70
     1
102
RTVSPropertyOp39
 70
     1
102
RTVSPropertyOp40
 70
     1
102
RTVSPropertyOp41
 70
     1
102
RTVSPropertyOp42
 70
     1
102
RTVSPropertyOp43
 70
     1
102
RTVSPropertyOp44
 70
     1
102
RTVSPropertyOp45
 70
     1
102
RTVSPropertyOp46
 70
     1
102
RTVSPropertyOp47
 70
     1
102
RTVSPropertyOp48
 70
     1
102
RTVSPropertyOp49
 70
     1
102
RTVSPropertyOp50
 70
     1
102
RTVSPropertyOp51
 70
     0
102
RTVSPropertyOp52
 70
     0
102
RTVSPropertyOp53
 70
     1
102
RTVSPropertyOp54
 70
     1
102
RTVSPropertyOp55
 70
     1
102
RTVSPropertyOp56
 70
     1
102
RTVSPropertyOp57
 70
     1
102
RTVSPost2010Prop28
280
     0
102
RTVSPost2010PropOp28
 70
     1
102
RTVSPost2010Prop29
280
     1
102
RTVSPost2010PropOp29
 70
     1
102
RTVSPost2010Prop30
280
     1
102
RTVSPost2010PropOp30
 70
     1
102
RTVSPost2010Prop31
280
     0
102
RTVSPost2010PropOp31
 70
     1
102
RTVSPost2010Prop32
280
     0
102
RTVSPost2010PropOp32
 70
     1
102
RTVSPost2010Prop33
280
     0
102
RTVSPost2010PropOp33
 70
     1
102
RTVSPost2010Prop34
280
     0
102
RTVSPost2010PropOp34
 70
     1
102
RTVSPost2010Prop35
280
     0
102
RTVSPost2010PropOp35
 70
     1
102
RTVSPost2010Prop36
280
     0
102
RTVSPost2010PropOp36
 70
     1
102
RTVSPost2010Prop37
 90
       50
102
RTVSPost2010PropOp37
 70
     1
102
RTVSPost2010Prop38
140
0.0
102
RTVSPost2010PropOp38
 70
     1
102
RTVSPost2010Prop39
140
1.0
102
RTVSPost2010PropOp39
 70
     1
102
RTVSPost2010Prop40
 90
        0
102
RTVSPost2010PropOp40
 70
     1
102
RTVSPost2010Prop41ColorIndex
 90
       18
102
RTVSPost2010Prop41ColorRGB
 90
        0
102
RTVSPost2010PropOp41
 70
     1
102
RTVSPost2010Prop42
 90
       50
102
RTVSPost2010PropOp42
 70
     1
102
RTVSPost2010Prop43
 90
        3
102
RTVSPost2010PropOp43
 70
     1
102
RTVSPost2010Prop44ColorIndex
 90
        5
102
RTVSPost2010Prop44ColorRGB
 90
      255
102
RTVSPost2010PropOp44
 70
     1
102
RTVSPost2010Prop45
280
     0
102
RTVSPost2010PropOp45
 70
     1
102
RTVSPost2010Prop46
 90
       50
102
RTVSPost2010PropOp46
 70
     1
102
RTVSPost2010Prop47
 90
       50
102
RTVSPost2010PropOp47
 70
     1
102
RTVSPost2010Prop48
 90
       50
102
RTVSPost2010PropOp48
 70
     1
102
RTVSPost2010Prop49
280
     0
102
RTVSPost2010PropOp49
 70
     1
102
RTVSPost2010Prop50
 90
       50
102
RTVSPost2010PropOp50
 70
     1
102
RTVSPost2010Prop51ColorIndex
 90
      256
102
RTVSPost2010Prop51ColorRGB
 90
-16777216
102
RTVSPost2010PropOp51
 70
     0
102
RTVSPost2010Prop52
140
1.0
102
RTVSPost2010PropOp52
 70
     0
102
RTVSPost2010Prop53
 90
        2
102
RTVSPost2010PropOp53
 70
     1
102
RTVSPost2010Prop54
  1
strokes_ogs.tif
102
RTVSPost2010PropOp54
 70
     1
102
RTVSPost2010Prop55
280
     0
102
RTVSPost2010PropOp55
 70
     1
102
RTVSPost2010Prop56
140
1.0
102
RTVSPost2010PropOp56
 70
     1
102
RTVSPost2010Prop57
140
1.0
102
RTVSPost2010PropOp57
 70
     1
  0
XRECORD
  5
63B
102
{ACAD_REACTORS
330
63A
102
}
330
63A
100
AcDbXrecord
280
     1
102
RTVSPropertyOp0
 70
     1
102
RTVSPropertyOp1
 70
     1
102
RTVSPropertyOp2
 70
     1
102
RTVSPropertyOp3
 70
     1
102
RTVSPropertyOp4
 70
     1
102
RTVSPropertyOp5
 70
     1
102
RTVSPropertyOp6
 70
     1
102
RTVSPropertyOp7
 70
     1
102
RTVSPropertyOp8
 70
     1
102
RTVSPropertyOp9
 70
     1
102
RTVSPropertyOp10
 70
     1
102
RTVSPropertyOp11
 70
     1
102
RTVSPropertyOp12
 70
     1
102
RTVSPropertyOp13
 70
     1
102
RTVSPropertyOp14
 70
     1
102
RTVSPropertyOp15
 70
     1
102
RTVSPropertyOp16
 70
     1
102
RTVSPropertyOp17
 70
     1
102
RTVSPropertyOp18
 70
     1
102
RTVSPropertyOp19
 70
     1
102
RTVSPropertyOp20
 70
     1
102
RTVSPropertyOp21
 70
     1
102
RTVSPropertyOp22
 70
     1
102
RTVSPropertyOp23
 70
     1
102
RTVSPropertyOp24
 70
     1
102
RTVSPropertyOp25
 70
     1
102
RTVSPropertyOp26
 70
     1
102
RTVSPropertyOp27
 70
     1
102
RTVSPropertyOp28
 70
     1
102
RTVSPropertyOp29
 70
     1
102
RTVSPropertyOp30
 70
     1
102
RTVSPropertyOp31
 70
     1
102
RTVSPropertyOp32
 70
     1
102
RTVSPropertyOp33
 70
     1
102
RTVSPropertyOp34
 70
     1
102
RTVSPropertyOp35
 70
     1
102
RTVSPropertyOp36
 70
     1
102
RTVSPropertyOp37
 70
     1
102
RTVSPropertyOp38
 70
     1
102
RTVSPropertyOp39
 70
     1
102
RTVSPropertyOp40
 70
     1
102
RTVSPropertyOp41
 70
     1
102
RTVSPropertyOp42
 70
     1
102
RTVSPropertyOp43
 70
     1
102
RTVSPropertyOp44
 70
     1
102
RTVSPropertyOp45
 70
     1
102
RTVSPropertyOp46
 70
     1
102
RTVSPropertyOp47
 70
     1
102
RTVSPropertyOp48
 70
     1
102
RTVSPropertyOp49
 70
     1
102
RTVSPropertyOp50
 70
     1
102
RTVSPropertyOp51
 70
     0
102
RTVSPropertyOp52
 70
     0
102
RTVSPropertyOp53
 70
     1
102
RTVSPropertyOp54
 70
     1
102
RTVSPropertyOp55
 70
     1
102
RTVSPropertyOp56
 70
     1
102
RTVSPropertyOp57
 70
     1
102
RTVSPost2010Prop28
280
     0
102
RTVSPost2010PropOp28
 70
     1
102
RTVSPost2010Prop29
280
     1
102
RTVSPost2010PropOp29
 70
     1
102
RTVSPost2010Prop30
280
     1
102
RTVSPost2010PropOp30
 70
     1
102
RTVSPost2010Prop31
280
     0
102
RTVSPost2010PropOp31
 70
     1
102
RTVSPost2010Prop32
280
     0
102
RTVSPost2010PropOp32
 70
     1
102
RTVSPost2010Prop33
280
     0
102
RTVSPost2010PropOp33
 70
     1
102
RTVSPost2010Prop34
280
     0
102
RTVSPost2010PropOp34
 70
     1
102
RTVSPost2010Prop35
280
     0
102
RTVSPost2010PropOp35
 70
     1
102
RTVSPost2010Prop36
280
     0
102
RTVSPost2010PropOp36
 70
     1
102
RTVSPost2010Prop37
 90
       50
102
RTVSPost2010PropOp37
 70
     1
102
RTVSPost2010Prop38
140
0.0
102
RTVSPost2010PropOp38
 70
     1
102
RTVSPost2010Prop39
140
1.0
102
RTVSPost2010PropOp39
 70
     1
102
RTVSPost2010Prop40
 90
        0
102
RTVSPost2010PropOp40
 70
     1
102
RTVSPost2010Prop41ColorIndex
 90
       18
102
RTVSPost2010Prop41ColorRGB
 90
        0
102
RTVSPost2010PropOp41
 70
     1
102
RTVSPost2010Prop42
 90
       50
102
RTVSPost2010PropOp42
 70
     1
102
RTVSPost2010Prop43
 90
        3
102
RTVSPost2010PropOp43
 70
     1
102
RTVSPost2010Prop44ColorIndex
 90
        5
102
RTVSPost2010Prop44ColorRGB
 90
      255
102
RTVSPost2010PropOp44
 70
     1
102
RTVSPost2010Prop45
280
     0
102
RTVSPost2010PropOp45
 70
     1
102
RTVSPost2010Prop46
 90
       50
102
RTVSPost2010PropOp46
 70
     1
102
RTVSPost2010Prop47
 90
       50
102
RTVSPost2010PropOp47
 70
     1
102
RTVSPost2010Prop48
 90
       50
102
RTVSPost2010PropOp48
 70
     1
102
RTVSPost2010Prop49
280
     0
102
RTVSPost2010PropOp49
 70
     1
102
RTVSPost2010Prop50
 90
       50
102
RTVSPost2010PropOp50
 70
     1
102
RTVSPost2010Prop51ColorIndex
 90
      256
102
RTVSPost2010Prop51ColorRGB
 90
-16777216
102
RTVSPost2010PropOp51
 70
     0
102
RTVSPost2010Prop52
140
1.0
102
RTVSPost2010PropOp52
 70
     0
102
RTVSPost2010Prop53
 90
        2
102
RTVSPost2010PropOp53
 70
     1
102
RTVSPost2010Prop54
  1
strokes_ogs.tif
102
RTVSPost2010PropOp54
 70
     1
102
RTVSPost2010Prop55
280
     0
102
RTVSPost2010PropOp55
 70
     1
102
RTVSPost2010Prop56
140
1.0
102
RTVSPost2010PropOp56
 70
     1
102
RTVSPost2010Prop57
140
1.0
102
RTVSPost2010PropOp57
 70
     1
  0
XRECORD
  5
63F
102
{ACAD_REACTORS
330
63E
102
}
330
63E
100
AcDbXrecord
280
     1
102
RTVSPropertyOp0
 70
     1
102
RTVSPropertyOp1
 70
     1
102
RTVSPropertyOp2
 70
     1
102
RTVSPropertyOp3
 70
     1
102
RTVSPropertyOp4
 70
     1
102
RTVSPropertyOp5
 70
     1
102
RTVSPropertyOp6
 70
     1
102
RTVSPropertyOp7
 70
     1
102
RTVSPropertyOp8
 70
     1
102
RTVSPropertyOp9
 70
     1
102
RTVSPropertyOp10
 70
     1
102
RTVSPropertyOp11
 70
     1
102
RTVSPropertyOp12
 70
     1
102
RTVSPropertyOp13
 70
     1
102
RTVSPropertyOp14
 70
     1
102
RTVSPropertyOp15
 70
     1
102
RTVSPropertyOp16
 70
     1
102
RTVSPropertyOp17
 70
     1
102
RTVSPropertyOp18
 70
     1
102
RTVSPropertyOp19
 70
     1
102
RTVSPropertyOp20
 70
     1
102
RTVSPropertyOp21
 70
     1
102
RTVSPropertyOp22
 70
     1
102
RTVSPropertyOp23
 70
     1
102
RTVSPropertyOp24
 70
     1
102
RTVSPropertyOp25
 70
     1
102
RTVSPropertyOp26
 70
     1
102
RTVSPropertyOp27
 70
     1
102
RTVSPropertyOp28
 70
     1
102
RTVSPropertyOp29
 70
     1
102
RTVSPropertyOp30
 70
     1
102
RTVSPropertyOp31
 70
     1
102
RTVSPropertyOp32
 70
     1
102
RTVSPropertyOp33
 70
     1
102
RTVSPropertyOp34
 70
     1
102
RTVSPropertyOp35
 70
     1
102
RTVSPropertyOp36
 70
     1
102
RTVSPropertyOp37
 70
     1
102
RTVSPropertyOp38
 70
     1
102
RTVSPropertyOp39
 70
     1
102
RTVSPropertyOp40
 70
     1
102
RTVSPropertyOp41
 70
     1
102
RTVSPropertyOp42
 70
     1
102
RTVSPropertyOp43
 70
     1
102
RTVSPropertyOp44
 70
     1
102
RTVSPropertyOp45
 70
     1
102
RTVSPropertyOp46
 70
     1
102
RTVSPropertyOp47
 70
     1
102
RTVSPropertyOp48
 70
     1
102
RTVSPropertyOp49
 70
     1
102
RTVSPropertyOp50
 70
     1
102
RTVSPropertyOp51
 70
     0
102
RTVSPropertyOp52
 70
     0
102
RTVSPropertyOp53
 70
     1
102
RTVSPropertyOp54
 70
     1
102
RTVSPropertyOp55
 70
     1
102
RTVSPropertyOp56
 70
     1
102
RTVSPropertyOp57
 70
     1
102
RTVSPost2010Prop28
280
     0
102
RTVSPost2010PropOp28
 70
     1
102
RTVSPost2010Prop29
280
     1
102
RTVSPost2010PropOp29
 70
     1
102
RTVSPost2010Prop30
280
     1
102
RTVSPost2010PropOp30
 70
     1
102
RTVSPost2010Prop31
280
     0
102
RTVSPost2010PropOp31
 70
     1
102
RTVSPost2010Prop32
280
     0
102
RTVSPost2010PropOp32
 70
     1
102
RTVSPost2010Prop33
280
     0
102
RTVSPost2010PropOp33
 70
     1
102
RTVSPost2010Prop34
280
     0
102
RTVSPost2010PropOp34
 70
     1
102
RTVSPost2010Prop35
280
     0
102
RTVSPost2010PropOp35
 70
     1
102
RTVSPost2010Prop36
280
     0
102
RTVSPost2010PropOp36
 70
     1
102
RTVSPost2010Prop37
 90
       50
102
RTVSPost2010PropOp37
 70
     1
102
RTVSPost2010Prop38
140
0.0
102
RTVSPost2010PropOp38
 70
     1
102
RTVSPost2010Prop39
140
1.0
102
RTVSPost2010PropOp39
 70
     1
102
RTVSPost2010Prop40
 90
        0
102
RTVSPost2010PropOp40
 70
     1
102
RTVSPost2010Prop41ColorIndex
 90
       18
102
RTVSPost2010Prop41ColorRGB
 90
        0
102
RTVSPost2010PropOp41
 70
     1
102
RTVSPost2010Prop42
 90
       50
102
RTVSPost2010PropOp42
 70
     1
102
RTVSPost2010Prop43
 90
        3
102
RTVSPost2010PropOp43
 70
     1
102
RTVSPost2010Prop44ColorIndex
 90
        5
102
RTVSPost2010Prop44ColorRGB
 90
      255
102
RTVSPost2010PropOp44
 70
     1
102
RTVSPost2010Prop45
280
     0
102
RTVSPost2010PropOp45
 70
     1
102
RTVSPost2010Prop46
 90
       50
102
RTVSPost2010PropOp46
 70
     1
102
RTVSPost2010Prop47
 90
       50
102
RTVSPost2010PropOp47
 70
     1
102
RTVSPost2010Prop48
 90
       50
102
RTVSPost2010PropOp48
 70
     1
102
RTVSPost2010Prop49
280
     0
102
RTVSPost2010PropOp49
 70
     1
102
RTVSPost2010Prop50
 90
       50
102
RTVSPost2010PropOp50
 70
     1
102
RTVSPost2010Prop51ColorIndex
 90
      256
102
RTVSPost2010Prop51ColorRGB
 90
-16777216
102
RTVSPost2010PropOp51
 70
     0
102
RTVSPost2010Prop52
140
1.0
102
RTVSPost2010PropOp52
 70
     0
102
RTVSPost2010Prop53
 90
        2
102
RTVSPost2010PropOp53
 70
     1
102
RTVSPost2010Prop54
  1
strokes_ogs.tif
102
RTVSPost2010PropOp54
 70
     1
102
RTVSPost2010Prop55
280
     0
102
RTVSPost2010PropOp55
 70
     1
102
RTVSPost2010Prop56
140
1.0
102
RTVSPost2010PropOp56
 70
     1
102
RTVSPost2010Prop57
140
1.0
102
RTVSPost2010PropOp57
 70
     1
  0
XRECORD
  5
647
102
{ACAD_REACTORS
330
646
102
}
330
646
100
AcDbXrecord
280
     1
102
RTVSPropertyOp0
 70
     1
102
RTVSPropertyOp1
 70
     1
102
RTVSPropertyOp2
 70
     1
102
RTVSPropertyOp3
 70
     1
102
RTVSPropertyOp4
 70
     1
102
RTVSPropertyOp5
 70
     1
102
RTVSPropertyOp6
 70
     1
102
RTVSPropertyOp7
 70
     1
102
RTVSPropertyOp8
 70
     1
102
RTVSPropertyOp9
 70
     1
102
RTVSPropertyOp10
 70
     1
102
RTVSPropertyOp11
 70
     1
102
RTVSPropertyOp12
 70
     1
102
RTVSPropertyOp13
 70
     1
102
RTVSPropertyOp14
 70
     1
102
RTVSPropertyOp15
 70
     1
102
RTVSPropertyOp16
 70
     1
102
RTVSPropertyOp17
 70
     1
102
RTVSPropertyOp18
 70
     1
102
RTVSPropertyOp19
 70
     1
102
RTVSPropertyOp20
 70
     1
102
RTVSPropertyOp21
 70
     1
102
RTVSPropertyOp22
 70
     1
102
RTVSPropertyOp23
 70
     1
102
RTVSPropertyOp24
 70
     1
102
RTVSPropertyOp25
 70
     1
102
RTVSPropertyOp26
 70
     1
102
RTVSPropertyOp27
 70
     1
102
RTVSPropertyOp28
 70
     1
102
RTVSPropertyOp29
 70
     1
102
RTVSPropertyOp30
 70
     1
102
RTVSPropertyOp31
 70
     1
102
RTVSPropertyOp32
 70
     1
102
RTVSPropertyOp33
 70
     1
102
RTVSPropertyOp34
 70
     1
102
RTVSPropertyOp35
 70
     1
102
RTVSPropertyOp36
 70
     1
102
RTVSPropertyOp37
 70
     1
102
RTVSPropertyOp38
 70
     1
102
RTVSPropertyOp39
 70
     1
102
RTVSPropertyOp40
 70
     1
102
RTVSPropertyOp41
 70
     1
102
RTVSPropertyOp42
 70
     1
102
RTVSPropertyOp43
 70
     1
102
RTVSPropertyOp44
 70
     1
102
RTVSPropertyOp45
 70
     1
102
RTVSPropertyOp46
 70
     1
102
RTVSPropertyOp47
 70
     1
102
RTVSPropertyOp48
 70
     1
102
RTVSPropertyOp49
 70
     1
102
RTVSPropertyOp50
 70
     1
102
RTVSPropertyOp51
 70
     0
102
RTVSPropertyOp52
 70
     0
102
RTVSPropertyOp53
 70
     1
102
RTVSPropertyOp54
 70
     1
102
RTVSPropertyOp55
 70
     1
102
RTVSPropertyOp56
 70
     1
102
RTVSPropertyOp57
 70
     1
102
RTVSPost2010Prop28
280
     0
102
RTVSPost2010PropOp28
 70
     1
102
RTVSPost2010Prop29
280
     1
102
RTVSPost2010PropOp29
 70
     1
102
RTVSPost2010Prop30
280
     1
102
RTVSPost2010PropOp30
 70
     1
102
RTVSPost2010Prop31
280
     0
102
RTVSPost2010PropOp31
 70
     1
102
RTVSPost2010Prop32
280
     0
102
RTVSPost2010PropOp32
 70
     1
102
RTVSPost2010Prop33
280
     0
102
RTVSPost2010PropOp33
 70
     1
102
RTVSPost2010Prop34
280
     0
102
RTVSPost2010PropOp34
 70
     1
102
RTVSPost2010Prop35
280
     0
102
RTVSPost2010PropOp35
 70
     1
102
RTVSPost2010Prop36
280
     0
102
RTVSPost2010PropOp36
 70
     1
102
RTVSPost2010Prop37
 90
       50
102
RTVSPost2010PropOp37
 70
     1
102
RTVSPost2010Prop38
140
0.0
102
RTVSPost2010PropOp38
 70
     1
102
RTVSPost2010Prop39
140
1.0
102
RTVSPost2010PropOp39
 70
     1
102
RTVSPost2010Prop40
 90
        0
102
RTVSPost2010PropOp40
 70
     1
102
RTVSPost2010Prop41ColorIndex
 90
       18
102
RTVSPost2010Prop41ColorRGB
 90
        0
102
RTVSPost2010PropOp41
 70
     1
102
RTVSPost2010Prop42
 90
       50
102
RTVSPost2010PropOp42
 70
     1
102
RTVSPost2010Prop43
 90
        3
102
RTVSPost2010PropOp43
 70
     1
102
RTVSPost2010Prop44ColorIndex
 90
        5
102
RTVSPost2010Prop44ColorRGB
 90
      255
102
RTVSPost2010PropOp44
 70
     1
102
RTVSPost2010Prop45
280
     0
102
RTVSPost2010PropOp45
 70
     1
102
RTVSPost2010Prop46
 90
       50
102
RTVSPost2010PropOp46
 70
     1
102
RTVSPost2010Prop47
 90
       50
102
RTVSPost2010PropOp47
 70
     1
102
RTVSPost2010Prop48
 90
       50
102
RTVSPost2010PropOp48
 70
     1
102
RTVSPost2010Prop49
280
     0
102
RTVSPost2010PropOp49
 70
     1
102
RTVSPost2010Prop50
 90
       50
102
RTVSPost2010PropOp50
 70
     1
102
RTVSPost2010Prop51ColorIndex
 90
      256
102
RTVSPost2010Prop51ColorRGB
 90
-16777216
102
RTVSPost2010PropOp51
 70
     0
102
RTVSPost2010Prop52
140
1.0
102
RTVSPost2010PropOp52
 70
     0
102
RTVSPost2010Prop53
 90
        2
102
RTVSPost2010PropOp53
 70
     1
102
RTVSPost2010Prop54
  1
strokes_ogs.tif
102
RTVSPost2010PropOp54
 70
     1
102
RTVSPost2010Prop55
280
     0
102
RTVSPost2010PropOp55
 70
     1
102
RTVSPost2010Prop56
140
1.0
102
RTVSPost2010PropOp56
 70
     1
102
RTVSPost2010Prop57
140
1.0
102
RTVSPost2010PropOp57
 70
     1
  0
XRECORD
  5
64F
102
{ACAD_REACTORS
330
64E
102
}
330
64E
100
AcDbXrecord
280
     1
102
RTVSPropertyOp0
 70
     1
102
RTVSPropertyOp1
 70
     1
102
RTVSPropertyOp2
 70
     1
102
RTVSPropertyOp3
 70
     1
102
RTVSPropertyOp4
 70
     1
102
RTVSPropertyOp5
 70
     1
102
RTVSPropertyOp6
 70
     1
102
RTVSPropertyOp7
 70
     1
102
RTVSPropertyOp8
 70
     1
102
RTVSPropertyOp9
 70
     1
102
RTVSPropertyOp10
 70
     1
102
RTVSPropertyOp11
 70
     1
102
RTVSPropertyOp12
 70
     1
102
RTVSPropertyOp13
 70
     1
102
RTVSPropertyOp14
 70
     1
102
RTVSPropertyOp15
 70
     1
102
RTVSPropertyOp16
 70
     1
102
RTVSPropertyOp17
 70
     1
102
RTVSPropertyOp18
 70
     1
102
RTVSPropertyOp19
 70
     1
102
RTVSPropertyOp20
 70
     1
102
RTVSPropertyOp21
 70
     1
102
RTVSPropertyOp22
 70
     1
102
RTVSPropertyOp23
 70
     1
102
RTVSPropertyOp24
 70
     1
102
RTVSPropertyOp25
 70
     1
102
RTVSPropertyOp26
 70
     1
102
RTVSPropertyOp27
 70
     1
102
RTVSPropertyOp28
 70
     1
102
RTVSPropertyOp29
 70
     1
102
RTVSPropertyOp30
 70
     1
102
RTVSPropertyOp31
 70
     1
102
RTVSPropertyOp32
 70
     1
102
RTVSPropertyOp33
 70
     1
102
RTVSPropertyOp34
 70
     1
102
RTVSPropertyOp35
 70
     1
102
RTVSPropertyOp36
 70
     1
102
RTVSPropertyOp37
 70
     1
102
RTVSPropertyOp38
 70
     1
102
RTVSPropertyOp39
 70
     1
102
RTVSPropertyOp40
 70
     1
102
RTVSPropertyOp41
 70
     1
102
RTVSPropertyOp42
 70
     1
102
RTVSPropertyOp43
 70
     1
102
RTVSPropertyOp44
 70
     1
102
RTVSPropertyOp45
 70
     1
102
RTVSPropertyOp46
 70
     1
102
RTVSPropertyOp47
 70
     1
102
RTVSPropertyOp48
 70
     1
102
RTVSPropertyOp49
 70
     1
102
RTVSPropertyOp50
 70
     1
102
RTVSPropertyOp51
 70
     0
102
RTVSPropertyOp52
 70
     0
102
RTVSPropertyOp53
 70
     1
102
RTVSPropertyOp54
 70
     1
102
RTVSPropertyOp55
 70
     1
102
RTVSPropertyOp56
 70
     1
102
RTVSPropertyOp57
 70
     1
102
RTVSPost2010Prop28
280
     0
102
RTVSPost2010PropOp28
 70
     1
102
RTVSPost2010Prop29
280
     1
102
RTVSPost2010PropOp29
 70
     1
102
RTVSPost2010Prop30
280
     1
102
RTVSPost2010PropOp30
 70
     1
102
RTVSPost2010Prop31
280
     0
102
RTVSPost2010PropOp31
 70
     1
102
RTVSPost2010Prop32
280
     0
102
RTVSPost2010PropOp32
 70
     1
102
RTVSPost2010Prop33
280
     0
102
RTVSPost2010PropOp33
 70
     1
102
RTVSPost2010Prop34
280
     0
102
RTVSPost2010PropOp34
 70
     1
102
RTVSPost2010Prop35
280
     0
102
RTVSPost2010PropOp35
 70
     1
102
RTVSPost2010Prop36
280
     0
102
RTVSPost2010PropOp36
 70
     1
102
RTVSPost2010Prop37
 90
       50
102
RTVSPost2010PropOp37
 70
     1
102
RTVSPost2010Prop38
140
0.0
102
RTVSPost2010PropOp38
 70
     1
102
RTVSPost2010Prop39
140
1.0
102
RTVSPost2010PropOp39
 70
     1
102
RTVSPost2010Prop40
 90
        0
102
RTVSPost2010PropOp40
 70
     1
102
RTVSPost2010Prop41ColorIndex
 90
       18
102
RTVSPost2010Prop41ColorRGB
 90
        0
102
RTVSPost2010PropOp41
 70
     1
102
RTVSPost2010Prop42
 90
       50
102
RTVSPost2010PropOp42
 70
     1
102
RTVSPost2010Prop43
 90
        3
102
RTVSPost2010PropOp43
 70
     1
102
RTVSPost2010Prop44ColorIndex
 90
        5
102
RTVSPost2010Prop44ColorRGB
 90
      255
102
RTVSPost2010PropOp44
 70
     1
102
RTVSPost2010Prop45
280
     0
102
RTVSPost2010PropOp45
 70
     1
102
RTVSPost2010Prop46
 90
       50
102
RTVSPost2010PropOp46
 70
     1
102
RTVSPost2010Prop47
 90
       50
102
RTVSPost2010PropOp47
 70
     1
102
RTVSPost2010Prop48
 90
       50
102
RTVSPost2010PropOp48
 70
     1
102
RTVSPost2010Prop49
280
     0
102
RTVSPost2010PropOp49
 70
     1
102
RTVSPost2010Prop50
 90
       50
102
RTVSPost2010PropOp50
 70
     1
102
RTVSPost2010Prop51ColorIndex
 90
      256
102
RTVSPost2010Prop51ColorRGB
 90
-16777216
102
RTVSPost2010PropOp51
 70
     0
102
RTVSPost2010Prop52
140
1.0
102
RTVSPost2010PropOp52
 70
     0
102
RTVSPost2010Prop53
 90
        2
102
RTVSPost2010PropOp53
 70
     1
102
RTVSPost2010Prop54
  1
strokes_ogs.tif
102
RTVSPost2010PropOp54
 70
     1
102
RTVSPost2010Prop55
280
     0
102
RTVSPost2010PropOp55
 70
     1
102
RTVSPost2010Prop56
140
1.0
102
RTVSPost2010PropOp56
 70
     1
102
RTVSPost2010Prop57
140
1.0
102
RTVSPost2010PropOp57
 70
     1
  0
XRECORD
  5
643
102
{ACAD_REACTORS
330
642
102
}
330
642
100
AcDbXrecord
280
     1
102
RTVSPropertyOp0
 70
     1
102
RTVSPropertyOp1
 70
     1
102
RTVSPropertyOp2
 70
     1
102
RTVSPropertyOp3
 70
     1
102
RTVSPropertyOp4
 70
     1
102
RTVSPropertyOp5
 70
     1
102
RTVSPropertyOp6
 70
     1
102
RTVSPropertyOp7
 70
     1
102
RTVSPropertyOp8
 70
     1
102
RTVSPropertyOp9
 70
     1
102
RTVSPropertyOp10
 70
     1
102
RTVSPropertyOp11
 70
     1
102
RTVSPropertyOp12
 70
     1
102
RTVSPropertyOp13
 70
     1
102
RTVSPropertyOp14
 70
     1
102
RTVSPropertyOp15
 70
     1
102
RTVSPropertyOp16
 70
     1
102
RTVSPropertyOp17
 70
     1
102
RTVSPropertyOp18
 70
     1
102
RTVSPropertyOp19
 70
     1
102
RTVSPropertyOp20
 70
     1
102
RTVSPropertyOp21
 70
     1
102
RTVSPropertyOp22
 70
     1
102
RTVSPropertyOp23
 70
     1
102
RTVSPropertyOp24
 70
     1
102
RTVSPropertyOp25
 70
     1
102
RTVSPropertyOp26
 70
     1
102
RTVSPropertyOp27
 70
     1
102
RTVSPropertyOp28
 70
     1
102
RTVSPropertyOp29
 70
     1
102
RTVSPropertyOp30
 70
     1
102
RTVSPropertyOp31
 70
     1
102
RTVSPropertyOp32
 70
     1
102
RTVSPropertyOp33
 70
     1
102
RTVSPropertyOp34
 70
     1
102
RTVSPropertyOp35
 70
     1
102
RTVSPropertyOp36
 70
     1
102
RTVSPropertyOp37
 70
     1
102
RTVSPropertyOp38
 70
     1
102
RTVSPropertyOp39
 70
     1
102
RTVSPropertyOp40
 70
     1
102
RTVSPropertyOp41
 70
     1
102
RTVSPropertyOp42
 70
     1
102
RTVSPropertyOp43
 70
     1
102
RTVSPropertyOp44
 70
     1
102
RTVSPropertyOp45
 70
     1
102
RTVSPropertyOp46
 70
     1
102
RTVSPropertyOp47
 70
     1
102
RTVSPropertyOp48
 70
     1
102
RTVSPropertyOp49
 70
     1
102
RTVSPropertyOp50
 70
     1
102
RTVSPropertyOp51
 70
     0
102
RTVSPropertyOp52
 70
     0
102
RTVSPropertyOp53
 70
     1
102
RTVSPropertyOp54
 70
     1
102
RTVSPropertyOp55
 70
     1
102
RTVSPropertyOp56
 70
     1
102
RTVSPropertyOp57
 70
     1
102
RTVSPost2010Prop28
280
     0
102
RTVSPost2010PropOp28
 70
     1
102
RTVSPost2010Prop29
280
     1
102
RTVSPost2010PropOp29
 70
     1
102
RTVSPost2010Prop30
280
     1
102
RTVSPost2010PropOp30
 70
     1
102
RTVSPost2010Prop31
280
     0
102
RTVSPost2010PropOp31
 70
     1
102
RTVSPost2010Prop32
280
     0
102
RTVSPost2010PropOp32
 70
     1
102
RTVSPost2010Prop33
280
     0
102
RTVSPost2010PropOp33
 70
     1
102
RTVSPost2010Prop34
280
     0
102
RTVSPost2010PropOp34
 70
     1
102
RTVSPost2010Prop35
280
     0
102
RTVSPost2010PropOp35
 70
     1
102
RTVSPost2010Prop36
280
     0
102
RTVSPost2010PropOp36
 70
     1
102
RTVSPost2010Prop37
 90
       50
102
RTVSPost2010PropOp37
 70
     1
102
RTVSPost2010Prop38
140
0.0
102
RTVSPost2010PropOp38
 70
     1
102
RTVSPost2010Prop39
140
1.0
102
RTVSPost2010PropOp39
 70
     1
102
RTVSPost2010Prop40
 90
        0
102
RTVSPost2010PropOp40
 70
     1
102
RTVSPost2010Prop41ColorIndex
 90
       18
102
RTVSPost2010Prop41ColorRGB
 90
        0
102
RTVSPost2010PropOp41
 70
     1
102
RTVSPost2010Prop42
 90
       50
102
RTVSPost2010PropOp42
 70
     1
102
RTVSPost2010Prop43
 90
        3
102
RTVSPost2010PropOp43
 70
     1
102
RTVSPost2010Prop44ColorIndex
 90
        5
102
RTVSPost2010Prop44ColorRGB
 90
      255
102
RTVSPost2010PropOp44
 70
     1
102
RTVSPost2010Prop45
280
     0
102
RTVSPost2010PropOp45
 70
     1
102
RTVSPost2010Prop46
 90
       50
102
RTVSPost2010PropOp46
 70
     1
102
RTVSPost2010Prop47
 90
       50
102
RTVSPost2010PropOp47
 70
     1
102
RTVSPost2010Prop48
 90
       50
102
RTVSPost2010PropOp48
 70
     1
102
RTVSPost2010Prop49
280
     0
102
RTVSPost2010PropOp49
 70
     1
102
RTVSPost2010Prop50
 90
       50
102
RTVSPost2010PropOp50
 70
     1
102
RTVSPost2010Prop51ColorIndex
 90
      256
102
RTVSPost2010Prop51ColorRGB
 90
-16777216
102
RTVSPost2010PropOp51
 70
     0
102
RTVSPost2010Prop52
140
1.0
102
RTVSPost2010PropOp52
 70
     0
102
RTVSPost2010Prop53
 90
        2
102
RTVSPost2010PropOp53
 70
     1
102
RTVSPost2010Prop54
  1
strokes_ogs.tif
102
RTVSPost2010PropOp54
 70
     1
102
RTVSPost2010Prop55
280
     0
102
RTVSPost2010PropOp55
 70
     1
102
RTVSPost2010Prop56
140
1.0
102
RTVSPost2010PropOp56
 70
     1
102
RTVSPost2010Prop57
140
1.0
102
RTVSPost2010PropOp57
 70
     1
  0
XRECORD
  5
645
102
{ACAD_REACTORS
330
644
102
}
330
644
100
AcDbXrecord
280
     1
102
RTVSPropertyOp0
 70
     1
102
RTVSPropertyOp1
 70
     1
102
RTVSPropertyOp2
 70
     1
102
RTVSPropertyOp3
 70
     1
102
RTVSPropertyOp4
 70
     1
102
RTVSPropertyOp5
 70
     1
102
RTVSPropertyOp6
 70
     1
102
RTVSPropertyOp7
 70
     1
102
RTVSPropertyOp8
 70
     1
102
RTVSPropertyOp9
 70
     1
102
RTVSPropertyOp10
 70
     1
102
RTVSPropertyOp11
 70
     1
102
RTVSPropertyOp12
 70
     1
102
RTVSPropertyOp13
 70
     1
102
RTVSPropertyOp14
 70
     1
102
RTVSPropertyOp15
 70
     1
102
RTVSPropertyOp16
 70
     1
102
RTVSPropertyOp17
 70
     1
102
RTVSPropertyOp18
 70
     1
102
RTVSPropertyOp19
 70
     1
102
RTVSPropertyOp20
 70
     1
102
RTVSPropertyOp21
 70
     1
102
RTVSPropertyOp22
 70
     1
102
RTVSPropertyOp23
 70
     1
102
RTVSPropertyOp24
 70
     1
102
RTVSPropertyOp25
 70
     1
102
RTVSPropertyOp26
 70
     1
102
RTVSPropertyOp27
 70
     1
102
RTVSPropertyOp28
 70
     1
102
RTVSPropertyOp29
 70
     1
102
RTVSPropertyOp30
 70
     1
102
RTVSPropertyOp31
 70
     1
102
RTVSPropertyOp32
 70
     1
102
RTVSPropertyOp33
 70
     1
102
RTVSPropertyOp34
 70
     1
102
RTVSPropertyOp35
 70
     1
102
RTVSPropertyOp36
 70
     1
102
RTVSPropertyOp37
 70
     1
102
RTVSPropertyOp38
 70
     1
102
RTVSPropertyOp39
 70
     1
102
RTVSPropertyOp40
 70
     1
102
RTVSPropertyOp41
 70
     1
102
RTVSPropertyOp42
 70
     1
102
RTVSPropertyOp43
 70
     1
102
RTVSPropertyOp44
 70
     1
102
RTVSPropertyOp45
 70
     1
102
RTVSPropertyOp46
 70
     1
102
RTVSPropertyOp47
 70
     1
102
RTVSPropertyOp48
 70
     1
102
RTVSPropertyOp49
 70
     1
102
RTVSPropertyOp50
 70
     1
102
RTVSPropertyOp51
 70
     0
102
RTVSPropertyOp52
 70
     0
102
RTVSPropertyOp53
 70
     1
102
RTVSPropertyOp54
 70
     1
102
RTVSPropertyOp55
 70
     1
102
RTVSPropertyOp56
 70
     1
102
RTVSPropertyOp57
 70
     1
102
RTVSPost2010Prop28
280
     0
102
RTVSPost2010PropOp28
 70
     1
102
RTVSPost2010Prop29
280
     1
102
RTVSPost2010PropOp29
 70
     1
102
RTVSPost2010Prop30
280
     1
102
RTVSPost2010PropOp30
 70
     1
102
RTVSPost2010Prop31
280
     0
102
RTVSPost2010PropOp31
 70
     1
102
RTVSPost2010Prop32
280
     0
102
RTVSPost2010PropOp32
 70
     1
102
RTVSPost2010Prop33
280
     0
102
RTVSPost2010PropOp33
 70
     1
102
RTVSPost2010Prop34
280
     0
102
RTVSPost2010PropOp34
 70
     1
102
RTVSPost2010Prop35
280
     0
102
RTVSPost2010PropOp35
 70
     1
102
RTVSPost2010Prop36
280
     0
102
RTVSPost2010PropOp36
 70
     1
102
RTVSPost2010Prop37
 90
       50
102
RTVSPost2010PropOp37
 70
     1
102
RTVSPost2010Prop38
140
0.0
102
RTVSPost2010PropOp38
 70
     1
102
RTVSPost2010Prop39
140
1.0
102
RTVSPost2010PropOp39
 70
     1
102
RTVSPost2010Prop40
 90
        0
102
RTVSPost2010PropOp40
 70
     1
102
RTVSPost2010Prop41ColorIndex
 90
       18
102
RTVSPost2010Prop41ColorRGB
 90
        0
102
RTVSPost2010PropOp41
 70
     1
102
RTVSPost2010Prop42
 90
       50
102
RTVSPost2010PropOp42
 70
     1
102
RTVSPost2010Prop43
 90
        3
102
RTVSPost2010PropOp43
 70
     1
102
RTVSPost2010Prop44ColorIndex
 90
        5
102
RTVSPost2010Prop44ColorRGB
 90
      255
102
RTVSPost2010PropOp44
 70
     1
102
RTVSPost2010Prop45
280
     0
102
RTVSPost2010PropOp45
 70
     1
102
RTVSPost2010Prop46
 90
       50
102
RTVSPost2010PropOp46
 70
     1
102
RTVSPost2010Prop47
 90
       50
102
RTVSPost2010PropOp47
 70
     1
102
RTVSPost2010Prop48
 90
       50
102
RTVSPost2010PropOp48
 70
     1
102
RTVSPost2010Prop49
280
     0
102
RTVSPost2010PropOp49
 70
     1
102
RTVSPost2010Prop50
 90
       50
102
RTVSPost2010PropOp50
 70
     1
102
RTVSPost2010Prop51ColorIndex
 90
      256
102
RTVSPost2010Prop51ColorRGB
 90
-16777216
102
RTVSPost2010PropOp51
 70
     0
102
RTVSPost2010Prop52
140
1.0
102
RTVSPost2010PropOp52
 70
     0
102
RTVSPost2010Prop53
 90
        2
102
RTVSPost2010PropOp53
 70
     1
102
RTVSPost2010Prop54
  1
strokes_ogs.tif
102
RTVSPost2010PropOp54
 70
     1
102
RTVSPost2010Prop55
280
     0
102
RTVSPost2010PropOp55
 70
     1
102
RTVSPost2010Prop56
140
1.0
102
RTVSPost2010PropOp56
 70
     1
102
RTVSPost2010Prop57
140
1.0
102
RTVSPost2010PropOp57
 70
     1
  0
XRECORD
  5
64D
102
{ACAD_REACTORS
330
64C
102
}
330
64C
100
AcDbXrecord
280
     1
102
RTVSPropertyOp0
 70
     1
102
RTVSPropertyOp1
 70
     1
102
RTVSPropertyOp2
 70
     1
102
RTVSPropertyOp3
 70
     1
102
RTVSPropertyOp4
 70
     1
102
RTVSPropertyOp5
 70
     1
102
RTVSPropertyOp6
 70
     1
102
RTVSPropertyOp7
 70
     1
102
RTVSPropertyOp8
 70
     1
102
RTVSPropertyOp9
 70
     1
102
RTVSPropertyOp10
 70
     1
102
RTVSPropertyOp11
 70
     1
102
RTVSPropertyOp12
 70
     1
102
RTVSPropertyOp13
 70
     1
102
RTVSPropertyOp14
 70
     1
102
RTVSPropertyOp15
 70
     1
102
RTVSPropertyOp16
 70
     1
102
RTVSPropertyOp17
 70
     1
102
RTVSPropertyOp18
 70
     1
102
RTVSPropertyOp19
 70
     1
102
RTVSPropertyOp20
 70
     1
102
RTVSPropertyOp21
 70
     1
102
RTVSPropertyOp22
 70
     1
102
RTVSPropertyOp23
 70
     1
102
RTVSPropertyOp24
 70
     1
102
RTVSPropertyOp25
 70
     1
102
RTVSPropertyOp26
 70
     1
102
RTVSPropertyOp27
 70
     1
102
RTVSPropertyOp28
 70
     1
102
RTVSPropertyOp29
 70
     1
102
RTVSPropertyOp30
 70
     1
102
RTVSPropertyOp31
 70
     1
102
RTVSPropertyOp32
 70
     1
102
RTVSPropertyOp33
 70
     1
102
RTVSPropertyOp34
 70
     1
102
RTVSPropertyOp35
 70
     1
102
RTVSPropertyOp36
 70
     1
102
RTVSPropertyOp37
 70
     1
102
RTVSPropertyOp38
 70
     1
102
RTVSPropertyOp39
 70
     1
102
RTVSPropertyOp40
 70
     1
102
RTVSPropertyOp41
 70
     1
102
RTVSPropertyOp42
 70
     1
102
RTVSPropertyOp43
 70
     1
102
RTVSPropertyOp44
 70
     1
102
RTVSPropertyOp45
 70
     1
102
RTVSPropertyOp46
 70
     1
102
RTVSPropertyOp47
 70
     1
102
RTVSPropertyOp48
 70
     1
102
RTVSPropertyOp49
 70
     1
102
RTVSPropertyOp50
 70
     1
102
RTVSPropertyOp51
 70
     0
102
RTVSPropertyOp52
 70
     0
102
RTVSPropertyOp53
 70
     1
102
RTVSPropertyOp54
 70
     1
102
RTVSPropertyOp55
 70
     1
102
RTVSPropertyOp56
 70
     1
102
RTVSPropertyOp57
 70
     1
102
RTVSPost2010Prop28
280
     0
102
RTVSPost2010PropOp28
 70
     1
102
RTVSPost2010Prop29
280
     1
102
RTVSPost2010PropOp29
 70
     1
102
RTVSPost2010Prop30
280
     1
102
RTVSPost2010PropOp30
 70
     1
102
RTVSPost2010Prop31
280
     0
102
RTVSPost2010PropOp31
 70
     1
102
RTVSPost2010Prop32
280
     0
102
RTVSPost2010PropOp32
 70
     1
102
RTVSPost2010Prop33
280
     0
102
RTVSPost2010PropOp33
 70
     1
102
RTVSPost2010Prop34
280
     0
102
RTVSPost2010PropOp34
 70
     1
102
RTVSPost2010Prop35
280
     0
102
RTVSPost2010PropOp35
 70
     1
102
RTVSPost2010Prop36
280
     0
102
RTVSPost2010PropOp36
 70
     1
102
RTVSPost2010Prop37
 90
       50
102
RTVSPost2010PropOp37
 70
     1
102
RTVSPost2010Prop38
140
0.0
102
RTVSPost2010PropOp38
 70
     1
102
RTVSPost2010Prop39
140
1.0
102
RTVSPost2010PropOp39
 70
     1
102
RTVSPost2010Prop40
 90
        0
102
RTVSPost2010PropOp40
 70
     1
102
RTVSPost2010Prop41ColorIndex
 90
       18
102
RTVSPost2010Prop41ColorRGB
 90
        0
102
RTVSPost2010PropOp41
 70
     1
102
RTVSPost2010Prop42
 90
       50
102
RTVSPost2010PropOp42
 70
     1
102
RTVSPost2010Prop43
 90
        3
102
RTVSPost2010PropOp43
 70
     1
102
RTVSPost2010Prop44ColorIndex
 90
        5
102
RTVSPost2010Prop44ColorRGB
 90
      255
102
RTVSPost2010PropOp44
 70
     1
102
RTVSPost2010Prop45
280
     0
102
RTVSPost2010PropOp45
 70
     1
102
RTVSPost2010Prop46
 90
       50
102
RTVSPost2010PropOp46
 70
     1
102
RTVSPost2010Prop47
 90
       50
102
RTVSPost2010PropOp47
 70
     1
102
RTVSPost2010Prop48
 90
       50
102
RTVSPost2010PropOp48
 70
     1
102
RTVSPost2010Prop49
280
     0
102
RTVSPost2010PropOp49
 70
     1
102
RTVSPost2010Prop50
 90
       50
102
RTVSPost2010PropOp50
 70
     1
102
RTVSPost2010Prop51ColorIndex
 90
      256
102
RTVSPost2010Prop51ColorRGB
 90
-16777216
102
RTVSPost2010PropOp51
 70
     0
102
RTVSPost2010Prop52
140
1.0
102
RTVSPost2010PropOp52
 70
     0
102
RTVSPost2010Prop53
 90
        2
102
RTVSPost2010PropOp53
 70
     1
102
RTVSPost2010Prop54
  1
strokes_ogs.tif
102
RTVSPost2010PropOp54
 70
     1
102
RTVSPost2010Prop55
280
     0
102
RTVSPost2010PropOp55
 70
     1
102
RTVSPost2010Prop56
140
1.0
102
RTVSPost2010PropOp56
 70
     1
102
RTVSPost2010Prop57
140
1.0
102
RTVSPost2010PropOp57
 70
     1
  0
XRECORD
  5
631
102
{ACAD_REACTORS
330
630
102
}
330
630
100
AcDbXrecord
280
     1
102
RTVSPropertyOp0
 70
     1
102
RTVSPropertyOp1
 70
     1
102
RTVSPropertyOp2
 70
     1
102
RTVSPropertyOp3
 70
     1
102
RTVSPropertyOp4
 70
     1
102
RTVSPropertyOp5
 70
     1
102
RTVSPropertyOp6
 70
     1
102
RTVSPropertyOp7
 70
     1
102
RTVSPropertyOp8
 70
     1
102
RTVSPropertyOp9
 70
     1
102
RTVSPropertyOp10
 70
     1
102
RTVSPropertyOp11
 70
     1
102
RTVSPropertyOp12
 70
     1
102
RTVSPropertyOp13
 70
     1
102
RTVSPropertyOp14
 70
     1
102
RTVSPropertyOp15
 70
     1
102
RTVSPropertyOp16
 70
     1
102
RTVSPropertyOp17
 70
     1
102
RTVSPropertyOp18
 70
     1
102
RTVSPropertyOp19
 70
     1
102
RTVSPropertyOp20
 70
     1
102
RTVSPropertyOp21
 70
     1
102
RTVSPropertyOp22
 70
     1
102
RTVSPropertyOp23
 70
     1
102
RTVSPropertyOp24
 70
     1
102
RTVSPropertyOp25
 70
     1
102
RTVSPropertyOp26
 70
     1
102
RTVSPropertyOp27
 70
     1
102
RTVSPropertyOp28
 70
     1
102
RTVSPropertyOp29
 70
     1
102
RTVSPropertyOp30
 70
     1
102
RTVSPropertyOp31
 70
     1
102
RTVSPropertyOp32
 70
     1
102
RTVSPropertyOp33
 70
     1
102
RTVSPropertyOp34
 70
     1
102
RTVSPropertyOp35
 70
     1
102
RTVSPropertyOp36
 70
     1
102
RTVSPropertyOp37
 70
     1
102
RTVSPropertyOp38
 70
     1
102
RTVSPropertyOp39
 70
     1
102
RTVSPropertyOp40
 70
     1
102
RTVSPropertyOp41
 70
     1
102
RTVSPropertyOp42
 70
     1
102
RTVSPropertyOp43
 70
     1
102
RTVSPropertyOp44
 70
     1
102
RTVSPropertyOp45
 70
     1
102
RTVSPropertyOp46
 70
     1
102
RTVSPropertyOp47
 70
     1
102
RTVSPropertyOp48
 70
     1
102
RTVSPropertyOp49
 70
     1
102
RTVSPropertyOp50
 70
     1
102
RTVSPropertyOp51
 70
     0
102
RTVSPropertyOp52
 70
     0
102
RTVSPropertyOp53
 70
     1
102
RTVSPropertyOp54
 70
     1
102
RTVSPropertyOp55
 70
     1
102
RTVSPropertyOp56
 70
     1
102
RTVSPropertyOp57
 70
     1
102
RTVSPost2010Prop28
280
     0
102
RTVSPost2010PropOp28
 70
     1
102
RTVSPost2010Prop29
280
     1
102
RTVSPost2010PropOp29
 70
     1
102
RTVSPost2010Prop30
280
     1
102
RTVSPost2010PropOp30
 70
     1
102
RTVSPost2010Prop31
280
     0
102
RTVSPost2010PropOp31
 70
     1
102
RTVSPost2010Prop32
280
     0
102
RTVSPost2010PropOp32
 70
     1
102
RTVSPost2010Prop33
280
     0
102
RTVSPost2010PropOp33
 70
     1
102
RTVSPost2010Prop34
280
     0
102
RTVSPost2010PropOp34
 70
     1
102
RTVSPost2010Prop35
280
     0
102
RTVSPost2010PropOp35
 70
     1
102
RTVSPost2010Prop36
280
     0
102
RTVSPost2010PropOp36
 70
     1
102
RTVSPost2010Prop37
 90
       50
102
RTVSPost2010PropOp37
 70
     1
102
RTVSPost2010Prop38
140
0.0
102
RTVSPost2010PropOp38
 70
     1
102
RTVSPost2010Prop39
140
1.0
102
RTVSPost2010PropOp39
 70
     1
102
RTVSPost2010Prop40
 90
        0
102
RTVSPost2010PropOp40
 70
     1
102
RTVSPost2010Prop41ColorIndex
 90
       18
102
RTVSPost2010Prop41ColorRGB
 90
        0
102
RTVSPost2010PropOp41
 70
     1
102
RTVSPost2010Prop42
 90
       50
102
RTVSPost2010PropOp42
 70
     1
102
RTVSPost2010Prop43
 90
        3
102
RTVSPost2010PropOp43
 70
     1
102
RTVSPost2010Prop44ColorIndex
 90
        5
102
RTVSPost2010Prop44ColorRGB
 90
      255
102
RTVSPost2010PropOp44
 70
     1
102
RTVSPost2010Prop45
280
     0
102
RTVSPost2010PropOp45
 70
     1
102
RTVSPost2010Prop46
 90
       50
102
RTVSPost2010PropOp46
 70
     1
102
RTVSPost2010Prop47
 90
       50
102
RTVSPost2010PropOp47
 70
     1
102
RTVSPost2010Prop48
 90
       50
102
RTVSPost2010PropOp48
 70
     1
102
RTVSPost2010Prop49
280
     0
102
RTVSPost2010PropOp49
 70
     1
102
RTVSPost2010Prop50
 90
       50
102
RTVSPost2010PropOp50
 70
     1
102
RTVSPost2010Prop51ColorIndex
 90
      256
102
RTVSPost2010Prop51ColorRGB
 90
-16777216
102
RTVSPost2010PropOp51
 70
     0
102
RTVSPost2010Prop52
140
1.0
102
RTVSPost2010PropOp52
 70
     0
102
RTVSPost2010Prop53
 90
        2
102
RTVSPost2010PropOp53
 70
     1
102
RTVSPost2010Prop54
  1
strokes_ogs.tif
102
RTVSPost2010PropOp54
 70
     1
102
RTVSPost2010Prop55
280
     0
102
RTVSPost2010PropOp55
 70
     1
102
RTVSPost2010Prop56
140
1.0
102
RTVSPost2010PropOp56
 70
     1
102
RTVSPost2010Prop57
140
1.0
102
RTVSPost2010PropOp57
 70
     1
  0
XRECORD
  5
633
102
{ACAD_REACTORS
330
632
102
}
330
632
100
AcDbXrecord
280
     1
102
RTVSPropertyOp0
 70
     1
102
RTVSPropertyOp1
 70
     1
102
RTVSPropertyOp2
 70
     1
102
RTVSPropertyOp3
 70
     1
102
RTVSPropertyOp4
 70
     1
102
RTVSPropertyOp5
 70
     1
102
RTVSPropertyOp6
 70
     1
102
RTVSPropertyOp7
 70
     1
102
RTVSPropertyOp8
 70
     1
102
RTVSPropertyOp9
 70
     1
102
RTVSPropertyOp10
 70
     1
102
RTVSPropertyOp11
 70
     1
102
RTVSPropertyOp12
 70
     1
102
RTVSPropertyOp13
 70
     1
102
RTVSPropertyOp14
 70
     1
102
RTVSPropertyOp15
 70
     1
102
RTVSPropertyOp16
 70
     1
102
RTVSPropertyOp17
 70
     1
102
RTVSPropertyOp18
 70
     1
102
RTVSPropertyOp19
 70
     1
102
RTVSPropertyOp20
 70
     1
102
RTVSPropertyOp21
 70
     1
102
RTVSPropertyOp22
 70
     1
102
RTVSPropertyOp23
 70
     1
102
RTVSPropertyOp24
 70
     1
102
RTVSPropertyOp25
 70
     1
102
RTVSPropertyOp26
 70
     1
102
RTVSPropertyOp27
 70
     1
102
RTVSPropertyOp28
 70
     1
102
RTVSPropertyOp29
 70
     1
102
RTVSPropertyOp30
 70
     1
102
RTVSPropertyOp31
 70
     1
102
RTVSPropertyOp32
 70
     1
102
RTVSPropertyOp33
 70
     1
102
RTVSPropertyOp34
 70
     1
102
RTVSPropertyOp35
 70
     1
102
RTVSPropertyOp36
 70
     1
102
RTVSPropertyOp37
 70
     1
102
RTVSPropertyOp38
 70
     1
102
RTVSPropertyOp39
 70
     1
102
RTVSPropertyOp40
 70
     1
102
RTVSPropertyOp41
 70
     1
102
RTVSPropertyOp42
 70
     1
102
RTVSPropertyOp43
 70
     1
102
RTVSPropertyOp44
 70
     1
102
RTVSPropertyOp45
 70
     1
102
RTVSPropertyOp46
 70
     1
102
RTVSPropertyOp47
 70
     1
102
RTVSPropertyOp48
 70
     1
102
RTVSPropertyOp49
 70
     1
102
RTVSPropertyOp50
 70
     1
102
RTVSPropertyOp51
 70
     0
102
RTVSPropertyOp52
 70
     0
102
RTVSPropertyOp53
 70
     1
102
RTVSPropertyOp54
 70
     1
102
RTVSPropertyOp55
 70
     1
102
RTVSPropertyOp56
 70
     1
102
RTVSPropertyOp57
 70
     1
102
RTVSPost2010Prop28
280
     0
102
RTVSPost2010PropOp28
 70
     1
102
RTVSPost2010Prop29
280
     1
102
RTVSPost2010PropOp29
 70
     1
102
RTVSPost2010Prop30
280
     1
102
RTVSPost2010PropOp30
 70
     1
102
RTVSPost2010Prop31
280
     0
102
RTVSPost2010PropOp31
 70
     1
102
RTVSPost2010Prop32
280
     0
102
RTVSPost2010PropOp32
 70
     1
102
RTVSPost2010Prop33
280
     0
102
RTVSPost2010PropOp33
 70
     1
102
RTVSPost2010Prop34
280
     0
102
RTVSPost2010PropOp34
 70
     1
102
RTVSPost2010Prop35
280
     0
102
RTVSPost2010PropOp35
 70
     1
102
RTVSPost2010Prop36
280
     0
102
RTVSPost2010PropOp36
 70
     1
102
RTVSPost2010Prop37
 90
       50
102
RTVSPost2010PropOp37
 70
     1
102
RTVSPost2010Prop38
140
0.0
102
RTVSPost2010PropOp38
 70
     1
102
RTVSPost2010Prop39
140
1.0
102
RTVSPost2010PropOp39
 70
     1
102
RTVSPost2010Prop40
 90
        0
102
RTVSPost2010PropOp40
 70
     1
102
RTVSPost2010Prop41ColorIndex
 90
       18
102
RTVSPost2010Prop41ColorRGB
 90
        0
102
RTVSPost2010PropOp41
 70
     1
102
RTVSPost2010Prop42
 90
       50
102
RTVSPost2010PropOp42
 70
     1
102
RTVSPost2010Prop43
 90
        3
102
RTVSPost2010PropOp43
 70
     1
102
RTVSPost2010Prop44ColorIndex
 90
        5
102
RTVSPost2010Prop44ColorRGB
 90
      255
102
RTVSPost2010PropOp44
 70
     1
102
RTVSPost2010Prop45
280
     0
102
RTVSPost2010PropOp45
 70
     1
102
RTVSPost2010Prop46
 90
       50
102
RTVSPost2010PropOp46
 70
     1
102
RTVSPost2010Prop47
 90
       50
102
RTVSPost2010PropOp47
 70
     1
102
RTVSPost2010Prop48
 90
       50
102
RTVSPost2010PropOp48
 70
     1
102
RTVSPost2010Prop49
280
     0
102
RTVSPost2010PropOp49
 70
     1
102
RTVSPost2010Prop50
 90
       50
102
RTVSPost2010PropOp50
 70
     1
102
RTVSPost2010Prop51ColorIndex
 90
      256
102
RTVSPost2010Prop51ColorRGB
 90
-16777216
102
RTVSPost2010PropOp51
 70
     0
102
RTVSPost2010Prop52
140
1.0
102
RTVSPost2010PropOp52
 70
     0
102
RTVSPost2010Prop53
 90
        2
102
RTVSPost2010PropOp53
 70
     1
102
RTVSPost2010Prop54
  1
strokes_ogs.tif
102
RTVSPost2010PropOp54
 70
     1
102
RTVSPost2010Prop55
280
     0
102
RTVSPost2010PropOp55
 70
     1
102
RTVSPost2010Prop56
140
1.0
102
RTVSPost2010PropOp56
 70
     1
102
RTVSPost2010Prop57
140
1.0
102
RTVSPost2010PropOp57
 70
     1
  0
XRECORD
  5
635
102
{ACAD_REACTORS
330
634
102
}
330
634
100
AcDbXrecord
280
     1
102
RTVSPropertyOp0
 70
     1
102
RTVSPropertyOp1
 70
     1
102
RTVSPropertyOp2
 70
     1
102
RTVSPropertyOp3
 70
     1
102
RTVSPropertyOp4
 70
     1
102
RTVSPropertyOp5
 70
     1
102
RTVSPropertyOp6
 70
     1
102
RTVSPropertyOp7
 70
     1
102
RTVSPropertyOp8
 70
     1
102
RTVSPropertyOp9
 70
     1
102
RTVSPropertyOp10
 70
     1
102
RTVSPropertyOp11
 70
     1
102
RTVSPropertyOp12
 70
     1
102
RTVSPropertyOp13
 70
     1
102
RTVSPropertyOp14
 70
     1
102
RTVSPropertyOp15
 70
     1
102
RTVSPropertyOp16
 70
     1
102
RTVSPropertyOp17
 70
     1
102
RTVSPropertyOp18
 70
     1
102
RTVSPropertyOp19
 70
     1
102
RTVSPropertyOp20
 70
     1
102
RTVSPropertyOp21
 70
     1
102
RTVSPropertyOp22
 70
     1
102
RTVSPropertyOp23
 70
     1
102
RTVSPropertyOp24
 70
     1
102
RTVSPropertyOp25
 70
     1
102
RTVSPropertyOp26
 70
     1
102
RTVSPropertyOp27
 70
     1
102
RTVSPropertyOp28
 70
     1
102
RTVSPropertyOp29
 70
     1
102
RTVSPropertyOp30
 70
     1
102
RTVSPropertyOp31
 70
     1
102
RTVSPropertyOp32
 70
     1
102
RTVSPropertyOp33
 70
     1
102
RTVSPropertyOp34
 70
     1
102
RTVSPropertyOp35
 70
     1
102
RTVSPropertyOp36
 70
     1
102
RTVSPropertyOp37
 70
     1
102
RTVSPropertyOp38
 70
     1
102
RTVSPropertyOp39
 70
     1
102
RTVSPropertyOp40
 70
     1
102
RTVSPropertyOp41
 70
     1
102
RTVSPropertyOp42
 70
     1
102
RTVSPropertyOp43
 70
     1
102
RTVSPropertyOp44
 70
     1
102
RTVSPropertyOp45
 70
     1
102
RTVSPropertyOp46
 70
     1
102
RTVSPropertyOp47
 70
     1
102
RTVSPropertyOp48
 70
     1
102
RTVSPropertyOp49
 70
     1
102
RTVSPropertyOp50
 70
     1
102
RTVSPropertyOp51
 70
     0
102
RTVSPropertyOp52
 70
     0
102
RTVSPropertyOp53
 70
     1
102
RTVSPropertyOp54
 70
     1
102
RTVSPropertyOp55
 70
     1
102
RTVSPropertyOp56
 70
     1
102
RTVSPropertyOp57
 70
     1
102
RTVSPost2010Prop28
280
     0
102
RTVSPost2010PropOp28
 70
     1
102
RTVSPost2010Prop29
280
     1
102
RTVSPost2010PropOp29
 70
     1
102
RTVSPost2010Prop30
280
     1
102
RTVSPost2010PropOp30
 70
     1
102
RTVSPost2010Prop31
280
     0
102
RTVSPost2010PropOp31
 70
     1
102
RTVSPost2010Prop32
280
     0
102
RTVSPost2010PropOp32
 70
     1
102
RTVSPost2010Prop33
280
     0
102
RTVSPost2010PropOp33
 70
     1
102
RTVSPost2010Prop34
280
     0
102
RTVSPost2010PropOp34
 70
     1
102
RTVSPost2010Prop35
280
     0
102
RTVSPost2010PropOp35
 70
     1
102
RTVSPost2010Prop36
280
     0
102
RTVSPost2010PropOp36
 70
     1
102
RTVSPost2010Prop37
 90
       50
102
RTVSPost2010PropOp37
 70
     1
102
RTVSPost2010Prop38
140
0.0
102
RTVSPost2010PropOp38
 70
     1
102
RTVSPost2010Prop39
140
1.0
102
RTVSPost2010PropOp39
 70
     1
102
RTVSPost2010Prop40
 90
        0
102
RTVSPost2010PropOp40
 70
     1
102
RTVSPost2010Prop41ColorIndex
 90
       18
102
RTVSPost2010Prop41ColorRGB
 90
        0
102
RTVSPost2010PropOp41
 70
     1
102
RTVSPost2010Prop42
 90
       50
102
RTVSPost2010PropOp42
 70
     1
102
RTVSPost2010Prop43
 90
        3
102
RTVSPost2010PropOp43
 70
     1
102
RTVSPost2010Prop44ColorIndex
 90
        5
102
RTVSPost2010Prop44ColorRGB
 90
      255
102
RTVSPost2010PropOp44
 70
     1
102
RTVSPost2010Prop45
280
     0
102
RTVSPost2010PropOp45
 70
     1
102
RTVSPost2010Prop46
 90
       50
102
RTVSPost2010PropOp46
 70
     1
102
RTVSPost2010Prop47
 90
       50
102
RTVSPost2010PropOp47
 70
     1
102
RTVSPost2010Prop48
 90
       50
102
RTVSPost2010PropOp48
 70
     1
102
RTVSPost2010Prop49
280
     0
102
RTVSPost2010PropOp49
 70
     1
102
RTVSPost2010Prop50
 90
       50
102
RTVSPost2010PropOp50
 70
     1
102
RTVSPost2010Prop51ColorIndex
 90
      256
102
RTVSPost2010Prop51ColorRGB
 90
-16777216
102
RTVSPost2010PropOp51
 70
     0
102
RTVSPost2010Prop52
140
1.0
102
RTVSPost2010PropOp52
 70
     0
102
RTVSPost2010Prop53
 90
        2
102
RTVSPost2010PropOp53
 70
     1
102
RTVSPost2010Prop54
  1
strokes_ogs.tif
102
RTVSPost2010PropOp54
 70
     1
102
RTVSPost2010Prop55
280
     0
102
RTVSPost2010PropOp55
 70
     1
102
RTVSPost2010Prop56
140
1.0
102
RTVSPost2010PropOp56
 70
     1
102
RTVSPost2010Prop57
140
1.0
102
RTVSPost2010PropOp57
 70
     1
  0
XRECORD
  5
637
102
{ACAD_REACTORS
330
636
102
}
330
636
100
AcDbXrecord
280
     1
102
RTVSPropertyOp0
 70
     1
102
RTVSPropertyOp1
 70
     1
102
RTVSPropertyOp2
 70
     1
102
RTVSPropertyOp3
 70
     1
102
RTVSPropertyOp4
 70
     1
102
RTVSPropertyOp5
 70
     1
102
RTVSPropertyOp6
 70
     1
102
RTVSPropertyOp7
 70
     1
102
RTVSPropertyOp8
 70
     1
102
RTVSPropertyOp9
 70
     1
102
RTVSPropertyOp10
 70
     1
102
RTVSPropertyOp11
 70
     1
102
RTVSPropertyOp12
 70
     1
102
RTVSPropertyOp13
 70
     1
102
RTVSPropertyOp14
 70
     1
102
RTVSPropertyOp15
 70
     1
102
RTVSPropertyOp16
 70
     1
102
RTVSPropertyOp17
 70
     1
102
RTVSPropertyOp18
 70
     1
102
RTVSPropertyOp19
 70
     1
102
RTVSPropertyOp20
 70
     1
102
RTVSPropertyOp21
 70
     1
102
RTVSPropertyOp22
 70
     1
102
RTVSPropertyOp23
 70
     1
102
RTVSPropertyOp24
 70
     1
102
RTVSPropertyOp25
 70
     1
102
RTVSPropertyOp26
 70
     1
102
RTVSPropertyOp27
 70
     1
102
RTVSPropertyOp28
 70
     1
102
RTVSPropertyOp29
 70
     1
102
RTVSPropertyOp30
 70
     1
102
RTVSPropertyOp31
 70
     1
102
RTVSPropertyOp32
 70
     1
102
RTVSPropertyOp33
 70
     1
102
RTVSPropertyOp34
 70
     1
102
RTVSPropertyOp35
 70
     1
102
RTVSPropertyOp36
 70
     1
102
RTVSPropertyOp37
 70
     1
102
RTVSPropertyOp38
 70
     1
102
RTVSPropertyOp39
 70
     1
102
RTVSPropertyOp40
 70
     1
102
RTVSPropertyOp41
 70
     1
102
RTVSPropertyOp42
 70
     1
102
RTVSPropertyOp43
 70
     1
102
RTVSPropertyOp44
 70
     1
102
RTVSPropertyOp45
 70
     1
102
RTVSPropertyOp46
 70
     1
102
RTVSPropertyOp47
 70
     1
102
RTVSPropertyOp48
 70
     1
102
RTVSPropertyOp49
 70
     1
102
RTVSPropertyOp50
 70
     1
102
RTVSPropertyOp51
 70
     0
102
RTVSPropertyOp52
 70
     0
102
RTVSPropertyOp53
 70
     1
102
RTVSPropertyOp54
 70
     1
102
RTVSPropertyOp55
 70
     1
102
RTVSPropertyOp56
 70
     1
102
RTVSPropertyOp57
 70
     1
102
RTVSPost2010Prop28
280
     0
102
RTVSPost2010PropOp28
 70
     1
102
RTVSPost2010Prop29
280
     1
102
RTVSPost2010PropOp29
 70
     1
102
RTVSPost2010Prop30
280
     1
102
RTVSPost2010PropOp30
 70
     1
102
RTVSPost2010Prop31
280
     0
102
RTVSPost2010PropOp31
 70
     1
102
RTVSPost2010Prop32
280
     0
102
RTVSPost2010PropOp32
 70
     1
102
RTVSPost2010Prop33
280
     0
102
RTVSPost2010PropOp33
 70
     1
102
RTVSPost2010Prop34
280
     0
102
RTVSPost2010PropOp34
 70
     1
102
RTVSPost2010Prop35
280
     0
102
RTVSPost2010PropOp35
 70
     1
102
RTVSPost2010Prop36
280
     0
102
RTVSPost2010PropOp36
 70
     1
102
RTVSPost2010Prop37
 90
       50
102
RTVSPost2010PropOp37
 70
     1
102
RTVSPost2010Prop38
140
0.0
102
RTVSPost2010PropOp38
 70
     1
102
RTVSPost2010Prop39
140
1.0
102
RTVSPost2010PropOp39
 70
     1
102
RTVSPost2010Prop40
 90
        0
102
RTVSPost2010PropOp40
 70
     1
102
RTVSPost2010Prop41ColorIndex
 90
       18
102
RTVSPost2010Prop41ColorRGB
 90
        0
102
RTVSPost2010PropOp41
 70
     1
102
RTVSPost2010Prop42
 90
       50
102
RTVSPost2010PropOp42
 70
     1
102
RTVSPost2010Prop43
 90
        3
102
RTVSPost2010PropOp43
 70
     1
102
RTVSPost2010Prop44ColorIndex
 90
        5
102
RTVSPost2010Prop44ColorRGB
 90
      255
102
RTVSPost2010PropOp44
 70
     1
102
RTVSPost2010Prop45
280
     0
102
RTVSPost2010PropOp45
 70
     1
102
RTVSPost2010Prop46
 90
       50
102
RTVSPost2010PropOp46
 70
     1
102
RTVSPost2010Prop47
 90
       50
102
RTVSPost2010PropOp47
 70
     1
102
RTVSPost2010Prop48
 90
       50
102
RTVSPost2010PropOp48
 70
     1
102
RTVSPost2010Prop49
280
     0
102
RTVSPost2010PropOp49
 70
     1
102
RTVSPost2010Prop50
 90
       50
102
RTVSPost2010PropOp50
 70
     1
102
RTVSPost2010Prop51ColorIndex
 90
      256
102
RTVSPost2010Prop51ColorRGB
 90
-16777216
102
RTVSPost2010PropOp51
 70
     0
102
RTVSPost2010Prop52
140
1.0
102
RTVSPost2010PropOp52
 70
     0
102
RTVSPost2010Prop53
 90
        2
102
RTVSPost2010PropOp53
 70
     1
102
RTVSPost2010Prop54
  1
strokes_ogs.tif
102
RTVSPost2010PropOp54
 70
     1
102
RTVSPost2010Prop55
280
     0
102
RTVSPost2010PropOp55
 70
     1
102
RTVSPost2010Prop56
140
1.0
102
RTVSPost2010PropOp56
 70
     1
102
RTVSPost2010Prop57
140
1.0
102
RTVSPost2010PropOp57
 70
     1
  0
XRECORD
  5
64B
102
{ACAD_REACTORS
330
64A
102
}
330
64A
100
AcDbXrecord
280
     1
102
RTVSPropertyOp0
 70
     1
102
RTVSPropertyOp1
 70
     1
102
RTVSPropertyOp2
 70
     1
102
RTVSPropertyOp3
 70
     1
102
RTVSPropertyOp4
 70
     1
102
RTVSPropertyOp5
 70
     1
102
RTVSPropertyOp6
 70
     1
102
RTVSPropertyOp7
 70
     1
102
RTVSPropertyOp8
 70
     1
102
RTVSPropertyOp9
 70
     1
102
RTVSPropertyOp10
 70
     1
102
RTVSPropertyOp11
 70
     1
102
RTVSPropertyOp12
 70
     1
102
RTVSPropertyOp13
 70
     1
102
RTVSPropertyOp14
 70
     1
102
RTVSPropertyOp15
 70
     1
102
RTVSPropertyOp16
 70
     1
102
RTVSPropertyOp17
 70
     1
102
RTVSPropertyOp18
 70
     1
102
RTVSPropertyOp19
 70
     1
102
RTVSPropertyOp20
 70
     1
102
RTVSPropertyOp21
 70
     1
102
RTVSPropertyOp22
 70
     1
102
RTVSPropertyOp23
 70
     1
102
RTVSPropertyOp24
 70
     1
102
RTVSPropertyOp25
 70
     1
102
RTVSPropertyOp26
 70
     1
102
RTVSPropertyOp27
 70
     1
102
RTVSPropertyOp28
 70
     1
102
RTVSPropertyOp29
 70
     1
102
RTVSPropertyOp30
 70
     1
102
RTVSPropertyOp31
 70
     1
102
RTVSPropertyOp32
 70
     1
102
RTVSPropertyOp33
 70
     1
102
RTVSPropertyOp34
 70
     1
102
RTVSPropertyOp35
 70
     1
102
RTVSPropertyOp36
 70
     1
102
RTVSPropertyOp37
 70
     1
102
RTVSPropertyOp38
 70
     1
102
RTVSPropertyOp39
 70
     1
102
RTVSPropertyOp40
 70
     1
102
RTVSPropertyOp41
 70
     1
102
RTVSPropertyOp42
 70
     1
102
RTVSPropertyOp43
 70
     1
102
RTVSPropertyOp44
 70
     1
102
RTVSPropertyOp45
 70
     1
102
RTVSPropertyOp46
 70
     1
102
RTVSPropertyOp47
 70
     1
102
RTVSPropertyOp48
 70
     1
102
RTVSPropertyOp49
 70
     1
102
RTVSPropertyOp50
 70
     1
102
RTVSPropertyOp51
 70
     0
102
RTVSPropertyOp52
 70
     0
102
RTVSPropertyOp53
 70
     1
102
RTVSPropertyOp54
 70
     1
102
RTVSPropertyOp55
 70
     1
102
RTVSPropertyOp56
 70
     1
102
RTVSPropertyOp57
 70
     1
102
RTVSPost2010Prop28
280
     0
102
RTVSPost2010PropOp28
 70
     1
102
RTVSPost2010Prop29
280
     1
102
RTVSPost2010PropOp29
 70
     1
102
RTVSPost2010Prop30
280
     1
102
RTVSPost2010PropOp30
 70
     1
102
RTVSPost2010Prop31
280
     0
102
RTVSPost2010PropOp31
 70
     1
102
RTVSPost2010Prop32
280
     0
102
RTVSPost2010PropOp32
 70
     1
102
RTVSPost2010Prop33
280
     0
102
RTVSPost2010PropOp33
 70
     1
102
RTVSPost2010Prop34
280
     0
102
RTVSPost2010PropOp34
 70
     1
102
RTVSPost2010Prop35
280
     0
102
RTVSPost2010PropOp35
 70
     1
102
RTVSPost2010Prop36
280
     0
102
RTVSPost2010PropOp36
 70
     1
102
RTVSPost2010Prop37
 90
       50
102
RTVSPost2010PropOp37
 70
     1
102
RTVSPost2010Prop38
140
0.0
102
RTVSPost2010PropOp38
 70
     1
102
RTVSPost2010Prop39
140
1.0
102
RTVSPost2010PropOp39
 70
     1
102
RTVSPost2010Prop40
 90
        0
102
RTVSPost2010PropOp40
 70
     1
102
RTVSPost2010Prop41ColorIndex
 90
       18
102
RTVSPost2010Prop41ColorRGB
 90
        0
102
RTVSPost2010PropOp41
 70
     1
102
RTVSPost2010Prop42
 90
       50
102
RTVSPost2010PropOp42
 70
     1
102
RTVSPost2010Prop43
 90
        3
102
RTVSPost2010PropOp43
 70
     1
102
RTVSPost2010Prop44ColorIndex
 90
        5
102
RTVSPost2010Prop44ColorRGB
 90
      255
102
RTVSPost2010PropOp44
 70
     1
102
RTVSPost2010Prop45
280
     0
102
RTVSPost2010PropOp45
 70
     1
102
RTVSPost2010Prop46
 90
       50
102
RTVSPost2010PropOp46
 70
     1
102
RTVSPost2010Prop47
 90
       50
102
RTVSPost2010PropOp47
 70
     1
102
RTVSPost2010Prop48
 90
       50
102
RTVSPost2010PropOp48
 70
     1
102
RTVSPost2010Prop49
280
     0
102
RTVSPost2010PropOp49
 70
     1
102
RTVSPost2010Prop50
 90
       50
102
RTVSPost2010PropOp50
 70
     1
102
RTVSPost2010Prop51ColorIndex
 90
      256
102
RTVSPost2010Prop51ColorRGB
 90
-16777216
102
RTVSPost2010PropOp51
 70
     0
102
RTVSPost2010Prop52
140
1.0
102
RTVSPost2010PropOp52
 70
     0
102
RTVSPost2010Prop53
 90
        2
102
RTVSPost2010PropOp53
 70
     1
102
RTVSPost2010Prop54
  1
strokes_ogs.tif
102
RTVSPost2010PropOp54
 70
     1
102
RTVSPost2010Prop55
280
     0
102
RTVSPost2010PropOp55
 70
     1
102
RTVSPost2010Prop56
140
1.0
102
RTVSPost2010PropOp56
 70
     1
102
RTVSPost2010Prop57
140
1.0
102
RTVSPost2010PropOp57
 70
     1
  0
XRECORD
  5
641
102
{ACAD_REACTORS
330
640
102
}
330
640
100
AcDbXrecord
280
     1
102
RTVSPropertyOp0
 70
     1
102
RTVSPropertyOp1
 70
     1
102
RTVSPropertyOp2
 70
     1
102
RTVSPropertyOp3
 70
     1
102
RTVSPropertyOp4
 70
     1
102
RTVSPropertyOp5
 70
     1
102
RTVSPropertyOp6
 70
     1
102
RTVSPropertyOp7
 70
     1
102
RTVSPropertyOp8
 70
     1
102
RTVSPropertyOp9
 70
     1
102
RTVSPropertyOp10
 70
     1
102
RTVSPropertyOp11
 70
     1
102
RTVSPropertyOp12
 70
     1
102
RTVSPropertyOp13
 70
     1
102
RTVSPropertyOp14
 70
     1
102
RTVSPropertyOp15
 70
     1
102
RTVSPropertyOp16
 70
     1
102
RTVSPropertyOp17
 70
     1
102
RTVSPropertyOp18
 70
     1
102
RTVSPropertyOp19
 70
     1
102
RTVSPropertyOp20
 70
     1
102
RTVSPropertyOp21
 70
     1
102
RTVSPropertyOp22
 70
     1
102
RTVSPropertyOp23
 70
     1
102
RTVSPropertyOp24
 70
     1
102
RTVSPropertyOp25
 70
     1
102
RTVSPropertyOp26
 70
     1
102
RTVSPropertyOp27
 70
     1
102
RTVSPropertyOp28
 70
     1
102
RTVSPropertyOp29
 70
     1
102
RTVSPropertyOp30
 70
     1
102
RTVSPropertyOp31
 70
     1
102
RTVSPropertyOp32
 70
     1
102
RTVSPropertyOp33
 70
     1
102
RTVSPropertyOp34
 70
     1
102
RTVSPropertyOp35
 70
     1
102
RTVSPropertyOp36
 70
     1
102
RTVSPropertyOp37
 70
     1
102
RTVSPropertyOp38
 70
     1
102
RTVSPropertyOp39
 70
     1
102
RTVSPropertyOp40
 70
     1
102
RTVSPropertyOp41
 70
     1
102
RTVSPropertyOp42
 70
     1
102
RTVSPropertyOp43
 70
     1
102
RTVSPropertyOp44
 70
     1
102
RTVSPropertyOp45
 70
     1
102
RTVSPropertyOp46
 70
     1
102
RTVSPropertyOp47
 70
     1
102
RTVSPropertyOp48
 70
     1
102
RTVSPropertyOp49
 70
     1
102
RTVSPropertyOp50
 70
     1
102
RTVSPropertyOp51
 70
     0
102
RTVSPropertyOp52
 70
     0
102
RTVSPropertyOp53
 70
     1
102
RTVSPropertyOp54
 70
     1
102
RTVSPropertyOp55
 70
     1
102
RTVSPropertyOp56
 70
     1
102
RTVSPropertyOp57
 70
     1
102
RTVSPost2010Prop28
280
     0
102
RTVSPost2010PropOp28
 70
     1
102
RTVSPost2010Prop29
280
     1
102
RTVSPost2010PropOp29
 70
     1
102
RTVSPost2010Prop30
280
     1
102
RTVSPost2010PropOp30
 70
     1
102
RTVSPost2010Prop31
280
     0
102
RTVSPost2010PropOp31
 70
     1
102
RTVSPost2010Prop32
280
     0
102
RTVSPost2010PropOp32
 70
     1
102
RTVSPost2010Prop33
280
     0
102
RTVSPost2010PropOp33
 70
     1
102
RTVSPost2010Prop34
280
     0
102
RTVSPost2010PropOp34
 70
     1
102
RTVSPost2010Prop35
280
     0
102
RTVSPost2010PropOp35
 70
     1
102
RTVSPost2010Prop36
280
     0
102
RTVSPost2010PropOp36
 70
     1
102
RTVSPost2010Prop37
 90
       50
102
RTVSPost2010PropOp37
 70
     1
102
RTVSPost2010Prop38
140
0.0
102
RTVSPost2010PropOp38
 70
     1
102
RTVSPost2010Prop39
140
1.0
102
RTVSPost2010PropOp39
 70
     1
102
RTVSPost2010Prop40
 90
        0
102
RTVSPost2010PropOp40
 70
     1
102
RTVSPost2010Prop41ColorIndex
 90
       18
102
RTVSPost2010Prop41ColorRGB
 90
        0
102
RTVSPost2010PropOp41
 70
     1
102
RTVSPost2010Prop42
 90
       50
102
RTVSPost2010PropOp42
 70
     1
102
RTVSPost2010Prop43
 90
        3
102
RTVSPost2010PropOp43
 70
     1
102
RTVSPost2010Prop44ColorIndex
 90
        5
102
RTVSPost2010Prop44ColorRGB
 90
      255
102
RTVSPost2010PropOp44
 70
     1
102
RTVSPost2010Prop45
280
     0
102
RTVSPost2010PropOp45
 70
     1
102
RTVSPost2010Prop46
 90
       50
102
RTVSPost2010PropOp46
 70
     1
102
RTVSPost2010Prop47
 90
       50
102
RTVSPost2010PropOp47
 70
     1
102
RTVSPost2010Prop48
 90
       50
102
RTVSPost2010PropOp48
 70
     1
102
RTVSPost2010Prop49
280
     0
102
RTVSPost2010PropOp49
 70
     1
102
RTVSPost2010Prop50
 90
       50
102
RTVSPost2010PropOp50
 70
     1
102
RTVSPost2010Prop51ColorIndex
 90
      256
102
RTVSPost2010Prop51ColorRGB
 90
-16777216
102
RTVSPost2010PropOp51
 70
     0
102
RTVSPost2010Prop52
140
1.0
102
RTVSPost2010PropOp52
 70
     0
102
RTVSPost2010Prop53
 90
        2
102
RTVSPost2010PropOp53
 70
     1
102
RTVSPost2010Prop54
  1
strokes_ogs.tif
102
RTVSPost2010PropOp54
 70
     1
102
RTVSPost2010Prop55
280
     0
102
RTVSPost2010PropOp55
 70
     1
102
RTVSPost2010Prop56
140
1.0
102
RTVSPost2010PropOp56
 70
     1
102
RTVSPost2010Prop57
140
1.0
102
RTVSPost2010PropOp57
 70
     1
  0
XRECORD
  5
649
102
{ACAD_REACTORS
330
648
102
}
330
648
100
AcDbXrecord
280
     1
102
RTVSPropertyOp0
 70
     1
102
RTVSPropertyOp1
 70
     1
102
RTVSPropertyOp2
 70
     1
102
RTVSPropertyOp3
 70
     1
102
RTVSPropertyOp4
 70
     1
102
RTVSPropertyOp5
 70
     1
102
RTVSPropertyOp6
 70
     1
102
RTVSPropertyOp7
 70
     1
102
RTVSPropertyOp8
 70
     1
102
RTVSPropertyOp9
 70
     1
102
RTVSPropertyOp10
 70
     1
102
RTVSPropertyOp11
 70
     1
102
RTVSPropertyOp12
 70
     1
102
RTVSPropertyOp13
 70
     1
102
RTVSPropertyOp14
 70
     1
102
RTVSPropertyOp15
 70
     1
102
RTVSPropertyOp16
 70
     1
102
RTVSPropertyOp17
 70
     1
102
RTVSPropertyOp18
 70
     1
102
RTVSPropertyOp19
 70
     1
102
RTVSPropertyOp20
 70
     1
102
RTVSPropertyOp21
 70
     1
102
RTVSPropertyOp22
 70
     1
102
RTVSPropertyOp23
 70
     1
102
RTVSPropertyOp24
 70
     1
102
RTVSPropertyOp25
 70
     1
102
RTVSPropertyOp26
 70
     1
102
RTVSPropertyOp27
 70
     1
102
RTVSPropertyOp28
 70
     1
102
RTVSPropertyOp29
 70
     1
102
RTVSPropertyOp30
 70
     1
102
RTVSPropertyOp31
 70
     1
102
RTVSPropertyOp32
 70
     1
102
RTVSPropertyOp33
 70
     1
102
RTVSPropertyOp34
 70
     1
102
RTVSPropertyOp35
 70
     1
102
RTVSPropertyOp36
 70
     1
102
RTVSPropertyOp37
 70
     1
102
RTVSPropertyOp38
 70
     1
102
RTVSPropertyOp39
 70
     1
102
RTVSPropertyOp40
 70
     1
102
RTVSPropertyOp41
 70
     1
102
RTVSPropertyOp42
 70
     1
102
RTVSPropertyOp43
 70
     1
102
RTVSPropertyOp44
 70
     1
102
RTVSPropertyOp45
 70
     1
102
RTVSPropertyOp46
 70
     1
102
RTVSPropertyOp47
 70
     1
102
RTVSPropertyOp48
 70
     1
102
RTVSPropertyOp49
 70
     1
102
RTVSPropertyOp50
 70
     1
102
RTVSPropertyOp51
 70
     0
102
RTVSPropertyOp52
 70
     0
102
RTVSPropertyOp53
 70
     1
102
RTVSPropertyOp54
 70
     1
102
RTVSPropertyOp55
 70
     1
102
RTVSPropertyOp56
 70
     1
102
RTVSPropertyOp57
 70
     1
102
RTVSPost2010Prop28
280
     0
102
RTVSPost2010PropOp28
 70
     1
102
RTVSPost2010Prop29
280
     1
102
RTVSPost2010PropOp29
 70
     1
102
RTVSPost2010Prop30
280
     1
102
RTVSPost2010PropOp30
 70
     1
102
RTVSPost2010Prop31
280
     0
102
RTVSPost2010PropOp31
 70
     1
102
RTVSPost2010Prop32
280
     0
102
RTVSPost2010PropOp32
 70
     1
102
RTVSPost2010Prop33
280
     0
102
RTVSPost2010PropOp33
 70
     1
102
RTVSPost2010Prop34
280
     0
102
RTVSPost2010PropOp34
 70
     1
102
RTVSPost2010Prop35
280
     0
102
RTVSPost2010PropOp35
 70
     1
102
RTVSPost2010Prop36
280
     0
102
RTVSPost2010PropOp36
 70
     1
102
RTVSPost2010Prop37
 90
       50
102
RTVSPost2010PropOp37
 70
     1
102
RTVSPost2010Prop38
140
0.0
102
RTVSPost2010PropOp38
 70
     1
102
RTVSPost2010Prop39
140
1.0
102
RTVSPost2010PropOp39
 70
     1
102
RTVSPost2010Prop40
 90
        0
102
RTVSPost2010PropOp40
 70
     1
102
RTVSPost2010Prop41ColorIndex
 90
       18
102
RTVSPost2010Prop41ColorRGB
 90
        0
102
RTVSPost2010PropOp41
 70
     1
102
RTVSPost2010Prop42
 90
       50
102
RTVSPost2010PropOp42
 70
     1
102
RTVSPost2010Prop43
 90
        3
102
RTVSPost2010PropOp43
 70
     1
102
RTVSPost2010Prop44ColorIndex
 90
        5
102
RTVSPost2010Prop44ColorRGB
 90
      255
102
RTVSPost2010PropOp44
 70
     1
102
RTVSPost2010Prop45
280
     0
102
RTVSPost2010PropOp45
 70
     1
102
RTVSPost2010Prop46
 90
       50
102
RTVSPost2010PropOp46
 70
     1
102
RTVSPost2010Prop47
 90
       50
102
RTVSPost2010PropOp47
 70
     1
102
RTVSPost2010Prop48
 90
       50
102
RTVSPost2010PropOp48
 70
     1
102
RTVSPost2010Prop49
280
     0
102
RTVSPost2010PropOp49
 70
     1
102
RTVSPost2010Prop50
 90
       50
102
RTVSPost2010PropOp50
 70
     1
102
RTVSPost2010Prop51ColorIndex
 90
      256
102
RTVSPost2010Prop51ColorRGB
 90
-16777216
102
RTVSPost2010PropOp51
 70
     0
102
RTVSPost2010Prop52
140
1.0
102
RTVSPost2010PropOp52
 70
     0
102
RTVSPost2010Prop53
 90
        2
102
RTVSPost2010PropOp53
 70
     1
102
RTVSPost2010Prop54
  1
strokes_ogs.tif
102
RTVSPost2010PropOp54
 70
     1
102
RTVSPost2010Prop55
280
     0
102
RTVSPost2010PropOp55
 70
     1
102
RTVSPost2010Prop56
140
1.0
102
RTVSPost2010PropOp56
 70
     1
102
RTVSPost2010Prop57
140
1.0
102
RTVSPost2010PropOp57
 70
     1
  0
ENDSEC
  0
EOF
