  0
SECTION
  2
HEADER
  9
$ACADVER
  1
AC1004
  9
$INSBASE
 10
0.0
 20
0.0
  9
$EXTMIN
 10
-141.2491
 20
-76.25
  9
$EXTMAX
 10
150.6321
 20
71.8412
  9
$LIMMIN
 10
0.0
 20
0.0
  9
$LIMMAX
 10
12.0
 20
9.0
  9
$ORTHOMODE
 70
     0
  9
$REGENMODE
 70
     1
  9
$FILLMODE
 70
     1
  9
$QTEXTMODE
 70
     0
  9
$DRAGMODE
 70
     2
  9
$LTSCALE
 40
1.0
  9
$OSMODE
 70
    37
  9
$ATTMODE
 70
     1
  9
$TEXTSIZE
 40
0.2
  9
$TRACEWID
 40
0.05
  9
$TEXTSTYLE
  7
STANDARD
  9
$CLAYER
  8
0
  9
$CELTYPE
  6
BYLAYER
  9
$CECOLOR
 62
   256
  9
$DIMSCALE
 40
1.0
  9
$DIMASZ
 40
0.18
  9
$DIMEXO
 40
0.0625
  9
$DIMDLI
 40
0.38
  9
$DIMRND
 40
0.0
  9
$DIMDLE
 40
0.0
  9
$DIMEXE
 40
0.18
  9
$DIMTP
 40
0.0
  9
$DIMTM
 40
0.0
  9
$DIMTXT
 40
0.18
  9
$DIMCEN
 40
0.09
  9
$DIMTSZ
 40
0.0
  9
$DIMTOL
 70
     0
  9
$DIMLIM
 70
     0
  9
$DIMTIH
 70
     1
  9
$DIMTOH
 70
     1
  9
$DIMSE1
 70
     0
  9
$DIMSE2
 70
     0
  9
$DIMTAD
 70
     0
  9
$DIMZIN
 70
     0
  9
$DIMBLK
  1

  9
$DIMASO
 70
     1
  9
$DIMSHO
 70
     1
  9
$DIMPOST
  1

  9
$DIMAPOST
  1

  9
$DIMALT
 70
     0
  9
$DIMALTD
 70
     2
  9
$DIMALTF
 40
25.4
  9
$DIMLFAC
 40
1.0
  9
$DIMTOFL
 70
     0
  9
$DIMTVP
 40
0.0
  9
$DIMTIX
 70
     0
  9
$DIMSOXD
 70
     0
  9
$DIMSAH
 70
     0
  9
$DIMBLK1
  1

  9
$DIMBLK2
  1

  9
$LUNITS
 70
     2
  9
$LUPREC
 70
     4
  9
$SKETCHINC
 40
0.1
  9
$FILLETRAD
 40
0.5
  9
$AUNITS
 70
     0
  9
$AUPREC
 70
     0
  9
$MENU
  1
.
  9
$ELEVATION
 40
0.0
  9
$THICKNESS
 40
0.0
  9
$LIMCHECK
 70
     0
  9
$CHAMFERA
 40
0.5
  9
$CHAMFERB
 40
0.5
  9
$SKPOLY
 70
     0
  9
$TDCREATE
 40
2457210.476366366
  9
$TDUPDATE
 40
2457210.476367627
  9
$TDINDWG
 40
0.0000000116
  9
$TDUSRTIMER
 40
0.0000000116
  9
$USRTIMER
 70
     1
  9
$ANGBASE
 50
0.0
  9
$ANGDIR
 70
     0
  9
$PDMODE
 70
     0
  9
$PDSIZE
 40
0.0
  9
$PLINEWID
 40
0.0
  9
$COORDS
 70
     1
  9
$SPLFRAME
 70
     0
  9
$SPLINETYPE
 70
     6
  9
$SPLINESEGS
 70
     8
  9
$ATTDIA
 70
     0
  9
$ATTREQ
 70
     1
  9
$SURFTAB1
 70
     6
  9
$SURFTAB2
 70
     6
  9
$SURFTYPE
 70
     6
  9
$SURFU
 70
     6
  9
$SURFV
 70
     6
  9
$UCSNAME
  2

  9
$UCSORG
 10
0.0
 20
0.0
 30
0.0
  9
$UCSXDIR
 10
1.0
 20
0.0
 30
0.0
  9
$UCSYDIR
 10
0.0
 20
1.0
 30
0.0
  9
$USERI1
 70
     0
  9
$USERI2
 70
     0
  9
$USERI3
 70
     0
  9
$USERI4
 70
     0
  9
$USERI5
 70
     0
  9
$USERR1
 40
0.0
  9
$USERR2
 40
0.0
  9
$USERR3
 40
0.0
  9
$USERR4
 40
0.0
  9
$USERR5
 40
0.0
  9
$WORLDVIEW
 70
     1
  0
ENDSEC
  0
SECTION
  2
TABLES
  0
TABLE
  2
LTYPE
 70
     1
  0
LTYPE
  2
CONTINUOUS
 70
     0
  3
Solid line
 72
    65
 73
     0
 40
0.0
  0
ENDTAB
  0
TABLE
  2
LAYER
 70
     2
  0
LAYER
  2
0
 70
     0
 62
     7
  6
CONTINUOUS
  0
LAYER
  2
PRINTING
 70
     0
 62
     7
  6
CONTINUOUS
  0
ENDTAB
  0
TABLE
  2
STYLE
 70
     1
  0
STYLE
  2
STANDARD
 70
     0
 40
0.0
 41
1.0
 50
0.0
 71
     0
 42
0.2
  3
txt
  4

  0
ENDTAB
  0
TABLE
  2
VIEW
 70
     0
  0
ENDTAB
  0
ENDSEC
  0
SECTION
  2
BLOCKS
  0
ENDSEC
  0
SECTION
  2
ENTITIES
  0
POLYLINE
  8
PRINTING
 62
   250
 66
     1
 70
     1
  0
VERTEX
  8
PRINTING
 62
   250
 10
-86.2335
 20
-30.9088
  0
VERTEX
  8
PRINTING
 62
   250
 10
-89.2335
 20
-30.9088
  0
VERTEX
  8
PRINTING
 62
   250
 10
-89.2335
 20
-11.9088
  0
VERTEX
  8
PRINTING
 62
   250
 10
-86.2335
 20
-11.9088
  0
VERTEX
  8
PRINTING
 62
   250
 10
-86.2335
 20
-30.9088
  0
SEQEND
  8
PRINTING
 62
   250
  0
POLYLINE
  8
PRINTING
 62
   250
 66
     1
 70
     1
  0
VERTEX
  8
PRINTING
 62
   250
 10
-113.2335
 20
-30.9088
  0
VERTEX
  8
PRINTING
 62
   250
 10
-116.2335
 20
-30.9088
  0
VERTEX
  8
PRINTING
 62
   250
 10
-116.2335
 20
-11.9088
  0
VERTEX
  8
PRINTING
 62
   250
 10
-113.2335
 20
-11.9088
  0
VERTEX
  8
PRINTING
 62
   250
 10
-113.2335
 20
-30.9088
  0
SEQEND
  8
PRINTING
 62
   250
  0
POLYLINE
  8
PRINTING
 62
   250
 66
     1
 70
     1
  0
VERTEX
  8
PRINTING
 62
   250
 10
-135.2335
 20
-30.9088
  0
VERTEX
  8
PRINTING
 62
   250
 10
-138.2335
 20
-30.9088
  0
VERTEX
  8
PRINTING
 62
   250
 10
-138.2335
 20
-11.9088
  0
VERTEX
  8
PRINTING
 62
   250
 10
-135.2335
 20
-11.9088
  0
VERTEX
  8
PRINTING
 62
   250
 10
-135.2335
 20
-30.9088
  0
SEQEND
  8
PRINTING
 62
   250
  0
POLYLINE
  8
PRINTING
 62
   250
 66
     1
 70
     1
  0
VERTEX
  8
PRINTING
 62
   250
 10
-64.2335
 20
-30.9088
  0
VERTEX
  8
PRINTING
 62
   250
 10
-67.2335
 20
-30.9088
  0
VERTEX
  8
PRINTING
 62
   250
 10
-67.2335
 20
-11.9088
  0
VERTEX
  8
PRINTING
 62
   250
 10
-64.2335
 20
-11.9088
  0
VERTEX
  8
PRINTING
 62
   250
 10
-64.2335
 20
-30.9088
  0
SEQEND
  8
PRINTING
 62
   250
  0
POLYLINE
  8
PRINTING
 62
   250
 66
     1
 70
     1
  0
VERTEX
  8
PRINTING
 62
   250
 10
-67.2335
 20
-62.9088
  0
VERTEX
  8
PRINTING
 62
   250
 10
-68.8403
 20
-63.7555
  0
VERTEX
  8
PRINTING
 62
   250
 10
-71.7004
 20
-65.3707
  0
VERTEX
  8
PRINTING
 62
   250
 10
-75.4308
 20
-67.4635
  0
VERTEX
  8
PRINTING
 62
   250
 10
-79.6486
 20
-69.743
  0
VERTEX
  8
PRINTING
 62
   250
 10
-83.9707
 20
-71.9182
  0
VERTEX
  8
PRINTING
 62
   250
 10
-88.0141
 20
-73.6982
  0
VERTEX
  8
PRINTING
 62
   250
 10
-91.3961
 20
-74.792
  0
VERTEX
  8
PRINTING
 62
   250
 10
-93.7335
 20
-74.9088
  0
VERTEX
  8
PRINTING
 62
   250
 10
-95.6495
 20
-74.5808
  0
VERTEX
  8
PRINTING
 62
   250
 10
-97.6241
 20
-74.3466
  0
VERTEX
  8
PRINTING
 62
   250
 10
-99.6222
 20
-74.2061
  0
VERTEX
  8
PRINTING
 62
   250
 10
-101.6085
 20
-74.1592
  0
VERTEX
  8
PRINTING
 62
   250
 10
-103.548
 20
-74.2061
  0
VERTEX
  8
PRINTING
 62
   250
 10
-105.4055
 20
-74.3466
  0
VERTEX
  8
PRINTING
 62
   250
 10
-107.1457
 20
-74.5809
  0
VERTEX
  8
PRINTING
 62
   250
 10
-108.7335
 20
-74.9088
  0
VERTEX
  8
PRINTING
 62
   250
 10
-111.0443
 20
-74.8034
  0
VERTEX
  8
PRINTING
 62
   250
 10
-114.3616
 20
-73.7373
  0
VERTEX
  8
PRINTING
 62
   250
 10
-118.3253
 20
-71.9915
  0
VERTEX
  8
PRINTING
 62
   250
 10
-122.5751
 20
-69.8472
  0
VERTEX
  8
PRINTING
 62
   250
 10
-126.751
 20
-67.5856
  0
VERTEX
  8
PRINTING
 62
   250
 10
-130.4928
 20
-65.4879
  0
VERTEX
  8
PRINTING
 62
   250
 10
-133.4404
 20
-63.8353
  0
VERTEX
  8
PRINTING
 62
   250
 10
-135.2335
 20
-62.9088
  0
VERTEX
  8
PRINTING
 62
   250
 10
-136.9659
 20
-57.3053
  0
VERTEX
  8
PRINTING
 62
   250
 10
-138.4054
 20
-50.5182
  0
VERTEX
  8
PRINTING
 62
   250
 10
-139.5401
 20
-42.9576
  0
VERTEX
  8
PRINTING
 62
   250
 10
-140.3585
 20
-35.0338
  0
VERTEX
  8
PRINTING
 62
   250
 10
-140.8487
 20
-27.1568
  0
VERTEX
  8
PRINTING
 62
   250
 10
-140.9991
 20
-19.7369
  0
VERTEX
  8
PRINTING
 62
   250
 10
-140.798
 20
-13.1842
  0
VERTEX
  8
PRINTING
 62
   250
 10
-140.2335
 20
-7.9088
  0
VERTEX
  8
PRINTING
 62
   250
 10
-138.8419
 20
-2.5693
  0
VERTEX
  8
PRINTING
 62
   250
 10
-137.3507
 20
3.2106
  0
VERTEX
  8
PRINTING
 62
   250
 10
-135.8478
 20
9.2604
  0
VERTEX
  8
PRINTING
 62
   250
 10
-134.421
 20
15.4097
  0
VERTEX
  8
PRINTING
 62
   250
 10
-133.1583
 20
21.4878
  0
VERTEX
  8
PRINTING
 62
   250
 10
-132.1476
 20
27.3245
  0
VERTEX
  8
PRINTING
 62
   250
 10
-131.4767
 20
32.7491
  0
VERTEX
  8
PRINTING
 62
   250
 10
-131.2335
 20
37.5912
  0
VERTEX
  8
PRINTING
 62
   250
 10
-130.8468
 20
41.6361
  0
VERTEX
  8
PRINTING
 62
   250
 10
-129.6398
 20
46.7006
  0
VERTEX
  8
PRINTING
 62
   250
 10
-127.5421
 20
52.3041
  0
VERTEX
  8
PRINTING
 62
   250
 10
-124.4835
 20
57.9662
  0
VERTEX
  8
PRINTING
 62
   250
 10
-120.3937
 20
63.2064
  0
VERTEX
  8
PRINTING
 62
   250
 10
-115.2023
 20
67.5443
  0
VERTEX
  8
PRINTING
 62
   250
 10
-108.839
 20
70.4994
  0
VERTEX
  8
PRINTING
 62
   250
 10
-101.2335
 20
71.5912
  0
VERTEX
  8
PRINTING
 62
   250
 10
-93.628
 20
70.4965
  0
VERTEX
  8
PRINTING
 62
   250
 10
-87.2648
 20
67.5343
  0
VERTEX
  8
PRINTING
 62
   250
 10
-82.0733
 20
63.1876
  0
VERTEX
  8
PRINTING
 62
   250
 10
-77.9835
 20
57.9394
  0
VERTEX
  8
PRINTING
 62
   250
 10
-74.9249
 20
52.2727
  0
VERTEX
  8
PRINTING
 62
   250
 10
-72.8273
 20
46.6705
  0
VERTEX
  8
PRINTING
 62
   250
 10
-71.6202
 20
41.6156
  0
VERTEX
  8
PRINTING
 62
   250
 10
-71.2335
 20
37.5912
  0
VERTEX
  8
PRINTING
 62
   250
 10
-70.9903
 20
32.9326
  0
VERTEX
  8
PRINTING
 62
   250
 10
-70.3194
 20
27.5941
  0
VERTEX
  8
PRINTING
 62
   250
 10
-69.3087
 20
21.7687
  0
VERTEX
  8
PRINTING
 62
   250
 10
-68.046
 20
15.6494
  0
VERTEX
  8
PRINTING
 62
   250
 10
-66.6192
 20
9.429
  0
VERTEX
  8
PRINTING
 62
   250
 10
-65.1163
 20
3.3005
  0
VERTEX
  8
PRINTING
 62
   250
 10
-63.6251
 20
-2.5431
  0
VERTEX
  8
PRINTING
 62
   250
 10
-62.2335
 20
-7.9088
  0
VERTEX
  8
PRINTING
 62
   250
 10
-61.669
 20
-13.4713
  0
VERTEX
  8
PRINTING
 62
   250
 10
-61.4679
 20
-20.1588
  0
VERTEX
  8
PRINTING
 62
   250
 10
-61.6183
 20
-27.5963
  0
VERTEX
  8
PRINTING
 62
   250
 10
-62.1085
 20
-35.4088
  0
VERTEX
  8
PRINTING
 62
   250
 10
-62.9269
 20
-43.2213
  0
VERTEX
  8
PRINTING
 62
   250
 10
-64.0616
 20
-50.6588
  0
VERTEX
  8
PRINTING
 62
   250
 10
-65.5011
 20
-57.3463
  0
VERTEX
  8
PRINTING
 62
   250
 10
-67.2335
 20
-62.9088
  0
SEQEND
  8
PRINTING
 62
   250
  0
POLYLINE
  8
PRINTING
 62
   250
 66
     1
 70
     1
  0
VERTEX
  8
PRINTING
 62
   250
 10
-106.2335
 20
39.5912
  0
VERTEX
  8
PRINTING
 62
   250
 10
-96.2335
 20
39.5912
  0
VERTEX
  8
PRINTING
 62
   250
 10
-96.2335
 20
36.5912
  0
VERTEX
  8
PRINTING
 62
   250
 10
-106.2335
 20
36.5912
  0
VERTEX
  8
PRINTING
 62
   250
 10
-106.2335
 20
39.5912
  0
SEQEND
  8
PRINTING
 62
   250
  0
POLYLINE
  8
PRINTING
 62
   250
 66
     1
 70
     1
  0
VERTEX
  8
PRINTING
 62
   250
 10
-128.2335
 20
-49.9088
  0
VERTEX
  8
PRINTING
 62
   250
 10
-125.2335
 20
-49.9088
  0
VERTEX
  8
PRINTING
 62
   250
 10
-125.2335
 20
-59.9088
  0
VERTEX
  8
PRINTING
 62
   250
 10
-128.2335
 20
-59.9088
  0
VERTEX
  8
PRINTING
 62
   250
 10
-128.2335
 20
-49.9088
  0
SEQEND
  8
PRINTING
 62
   250
  0
POLYLINE
  8
PRINTING
 62
   250
 66
     1
 70
     1
  0
VERTEX
  8
PRINTING
 62
   250
 10
-77.2335
 20
-49.9088
  0
VERTEX
  8
PRINTING
 62
   250
 10
-74.2335
 20
-49.9088
  0
VERTEX
  8
PRINTING
 62
   250
 10
-74.2335
 20
-59.9088
  0
VERTEX
  8
PRINTING
 62
   250
 10
-77.2335
 20
-59.9088
  0
VERTEX
  8
PRINTING
 62
   250
 10
-77.2335
 20
-49.9088
  0
SEQEND
  8
PRINTING
 62
   250
  0
POLYLINE
  8
PRINTING
 62
   250
 66
     1
 70
     1
  0
VERTEX
  8
PRINTING
 62
   250
 10
-102.7335
 20
56.5912
  0
VERTEX
  8
PRINTING
 62
   250
 10
-99.7335
 20
56.5912
  0
VERTEX
  8
PRINTING
 62
   250
 10
-99.7335
 20
46.5912
  0
VERTEX
  8
PRINTING
 62
   250
 10
-102.7335
 20
46.5912
  0
VERTEX
  8
PRINTING
 62
   250
 10
-102.7335
 20
56.5912
  0
SEQEND
  8
PRINTING
 62
   250
  0
POLYLINE
  8
PRINTING
 62
   250
 66
     1
 70
     1
  0
VERTEX
  8
PRINTING
 62
   250
 10
-95.2335
 20
-72.9088
  0
VERTEX
  8
PRINTING
 62
   250
 10
-95.6366
 20
-72.8682
  0
VERTEX
  8
PRINTING
 62
   250
 10
-96.012
 20
-72.7516
  0
VERTEX
  8
PRINTING
 62
   250
 10
-96.3517
 20
-72.5672
  0
VERTEX
  8
PRINTING
 62
   250
 10
-96.6477
 20
-72.323
  0
VERTEX
  8
PRINTING
 62
   250
 10
-96.8919
 20
-72.027
  0
VERTEX
  8
PRINTING
 62
   250
 10
-97.0763
 20
-71.6873
  0
VERTEX
  8
PRINTING
 62
   250
 10
-97.1929
 20
-71.3119
  0
VERTEX
  8
PRINTING
 62
   250
 10
-97.2335
 20
-70.9088
  0
VERTEX
  8
PRINTING
 62
   250
 10
-97.1929
 20
-70.5057
  0
VERTEX
  8
PRINTING
 62
   250
 10
-97.0763
 20
-70.1303
  0
VERTEX
  8
PRINTING
 62
   250
 10
-96.8919
 20
-69.7906
  0
VERTEX
  8
PRINTING
 62
   250
 10
-96.6477
 20
-69.4946
  0
VERTEX
  8
PRINTING
 62
   250
 10
-96.3517
 20
-69.2504
  0
VERTEX
  8
PRINTING
 62
   250
 10
-96.012
 20
-69.066
  0
VERTEX
  8
PRINTING
 62
   250
 10
-95.6366
 20
-68.9494
  0
VERTEX
  8
PRINTING
 62
   250
 10
-95.2335
 20
-68.9088
  0
VERTEX
  8
PRINTING
 62
   250
 10
-94.8304
 20
-68.9494
  0
VERTEX
  8
PRINTING
 62
   250
 10
-94.455
 20
-69.066
  0
VERTEX
  8
PRINTING
 62
   250
 10
-94.1153
 20
-69.2504
  0
VERTEX
  8
PRINTING
 62
   250
 10
-93.8193
 20
-69.4946
  0
VERTEX
  8
PRINTING
 62
   250
 10
-93.5751
 20
-69.7906
  0
VERTEX
  8
PRINTING
 62
   250
 10
-93.3907
 20
-70.1303
  0
VERTEX
  8
PRINTING
 62
   250
 10
-93.2741
 20
-70.5057
  0
VERTEX
  8
PRINTING
 62
   250
 10
-93.2335
 20
-70.9088
  0
VERTEX
  8
PRINTING
 62
   250
 10
-93.2741
 20
-71.3119
  0
VERTEX
  8
PRINTING
 62
   250
 10
-93.3907
 20
-71.6873
  0
VERTEX
  8
PRINTING
 62
   250
 10
-93.5751
 20
-72.027
  0
VERTEX
  8
PRINTING
 62
   250
 10
-93.8193
 20
-72.323
  0
VERTEX
  8
PRINTING
 62
   250
 10
-94.1153
 20
-72.5672
  0
VERTEX
  8
PRINTING
 62
   250
 10
-94.455
 20
-72.7516
  0
VERTEX
  8
PRINTING
 62
   250
 10
-94.8304
 20
-72.8682
  0
VERTEX
  8
PRINTING
 62
   250
 10
-95.2335
 20
-72.9088
  0
SEQEND
  8
PRINTING
 62
   250
  0
POLYLINE
  8
PRINTING
 62
   250
 66
     1
 70
     1
  0
VERTEX
  8
PRINTING
 62
   250
 10
-107.2335
 20
-72.9088
  0
VERTEX
  8
PRINTING
 62
   250
 10
-107.6366
 20
-72.8682
  0
VERTEX
  8
PRINTING
 62
   250
 10
-108.012
 20
-72.7516
  0
VERTEX
  8
PRINTING
 62
   250
 10
-108.3517
 20
-72.5672
  0
VERTEX
  8
PRINTING
 62
   250
 10
-108.6477
 20
-72.323
  0
VERTEX
  8
PRINTING
 62
   250
 10
-108.8919
 20
-72.027
  0
VERTEX
  8
PRINTING
 62
   250
 10
-109.0763
 20
-71.6873
  0
VERTEX
  8
PRINTING
 62
   250
 10
-109.1929
 20
-71.3119
  0
VERTEX
  8
PRINTING
 62
   250
 10
-109.2335
 20
-70.9088
  0
VERTEX
  8
PRINTING
 62
   250
 10
-109.1929
 20
-70.5057
  0
VERTEX
  8
PRINTING
 62
   250
 10
-109.0763
 20
-70.1303
  0
VERTEX
  8
PRINTING
 62
   250
 10
-108.8919
 20
-69.7906
  0
VERTEX
  8
PRINTING
 62
   250
 10
-108.6477
 20
-69.4946
  0
VERTEX
  8
PRINTING
 62
   250
 10
-108.3517
 20
-69.2504
  0
VERTEX
  8
PRINTING
 62
   250
 10
-108.012
 20
-69.066
  0
VERTEX
  8
PRINTING
 62
   250
 10
-107.6366
 20
-68.9494
  0
VERTEX
  8
PRINTING
 62
   250
 10
-107.2335
 20
-68.9088
  0
VERTEX
  8
PRINTING
 62
   250
 10
-106.8304
 20
-68.9494
  0
VERTEX
  8
PRINTING
 62
   250
 10
-106.455
 20
-69.066
  0
VERTEX
  8
PRINTING
 62
   250
 10
-106.1153
 20
-69.2504
  0
VERTEX
  8
PRINTING
 62
   250
 10
-105.8193
 20
-69.4946
  0
VERTEX
  8
PRINTING
 62
   250
 10
-105.5751
 20
-69.7906
  0
VERTEX
  8
PRINTING
 62
   250
 10
-105.3907
 20
-70.1303
  0
VERTEX
  8
PRINTING
 62
   250
 10
-105.2741
 20
-70.5057
  0
VERTEX
  8
PRINTING
 62
   250
 10
-105.2335
 20
-70.9088
  0
VERTEX
  8
PRINTING
 62
   250
 10
-105.2741
 20
-71.3119
  0
VERTEX
  8
PRINTING
 62
   250
 10
-105.3907
 20
-71.6873
  0
VERTEX
  8
PRINTING
 62
   250
 10
-105.5751
 20
-72.027
  0
VERTEX
  8
PRINTING
 62
   250
 10
-105.8193
 20
-72.323
  0
VERTEX
  8
PRINTING
 62
   250
 10
-106.1153
 20
-72.5672
  0
VERTEX
  8
PRINTING
 62
   250
 10
-106.455
 20
-72.7516
  0
VERTEX
  8
PRINTING
 62
   250
 10
-106.8304
 20
-72.8682
  0
VERTEX
  8
PRINTING
 62
   250
 10
-107.2335
 20
-72.9088
  0
SEQEND
  8
PRINTING
 62
   250
  0
POLYLINE
  8
PRINTING
 62
   250
 66
     1
 70
     1
  0
VERTEX
  8
PRINTING
 62
   250
 10
-106.2335
 20
66.0912
  0
VERTEX
  8
PRINTING
 62
   250
 10
-96.2335
 20
66.0912
  0
VERTEX
  8
PRINTING
 62
   250
 10
-96.2335
 20
63.0912
  0
VERTEX
  8
PRINTING
 62
   250
 10
-106.2335
 20
63.0912
  0
VERTEX
  8
PRINTING
 62
   250
 10
-106.2335
 20
66.0912
  0
SEQEND
  8
PRINTING
 62
   250
  0
POLYLINE
  8
PRINTING
 62
   250
 66
     1
 70
     1
  0
VERTEX
  8
PRINTING
 62
   250
 10
-125.6432
 20
-24.4088
  0
VERTEX
  8
PRINTING
 62
   250
 10
-126.0463
 20
-24.3682
  0
VERTEX
  8
PRINTING
 62
   250
 10
-126.4217
 20
-24.2516
  0
VERTEX
  8
PRINTING
 62
   250
 10
-126.7614
 20
-24.0672
  0
VERTEX
  8
PRINTING
 62
   250
 10
-127.0574
 20
-23.823
  0
VERTEX
  8
PRINTING
 62
   250
 10
-127.3016
 20
-23.527
  0
VERTEX
  8
PRINTING
 62
   250
 10
-127.486
 20
-23.1873
  0
VERTEX
  8
PRINTING
 62
   250
 10
-127.6026
 20
-22.8119
  0
VERTEX
  8
PRINTING
 62
   250
 10
-127.6432
 20
-22.4088
  0
VERTEX
  8
PRINTING
 62
   250
 10
-127.6026
 20
-22.0057
  0
VERTEX
  8
PRINTING
 62
   250
 10
-127.486
 20
-21.6303
  0
VERTEX
  8
PRINTING
 62
   250
 10
-127.3016
 20
-21.2906
  0
VERTEX
  8
PRINTING
 62
   250
 10
-127.0574
 20
-20.9946
  0
VERTEX
  8
PRINTING
 62
   250
 10
-126.7614
 20
-20.7504
  0
VERTEX
  8
PRINTING
 62
   250
 10
-126.4217
 20
-20.566
  0
VERTEX
  8
PRINTING
 62
   250
 10
-126.0463
 20
-20.4494
  0
VERTEX
  8
PRINTING
 62
   250
 10
-125.6432
 20
-20.4088
  0
VERTEX
  8
PRINTING
 62
   250
 10
-125.2401
 20
-20.4494
  0
VERTEX
  8
PRINTING
 62
   250
 10
-124.8647
 20
-20.566
  0
VERTEX
  8
PRINTING
 62
   250
 10
-124.525
 20
-20.7504
  0
VERTEX
  8
PRINTING
 62
   250
 10
-124.229
 20
-20.9946
  0
VERTEX
  8
PRINTING
 62
   250
 10
-123.9848
 20
-21.2906
  0
VERTEX
  8
PRINTING
 62
   250
 10
-123.8004
 20
-21.6303
  0
VERTEX
  8
PRINTING
 62
   250
 10
-123.6838
 20
-22.0057
  0
VERTEX
  8
PRINTING
 62
   250
 10
-123.6432
 20
-22.4088
  0
VERTEX
  8
PRINTING
 62
   250
 10
-123.6838
 20
-22.8119
  0
VERTEX
  8
PRINTING
 62
   250
 10
-123.8004
 20
-23.1873
  0
VERTEX
  8
PRINTING
 62
   250
 10
-123.9848
 20
-23.527
  0
VERTEX
  8
PRINTING
 62
   250
 10
-124.229
 20
-23.823
  0
VERTEX
  8
PRINTING
 62
   250
 10
-124.525
 20
-24.0672
  0
VERTEX
  8
PRINTING
 62
   250
 10
-124.8647
 20
-24.2516
  0
VERTEX
  8
PRINTING
 62
   250
 10
-125.2401
 20
-24.3682
  0
VERTEX
  8
PRINTING
 62
   250
 10
-125.6432
 20
-24.4088
  0
SEQEND
  8
PRINTING
 62
   250
  0
POLYLINE
  8
PRINTING
 62
   250
 66
     1
 70
     1
  0
VERTEX
  8
PRINTING
 62
   250
 10
-95.2335
 20
50.0912
  0
VERTEX
  8
PRINTING
 62
   250
 10
-95.5358
 20
50.1217
  0
VERTEX
  8
PRINTING
 62
   250
 10
-95.8174
 20
50.2091
  0
VERTEX
  8
PRINTING
 62
   250
 10
-96.0722
 20
50.3474
  0
VERTEX
  8
PRINTING
 62
   250
 10
-96.2942
 20
50.5305
  0
VERTEX
  8
PRINTING
 62
   250
 10
-96.4773
 20
50.7525
  0
VERTEX
  8
PRINTING
 62
   250
 10
-96.6156
 20
51.0073
  0
VERTEX
  8
PRINTING
 62
   250
 10
-96.703
 20
51.2889
  0
VERTEX
  8
PRINTING
 62
   250
 10
-96.7335
 20
51.5912
  0
VERTEX
  8
PRINTING
 62
   250
 10
-96.703
 20
51.8935
  0
VERTEX
  8
PRINTING
 62
   250
 10
-96.6156
 20
52.1751
  0
VERTEX
  8
PRINTING
 62
   250
 10
-96.4773
 20
52.4299
  0
VERTEX
  8
PRINTING
 62
   250
 10
-96.2942
 20
52.6519
  0
VERTEX
  8
PRINTING
 62
   250
 10
-96.0722
 20
52.835
  0
VERTEX
  8
PRINTING
 62
   250
 10
-95.8174
 20
52.9733
  0
VERTEX
  8
PRINTING
 62
   250
 10
-95.5358
 20
53.0607
  0
VERTEX
  8
PRINTING
 62
   250
 10
-95.2335
 20
53.0912
  0
VERTEX
  8
PRINTING
 62
   250
 10
-94.9312
 20
53.0607
  0
VERTEX
  8
PRINTING
 62
   250
 10
-94.6496
 20
52.9733
  0
VERTEX
  8
PRINTING
 62
   250
 10
-94.3948
 20
52.835
  0
VERTEX
  8
PRINTING
 62
   250
 10
-94.1728
 20
52.6519
  0
VERTEX
  8
PRINTING
 62
   250
 10
-93.9897
 20
52.4299
  0
VERTEX
  8
PRINTING
 62
   250
 10
-93.8514
 20
52.1751
  0
VERTEX
  8
PRINTING
 62
   250
 10
-93.764
 20
51.8935
  0
VERTEX
  8
PRINTING
 62
   250
 10
-93.7335
 20
51.5912
  0
VERTEX
  8
PRINTING
 62
   250
 10
-93.764
 20
51.2889
  0
VERTEX
  8
PRINTING
 62
   250
 10
-93.8514
 20
51.0073
  0
VERTEX
  8
PRINTING
 62
   250
 10
-93.9897
 20
50.7525
  0
VERTEX
  8
PRINTING
 62
   250
 10
-94.1728
 20
50.5305
  0
VERTEX
  8
PRINTING
 62
   250
 10
-94.3948
 20
50.3474
  0
VERTEX
  8
PRINTING
 62
   250
 10
-94.6496
 20
50.2091
  0
VERTEX
  8
PRINTING
 62
   250
 10
-94.9312
 20
50.1217
  0
VERTEX
  8
PRINTING
 62
   250
 10
-95.2335
 20
50.0912
  0
SEQEND
  8
PRINTING
 62
   250
  0
POLYLINE
  8
PRINTING
 62
   250
 66
     1
 70
     1
  0
VERTEX
  8
PRINTING
 62
   250
 10
-107.2335
 20
50.0912
  0
VERTEX
  8
PRINTING
 62
   250
 10
-107.5358
 20
50.1217
  0
VERTEX
  8
PRINTING
 62
   250
 10
-107.8174
 20
50.2091
  0
VERTEX
  8
PRINTING
 62
   250
 10
-108.0722
 20
50.3474
  0
VERTEX
  8
PRINTING
 62
   250
 10
-108.2942
 20
50.5306
  0
VERTEX
  8
PRINTING
 62
   250
 10
-108.4773
 20
50.7525
  0
VERTEX
  8
PRINTING
 62
   250
 10
-108.6156
 20
51.0073
  0
VERTEX
  8
PRINTING
 62
   250
 10
-108.703
 20
51.2889
  0
VERTEX
  8
PRINTING
 62
   250
 10
-108.7335
 20
51.5912
  0
VERTEX
  8
PRINTING
 62
   250
 10
-108.703
 20
51.8935
  0
VERTEX
  8
PRINTING
 62
   250
 10
-108.6156
 20
52.1751
  0
VERTEX
  8
PRINTING
 62
   250
 10
-108.4773
 20
52.4299
  0
VERTEX
  8
PRINTING
 62
   250
 10
-108.2942
 20
52.6519
  0
VERTEX
  8
PRINTING
 62
   250
 10
-108.0722
 20
52.835
  0
VERTEX
  8
PRINTING
 62
   250
 10
-107.8174
 20
52.9733
  0
VERTEX
  8
PRINTING
 62
   250
 10
-107.5358
 20
53.0607
  0
VERTEX
  8
PRINTING
 62
   250
 10
-107.2335
 20
53.0912
  0
VERTEX
  8
PRINTING
 62
   250
 10
-106.9312
 20
53.0607
  0
VERTEX
  8
PRINTING
 62
   250
 10
-106.6496
 20
52.9733
  0
VERTEX
  8
PRINTING
 62
   250
 10
-106.3948
 20
52.835
  0
VERTEX
  8
PRINTING
 62
   250
 10
-106.1728
 20
52.6519
  0
VERTEX
  8
PRINTING
 62
   250
 10
-105.9897
 20
52.4299
  0
VERTEX
  8
PRINTING
 62
   250
 10
-105.8514
 20
52.1751
  0
VERTEX
  8
PRINTING
 62
   250
 10
-105.764
 20
51.8935
  0
VERTEX
  8
PRINTING
 62
   250
 10
-105.7335
 20
51.5912
  0
VERTEX
  8
PRINTING
 62
   250
 10
-105.764
 20
51.2889
  0
VERTEX
  8
PRINTING
 62
   250
 10
-105.8514
 20
51.0073
  0
VERTEX
  8
PRINTING
 62
   250
 10
-105.9897
 20
50.7525
  0
VERTEX
  8
PRINTING
 62
   250
 10
-106.1728
 20
50.5306
  0
VERTEX
  8
PRINTING
 62
   250
 10
-106.3948
 20
50.3474
  0
VERTEX
  8
PRINTING
 62
   250
 10
-106.6496
 20
50.2091
  0
VERTEX
  8
PRINTING
 62
   250
 10
-106.9312
 20
50.1217
  0
VERTEX
  8
PRINTING
 62
   250
 10
-107.2335
 20
50.0912
  0
SEQEND
  8
PRINTING
 62
   250
  0
POLYLINE
  8
PRINTING
 62
   250
 66
     1
 70
     1
  0
VERTEX
  8
PRINTING
 62
   250
 10
-101.2335
 20
41.5912
  0
VERTEX
  8
PRINTING
 62
   250
 10
-101.5358
 20
41.6217
  0
VERTEX
  8
PRINTING
 62
   250
 10
-101.8174
 20
41.7091
  0
VERTEX
  8
PRINTING
 62
   250
 10
-102.0722
 20
41.8474
  0
VERTEX
  8
PRINTING
 62
   250
 10
-102.2942
 20
42.0306
  0
VERTEX
  8
PRINTING
 62
   250
 10
-102.4773
 20
42.2525
  0
VERTEX
  8
PRINTING
 62
   250
 10
-102.6156
 20
42.5073
  0
VERTEX
  8
PRINTING
 62
   250
 10
-102.703
 20
42.7889
  0
VERTEX
  8
PRINTING
 62
   250
 10
-102.7335
 20
43.0912
  0
VERTEX
  8
PRINTING
 62
   250
 10
-102.703
 20
43.3935
  0
VERTEX
  8
PRINTING
 62
   250
 10
-102.6156
 20
43.6751
  0
VERTEX
  8
PRINTING
 62
   250
 10
-102.4773
 20
43.9299
  0
VERTEX
  8
PRINTING
 62
   250
 10
-102.2942
 20
44.1519
  0
VERTEX
  8
PRINTING
 62
   250
 10
-102.0722
 20
44.335
  0
VERTEX
  8
PRINTING
 62
   250
 10
-101.8174
 20
44.4733
  0
VERTEX
  8
PRINTING
 62
   250
 10
-101.5358
 20
44.5607
  0
VERTEX
  8
PRINTING
 62
   250
 10
-101.2335
 20
44.5912
  0
VERTEX
  8
PRINTING
 62
   250
 10
-100.9312
 20
44.5607
  0
VERTEX
  8
PRINTING
 62
   250
 10
-100.6496
 20
44.4733
  0
VERTEX
  8
PRINTING
 62
   250
 10
-100.3948
 20
44.335
  0
VERTEX
  8
PRINTING
 62
   250
 10
-100.1728
 20
44.1519
  0
VERTEX
  8
PRINTING
 62
   250
 10
-99.9897
 20
43.9299
  0
VERTEX
  8
PRINTING
 62
   250
 10
-99.8514
 20
43.6751
  0
VERTEX
  8
PRINTING
 62
   250
 10
-99.764
 20
43.3935
  0
VERTEX
  8
PRINTING
 62
   250
 10
-99.7335
 20
43.0912
  0
VERTEX
  8
PRINTING
 62
   250
 10
-99.764
 20
42.7889
  0
VERTEX
  8
PRINTING
 62
   250
 10
-99.8514
 20
42.5073
  0
VERTEX
  8
PRINTING
 62
   250
 10
-99.9897
 20
42.2525
  0
VERTEX
  8
PRINTING
 62
   250
 10
-100.1728
 20
42.0305
  0
VERTEX
  8
PRINTING
 62
   250
 10
-100.3948
 20
41.8474
  0
VERTEX
  8
PRINTING
 62
   250
 10
-100.6496
 20
41.7091
  0
VERTEX
  8
PRINTING
 62
   250
 10
-100.9312
 20
41.6217
  0
VERTEX
  8
PRINTING
 62
   250
 10
-101.2335
 20
41.5912
  0
SEQEND
  8
PRINTING
 62
   250
  0
POLYLINE
  8
PRINTING
 62
   250
 66
     1
 70
     1
  0
VERTEX
  8
PRINTING
 62
   250
 10
-101.2335
 20
58.5912
  0
VERTEX
  8
PRINTING
 62
   250
 10
-101.5358
 20
58.6217
  0
VERTEX
  8
PRINTING
 62
   250
 10
-101.8174
 20
58.7091
  0
VERTEX
  8
PRINTING
 62
   250
 10
-102.0722
 20
58.8474
  0
VERTEX
  8
PRINTING
 62
   250
 10
-102.2942
 20
59.0306
  0
VERTEX
  8
PRINTING
 62
   250
 10
-102.4773
 20
59.2525
  0
VERTEX
  8
PRINTING
 62
   250
 10
-102.6156
 20
59.5073
  0
VERTEX
  8
PRINTING
 62
   250
 10
-102.703
 20
59.7889
  0
VERTEX
  8
PRINTING
 62
   250
 10
-102.7335
 20
60.0912
  0
VERTEX
  8
PRINTING
 62
   250
 10
-102.703
 20
60.3935
  0
VERTEX
  8
PRINTING
 62
   250
 10
-102.6156
 20
60.6751
  0
VERTEX
  8
PRINTING
 62
   250
 10
-102.4773
 20
60.9299
  0
VERTEX
  8
PRINTING
 62
   250
 10
-102.2942
 20
61.1519
  0
VERTEX
  8
PRINTING
 62
   250
 10
-102.0722
 20
61.335
  0
VERTEX
  8
PRINTING
 62
   250
 10
-101.8174
 20
61.4733
  0
VERTEX
  8
PRINTING
 62
   250
 10
-101.5358
 20
61.5607
  0
VERTEX
  8
PRINTING
 62
   250
 10
-101.2335
 20
61.5912
  0
VERTEX
  8
PRINTING
 62
   250
 10
-100.9312
 20
61.5607
  0
VERTEX
  8
PRINTING
 62
   250
 10
-100.6496
 20
61.4733
  0
VERTEX
  8
PRINTING
 62
   250
 10
-100.3948
 20
61.335
  0
VERTEX
  8
PRINTING
 62
   250
 10
-100.1728
 20
61.1519
  0
VERTEX
  8
PRINTING
 62
   250
 10
-99.9897
 20
60.9299
  0
VERTEX
  8
PRINTING
 62
   250
 10
-99.8514
 20
60.6751
  0
VERTEX
  8
PRINTING
 62
   250
 10
-99.764
 20
60.3935
  0
VERTEX
  8
PRINTING
 62
   250
 10
-99.7335
 20
60.0912
  0
VERTEX
  8
PRINTING
 62
   250
 10
-99.764
 20
59.7889
  0
VERTEX
  8
PRINTING
 62
   250
 10
-99.8514
 20
59.5073
  0
VERTEX
  8
PRINTING
 62
   250
 10
-99.9897
 20
59.2525
  0
VERTEX
  8
PRINTING
 62
   250
 10
-100.1728
 20
59.0305
  0
VERTEX
  8
PRINTING
 62
   250
 10
-100.3948
 20
58.8474
  0
VERTEX
  8
PRINTING
 62
   250
 10
-100.6496
 20
58.7091
  0
VERTEX
  8
PRINTING
 62
   250
 10
-100.9312
 20
58.6217
  0
VERTEX
  8
PRINTING
 62
   250
 10
-101.2335
 20
58.5912
  0
SEQEND
  8
PRINTING
 62
   250
  0
POLYLINE
  8
PRINTING
 62
   250
 66
     1
 70
     1
  0
VERTEX
  8
PRINTING
 62
   250
 10
-80.2335
 20
-56.9088
  0
VERTEX
  8
PRINTING
 62
   250
 10
-80.6366
 20
-56.8682
  0
VERTEX
  8
PRINTING
 62
   250
 10
-81.012
 20
-56.7516
  0
VERTEX
  8
PRINTING
 62
   250
 10
-81.3517
 20
-56.5672
  0
VERTEX
  8
PRINTING
 62
   250
 10
-81.6477
 20
-56.323
  0
VERTEX
  8
PRINTING
 62
   250
 10
-81.8919
 20
-56.027
  0
VERTEX
  8
PRINTING
 62
   250
 10
-82.0763
 20
-55.6873
  0
VERTEX
  8
PRINTING
 62
   250
 10
-82.1929
 20
-55.3119
  0
VERTEX
  8
PRINTING
 62
   250
 10
-82.2335
 20
-54.9088
  0
VERTEX
  8
PRINTING
 62
   250
 10
-82.1929
 20
-54.5057
  0
VERTEX
  8
PRINTING
 62
   250
 10
-82.0763
 20
-54.1303
  0
VERTEX
  8
PRINTING
 62
   250
 10
-81.8919
 20
-53.7906
  0
VERTEX
  8
PRINTING
 62
   250
 10
-81.6477
 20
-53.4946
  0
VERTEX
  8
PRINTING
 62
   250
 10
-81.3517
 20
-53.2504
  0
VERTEX
  8
PRINTING
 62
   250
 10
-81.012
 20
-53.066
  0
VERTEX
  8
PRINTING
 62
   250
 10
-80.6366
 20
-52.9494
  0
VERTEX
  8
PRINTING
 62
   250
 10
-80.2335
 20
-52.9088
  0
VERTEX
  8
PRINTING
 62
   250
 10
-79.8304
 20
-52.9494
  0
VERTEX
  8
PRINTING
 62
   250
 10
-79.455
 20
-53.066
  0
VERTEX
  8
PRINTING
 62
   250
 10
-79.1153
 20
-53.2504
  0
VERTEX
  8
PRINTING
 62
   250
 10
-78.8193
 20
-53.4946
  0
VERTEX
  8
PRINTING
 62
   250
 10
-78.5751
 20
-53.7906
  0
VERTEX
  8
PRINTING
 62
   250
 10
-78.3907
 20
-54.1303
  0
VERTEX
  8
PRINTING
 62
   250
 10
-78.2741
 20
-54.5057
  0
VERTEX
  8
PRINTING
 62
   250
 10
-78.2335
 20
-54.9088
  0
VERTEX
  8
PRINTING
 62
   250
 10
-78.2741
 20
-55.3119
  0
VERTEX
  8
PRINTING
 62
   250
 10
-78.3907
 20
-55.6873
  0
VERTEX
  8
PRINTING
 62
   250
 10
-78.5751
 20
-56.027
  0
VERTEX
  8
PRINTING
 62
   250
 10
-78.8193
 20
-56.323
  0
VERTEX
  8
PRINTING
 62
   250
 10
-79.1153
 20
-56.5672
  0
VERTEX
  8
PRINTING
 62
   250
 10
-79.455
 20
-56.7516
  0
VERTEX
  8
PRINTING
 62
   250
 10
-79.8304
 20
-56.8682
  0
VERTEX
  8
PRINTING
 62
   250
 10
-80.2335
 20
-56.9088
  0
SEQEND
  8
PRINTING
 62
   250
  0
POLYLINE
  8
PRINTING
 62
   250
 66
     1
 70
     1
  0
VERTEX
  8
PRINTING
 62
   250
 10
-122.2335
 20
-52.9088
  0
VERTEX
  8
PRINTING
 62
   250
 10
-121.8304
 20
-52.9494
  0
VERTEX
  8
PRINTING
 62
   250
 10
-121.455
 20
-53.066
  0
VERTEX
  8
PRINTING
 62
   250
 10
-121.1153
 20
-53.2504
  0
VERTEX
  8
PRINTING
 62
   250
 10
-120.8193
 20
-53.4946
  0
VERTEX
  8
PRINTING
 62
   250
 10
-120.5751
 20
-53.7906
  0
VERTEX
  8
PRINTING
 62
   250
 10
-120.3907
 20
-54.1303
  0
VERTEX
  8
PRINTING
 62
   250
 10
-120.2741
 20
-54.5057
  0
VERTEX
  8
PRINTING
 62
   250
 10
-120.2335
 20
-54.9088
  0
VERTEX
  8
PRINTING
 62
   250
 10
-120.2741
 20
-55.3119
  0
VERTEX
  8
PRINTING
 62
   250
 10
-120.3907
 20
-55.6873
  0
VERTEX
  8
PRINTING
 62
   250
 10
-120.5751
 20
-56.027
  0
VERTEX
  8
PRINTING
 62
   250
 10
-120.8193
 20
-56.323
  0
VERTEX
  8
PRINTING
 62
   250
 10
-121.1153
 20
-56.5672
  0
VERTEX
  8
PRINTING
 62
   250
 10
-121.455
 20
-56.7516
  0
VERTEX
  8
PRINTING
 62
   250
 10
-121.8304
 20
-56.8682
  0
VERTEX
  8
PRINTING
 62
   250
 10
-122.2335
 20
-56.9088
  0
VERTEX
  8
PRINTING
 62
   250
 10
-122.6366
 20
-56.8682
  0
VERTEX
  8
PRINTING
 62
   250
 10
-123.012
 20
-56.7516
  0
VERTEX
  8
PRINTING
 62
   250
 10
-123.3517
 20
-56.5672
  0
VERTEX
  8
PRINTING
 62
   250
 10
-123.6477
 20
-56.323
  0
VERTEX
  8
PRINTING
 62
   250
 10
-123.8919
 20
-56.027
  0
VERTEX
  8
PRINTING
 62
   250
 10
-124.0763
 20
-55.6873
  0
VERTEX
  8
PRINTING
 62
   250
 10
-124.1929
 20
-55.3119
  0
VERTEX
  8
PRINTING
 62
   250
 10
-124.2335
 20
-54.9088
  0
VERTEX
  8
PRINTING
 62
   250
 10
-124.1929
 20
-54.5057
  0
VERTEX
  8
PRINTING
 62
   250
 10
-124.0763
 20
-54.1303
  0
VERTEX
  8
PRINTING
 62
   250
 10
-123.8919
 20
-53.7906
  0
VERTEX
  8
PRINTING
 62
   250
 10
-123.6477
 20
-53.4946
  0
VERTEX
  8
PRINTING
 62
   250
 10
-123.3517
 20
-53.2504
  0
VERTEX
  8
PRINTING
 62
   250
 10
-123.012
 20
-53.066
  0
VERTEX
  8
PRINTING
 62
   250
 10
-122.6366
 20
-52.9494
  0
VERTEX
  8
PRINTING
 62
   250
 10
-122.2335
 20
-52.9088
  0
SEQEND
  8
PRINTING
 62
   250
  0
POLYLINE
  8
PRINTING
 62
   250
 66
     1
 70
     1
  0
VERTEX
  8
PRINTING
 62
   250
 10
-76.8238
 20
-24.4088
  0
VERTEX
  8
PRINTING
 62
   250
 10
-77.2269
 20
-24.3682
  0
VERTEX
  8
PRINTING
 62
   250
 10
-77.6023
 20
-24.2516
  0
VERTEX
  8
PRINTING
 62
   250
 10
-77.942
 20
-24.0672
  0
VERTEX
  8
PRINTING
 62
   250
 10
-78.238
 20
-23.823
  0
VERTEX
  8
PRINTING
 62
   250
 10
-78.4822
 20
-23.527
  0
VERTEX
  8
PRINTING
 62
   250
 10
-78.6666
 20
-23.1873
  0
VERTEX
  8
PRINTING
 62
   250
 10
-78.7832
 20
-22.8119
  0
VERTEX
  8
PRINTING
 62
   250
 10
-78.8238
 20
-22.4088
  0
VERTEX
  8
PRINTING
 62
   250
 10
-78.7832
 20
-22.0057
  0
VERTEX
  8
PRINTING
 62
   250
 10
-78.6666
 20
-21.6303
  0
VERTEX
  8
PRINTING
 62
   250
 10
-78.4822
 20
-21.2906
  0
VERTEX
  8
PRINTING
 62
   250
 10
-78.238
 20
-20.9946
  0
VERTEX
  8
PRINTING
 62
   250
 10
-77.942
 20
-20.7504
  0
VERTEX
  8
PRINTING
 62
   250
 10
-77.6023
 20
-20.566
  0
VERTEX
  8
PRINTING
 62
   250
 10
-77.2269
 20
-20.4494
  0
VERTEX
  8
PRINTING
 62
   250
 10
-76.8238
 20
-20.4088
  0
VERTEX
  8
PRINTING
 62
   250
 10
-76.4207
 20
-20.4494
  0
VERTEX
  8
PRINTING
 62
   250
 10
-76.0453
 20
-20.566
  0
VERTEX
  8
PRINTING
 62
   250
 10
-75.7056
 20
-20.7504
  0
VERTEX
  8
PRINTING
 62
   250
 10
-75.4096
 20
-20.9946
  0
VERTEX
  8
PRINTING
 62
   250
 10
-75.1654
 20
-21.2906
  0
VERTEX
  8
PRINTING
 62
   250
 10
-74.981
 20
-21.6303
  0
VERTEX
  8
PRINTING
 62
   250
 10
-74.8644
 20
-22.0057
  0
VERTEX
  8
PRINTING
 62
   250
 10
-74.8238
 20
-22.4088
  0
VERTEX
  8
PRINTING
 62
   250
 10
-74.8644
 20
-22.8119
  0
VERTEX
  8
PRINTING
 62
   250
 10
-74.981
 20
-23.1873
  0
VERTEX
  8
PRINTING
 62
   250
 10
-75.1654
 20
-23.527
  0
VERTEX
  8
PRINTING
 62
   250
 10
-75.4096
 20
-23.823
  0
VERTEX
  8
PRINTING
 62
   250
 10
-75.7056
 20
-24.0672
  0
VERTEX
  8
PRINTING
 62
   250
 10
-76.0453
 20
-24.2516
  0
VERTEX
  8
PRINTING
 62
   250
 10
-76.4207
 20
-24.3682
  0
VERTEX
  8
PRINTING
 62
   250
 10
-76.8238
 20
-24.4088
  0
SEQEND
  8
PRINTING
 62
   250
  0
POLYLINE
  8
PRINTING
 62
   250
 66
     1
 70
     1
  0
VERTEX
  8
PRINTING
 62
   250
 10
53.5784
 20
-44.3635
  0
VERTEX
  8
PRINTING
 62
   250
 10
53.5378
 20
-44.7665
  0
VERTEX
  8
PRINTING
 62
   250
 10
53.4212
 20
-45.142
  0
VERTEX
  8
PRINTING
 62
   250
 10
53.2368
 20
-45.4817
  0
VERTEX
  8
PRINTING
 62
   250
 10
52.9926
 20
-45.7777
  0
VERTEX
  8
PRINTING
 62
   250
 10
52.6966
 20
-46.0219
  0
VERTEX
  8
PRINTING
 62
   250
 10
52.3569
 20
-46.2063
  0
VERTEX
  8
PRINTING
 62
   250
 10
51.9815
 20
-46.3229
  0
VERTEX
  8
PRINTING
 62
   250
 10
51.5784
 20
-46.3635
  0
VERTEX
  8
PRINTING
 62
   250
 10
51.1753
 20
-46.3229
  0
VERTEX
  8
PRINTING
 62
   250
 10
50.7999
 20
-46.2063
  0
VERTEX
  8
PRINTING
 62
   250
 10
50.4602
 20
-46.0219
  0
VERTEX
  8
PRINTING
 62
   250
 10
50.1642
 20
-45.7777
  0
VERTEX
  8
PRINTING
 62
   250
 10
49.92
 20
-45.4817
  0
VERTEX
  8
PRINTING
 62
   250
 10
49.7356
 20
-45.142
  0
VERTEX
  8
PRINTING
 62
   250
 10
49.619
 20
-44.7665
  0
VERTEX
  8
PRINTING
 62
   250
 10
49.5784
 20
-44.3635
  0
VERTEX
  8
PRINTING
 62
   250
 10
49.7503
 20
-43.5003
  0
VERTEX
  8
PRINTING
 62
   250
 10
50.2034
 20
-42.8837
  0
VERTEX
  8
PRINTING
 62
   250
 10
50.844
 20
-42.5138
  0
VERTEX
  8
PRINTING
 62
   250
 10
51.5784
 20
-42.3905
  0
VERTEX
  8
PRINTING
 62
   250
 10
52.3128
 20
-42.5138
  0
VERTEX
  8
PRINTING
 62
   250
 10
52.9534
 20
-42.8837
  0
VERTEX
  8
PRINTING
 62
   250
 10
53.4065
 20
-43.5003
  0
VERTEX
  8
PRINTING
 62
   250
 10
53.5784
 20
-44.3635
  0
SEQEND
  8
PRINTING
 62
   250
  0
POLYLINE
  8
PRINTING
 62
   250
 66
     1
 70
     1
  0
VERTEX
  8
PRINTING
 62
   250
 10
51.5784
 20
-56.3769
  0
VERTEX
  8
PRINTING
 62
   250
 10
49.16
 20
-56.1331
  0
VERTEX
  8
PRINTING
 62
   250
 10
46.9075
 20
-55.4339
  0
VERTEX
  8
PRINTING
 62
   250
 10
44.8691
 20
-54.3275
  0
VERTEX
  8
PRINTING
 62
   250
 10
43.0931
 20
-52.8622
  0
VERTEX
  8
PRINTING
 62
   250
 10
41.6278
 20
-51.0862
  0
VERTEX
  8
PRINTING
 62
   250
 10
40.5214
 20
-49.0478
  0
VERTEX
  8
PRINTING
 62
   250
 10
39.8222
 20
-46.7953
  0
VERTEX
  8
PRINTING
 62
   250
 10
39.5784
 20
-44.3769
  0
VERTEX
  8
PRINTING
 62
   250
 10
39.7503
 20
-43.5137
  0
VERTEX
  8
PRINTING
 62
   250
 10
40.2034
 20
-42.8971
  0
VERTEX
  8
PRINTING
 62
   250
 10
40.844
 20
-42.5272
  0
VERTEX
  8
PRINTING
 62
   250
 10
41.5784
 20
-42.4039
  0
VERTEX
  8
PRINTING
 62
   250
 10
42.3128
 20
-42.5272
  0
VERTEX
  8
PRINTING
 62
   250
 10
42.9534
 20
-42.8971
  0
VERTEX
  8
PRINTING
 62
   250
 10
43.4065
 20
-43.5137
  0
VERTEX
  8
PRINTING
 62
   250
 10
43.5784
 20
-44.3769
  0
VERTEX
  8
PRINTING
 62
   250
 10
43.7409
 20
-45.9892
  0
VERTEX
  8
PRINTING
 62
   250
 10
44.2071
 20
-47.4909
  0
VERTEX
  8
PRINTING
 62
   250
 10
44.9447
 20
-48.8498
  0
VERTEX
  8
PRINTING
 62
   250
 10
45.9215
 20
-50.0338
  0
VERTEX
  8
PRINTING
 62
   250
 10
47.1055
 20
-51.0106
  0
VERTEX
  8
PRINTING
 62
   250
 10
48.4644
 20
-51.7482
  0
VERTEX
  8
PRINTING
 62
   250
 10
49.9661
 20
-52.2144
  0
VERTEX
  8
PRINTING
 62
   250
 10
51.5784
 20
-52.3769
  0
VERTEX
  8
PRINTING
 62
   250
 10
53.1907
 20
-52.2039
  0
VERTEX
  8
PRINTING
 62
   250
 10
54.6924
 20
-51.7122
  0
VERTEX
  8
PRINTING
 62
   250
 10
56.0513
 20
-50.943
  0
VERTEX
  8
PRINTING
 62
   250
 10
57.2353
 20
-49.9376
  0
VERTEX
  8
PRINTING
 62
   250
 10
58.2121
 20
-48.7371
  0
VERTEX
  8
PRINTING
 62
   250
 10
58.9497
 20
-47.3827
  0
VERTEX
  8
PRINTING
 62
   250
 10
59.4159
 20
-45.9156
  0
VERTEX
  8
PRINTING
 62
   250
 10
59.5784
 20
-44.3769
  0
VERTEX
  8
PRINTING
 62
   250
 10
59.5788
 20
-44.3769
  0
VERTEX
  8
PRINTING
 62
   250
 10
59.5784
 20
-44.3501
  0
VERTEX
  8
PRINTING
 62
   250
 10
59.7503
 20
-43.4869
  0
VERTEX
  8
PRINTING
 62
   250
 10
60.2034
 20
-42.8703
  0
VERTEX
  8
PRINTING
 62
   250
 10
60.844
 20
-42.5004
  0
VERTEX
  8
PRINTING
 62
   250
 10
61.5784
 20
-42.3771
  0
VERTEX
  8
PRINTING
 62
   250
 10
62.3128
 20
-42.5004
  0
VERTEX
  8
PRINTING
 62
   250
 10
62.9534
 20
-42.8703
  0
VERTEX
  8
PRINTING
 62
   250
 10
63.4065
 20
-43.4869
  0
VERTEX
  8
PRINTING
 62
   250
 10
63.5784
 20
-44.3501
  0
VERTEX
  8
PRINTING
 62
   250
 10
63.578
 20
-44.3769
  0
VERTEX
  8
PRINTING
 62
   250
 10
63.5784
 20
-44.3769
  0
VERTEX
  8
PRINTING
 62
   250
 10
63.3346
 20
-46.7224
  0
VERTEX
  8
PRINTING
 62
   250
 10
62.6354
 20
-48.9407
  0
VERTEX
  8
PRINTING
 62
   250
 10
61.529
 20
-50.9746
  0
VERTEX
  8
PRINTING
 62
   250
 10
60.0637
 20
-52.7669
  0
VERTEX
  8
PRINTING
 62
   250
 10
58.2877
 20
-54.2605
  0
VERTEX
  8
PRINTING
 62
   250
 10
56.2493
 20
-55.3982
  0
VERTEX
  8
PRINTING
 62
   250
 10
53.9968
 20
-56.1227
  0
VERTEX
  8
PRINTING
 62
   250
 10
51.5784
 20
-56.3769
  0
SEQEND
  8
PRINTING
 62
   250
  0
POLYLINE
  8
PRINTING
 62
   250
 66
     1
 70
     1
  0
VERTEX
  8
PRINTING
 62
   250
 10
10.5784
 20
61.6231
  0
VERTEX
  8
PRINTING
 62
   250
 10
12.5081
 20
64.5762
  0
VERTEX
  8
PRINTING
 62
   250
 10
15.1409
 20
66.6856
  0
VERTEX
  8
PRINTING
 62
   250
 10
18.2425
 20
67.9512
  0
VERTEX
  8
PRINTING
 62
   250
 10
21.5784
 20
68.3731
  0
VERTEX
  8
PRINTING
 62
   250
 10
24.9143
 20
67.9512
  0
VERTEX
  8
PRINTING
 62
   250
 10
28.0159
 20
66.6856
  0
VERTEX
  8
PRINTING
 62
   250
 10
30.6487
 20
64.5762
  0
VERTEX
  8
PRINTING
 62
   250
 10
32.5784
 20
61.6231
  0
VERTEX
  8
PRINTING
 62
   250
 10
40.8337
 20
36.0246
  0
VERTEX
  8
PRINTING
 62
   250
 10
46.5519
 20
19.2982
  0
VERTEX
  8
PRINTING
 62
   250
 10
50.4115
 20
9.2898
  0
VERTEX
  8
PRINTING
 62
   250
 10
53.0911
 20
3.8452
  0
VERTEX
  8
PRINTING
 62
   250
 10
55.269
 20
0.8103
  0
VERTEX
  8
PRINTING
 62
   250
 10
57.6239
 20
-1.9689
  0
VERTEX
  8
PRINTING
 62
   250
 10
60.8342
 20
-6.6466
  0
VERTEX
  8
PRINTING
 62
   250
 10
65.5784
 20
-15.3769
  0
VERTEX
  8
PRINTING
 62
   250
 10
66.9847
 20
-17.8867
  0
VERTEX
  8
PRINTING
 62
   250
 10
68.2034
 20
-20.83
  0
VERTEX
  8
PRINTING
 62
   250
 10
69.2347
 20
-24.0781
  0
VERTEX
  8
PRINTING
 62
   250
 10
70.0784
 20
-27.5019
  0
VERTEX
  8
PRINTING
 62
   250
 10
70.7347
 20
-30.9726
  0
VERTEX
  8
PRINTING
 62
   250
 10
71.2034
 20
-34.3613
  0
VERTEX
  8
PRINTING
 62
   250
 10
71.4847
 20
-37.539
  0
VERTEX
  8
PRINTING
 62
   250
 10
71.5784
 20
-40.3769
  0
VERTEX
  8
PRINTING
 62
   250
 10
71.2112
 20
-44.3945
  0
VERTEX
  8
PRINTING
 62
   250
 10
70.1409
 20
-48.1425
  0
VERTEX
  8
PRINTING
 62
   250
 10
68.4143
 20
-51.539
  0
VERTEX
  8
PRINTING
 62
   250
 10
66.0784
 20
-54.5019
  0
VERTEX
  8
PRINTING
 62
   250
 10
63.18
 20
-56.9492
  0
VERTEX
  8
PRINTING
 62
   250
 10
59.7659
 20
-58.7988
  0
VERTEX
  8
PRINTING
 62
   250
 10
55.8831
 20
-59.9687
  0
VERTEX
  8
PRINTING
 62
   250
 10
51.5784
 20
-60.3769
  0
VERTEX
  8
PRINTING
 62
   250
 10
47.2737
 20
-60.0097
  0
VERTEX
  8
PRINTING
 62
   250
 10
43.3909
 20
-58.9394
  0
VERTEX
  8
PRINTING
 62
   250
 10
39.9768
 20
-57.2128
  0
VERTEX
  8
PRINTING
 62
   250
 10
37.0784
 20
-54.8769
  0
VERTEX
  8
PRINTING
 62
   250
 10
34.7425
 20
-51.9785
  0
VERTEX
  8
PRINTING
 62
   250
 10
33.0159
 20
-48.5644
  0
VERTEX
  8
PRINTING
 62
   250
 10
31.9456
 20
-44.6816
  0
VERTEX
  8
PRINTING
 62
   250
 10
31.5784
 20
-40.3769
  0
VERTEX
  8
PRINTING
 62
   250
 10
31.2736
 20
-38.3961
  0
VERTEX
  8
PRINTING
 62
   250
 10
30.4439
 20
-36.9072
  0
VERTEX
  8
PRINTING
 62
   250
 10
29.2169
 20
-35.8399
  0
VERTEX
  8
PRINTING
 62
   250
 10
27.7198
 20
-35.1243
  0
VERTEX
  8
PRINTING
 62
   250
 10
26.0801
 20
-34.6902
  0
VERTEX
  8
PRINTING
 62
   250
 10
24.425
 20
-34.4677
  0
VERTEX
  8
PRINTING
 62
   250
 10
22.882
 20
-34.3866
  0
VERTEX
  8
PRINTING
 62
   250
 10
21.5784
 20
-34.3769
  0
VERTEX
  8
PRINTING
 62
   250
 10
20.3
 20
-34.3906
  0
VERTEX
  8
PRINTING
 62
   250
 10
18.7688
 20
-34.4735
  0
VERTEX
  8
PRINTING
 62
   250
 10
17.1153
 20
-34.6963
  0
VERTEX
  8
PRINTING
 62
   250
 10
15.4699
 20
-35.1295
  0
VERTEX
  8
PRINTING
 62
   250
 10
13.963
 20
-35.8435
  0
VERTEX
  8
PRINTING
 62
   250
 10
12.7252
 20
-36.9091
  0
VERTEX
  8
PRINTING
 62
   250
 10
11.8868
 20
-38.3967
  0
VERTEX
  8
PRINTING
 62
   250
 10
11.5784
 20
-40.3769
  0
VERTEX
  8
PRINTING
 62
   250
 10
11.2112
 20
-44.6816
  0
VERTEX
  8
PRINTING
 62
   250
 10
10.1409
 20
-48.5644
  0
VERTEX
  8
PRINTING
 62
   250
 10
8.4143
 20
-51.9785
  0
VERTEX
  8
PRINTING
 62
   250
 10
6.0784
 20
-54.8769
  0
VERTEX
  8
PRINTING
 62
   250
 10
3.18
 20
-57.2128
  0
VERTEX
  8
PRINTING
 62
   250
 10
-0.2341
 20
-58.9394
  0
VERTEX
  8
PRINTING
 62
   250
 10
-4.1169
 20
-60.0097
  0
VERTEX
  8
PRINTING
 62
   250
 10
-8.4216
 20
-60.3769
  0
VERTEX
  8
PRINTING
 62
   250
 10
-12.7263
 20
-60.0097
  0
VERTEX
  8
PRINTING
 62
   250
 10
-16.6091
 20
-58.9394
  0
VERTEX
  8
PRINTING
 62
   250
 10
-20.0232
 20
-57.2128
  0
VERTEX
  8
PRINTING
 62
   250
 10
-22.9216
 20
-54.8769
  0
VERTEX
  8
PRINTING
 62
   250
 10
-25.2575
 20
-51.9785
  0
VERTEX
  8
PRINTING
 62
   250
 10
-26.9841
 20
-48.5644
  0
VERTEX
  8
PRINTING
 62
   250
 10
-28.0544
 20
-44.6816
  0
VERTEX
  8
PRINTING
 62
   250
 10
-28.4216
 20
-40.3769
  0
VERTEX
  8
PRINTING
 62
   250
 10
-28.3279
 20
-37.539
  0
VERTEX
  8
PRINTING
 62
   250
 10
-28.0466
 20
-34.3613
  0
VERTEX
  8
PRINTING
 62
   250
 10
-27.5779
 20
-30.9726
  0
VERTEX
  8
PRINTING
 62
   250
 10
-26.9216
 20
-27.5019
  0
VERTEX
  8
PRINTING
 62
   250
 10
-26.0779
 20
-24.0781
  0
VERTEX
  8
PRINTING
 62
   250
 10
-25.0466
 20
-20.83
  0
VERTEX
  8
PRINTING
 62
   250
 10
-23.8279
 20
-17.8867
  0
VERTEX
  8
PRINTING
 62
   250
 10
-22.4216
 20
-15.3769
  0
VERTEX
  8
PRINTING
 62
   250
 10
-17.687
 20
-6.6658
  0
VERTEX
  8
PRINTING
 62
   250
 10
-14.4812
 20
-1.9971
  0
VERTEX
  8
PRINTING
 62
   250
 10
-12.1269
 20
0.781
  0
VERTEX
  8
PRINTING
 62
   250
 10
-9.9468
 20
3.8202
  0
VERTEX
  8
PRINTING
 62
   250
 10
-7.2635
 20
9.2722
  0
VERTEX
  8
PRINTING
 62
   250
 10
-3.3998
 20
19.2889
  0
VERTEX
  8
PRINTING
 62
   250
 10
2.3217
 20
36.0219
  0
VERTEX
  8
PRINTING
 62
   250
 10
10.5784
 20
61.6231
  0
SEQEND
  8
PRINTING
 62
   250
  0
POLYLINE
  8
PRINTING
 62
   250
 66
     1
 70
     1
  0
VERTEX
  8
PRINTING
 62
   250
 10
16.5784
 20
62.1164
  0
VERTEX
  8
PRINTING
 62
   250
 10
26.5784
 20
62.1164
  0
VERTEX
  8
PRINTING
 62
   250
 10
26.5784
 20
59.1164
  0
VERTEX
  8
PRINTING
 62
   250
 10
16.5784
 20
59.1164
  0
VERTEX
  8
PRINTING
 62
   250
 10
16.5784
 20
62.1164
  0
SEQEND
  8
PRINTING
 62
   250
  0
POLYLINE
  8
PRINTING
 62
   250
 66
     1
 70
     1
  0
VERTEX
  8
PRINTING
 62
   250
 10
21.5784
 20
53.8664
  0
VERTEX
  8
PRINTING
 62
   250
 10
21.7295
 20
53.8512
  0
VERTEX
  8
PRINTING
 62
   250
 10
21.8703
 20
53.8075
  0
VERTEX
  8
PRINTING
 62
   250
 10
21.9977
 20
53.7383
  0
VERTEX
  8
PRINTING
 62
   250
 10
22.1087
 20
53.6467
  0
VERTEX
  8
PRINTING
 62
   250
 10
22.2003
 20
53.5357
  0
VERTEX
  8
PRINTING
 62
   250
 10
22.2695
 20
53.4083
  0
VERTEX
  8
PRINTING
 62
   250
 10
22.3132
 20
53.2675
  0
VERTEX
  8
PRINTING
 62
   250
 10
22.3284
 20
53.1164
  0
VERTEX
  8
PRINTING
 62
   250
 10
22.3132
 20
52.9653
  0
VERTEX
  8
PRINTING
 62
   250
 10
22.2695
 20
52.8245
  0
VERTEX
  8
PRINTING
 62
   250
 10
22.2003
 20
52.6971
  0
VERTEX
  8
PRINTING
 62
   250
 10
22.1087
 20
52.5861
  0
VERTEX
  8
PRINTING
 62
   250
 10
21.9977
 20
52.4945
  0
VERTEX
  8
PRINTING
 62
   250
 10
21.8703
 20
52.4253
  0
VERTEX
  8
PRINTING
 62
   250
 10
21.7295
 20
52.3816
  0
VERTEX
  8
PRINTING
 62
   250
 10
21.5784
 20
52.3664
  0
VERTEX
  8
PRINTING
 62
   250
 10
21.4273
 20
52.3816
  0
VERTEX
  8
PRINTING
 62
   250
 10
21.2865
 20
52.4253
  0
VERTEX
  8
PRINTING
 62
   250
 10
21.1591
 20
52.4945
  0
VERTEX
  8
PRINTING
 62
   250
 10
21.0481
 20
52.5861
  0
VERTEX
  8
PRINTING
 62
   250
 10
20.9565
 20
52.6971
  0
VERTEX
  8
PRINTING
 62
   250
 10
20.8873
 20
52.8245
  0
VERTEX
  8
PRINTING
 62
   250
 10
20.8436
 20
52.9653
  0
VERTEX
  8
PRINTING
 62
   250
 10
20.8284
 20
53.1164
  0
VERTEX
  8
PRINTING
 62
   250
 10
20.8436
 20
53.2675
  0
VERTEX
  8
PRINTING
 62
   250
 10
20.8873
 20
53.4083
  0
VERTEX
  8
PRINTING
 62
   250
 10
20.9565
 20
53.5357
  0
VERTEX
  8
PRINTING
 62
   250
 10
21.0481
 20
53.6467
  0
VERTEX
  8
PRINTING
 62
   250
 10
21.1591
 20
53.7383
  0
VERTEX
  8
PRINTING
 62
   250
 10
21.2865
 20
53.8075
  0
VERTEX
  8
PRINTING
 62
   250
 10
21.4273
 20
53.8512
  0
VERTEX
  8
PRINTING
 62
   250
 10
21.5784
 20
53.8664
  0
SEQEND
  8
PRINTING
 62
   250
  0
POLYLINE
  8
PRINTING
 62
   250
 66
     1
 70
     1
  0
VERTEX
  8
PRINTING
 62
   250
 10
21.5784
 20
23.8664
  0
VERTEX
  8
PRINTING
 62
   250
 10
21.7295
 20
23.8512
  0
VERTEX
  8
PRINTING
 62
   250
 10
21.8703
 20
23.8075
  0
VERTEX
  8
PRINTING
 62
   250
 10
21.9977
 20
23.7383
  0
VERTEX
  8
PRINTING
 62
   250
 10
22.1087
 20
23.6467
  0
VERTEX
  8
PRINTING
 62
   250
 10
22.2003
 20
23.5357
  0
VERTEX
  8
PRINTING
 62
   250
 10
22.2695
 20
23.4083
  0
VERTEX
  8
PRINTING
 62
   250
 10
22.3132
 20
23.2675
  0
VERTEX
  8
PRINTING
 62
   250
 10
22.3284
 20
23.1164
  0
VERTEX
  8
PRINTING
 62
   250
 10
22.3132
 20
22.9653
  0
VERTEX
  8
PRINTING
 62
   250
 10
22.2695
 20
22.8245
  0
VERTEX
  8
PRINTING
 62
   250
 10
22.2003
 20
22.6971
  0
VERTEX
  8
PRINTING
 62
   250
 10
22.1087
 20
22.5861
  0
VERTEX
  8
PRINTING
 62
   250
 10
21.9977
 20
22.4945
  0
VERTEX
  8
PRINTING
 62
   250
 10
21.8703
 20
22.4253
  0
VERTEX
  8
PRINTING
 62
   250
 10
21.7295
 20
22.3816
  0
VERTEX
  8
PRINTING
 62
   250
 10
21.5784
 20
22.3664
  0
VERTEX
  8
PRINTING
 62
   250
 10
21.4273
 20
22.3816
  0
VERTEX
  8
PRINTING
 62
   250
 10
21.2865
 20
22.4253
  0
VERTEX
  8
PRINTING
 62
   250
 10
21.1591
 20
22.4945
  0
VERTEX
  8
PRINTING
 62
   250
 10
21.0481
 20
22.5861
  0
VERTEX
  8
PRINTING
 62
   250
 10
20.9565
 20
22.6971
  0
VERTEX
  8
PRINTING
 62
   250
 10
20.8873
 20
22.8245
  0
VERTEX
  8
PRINTING
 62
   250
 10
20.8436
 20
22.9653
  0
VERTEX
  8
PRINTING
 62
   250
 10
20.8284
 20
23.1164
  0
VERTEX
  8
PRINTING
 62
   250
 10
20.8436
 20
23.2675
  0
VERTEX
  8
PRINTING
 62
   250
 10
20.8873
 20
23.4083
  0
VERTEX
  8
PRINTING
 62
   250
 10
20.9565
 20
23.5357
  0
VERTEX
  8
PRINTING
 62
   250
 10
21.0481
 20
23.6467
  0
VERTEX
  8
PRINTING
 62
   250
 10
21.1591
 20
23.7383
  0
VERTEX
  8
PRINTING
 62
   250
 10
21.2865
 20
23.8075
  0
VERTEX
  8
PRINTING
 62
   250
 10
21.4273
 20
23.8512
  0
VERTEX
  8
PRINTING
 62
   250
 10
21.5784
 20
23.8664
  0
SEQEND
  8
PRINTING
 62
   250
  0
POLYLINE
  8
PRINTING
 62
   250
 66
     1
 70
     1
  0
VERTEX
  8
PRINTING
 62
   250
 10
21.5784
 20
5.8664
  0
VERTEX
  8
PRINTING
 62
   250
 10
21.7295
 20
5.8512
  0
VERTEX
  8
PRINTING
 62
   250
 10
21.8703
 20
5.8075
  0
VERTEX
  8
PRINTING
 62
   250
 10
21.9977
 20
5.7383
  0
VERTEX
  8
PRINTING
 62
   250
 10
22.1087
 20
5.6467
  0
VERTEX
  8
PRINTING
 62
   250
 10
22.2003
 20
5.5357
  0
VERTEX
  8
PRINTING
 62
   250
 10
22.2695
 20
5.4083
  0
VERTEX
  8
PRINTING
 62
   250
 10
22.3132
 20
5.2675
  0
VERTEX
  8
PRINTING
 62
   250
 10
22.3284
 20
5.1164
  0
VERTEX
  8
PRINTING
 62
   250
 10
22.3132
 20
4.9653
  0
VERTEX
  8
PRINTING
 62
   250
 10
22.2695
 20
4.8245
  0
VERTEX
  8
PRINTING
 62
   250
 10
22.2003
 20
4.6971
  0
VERTEX
  8
PRINTING
 62
   250
 10
22.1087
 20
4.5861
  0
VERTEX
  8
PRINTING
 62
   250
 10
21.9977
 20
4.4945
  0
VERTEX
  8
PRINTING
 62
   250
 10
21.8703
 20
4.4253
  0
VERTEX
  8
PRINTING
 62
   250
 10
21.7295
 20
4.3816
  0
VERTEX
  8
PRINTING
 62
   250
 10
21.5784
 20
4.3664
  0
VERTEX
  8
PRINTING
 62
   250
 10
21.4273
 20
4.3816
  0
VERTEX
  8
PRINTING
 62
   250
 10
21.2865
 20
4.4253
  0
VERTEX
  8
PRINTING
 62
   250
 10
21.1591
 20
4.4945
  0
VERTEX
  8
PRINTING
 62
   250
 10
21.0481
 20
4.5861
  0
VERTEX
  8
PRINTING
 62
   250
 10
20.9565
 20
4.6971
  0
VERTEX
  8
PRINTING
 62
   250
 10
20.8873
 20
4.8245
  0
VERTEX
  8
PRINTING
 62
   250
 10
20.8436
 20
4.9653
  0
VERTEX
  8
PRINTING
 62
   250
 10
20.8284
 20
5.1164
  0
VERTEX
  8
PRINTING
 62
   250
 10
20.8436
 20
5.2675
  0
VERTEX
  8
PRINTING
 62
   250
 10
20.8873
 20
5.4083
  0
VERTEX
  8
PRINTING
 62
   250
 10
20.9565
 20
5.5357
  0
VERTEX
  8
PRINTING
 62
   250
 10
21.0481
 20
5.6467
  0
VERTEX
  8
PRINTING
 62
   250
 10
21.1591
 20
5.7383
  0
VERTEX
  8
PRINTING
 62
   250
 10
21.2865
 20
5.8075
  0
VERTEX
  8
PRINTING
 62
   250
 10
21.4273
 20
5.8512
  0
VERTEX
  8
PRINTING
 62
   250
 10
21.5784
 20
5.8664
  0
SEQEND
  8
PRINTING
 62
   250
  0
POLYLINE
  8
PRINTING
 62
   250
 66
     1
 70
     1
  0
VERTEX
  8
PRINTING
 62
   250
 10
21.5784
 20
-24.1336
  0
VERTEX
  8
PRINTING
 62
   250
 10
21.7295
 20
-24.1488
  0
VERTEX
  8
PRINTING
 62
   250
 10
21.8703
 20
-24.1925
  0
VERTEX
  8
PRINTING
 62
   250
 10
21.9977
 20
-24.2617
  0
VERTEX
  8
PRINTING
 62
   250
 10
22.1087
 20
-24.3533
  0
VERTEX
  8
PRINTING
 62
   250
 10
22.2003
 20
-24.4643
  0
VERTEX
  8
PRINTING
 62
   250
 10
22.2695
 20
-24.5917
  0
VERTEX
  8
PRINTING
 62
   250
 10
22.3132
 20
-24.7325
  0
VERTEX
  8
PRINTING
 62
   250
 10
22.3284
 20
-24.8836
  0
VERTEX
  8
PRINTING
 62
   250
 10
22.3132
 20
-25.0347
  0
VERTEX
  8
PRINTING
 62
   250
 10
22.2695
 20
-25.1755
  0
VERTEX
  8
PRINTING
 62
   250
 10
22.2003
 20
-25.3029
  0
VERTEX
  8
PRINTING
 62
   250
 10
22.1087
 20
-25.4139
  0
VERTEX
  8
PRINTING
 62
   250
 10
21.9977
 20
-25.5055
  0
VERTEX
  8
PRINTING
 62
   250
 10
21.8703
 20
-25.5747
  0
VERTEX
  8
PRINTING
 62
   250
 10
21.7295
 20
-25.6184
  0
VERTEX
  8
PRINTING
 62
   250
 10
21.5784
 20
-25.6336
  0
VERTEX
  8
PRINTING
 62
   250
 10
21.4273
 20
-25.6184
  0
VERTEX
  8
PRINTING
 62
   250
 10
21.2865
 20
-25.5747
  0
VERTEX
  8
PRINTING
 62
   250
 10
21.1591
 20
-25.5055
  0
VERTEX
  8
PRINTING
 62
   250
 10
21.0481
 20
-25.4139
  0
VERTEX
  8
PRINTING
 62
   250
 10
20.9565
 20
-25.3029
  0
VERTEX
  8
PRINTING
 62
   250
 10
20.8873
 20
-25.1755
  0
VERTEX
  8
PRINTING
 62
   250
 10
20.8436
 20
-25.0347
  0
VERTEX
  8
PRINTING
 62
   250
 10
20.8284
 20
-24.8836
  0
VERTEX
  8
PRINTING
 62
   250
 10
20.8436
 20
-24.7325
  0
VERTEX
  8
PRINTING
 62
   250
 10
20.8873
 20
-24.5917
  0
VERTEX
  8
PRINTING
 62
   250
 10
20.9565
 20
-24.4643
  0
VERTEX
  8
PRINTING
 62
   250
 10
21.0481
 20
-24.3533
  0
VERTEX
  8
PRINTING
 62
   250
 10
21.1591
 20
-24.2617
  0
VERTEX
  8
PRINTING
 62
   250
 10
21.2865
 20
-24.1925
  0
VERTEX
  8
PRINTING
 62
   250
 10
21.4273
 20
-24.1488
  0
VERTEX
  8
PRINTING
 62
   250
 10
21.5784
 20
-24.1336
  0
SEQEND
  8
PRINTING
 62
   250
  0
POLYLINE
  8
PRINTING
 62
   250
 66
     1
 70
     1
  0
VERTEX
  8
PRINTING
 62
   250
 10
-12.4216
 20
-20.3836
  0
VERTEX
  8
PRINTING
 62
   250
 10
-12.4216
 20
-30.3836
  0
VERTEX
  8
PRINTING
 62
   250
 10
-15.4216
 20
-30.3836
  0
VERTEX
  8
PRINTING
 62
   250
 10
-15.4216
 20
-20.3836
  0
VERTEX
  8
PRINTING
 62
   250
 10
-12.4216
 20
-20.3836
  0
SEQEND
  8
PRINTING
 62
   250
  0
POLYLINE
  8
PRINTING
 62
   250
 66
     1
 70
     1
  0
VERTEX
  8
PRINTING
 62
   250
 10
58.5784
 20
-20.3836
  0
VERTEX
  8
PRINTING
 62
   250
 10
58.5784
 20
-30.3836
  0
VERTEX
  8
PRINTING
 62
   250
 10
55.5784
 20
-30.3836
  0
VERTEX
  8
PRINTING
 62
   250
 10
55.5784
 20
-20.3836
  0
VERTEX
  8
PRINTING
 62
   250
 10
58.5784
 20
-20.3836
  0
SEQEND
  8
PRINTING
 62
   250
  0
POLYLINE
  8
PRINTING
 62
   250
 66
     1
 70
     1
  0
VERTEX
  8
PRINTING
 62
   250
 10
52.0784
 20
-26.8836
  0
VERTEX
  8
PRINTING
 62
   250
 10
51.7761
 20
-26.8531
  0
VERTEX
  8
PRINTING
 62
   250
 10
51.4945
 20
-26.7657
  0
VERTEX
  8
PRINTING
 62
   250
 10
51.2397
 20
-26.6274
  0
VERTEX
  8
PRINTING
 62
   250
 10
51.0177
 20
-26.4443
  0
VERTEX
  8
PRINTING
 62
   250
 10
50.8346
 20
-26.2223
  0
VERTEX
  8
PRINTING
 62
   250
 10
50.6963
 20
-25.9675
  0
VERTEX
  8
PRINTING
 62
   250
 10
50.6089
 20
-25.6859
  0
VERTEX
  8
PRINTING
 62
   250
 10
50.5784
 20
-25.3836
  0
VERTEX
  8
PRINTING
 62
   250
 10
50.6089
 20
-25.0813
  0
VERTEX
  8
PRINTING
 62
   250
 10
50.6963
 20
-24.7997
  0
VERTEX
  8
PRINTING
 62
   250
 10
50.8346
 20
-24.5449
  0
VERTEX
  8
PRINTING
 62
   250
 10
51.0177
 20
-24.323
  0
VERTEX
  8
PRINTING
 62
   250
 10
51.2397
 20
-24.1398
  0
VERTEX
  8
PRINTING
 62
   250
 10
51.4945
 20
-24.0015
  0
VERTEX
  8
PRINTING
 62
   250
 10
51.7761
 20
-23.9141
  0
VERTEX
  8
PRINTING
 62
   250
 10
52.0784
 20
-23.8836
  0
VERTEX
  8
PRINTING
 62
   250
 10
52.3807
 20
-23.9141
  0
VERTEX
  8
PRINTING
 62
   250
 10
52.6623
 20
-24.0015
  0
VERTEX
  8
PRINTING
 62
   250
 10
52.9171
 20
-24.1398
  0
VERTEX
  8
PRINTING
 62
   250
 10
53.1391
 20
-24.323
  0
VERTEX
  8
PRINTING
 62
   250
 10
53.3222
 20
-24.5449
  0
VERTEX
  8
PRINTING
 62
   250
 10
53.4605
 20
-24.7997
  0
VERTEX
  8
PRINTING
 62
   250
 10
53.5479
 20
-25.0813
  0
VERTEX
  8
PRINTING
 62
   250
 10
53.5784
 20
-25.3836
  0
VERTEX
  8
PRINTING
 62
   250
 10
53.5479
 20
-25.6859
  0
VERTEX
  8
PRINTING
 62
   250
 10
53.4605
 20
-25.9675
  0
VERTEX
  8
PRINTING
 62
   250
 10
53.3222
 20
-26.2223
  0
VERTEX
  8
PRINTING
 62
   250
 10
53.1391
 20
-26.4443
  0
VERTEX
  8
PRINTING
 62
   250
 10
52.9171
 20
-26.6274
  0
VERTEX
  8
PRINTING
 62
   250
 10
52.6623
 20
-26.7657
  0
VERTEX
  8
PRINTING
 62
   250
 10
52.3807
 20
-26.8531
  0
VERTEX
  8
PRINTING
 62
   250
 10
52.0784
 20
-26.8836
  0
SEQEND
  8
PRINTING
 62
   250
  0
POLYLINE
  8
PRINTING
 62
   250
 66
     1
 70
     1
  0
VERTEX
  8
PRINTING
 62
   250
 10
-8.9216
 20
-26.8836
  0
VERTEX
  8
PRINTING
 62
   250
 10
-9.2239
 20
-26.8531
  0
VERTEX
  8
PRINTING
 62
   250
 10
-9.5055
 20
-26.7657
  0
VERTEX
  8
PRINTING
 62
   250
 10
-9.7603
 20
-26.6274
  0
VERTEX
  8
PRINTING
 62
   250
 10
-9.9823
 20
-26.4443
  0
VERTEX
  8
PRINTING
 62
   250
 10
-10.1654
 20
-26.2223
  0
VERTEX
  8
PRINTING
 62
   250
 10
-10.3037
 20
-25.9675
  0
VERTEX
  8
PRINTING
 62
   250
 10
-10.3911
 20
-25.6859
  0
VERTEX
  8
PRINTING
 62
   250
 10
-10.4216
 20
-25.3836
  0
VERTEX
  8
PRINTING
 62
   250
 10
-10.3911
 20
-25.0813
  0
VERTEX
  8
PRINTING
 62
   250
 10
-10.3037
 20
-24.7997
  0
VERTEX
  8
PRINTING
 62
   250
 10
-10.1654
 20
-24.5449
  0
VERTEX
  8
PRINTING
 62
   250
 10
-9.9823
 20
-24.3229
  0
VERTEX
  8
PRINTING
 62
   250
 10
-9.7603
 20
-24.1398
  0
VERTEX
  8
PRINTING
 62
   250
 10
-9.5055
 20
-24.0015
  0
VERTEX
  8
PRINTING
 62
   250
 10
-9.2239
 20
-23.9141
  0
VERTEX
  8
PRINTING
 62
   250
 10
-8.9216
 20
-23.8836
  0
VERTEX
  8
PRINTING
 62
   250
 10
-8.6193
 20
-23.9141
  0
VERTEX
  8
PRINTING
 62
   250
 10
-8.3377
 20
-24.0015
  0
VERTEX
  8
PRINTING
 62
   250
 10
-8.0829
 20
-24.1398
  0
VERTEX
  8
PRINTING
 62
   250
 10
-7.861
 20
-24.3229
  0
VERTEX
  8
PRINTING
 62
   250
 10
-7.6778
 20
-24.5449
  0
VERTEX
  8
PRINTING
 62
   250
 10
-7.5395
 20
-24.7997
  0
VERTEX
  8
PRINTING
 62
   250
 10
-7.4521
 20
-25.0813
  0
VERTEX
  8
PRINTING
 62
   250
 10
-7.4216
 20
-25.3836
  0
VERTEX
  8
PRINTING
 62
   250
 10
-7.4521
 20
-25.6859
  0
VERTEX
  8
PRINTING
 62
   250
 10
-7.5395
 20
-25.9675
  0
VERTEX
  8
PRINTING
 62
   250
 10
-7.6778
 20
-26.2223
  0
VERTEX
  8
PRINTING
 62
   250
 10
-7.861
 20
-26.4443
  0
VERTEX
  8
PRINTING
 62
   250
 10
-8.0829
 20
-26.6274
  0
VERTEX
  8
PRINTING
 62
   250
 10
-8.3377
 20
-26.7657
  0
VERTEX
  8
PRINTING
 62
   250
 10
-8.6193
 20
-26.8531
  0
VERTEX
  8
PRINTING
 62
   250
 10
-8.9216
 20
-26.8836
  0
SEQEND
  8
PRINTING
 62
   250
  0
POLYLINE
  8
PRINTING
 62
   250
 66
     1
 70
     1
  0
VERTEX
  8
PRINTING
 62
   250
 10
-18.9216
 20
-26.8836
  0
VERTEX
  8
PRINTING
 62
   250
 10
-19.2239
 20
-26.8531
  0
VERTEX
  8
PRINTING
 62
   250
 10
-19.5055
 20
-26.7657
  0
VERTEX
  8
PRINTING
 62
   250
 10
-19.7603
 20
-26.6274
  0
VERTEX
  8
PRINTING
 62
   250
 10
-19.9823
 20
-26.4443
  0
VERTEX
  8
PRINTING
 62
   250
 10
-20.1654
 20
-26.2223
  0
VERTEX
  8
PRINTING
 62
   250
 10
-20.3037
 20
-25.9675
  0
VERTEX
  8
PRINTING
 62
   250
 10
-20.3911
 20
-25.6859
  0
VERTEX
  8
PRINTING
 62
   250
 10
-20.4216
 20
-25.3836
  0
VERTEX
  8
PRINTING
 62
   250
 10
-20.3911
 20
-25.0813
  0
VERTEX
  8
PRINTING
 62
   250
 10
-20.3037
 20
-24.7997
  0
VERTEX
  8
PRINTING
 62
   250
 10
-20.1654
 20
-24.5449
  0
VERTEX
  8
PRINTING
 62
   250
 10
-19.9823
 20
-24.3229
  0
VERTEX
  8
PRINTING
 62
   250
 10
-19.7603
 20
-24.1398
  0
VERTEX
  8
PRINTING
 62
   250
 10
-19.5055
 20
-24.0015
  0
VERTEX
  8
PRINTING
 62
   250
 10
-19.2239
 20
-23.9141
  0
VERTEX
  8
PRINTING
 62
   250
 10
-18.9216
 20
-23.8836
  0
VERTEX
  8
PRINTING
 62
   250
 10
-18.6193
 20
-23.9141
  0
VERTEX
  8
PRINTING
 62
   250
 10
-18.3377
 20
-24.0015
  0
VERTEX
  8
PRINTING
 62
   250
 10
-18.0829
 20
-24.1398
  0
VERTEX
  8
PRINTING
 62
   250
 10
-17.861
 20
-24.3229
  0
VERTEX
  8
PRINTING
 62
   250
 10
-17.6778
 20
-24.5449
  0
VERTEX
  8
PRINTING
 62
   250
 10
-17.5395
 20
-24.7997
  0
VERTEX
  8
PRINTING
 62
   250
 10
-17.4521
 20
-25.0813
  0
VERTEX
  8
PRINTING
 62
   250
 10
-17.4216
 20
-25.3836
  0
VERTEX
  8
PRINTING
 62
   250
 10
-17.4521
 20
-25.6859
  0
VERTEX
  8
PRINTING
 62
   250
 10
-17.5395
 20
-25.9675
  0
VERTEX
  8
PRINTING
 62
   250
 10
-17.6778
 20
-26.2223
  0
VERTEX
  8
PRINTING
 62
   250
 10
-17.861
 20
-26.4443
  0
VERTEX
  8
PRINTING
 62
   250
 10
-18.0829
 20
-26.6274
  0
VERTEX
  8
PRINTING
 62
   250
 10
-18.3377
 20
-26.7657
  0
VERTEX
  8
PRINTING
 62
   250
 10
-18.6193
 20
-26.8531
  0
VERTEX
  8
PRINTING
 62
   250
 10
-18.9216
 20
-26.8836
  0
SEQEND
  8
PRINTING
 62
   250
  0
POLYLINE
  8
PRINTING
 62
   250
 66
     1
 70
     1
  0
VERTEX
  8
PRINTING
 62
   250
 10
-8.9216
 20
-26.8836
  0
VERTEX
  8
PRINTING
 62
   250
 10
-9.2239
 20
-26.8531
  0
VERTEX
  8
PRINTING
 62
   250
 10
-9.5055
 20
-26.7657
  0
VERTEX
  8
PRINTING
 62
   250
 10
-9.7603
 20
-26.6274
  0
VERTEX
  8
PRINTING
 62
   250
 10
-9.9823
 20
-26.4443
  0
VERTEX
  8
PRINTING
 62
   250
 10
-10.1654
 20
-26.2223
  0
VERTEX
  8
PRINTING
 62
   250
 10
-10.3037
 20
-25.9675
  0
VERTEX
  8
PRINTING
 62
   250
 10
-10.3911
 20
-25.6859
  0
VERTEX
  8
PRINTING
 62
   250
 10
-10.4216
 20
-25.3836
  0
VERTEX
  8
PRINTING
 62
   250
 10
-10.3911
 20
-25.0813
  0
VERTEX
  8
PRINTING
 62
   250
 10
-10.3037
 20
-24.7997
  0
VERTEX
  8
PRINTING
 62
   250
 10
-10.1654
 20
-24.5449
  0
VERTEX
  8
PRINTING
 62
   250
 10
-9.9823
 20
-24.3229
  0
VERTEX
  8
PRINTING
 62
   250
 10
-9.7603
 20
-24.1398
  0
VERTEX
  8
PRINTING
 62
   250
 10
-9.5055
 20
-24.0015
  0
VERTEX
  8
PRINTING
 62
   250
 10
-9.2239
 20
-23.9141
  0
VERTEX
  8
PRINTING
 62
   250
 10
-8.9216
 20
-23.8836
  0
VERTEX
  8
PRINTING
 62
   250
 10
-8.6193
 20
-23.9141
  0
VERTEX
  8
PRINTING
 62
   250
 10
-8.3377
 20
-24.0015
  0
VERTEX
  8
PRINTING
 62
   250
 10
-8.0829
 20
-24.1398
  0
VERTEX
  8
PRINTING
 62
   250
 10
-7.861
 20
-24.3229
  0
VERTEX
  8
PRINTING
 62
   250
 10
-7.6778
 20
-24.5449
  0
VERTEX
  8
PRINTING
 62
   250
 10
-7.5395
 20
-24.7997
  0
VERTEX
  8
PRINTING
 62
   250
 10
-7.4521
 20
-25.0813
  0
VERTEX
  8
PRINTING
 62
   250
 10
-7.4216
 20
-25.3836
  0
VERTEX
  8
PRINTING
 62
   250
 10
-7.4521
 20
-25.6859
  0
VERTEX
  8
PRINTING
 62
   250
 10
-7.5395
 20
-25.9675
  0
VERTEX
  8
PRINTING
 62
   250
 10
-7.6778
 20
-26.2223
  0
VERTEX
  8
PRINTING
 62
   250
 10
-7.861
 20
-26.4443
  0
VERTEX
  8
PRINTING
 62
   250
 10
-8.0829
 20
-26.6274
  0
VERTEX
  8
PRINTING
 62
   250
 10
-8.3377
 20
-26.7657
  0
VERTEX
  8
PRINTING
 62
   250
 10
-8.6193
 20
-26.8531
  0
VERTEX
  8
PRINTING
 62
   250
 10
-8.9216
 20
-26.8836
  0
SEQEND
  8
PRINTING
 62
   250
  0
POLYLINE
  8
PRINTING
 62
   250
 66
     1
 70
     1
  0
VERTEX
  8
PRINTING
 62
   250
 10
-18.9216
 20
-26.8836
  0
VERTEX
  8
PRINTING
 62
   250
 10
-19.2239
 20
-26.8531
  0
VERTEX
  8
PRINTING
 62
   250
 10
-19.5055
 20
-26.7657
  0
VERTEX
  8
PRINTING
 62
   250
 10
-19.7603
 20
-26.6274
  0
VERTEX
  8
PRINTING
 62
   250
 10
-19.9823
 20
-26.4443
  0
VERTEX
  8
PRINTING
 62
   250
 10
-20.1654
 20
-26.2223
  0
VERTEX
  8
PRINTING
 62
   250
 10
-20.3037
 20
-25.9675
  0
VERTEX
  8
PRINTING
 62
   250
 10
-20.3911
 20
-25.6859
  0
VERTEX
  8
PRINTING
 62
   250
 10
-20.4216
 20
-25.3836
  0
VERTEX
  8
PRINTING
 62
   250
 10
-20.3911
 20
-25.0813
  0
VERTEX
  8
PRINTING
 62
   250
 10
-20.3037
 20
-24.7997
  0
VERTEX
  8
PRINTING
 62
   250
 10
-20.1654
 20
-24.5449
  0
VERTEX
  8
PRINTING
 62
   250
 10
-19.9823
 20
-24.3229
  0
VERTEX
  8
PRINTING
 62
   250
 10
-19.7603
 20
-24.1398
  0
VERTEX
  8
PRINTING
 62
   250
 10
-19.5055
 20
-24.0015
  0
VERTEX
  8
PRINTING
 62
   250
 10
-19.2239
 20
-23.9141
  0
VERTEX
  8
PRINTING
 62
   250
 10
-18.9216
 20
-23.8836
  0
VERTEX
  8
PRINTING
 62
   250
 10
-18.6193
 20
-23.9141
  0
VERTEX
  8
PRINTING
 62
   250
 10
-18.3377
 20
-24.0015
  0
VERTEX
  8
PRINTING
 62
   250
 10
-18.0829
 20
-24.1398
  0
VERTEX
  8
PRINTING
 62
   250
 10
-17.861
 20
-24.3229
  0
VERTEX
  8
PRINTING
 62
   250
 10
-17.6778
 20
-24.5449
  0
VERTEX
  8
PRINTING
 62
   250
 10
-17.5395
 20
-24.7997
  0
VERTEX
  8
PRINTING
 62
   250
 10
-17.4521
 20
-25.0813
  0
VERTEX
  8
PRINTING
 62
   250
 10
-17.4216
 20
-25.3836
  0
VERTEX
  8
PRINTING
 62
   250
 10
-17.4521
 20
-25.6859
  0
VERTEX
  8
PRINTING
 62
   250
 10
-17.5395
 20
-25.9675
  0
VERTEX
  8
PRINTING
 62
   250
 10
-17.6778
 20
-26.2223
  0
VERTEX
  8
PRINTING
 62
   250
 10
-17.861
 20
-26.4443
  0
VERTEX
  8
PRINTING
 62
   250
 10
-18.0829
 20
-26.6274
  0
VERTEX
  8
PRINTING
 62
   250
 10
-18.3377
 20
-26.7657
  0
VERTEX
  8
PRINTING
 62
   250
 10
-18.6193
 20
-26.8531
  0
VERTEX
  8
PRINTING
 62
   250
 10
-18.9216
 20
-26.8836
  0
SEQEND
  8
PRINTING
 62
   250
  0
POLYLINE
  8
PRINTING
 62
   250
 66
     1
 70
     1
  0
VERTEX
  8
PRINTING
 62
   250
 10
-6.4216
 20
-44.3635
  0
VERTEX
  8
PRINTING
 62
   250
 10
-6.4622
 20
-44.7665
  0
VERTEX
  8
PRINTING
 62
   250
 10
-6.5788
 20
-45.142
  0
VERTEX
  8
PRINTING
 62
   250
 10
-6.7632
 20
-45.4817
  0
VERTEX
  8
PRINTING
 62
   250
 10
-7.0074
 20
-45.7777
  0
VERTEX
  8
PRINTING
 62
   250
 10
-7.3034
 20
-46.0219
  0
VERTEX
  8
PRINTING
 62
   250
 10
-7.6431
 20
-46.2063
  0
VERTEX
  8
PRINTING
 62
   250
 10
-8.0185
 20
-46.3229
  0
VERTEX
  8
PRINTING
 62
   250
 10
-8.4216
 20
-46.3635
  0
VERTEX
  8
PRINTING
 62
   250
 10
-8.8247
 20
-46.3229
  0
VERTEX
  8
PRINTING
 62
   250
 10
-9.2001
 20
-46.2063
  0
VERTEX
  8
PRINTING
 62
   250
 10
-9.5398
 20
-46.0219
  0
VERTEX
  8
PRINTING
 62
   250
 10
-9.8358
 20
-45.7777
  0
VERTEX
  8
PRINTING
 62
   250
 10
-10.08
 20
-45.4817
  0
VERTEX
  8
PRINTING
 62
   250
 10
-10.2644
 20
-45.142
  0
VERTEX
  8
PRINTING
 62
   250
 10
-10.381
 20
-44.7665
  0
VERTEX
  8
PRINTING
 62
   250
 10
-10.4216
 20
-44.3635
  0
VERTEX
  8
PRINTING
 62
   250
 10
-10.2497
 20
-43.5003
  0
VERTEX
  8
PRINTING
 62
   250
 10
-9.7966
 20
-42.8837
  0
VERTEX
  8
PRINTING
 62
   250
 10
-9.156
 20
-42.5138
  0
VERTEX
  8
PRINTING
 62
   250
 10
-8.4216
 20
-42.3905
  0
VERTEX
  8
PRINTING
 62
   250
 10
-7.6872
 20
-42.5138
  0
VERTEX
  8
PRINTING
 62
   250
 10
-7.0466
 20
-42.8837
  0
VERTEX
  8
PRINTING
 62
   250
 10
-6.5935
 20
-43.5003
  0
VERTEX
  8
PRINTING
 62
   250
 10
-6.4216
 20
-44.3635
  0
SEQEND
  8
PRINTING
 62
   250
  0
POLYLINE
  8
PRINTING
 62
   250
 66
     1
 70
     1
  0
VERTEX
  8
PRINTING
 62
   250
 10
-8.4216
 20
-56.3769
  0
VERTEX
  8
PRINTING
 62
   250
 10
-10.84
 20
-56.1331
  0
VERTEX
  8
PRINTING
 62
   250
 10
-13.0925
 20
-55.4339
  0
VERTEX
  8
PRINTING
 62
   250
 10
-15.1309
 20
-54.3275
  0
VERTEX
  8
PRINTING
 62
   250
 10
-16.9069
 20
-52.8622
  0
VERTEX
  8
PRINTING
 62
   250
 10
-18.3722
 20
-51.0862
  0
VERTEX
  8
PRINTING
 62
   250
 10
-19.4786
 20
-49.0478
  0
VERTEX
  8
PRINTING
 62
   250
 10
-20.1778
 20
-46.7953
  0
VERTEX
  8
PRINTING
 62
   250
 10
-20.4216
 20
-44.3769
  0
VERTEX
  8
PRINTING
 62
   250
 10
-20.2497
 20
-43.5137
  0
VERTEX
  8
PRINTING
 62
   250
 10
-19.7966
 20
-42.8971
  0
VERTEX
  8
PRINTING
 62
   250
 10
-19.156
 20
-42.5272
  0
VERTEX
  8
PRINTING
 62
   250
 10
-18.4216
 20
-42.4039
  0
VERTEX
  8
PRINTING
 62
   250
 10
-17.6872
 20
-42.5272
  0
VERTEX
  8
PRINTING
 62
   250
 10
-17.0466
 20
-42.8971
  0
VERTEX
  8
PRINTING
 62
   250
 10
-16.5935
 20
-43.5137
  0
VERTEX
  8
PRINTING
 62
   250
 10
-16.4216
 20
-44.3769
  0
VERTEX
  8
PRINTING
 62
   250
 10
-16.2591
 20
-45.9892
  0
VERTEX
  8
PRINTING
 62
   250
 10
-15.7929
 20
-47.4909
  0
VERTEX
  8
PRINTING
 62
   250
 10
-15.0553
 20
-48.8498
  0
VERTEX
  8
PRINTING
 62
   250
 10
-14.0785
 20
-50.0338
  0
VERTEX
  8
PRINTING
 62
   250
 10
-12.8945
 20
-51.0106
  0
VERTEX
  8
PRINTING
 62
   250
 10
-11.5356
 20
-51.7482
  0
VERTEX
  8
PRINTING
 62
   250
 10
-10.0339
 20
-52.2144
  0
VERTEX
  8
PRINTING
 62
   250
 10
-8.4216
 20
-52.3769
  0
VERTEX
  8
PRINTING
 62
   250
 10
-6.8093
 20
-52.2039
  0
VERTEX
  8
PRINTING
 62
   250
 10
-5.3076
 20
-51.7122
  0
VERTEX
  8
PRINTING
 62
   250
 10
-3.9487
 20
-50.943
  0
VERTEX
  8
PRINTING
 62
   250
 10
-2.7647
 20
-49.9376
  0
VERTEX
  8
PRINTING
 62
   250
 10
-1.7879
 20
-48.7371
  0
VERTEX
  8
PRINTING
 62
   250
 10
-1.0503
 20
-47.3827
  0
VERTEX
  8
PRINTING
 62
   250
 10
-0.5841
 20
-45.9156
  0
VERTEX
  8
PRINTING
 62
   250
 10
-0.4216
 20
-44.3769
  0
VERTEX
  8
PRINTING
 62
   250
 10
-0.4212
 20
-44.3769
  0
VERTEX
  8
PRINTING
 62
   250
 10
-0.4216
 20
-44.3501
  0
VERTEX
  8
PRINTING
 62
   250
 10
-0.2497
 20
-43.4869
  0
VERTEX
  8
PRINTING
 62
   250
 10
0.2034
 20
-42.8703
  0
VERTEX
  8
PRINTING
 62
   250
 10
0.844
 20
-42.5004
  0
VERTEX
  8
PRINTING
 62
   250
 10
1.5784
 20
-42.3771
  0
VERTEX
  8
PRINTING
 62
   250
 10
2.3128
 20
-42.5004
  0
VERTEX
  8
PRINTING
 62
   250
 10
2.9534
 20
-42.8703
  0
VERTEX
  8
PRINTING
 62
   250
 10
3.4065
 20
-43.4869
  0
VERTEX
  8
PRINTING
 62
   250
 10
3.5784
 20
-44.3501
  0
VERTEX
  8
PRINTING
 62
   250
 10
3.578
 20
-44.3769
  0
VERTEX
  8
PRINTING
 62
   250
 10
3.5784
 20
-44.3769
  0
VERTEX
  8
PRINTING
 62
   250
 10
3.3346
 20
-46.7224
  0
VERTEX
  8
PRINTING
 62
   250
 10
2.6354
 20
-48.9407
  0
VERTEX
  8
PRINTING
 62
   250
 10
1.529
 20
-50.9746
  0
VERTEX
  8
PRINTING
 62
   250
 10
0.0637
 20
-52.7669
  0
VERTEX
  8
PRINTING
 62
   250
 10
-1.7123
 20
-54.2605
  0
VERTEX
  8
PRINTING
 62
   250
 10
-3.7507
 20
-55.3982
  0
VERTEX
  8
PRINTING
 62
   250
 10
-6.0032
 20
-56.1227
  0
VERTEX
  8
PRINTING
 62
   250
 10
-8.4216
 20
-56.3769
  0
SEQEND
  8
PRINTING
 62
   250
  0
POLYLINE
  8
PRINTING
 62
   250
 66
     1
 70
     1
  0
VERTEX
  8
PRINTING
 62
   250
 10
62.0784
 20
-26.8836
  0
VERTEX
  8
PRINTING
 62
   250
 10
61.7761
 20
-26.8531
  0
VERTEX
  8
PRINTING
 62
   250
 10
61.4945
 20
-26.7657
  0
VERTEX
  8
PRINTING
 62
   250
 10
61.2397
 20
-26.6274
  0
VERTEX
  8
PRINTING
 62
   250
 10
61.0177
 20
-26.4443
  0
VERTEX
  8
PRINTING
 62
   250
 10
60.8346
 20
-26.2223
  0
VERTEX
  8
PRINTING
 62
   250
 10
60.6963
 20
-25.9675
  0
VERTEX
  8
PRINTING
 62
   250
 10
60.6089
 20
-25.6859
  0
VERTEX
  8
PRINTING
 62
   250
 10
60.5784
 20
-25.3836
  0
VERTEX
  8
PRINTING
 62
   250
 10
60.6089
 20
-25.0813
  0
VERTEX
  8
PRINTING
 62
   250
 10
60.6963
 20
-24.7997
  0
VERTEX
  8
PRINTING
 62
   250
 10
60.8346
 20
-24.5449
  0
VERTEX
  8
PRINTING
 62
   250
 10
61.0177
 20
-24.323
  0
VERTEX
  8
PRINTING
 62
   250
 10
61.2397
 20
-24.1398
  0
VERTEX
  8
PRINTING
 62
   250
 10
61.4945
 20
-24.0015
  0
VERTEX
  8
PRINTING
 62
   250
 10
61.7761
 20
-23.9141
  0
VERTEX
  8
PRINTING
 62
   250
 10
62.0784
 20
-23.8836
  0
VERTEX
  8
PRINTING
 62
   250
 10
62.3807
 20
-23.9141
  0
VERTEX
  8
PRINTING
 62
   250
 10
62.6623
 20
-24.0015
  0
VERTEX
  8
PRINTING
 62
   250
 10
62.9171
 20
-24.1398
  0
VERTEX
  8
PRINTING
 62
   250
 10
63.1391
 20
-24.323
  0
VERTEX
  8
PRINTING
 62
   250
 10
63.3222
 20
-24.5449
  0
VERTEX
  8
PRINTING
 62
   250
 10
63.4605
 20
-24.7997
  0
VERTEX
  8
PRINTING
 62
   250
 10
63.5479
 20
-25.0813
  0
VERTEX
  8
PRINTING
 62
   250
 10
63.5784
 20
-25.3836
  0
VERTEX
  8
PRINTING
 62
   250
 10
63.5479
 20
-25.6859
  0
VERTEX
  8
PRINTING
 62
   250
 10
63.4605
 20
-25.9675
  0
VERTEX
  8
PRINTING
 62
   250
 10
63.3222
 20
-26.2223
  0
VERTEX
  8
PRINTING
 62
   250
 10
63.1391
 20
-26.4443
  0
VERTEX
  8
PRINTING
 62
   250
 10
62.9171
 20
-26.6274
  0
VERTEX
  8
PRINTING
 62
   250
 10
62.6623
 20
-26.7657
  0
VERTEX
  8
PRINTING
 62
   250
 10
62.3807
 20
-26.8531
  0
VERTEX
  8
PRINTING
 62
   250
 10
62.0784
 20
-26.8836
  0
SEQEND
  8
PRINTING
 62
   250
  0
POLYLINE
  8
PRINTING
 62
   250
 66
     1
 70
     1
  0
VERTEX
  8
PRINTING
 62
   250
 10
-17.3033
 20
64.1674
  0
VERTEX
  8
PRINTING
 62
   250
 10
-17.2627
 20
64.5705
  0
VERTEX
  8
PRINTING
 62
   250
 10
-17.1461
 20
64.9459
  0
VERTEX
  8
PRINTING
 62
   250
 10
-16.9617
 20
65.2856
  0
VERTEX
  8
PRINTING
 62
   250
 10
-16.7175
 20
65.5816
  0
VERTEX
  8
PRINTING
 62
   250
 10
-16.4215
 20
65.8258
  0
VERTEX
  8
PRINTING
 62
   250
 10
-16.0818
 20
66.0102
  0
VERTEX
  8
PRINTING
 62
   250
 10
-15.7063
 20
66.1268
  0
VERTEX
  8
PRINTING
 62
   250
 10
-15.3033
 20
66.1674
  0
VERTEX
  8
PRINTING
 62
   250
 10
-14.9003
 20
66.1268
  0
VERTEX
  8
PRINTING
 62
   250
 10
-14.5248
 20
66.0102
  0
VERTEX
  8
PRINTING
 62
   250
 10
-14.1851
 20
65.8258
  0
VERTEX
  8
PRINTING
 62
   250
 10
-13.8891
 20
65.5816
  0
VERTEX
  8
PRINTING
 62
   250
 10
-13.6449
 20
65.2856
  0
VERTEX
  8
PRINTING
 62
   250
 10
-13.4605
 20
64.9459
  0
VERTEX
  8
PRINTING
 62
   250
 10
-13.3439
 20
64.5705
  0
VERTEX
  8
PRINTING
 62
   250
 10
-13.3033
 20
64.1674
  0
VERTEX
  8
PRINTING
 62
   250
 10
-13.3439
 20
63.7643
  0
VERTEX
  8
PRINTING
 62
   250
 10
-13.4605
 20
63.3889
  0
VERTEX
  8
PRINTING
 62
   250
 10
-13.6449
 20
63.0492
  0
VERTEX
  8
PRINTING
 62
   250
 10
-13.8891
 20
62.7532
  0
VERTEX
  8
PRINTING
 62
   250
 10
-14.1851
 20
62.509
  0
VERTEX
  8
PRINTING
 62
   250
 10
-14.5248
 20
62.3246
  0
VERTEX
  8
PRINTING
 62
   250
 10
-14.9003
 20
62.208
  0
VERTEX
  8
PRINTING
 62
   250
 10
-15.3033
 20
62.1674
  0
VERTEX
  8
PRINTING
 62
   250
 10
-15.7063
 20
62.208
  0
VERTEX
  8
PRINTING
 62
   250
 10
-16.0818
 20
62.3246
  0
VERTEX
  8
PRINTING
 62
   250
 10
-16.4215
 20
62.509
  0
VERTEX
  8
PRINTING
 62
   250
 10
-16.7175
 20
62.7532
  0
VERTEX
  8
PRINTING
 62
   250
 10
-16.9617
 20
63.0492
  0
VERTEX
  8
PRINTING
 62
   250
 10
-17.1461
 20
63.3889
  0
VERTEX
  8
PRINTING
 62
   250
 10
-17.2627
 20
63.7643
  0
VERTEX
  8
PRINTING
 62
   250
 10
-17.3033
 20
64.1674
  0
SEQEND
  8
PRINTING
 62
   250
  0
POLYLINE
  8
PRINTING
 62
   250
 66
     1
 70
     1
  0
VERTEX
  8
PRINTING
 62
   250
 10
-15.3033
 20
56.1674
  0
VERTEX
  8
PRINTING
 62
   250
 10
-14.9003
 20
56.1268
  0
VERTEX
  8
PRINTING
 62
   250
 10
-14.5248
 20
56.0102
  0
VERTEX
  8
PRINTING
 62
   250
 10
-14.1851
 20
55.8258
  0
VERTEX
  8
PRINTING
 62
   250
 10
-13.8891
 20
55.5816
  0
VERTEX
  8
PRINTING
 62
   250
 10
-13.6449
 20
55.2856
  0
VERTEX
  8
PRINTING
 62
   250
 10
-13.4605
 20
54.9459
  0
VERTEX
  8
PRINTING
 62
   250
 10
-13.3439
 20
54.5705
  0
VERTEX
  8
PRINTING
 62
   250
 10
-13.3033
 20
54.1674
  0
VERTEX
  8
PRINTING
 62
   250
 10
-13.3439
 20
53.7643
  0
VERTEX
  8
PRINTING
 62
   250
 10
-13.4605
 20
53.3889
  0
VERTEX
  8
PRINTING
 62
   250
 10
-13.6449
 20
53.0492
  0
VERTEX
  8
PRINTING
 62
   250
 10
-13.8891
 20
52.7532
  0
VERTEX
  8
PRINTING
 62
   250
 10
-14.1851
 20
52.509
  0
VERTEX
  8
PRINTING
 62
   250
 10
-14.5248
 20
52.3246
  0
VERTEX
  8
PRINTING
 62
   250
 10
-14.9003
 20
52.208
  0
VERTEX
  8
PRINTING
 62
   250
 10
-15.3033
 20
52.1674
  0
VERTEX
  8
PRINTING
 62
   250
 10
-16.1665
 20
52.3393
  0
VERTEX
  8
PRINTING
 62
   250
 10
-16.7831
 20
52.7924
  0
VERTEX
  8
PRINTING
 62
   250
 10
-17.153
 20
53.433
  0
VERTEX
  8
PRINTING
 62
   250
 10
-17.2763
 20
54.1674
  0
VERTEX
  8
PRINTING
 62
   250
 10
-17.153
 20
54.9018
  0
VERTEX
  8
PRINTING
 62
   250
 10
-16.7831
 20
55.5424
  0
VERTEX
  8
PRINTING
 62
   250
 10
-16.1665
 20
55.9955
  0
VERTEX
  8
PRINTING
 62
   250
 10
-15.3033
 20
56.1674
  0
SEQEND
  8
PRINTING
 62
   250
  0
POLYLINE
  8
PRINTING
 62
   250
 66
     1
 70
     1
  0
VERTEX
  8
PRINTING
 62
   250
 10
-19.3033
 20
35.1674
  0
VERTEX
  8
PRINTING
 62
   250
 10
-19.3033
 20
49.1274
  0
VERTEX
  8
PRINTING
 62
   250
 10
-19.3892
 20
49.4297
  0
VERTEX
  8
PRINTING
 62
   250
 10
-19.6158
 20
49.588
  0
VERTEX
  8
PRINTING
 62
   250
 10
-19.9361
 20
49.6498
  0
VERTEX
  8
PRINTING
 62
   250
 10
-20.3033
 20
49.6624
  0
VERTEX
  8
PRINTING
 62
   250
 10
-20.6705
 20
49.6731
  0
VERTEX
  8
PRINTING
 62
   250
 10
-20.9908
 20
49.7293
  0
VERTEX
  8
PRINTING
 62
   250
 10
-21.2174
 20
49.8783
  0
VERTEX
  8
PRINTING
 62
   250
 10
-21.3033
 20
50.1674
  0
VERTEX
  8
PRINTING
 62
   250
 10
-21.3033
 20
67.1674
  0
VERTEX
  8
PRINTING
 62
   250
 10
-21.2584
 20
67.5404
  0
VERTEX
  8
PRINTING
 62
   250
 10
-21.1314
 20
67.9018
  0
VERTEX
  8
PRINTING
 62
   250
 10
-20.9342
 20
68.2397
  0
VERTEX
  8
PRINTING
 62
   250
 10
-20.6783
 20
68.5424
  0
VERTEX
  8
PRINTING
 62
   250
 10
-20.3756
 20
68.7983
  0
VERTEX
  8
PRINTING
 62
   250
 10
-20.0377
 20
68.9955
  0
VERTEX
  8
PRINTING
 62
   250
 10
-19.6763
 20
69.1225
  0
VERTEX
  8
PRINTING
 62
   250
 10
-19.3033
 20
69.1674
  0
VERTEX
  8
PRINTING
 62
   250
 10
-11.3033
 20
69.1674
  0
VERTEX
  8
PRINTING
 62
   250
 10
-10.9303
 20
69.1225
  0
VERTEX
  8
PRINTING
 62
   250
 10
-10.5689
 20
68.9955
  0
VERTEX
  8
PRINTING
 62
   250
 10
-10.231
 20
68.7983
  0
VERTEX
  8
PRINTING
 62
   250
 10
-9.9283
 20
68.5424
  0
VERTEX
  8
PRINTING
 62
   250
 10
-9.6724
 20
68.2397
  0
VERTEX
  8
PRINTING
 62
   250
 10
-9.4752
 20
67.9018
  0
VERTEX
  8
PRINTING
 62
   250
 10
-9.3482
 20
67.5404
  0
VERTEX
  8
PRINTING
 62
   250
 10
-9.3033
 20
67.1674
  0
VERTEX
  8
PRINTING
 62
   250
 10
-9.3033
 20
50.1674
  0
VERTEX
  8
PRINTING
 62
   250
 10
-9.3892
 20
49.8783
  0
VERTEX
  8
PRINTING
 62
   250
 10
-9.6158
 20
49.7293
  0
VERTEX
  8
PRINTING
 62
   250
 10
-9.9361
 20
49.6731
  0
VERTEX
  8
PRINTING
 62
   250
 10
-10.3033
 20
49.6624
  0
VERTEX
  8
PRINTING
 62
   250
 10
-10.6705
 20
49.6498
  0
VERTEX
  8
PRINTING
 62
   250
 10
-10.9908
 20
49.588
  0
VERTEX
  8
PRINTING
 62
   250
 10
-11.2174
 20
49.4297
  0
VERTEX
  8
PRINTING
 62
   250
 10
-11.3033
 20
49.1274
  0
VERTEX
  8
PRINTING
 62
   250
 10
-11.3033
 20
35.1674
  0
VERTEX
  8
PRINTING
 62
   250
 10
-11.3053
 20
34.8373
  0
VERTEX
  8
PRINTING
 62
   250
 10
-11.3189
 20
34.5893
  0
VERTEX
  8
PRINTING
 62
   250
 10
-11.356
 20
34.4115
  0
VERTEX
  8
PRINTING
 62
   250
 10
-11.4283
 20
34.2924
  0
VERTEX
  8
PRINTING
 62
   250
 10
-11.5474
 20
34.2201
  0
VERTEX
  8
PRINTING
 62
   250
 10
-11.7252
 20
34.183
  0
VERTEX
  8
PRINTING
 62
   250
 10
-11.9732
 20
34.1694
  0
VERTEX
  8
PRINTING
 62
   250
 10
-12.3033
 20
34.1674
  0
VERTEX
  8
PRINTING
 62
   250
 10
-18.3033
 20
34.1674
  0
VERTEX
  8
PRINTING
 62
   250
 10
-18.6334
 20
34.1694
  0
VERTEX
  8
PRINTING
 62
   250
 10
-18.8814
 20
34.183
  0
VERTEX
  8
PRINTING
 62
   250
 10
-19.0592
 20
34.2201
  0
VERTEX
  8
PRINTING
 62
   250
 10
-19.1783
 20
34.2924
  0
VERTEX
  8
PRINTING
 62
   250
 10
-19.2506
 20
34.4115
  0
VERTEX
  8
PRINTING
 62
   250
 10
-19.2877
 20
34.5893
  0
VERTEX
  8
PRINTING
 62
   250
 10
-19.3013
 20
34.8373
  0
VERTEX
  8
PRINTING
 62
   250
 10
-19.3033
 20
35.1674
  0
SEQEND
  8
PRINTING
 62
   250
  0
POLYLINE
  8
PRINTING
 62
   250
 66
     1
 70
     1
  0
VERTEX
  8
PRINTING
 62
   250
 10
-5.2335
 20
64.0912
  0
VERTEX
  8
PRINTING
 62
   250
 10
-5.1929
 20
64.4943
  0
VERTEX
  8
PRINTING
 62
   250
 10
-5.0763
 20
64.8697
  0
VERTEX
  8
PRINTING
 62
   250
 10
-4.8919
 20
65.2094
  0
VERTEX
  8
PRINTING
 62
   250
 10
-4.6477
 20
65.5054
  0
VERTEX
  8
PRINTING
 62
   250
 10
-4.3517
 20
65.7496
  0
VERTEX
  8
PRINTING
 62
   250
 10
-4.012
 20
65.934
  0
VERTEX
  8
PRINTING
 62
   250
 10
-3.6365
 20
66.0506
  0
VERTEX
  8
PRINTING
 62
   250
 10
-3.2335
 20
66.0912
  0
VERTEX
  8
PRINTING
 62
   250
 10
-2.8305
 20
66.0506
  0
VERTEX
  8
PRINTING
 62
   250
 10
-2.455
 20
65.934
  0
VERTEX
  8
PRINTING
 62
   250
 10
-2.1153
 20
65.7496
  0
VERTEX
  8
PRINTING
 62
   250
 10
-1.8193
 20
65.5054
  0
VERTEX
  8
PRINTING
 62
   250
 10
-1.5751
 20
65.2094
  0
VERTEX
  8
PRINTING
 62
   250
 10
-1.3907
 20
64.8697
  0
VERTEX
  8
PRINTING
 62
   250
 10
-1.2741
 20
64.4943
  0
VERTEX
  8
PRINTING
 62
   250
 10
-1.2335
 20
64.0912
  0
VERTEX
  8
PRINTING
 62
   250
 10
-1.2741
 20
63.6881
  0
VERTEX
  8
PRINTING
 62
   250
 10
-1.3907
 20
63.3127
  0
VERTEX
  8
PRINTING
 62
   250
 10
-1.5751
 20
62.973
  0
VERTEX
  8
PRINTING
 62
   250
 10
-1.8193
 20
62.677
  0
VERTEX
  8
PRINTING
 62
   250
 10
-2.1153
 20
62.4328
  0
VERTEX
  8
PRINTING
 62
   250
 10
-2.455
 20
62.2484
  0
VERTEX
  8
PRINTING
 62
   250
 10
-2.8305
 20
62.1318
  0
VERTEX
  8
PRINTING
 62
   250
 10
-3.2335
 20
62.0912
  0
VERTEX
  8
PRINTING
 62
   250
 10
-3.6365
 20
62.1318
  0
VERTEX
  8
PRINTING
 62
   250
 10
-4.012
 20
62.2484
  0
VERTEX
  8
PRINTING
 62
   250
 10
-4.3517
 20
62.4328
  0
VERTEX
  8
PRINTING
 62
   250
 10
-4.6477
 20
62.677
  0
VERTEX
  8
PRINTING
 62
   250
 10
-4.8919
 20
62.973
  0
VERTEX
  8
PRINTING
 62
   250
 10
-5.0763
 20
63.3127
  0
VERTEX
  8
PRINTING
 62
   250
 10
-5.1929
 20
63.6881
  0
VERTEX
  8
PRINTING
 62
   250
 10
-5.2335
 20
64.0912
  0
SEQEND
  8
PRINTING
 62
   250
  0
POLYLINE
  8
PRINTING
 62
   250
 66
     1
 70
     1
  0
VERTEX
  8
PRINTING
 62
   250
 10
-3.2335
 20
56.0912
  0
VERTEX
  8
PRINTING
 62
   250
 10
-2.8305
 20
56.0506
  0
VERTEX
  8
PRINTING
 62
   250
 10
-2.455
 20
55.934
  0
VERTEX
  8
PRINTING
 62
   250
 10
-2.1153
 20
55.7496
  0
VERTEX
  8
PRINTING
 62
   250
 10
-1.8193
 20
55.5054
  0
VERTEX
  8
PRINTING
 62
   250
 10
-1.5751
 20
55.2094
  0
VERTEX
  8
PRINTING
 62
   250
 10
-1.3907
 20
54.8697
  0
VERTEX
  8
PRINTING
 62
   250
 10
-1.2741
 20
54.4943
  0
VERTEX
  8
PRINTING
 62
   250
 10
-1.2335
 20
54.0912
  0
VERTEX
  8
PRINTING
 62
   250
 10
-1.2741
 20
53.6881
  0
VERTEX
  8
PRINTING
 62
   250
 10
-1.3907
 20
53.3127
  0
VERTEX
  8
PRINTING
 62
   250
 10
-1.5751
 20
52.973
  0
VERTEX
  8
PRINTING
 62
   250
 10
-1.8193
 20
52.677
  0
VERTEX
  8
PRINTING
 62
   250
 10
-2.1153
 20
52.4328
  0
VERTEX
  8
PRINTING
 62
   250
 10
-2.455
 20
52.2484
  0
VERTEX
  8
PRINTING
 62
   250
 10
-2.8305
 20
52.1318
  0
VERTEX
  8
PRINTING
 62
   250
 10
-3.2335
 20
52.0912
  0
VERTEX
  8
PRINTING
 62
   250
 10
-4.0967
 20
52.2631
  0
VERTEX
  8
PRINTING
 62
   250
 10
-4.7133
 20
52.7162
  0
VERTEX
  8
PRINTING
 62
   250
 10
-5.0832
 20
53.3568
  0
VERTEX
  8
PRINTING
 62
   250
 10
-5.2065
 20
54.0912
  0
VERTEX
  8
PRINTING
 62
   250
 10
-5.0832
 20
54.8256
  0
VERTEX
  8
PRINTING
 62
   250
 10
-4.7133
 20
55.4662
  0
VERTEX
  8
PRINTING
 62
   250
 10
-4.0967
 20
55.9193
  0
VERTEX
  8
PRINTING
 62
   250
 10
-3.2335
 20
56.0912
  0
SEQEND
  8
PRINTING
 62
   250
  0
POLYLINE
  8
PRINTING
 62
   250
 66
     1
 70
     1
  0
VERTEX
  8
PRINTING
 62
   250
 10
-7.2335
 20
35.0912
  0
VERTEX
  8
PRINTING
 62
   250
 10
-7.2335
 20
49.0512
  0
VERTEX
  8
PRINTING
 62
   250
 10
-7.3194
 20
49.3535
  0
VERTEX
  8
PRINTING
 62
   250
 10
-7.546
 20
49.5118
  0
VERTEX
  8
PRINTING
 62
   250
 10
-7.8663
 20
49.5736
  0
VERTEX
  8
PRINTING
 62
   250
 10
-8.2335
 20
49.5862
  0
VERTEX
  8
PRINTING
 62
   250
 10
-8.6007
 20
49.5969
  0
VERTEX
  8
PRINTING
 62
   250
 10
-8.921
 20
49.6531
  0
VERTEX
  8
PRINTING
 62
   250
 10
-9.1476
 20
49.8021
  0
VERTEX
  8
PRINTING
 62
   250
 10
-9.2335
 20
50.0912
  0
VERTEX
  8
PRINTING
 62
   250
 10
-9.2335
 20
67.0912
  0
VERTEX
  8
PRINTING
 62
   250
 10
-9.1886
 20
67.4642
  0
VERTEX
  8
PRINTING
 62
   250
 10
-9.0616
 20
67.8256
  0
VERTEX
  8
PRINTING
 62
   250
 10
-8.8644
 20
68.1635
  0
VERTEX
  8
PRINTING
 62
   250
 10
-8.6085
 20
68.4662
  0
VERTEX
  8
PRINTING
 62
   250
 10
-8.3058
 20
68.7221
  0
VERTEX
  8
PRINTING
 62
   250
 10
-7.9679
 20
68.9193
  0
VERTEX
  8
PRINTING
 62
   250
 10
-7.6065
 20
69.0463
  0
VERTEX
  8
PRINTING
 62
   250
 10
-7.2335
 20
69.0912
  0
VERTEX
  8
PRINTING
 62
   250
 10
0.7665
 20
69.0912
  0
VERTEX
  8
PRINTING
 62
   250
 10
1.1395
 20
69.0463
  0
VERTEX
  8
PRINTING
 62
   250
 10
1.5009
 20
68.9193
  0
VERTEX
  8
PRINTING
 62
   250
 10
1.8388
 20
68.7221
  0
VERTEX
  8
PRINTING
 62
   250
 10
2.1415
 20
68.4662
  0
VERTEX
  8
PRINTING
 62
   250
 10
2.3974
 20
68.1635
  0
VERTEX
  8
PRINTING
 62
   250
 10
2.5946
 20
67.8256
  0
VERTEX
  8
PRINTING
 62
   250
 10
2.7216
 20
67.4642
  0
VERTEX
  8
PRINTING
 62
   250
 10
2.7665
 20
67.0912
  0
VERTEX
  8
PRINTING
 62
   250
 10
2.7665
 20
50.0912
  0
VERTEX
  8
PRINTING
 62
   250
 10
2.6806
 20
49.8021
  0
VERTEX
  8
PRINTING
 62
   250
 10
2.454
 20
49.6531
  0
VERTEX
  8
PRINTING
 62
   250
 10
2.1337
 20
49.5969
  0
VERTEX
  8
PRINTING
 62
   250
 10
1.7665
 20
49.5862
  0
VERTEX
  8
PRINTING
 62
   250
 10
1.3993
 20
49.5736
  0
VERTEX
  8
PRINTING
 62
   250
 10
1.079
 20
49.5118
  0
VERTEX
  8
PRINTING
 62
   250
 10
0.8524
 20
49.3535
  0
VERTEX
  8
PRINTING
 62
   250
 10
0.7665
 20
49.0512
  0
VERTEX
  8
PRINTING
 62
   250
 10
0.7665
 20
35.0912
  0
VERTEX
  8
PRINTING
 62
   250
 10
0.7645
 20
34.7611
  0
VERTEX
  8
PRINTING
 62
   250
 10
0.7509
 20
34.5131
  0
VERTEX
  8
PRINTING
 62
   250
 10
0.7138
 20
34.3353
  0
VERTEX
  8
PRINTING
 62
   250
 10
0.6415
 20
34.2162
  0
VERTEX
  8
PRINTING
 62
   250
 10
0.5224
 20
34.1439
  0
VERTEX
  8
PRINTING
 62
   250
 10
0.3446
 20
34.1068
  0
VERTEX
  8
PRINTING
 62
   250
 10
0.0966
 20
34.0932
  0
VERTEX
  8
PRINTING
 62
   250
 10
-0.2335
 20
34.0912
  0
VERTEX
  8
PRINTING
 62
   250
 10
-6.2335
 20
34.0912
  0
VERTEX
  8
PRINTING
 62
   250
 10
-6.5636
 20
34.0932
  0
VERTEX
  8
PRINTING
 62
   250
 10
-6.8116
 20
34.1068
  0
VERTEX
  8
PRINTING
 62
   250
 10
-6.9894
 20
34.1439
  0
VERTEX
  8
PRINTING
 62
   250
 10
-7.1085
 20
34.2162
  0
VERTEX
  8
PRINTING
 62
   250
 10
-7.1808
 20
34.3353
  0
VERTEX
  8
PRINTING
 62
   250
 10
-7.2179
 20
34.5131
  0
VERTEX
  8
PRINTING
 62
   250
 10
-7.2315
 20
34.7611
  0
VERTEX
  8
PRINTING
 62
   250
 10
-7.2335
 20
35.0912
  0
SEQEND
  8
PRINTING
 62
   250
  0
POLYLINE
  8
PRINTING
 62
   250
 66
     1
 70
     1
  0
VERTEX
  8
PRINTING
 62
   250
 10
-59.2043
 20
-6.4088
  0
VERTEX
  8
PRINTING
 62
   250
 10
-55.4543
 20
-5.7526
  0
VERTEX
  8
PRINTING
 62
   250
 10
-51.7043
 20
-5.2838
  0
VERTEX
  8
PRINTING
 62
   250
 10
-47.9543
 20
-5.0026
  0
VERTEX
  8
PRINTING
 62
   250
 10
-44.2043
 20
-4.9088
  0
VERTEX
  8
PRINTING
 62
   250
 10
-40.4543
 20
-5.0026
  0
VERTEX
  8
PRINTING
 62
   250
 10
-36.7043
 20
-5.2838
  0
VERTEX
  8
PRINTING
 62
   250
 10
-32.9543
 20
-5.7526
  0
VERTEX
  8
PRINTING
 62
   250
 10
-29.2043
 20
-6.4088
  0
VERTEX
  8
PRINTING
 62
   250
 10
-28.5481
 20
-9.8151
  0
VERTEX
  8
PRINTING
 62
   250
 10
-28.0793
 20
-12.6588
  0
VERTEX
  8
PRINTING
 62
   250
 10
-27.7981
 20
-15.1276
  0
VERTEX
  8
PRINTING
 62
   250
 10
-27.7043
 20
-17.4088
  0
VERTEX
  8
PRINTING
 62
   250
 10
-27.7981
 20
-19.6901
  0
VERTEX
  8
PRINTING
 62
   250
 10
-28.0793
 20
-22.1588
  0
VERTEX
  8
PRINTING
 62
   250
 10
-28.5481
 20
-25.0026
  0
VERTEX
  8
PRINTING
 62
   250
 10
-29.2043
 20
-28.4088
  0
VERTEX
  8
PRINTING
 62
   250
 10
-34.2043
 20
-28.4088
  0
VERTEX
  8
PRINTING
 62
   250
 10
-34.2043
 20
-37.4088
  0
VERTEX
  8
PRINTING
 62
   250
 10
-34.2063
 20
-37.7389
  0
VERTEX
  8
PRINTING
 62
   250
 10
-34.22
 20
-37.9869
  0
VERTEX
  8
PRINTING
 62
   250
 10
-34.2571
 20
-38.1647
  0
VERTEX
  8
PRINTING
 62
   250
 10
-34.3293
 20
-38.2838
  0
VERTEX
  8
PRINTING
 62
   250
 10
-34.4485
 20
-38.3561
  0
VERTEX
  8
PRINTING
 62
   250
 10
-34.6262
 20
-38.3932
  0
VERTEX
  8
PRINTING
 62
   250
 10
-34.8742
 20
-38.4068
  0
VERTEX
  8
PRINTING
 62
   250
 10
-35.2043
 20
-38.4088
  0
VERTEX
  8
PRINTING
 62
   250
 10
-51.2043
 20
-38.4088
  0
VERTEX
  8
PRINTING
 62
   250
 10
-51.5344
 20
-38.4068
  0
VERTEX
  8
PRINTING
 62
   250
 10
-51.7825
 20
-38.3932
  0
VERTEX
  8
PRINTING
 62
   250
 10
-51.9602
 20
-38.3561
  0
VERTEX
  8
PRINTING
 62
   250
 10
-52.0793
 20
-38.2838
  0
VERTEX
  8
PRINTING
 62
   250
 10
-52.1516
 20
-38.1647
  0
VERTEX
  8
PRINTING
 62
   250
 10
-52.1887
 20
-37.9869
  0
VERTEX
  8
PRINTING
 62
   250
 10
-52.2024
 20
-37.7389
  0
VERTEX
  8
PRINTING
 62
   250
 10
-52.2043
 20
-37.4088
  0
VERTEX
  8
PRINTING
 62
   250
 10
-52.1493
 20
-28.4088
  0
VERTEX
  8
PRINTING
 62
   250
 10
-59.2043
 20
-28.4088
  0
VERTEX
  8
PRINTING
 62
   250
 10
-59.5324
 20
-25.7408
  0
VERTEX
  8
PRINTING
 62
   250
 10
-59.7668
 20
-23.0026
  0
VERTEX
  8
PRINTING
 62
   250
 10
-59.9074
 20
-20.2174
  0
VERTEX
  8
PRINTING
 62
   250
 10
-59.9543
 20
-17.4088
  0
VERTEX
  8
PRINTING
 62
   250
 10
-59.9074
 20
-14.6002
  0
VERTEX
  8
PRINTING
 62
   250
 10
-59.7668
 20
-11.8151
  0
VERTEX
  8
PRINTING
 62
   250
 10
-59.5324
 20
-9.0768
  0
VERTEX
  8
PRINTING
 62
   250
 10
-59.2043
 20
-6.4088
  0
SEQEND
  8
PRINTING
 62
   250
  0
POLYLINE
  8
PRINTING
 62
   250
 66
     1
 70
     1
  0
VERTEX
  8
PRINTING
 62
   250
 10
-35.2043
 20
-12.4088
  0
VERTEX
  8
PRINTING
 62
   250
 10
-34.1966
 20
-12.5104
  0
VERTEX
  8
PRINTING
 62
   250
 10
-33.2581
 20
-12.8017
  0
VERTEX
  8
PRINTING
 62
   250
 10
-32.4088
 20
-13.2627
  0
VERTEX
  8
PRINTING
 62
   250
 10
-31.6688
 20
-13.8733
  0
VERTEX
  8
PRINTING
 62
   250
 10
-31.0582
 20
-14.6133
  0
VERTEX
  8
PRINTING
 62
   250
 10
-30.5972
 20
-15.4626
  0
VERTEX
  8
PRINTING
 62
   250
 10
-30.3059
 20
-16.4011
  0
VERTEX
  8
PRINTING
 62
   250
 10
-30.2043
 20
-17.4088
  0
VERTEX
  8
PRINTING
 62
   250
 10
-30.3059
 20
-18.4165
  0
VERTEX
  8
PRINTING
 62
   250
 10
-30.5972
 20
-19.355
  0
VERTEX
  8
PRINTING
 62
   250
 10
-31.0582
 20
-20.2043
  0
VERTEX
  8
PRINTING
 62
   250
 10
-31.6688
 20
-20.9443
  0
VERTEX
  8
PRINTING
 62
   250
 10
-32.4088
 20
-21.5549
  0
VERTEX
  8
PRINTING
 62
   250
 10
-33.2581
 20
-22.0159
  0
VERTEX
  8
PRINTING
 62
   250
 10
-34.1966
 20
-22.3072
  0
VERTEX
  8
PRINTING
 62
   250
 10
-35.2043
 20
-22.4088
  0
VERTEX
  8
PRINTING
 62
   250
 10
-36.212
 20
-22.3072
  0
VERTEX
  8
PRINTING
 62
   250
 10
-37.1505
 20
-22.0159
  0
VERTEX
  8
PRINTING
 62
   250
 10
-37.9998
 20
-21.5549
  0
VERTEX
  8
PRINTING
 62
   250
 10
-38.7398
 20
-20.9443
  0
VERTEX
  8
PRINTING
 62
   250
 10
-39.3504
 20
-20.2043
  0
VERTEX
  8
PRINTING
 62
   250
 10
-39.8114
 20
-19.355
  0
VERTEX
  8
PRINTING
 62
   250
 10
-40.1027
 20
-18.4165
  0
VERTEX
  8
PRINTING
 62
   250
 10
-40.2043
 20
-17.4088
  0
VERTEX
  8
PRINTING
 62
   250
 10
-40.1027
 20
-16.4011
  0
VERTEX
  8
PRINTING
 62
   250
 10
-39.8114
 20
-15.4626
  0
VERTEX
  8
PRINTING
 62
   250
 10
-39.3504
 20
-14.6133
  0
VERTEX
  8
PRINTING
 62
   250
 10
-38.7398
 20
-13.8733
  0
VERTEX
  8
PRINTING
 62
   250
 10
-37.9998
 20
-13.2627
  0
VERTEX
  8
PRINTING
 62
   250
 10
-37.1505
 20
-12.8017
  0
VERTEX
  8
PRINTING
 62
   250
 10
-36.212
 20
-12.5104
  0
VERTEX
  8
PRINTING
 62
   250
 10
-35.2043
 20
-12.4088
  0
SEQEND
  8
PRINTING
 62
   250
  0
POLYLINE
  8
PRINTING
 62
   250
 66
     1
 70
     1
  0
VERTEX
  8
PRINTING
 62
   250
 10
-55.1043
 20
-25.2088
  0
VERTEX
  8
PRINTING
 62
   250
 10
-54.8826
 20
-25.2311
  0
VERTEX
  8
PRINTING
 62
   250
 10
-54.6761
 20
-25.2952
  0
VERTEX
  8
PRINTING
 62
   250
 10
-54.4893
 20
-25.3967
  0
VERTEX
  8
PRINTING
 62
   250
 10
-54.3265
 20
-25.531
  0
VERTEX
  8
PRINTING
 62
   250
 10
-54.1922
 20
-25.6938
  0
VERTEX
  8
PRINTING
 62
   250
 10
-54.0907
 20
-25.8806
  0
VERTEX
  8
PRINTING
 62
   250
 10
-54.0266
 20
-26.0871
  0
VERTEX
  8
PRINTING
 62
   250
 10
-54.0043
 20
-26.3088
  0
VERTEX
  8
PRINTING
 62
   250
 10
-54.0266
 20
-26.5305
  0
VERTEX
  8
PRINTING
 62
   250
 10
-54.0907
 20
-26.737
  0
VERTEX
  8
PRINTING
 62
   250
 10
-54.1922
 20
-26.9238
  0
VERTEX
  8
PRINTING
 62
   250
 10
-54.3265
 20
-27.0866
  0
VERTEX
  8
PRINTING
 62
   250
 10
-54.4893
 20
-27.2209
  0
VERTEX
  8
PRINTING
 62
   250
 10
-54.6761
 20
-27.3224
  0
VERTEX
  8
PRINTING
 62
   250
 10
-54.8826
 20
-27.3865
  0
VERTEX
  8
PRINTING
 62
   250
 10
-55.1043
 20
-27.4088
  0
VERTEX
  8
PRINTING
 62
   250
 10
-55.326
 20
-27.3865
  0
VERTEX
  8
PRINTING
 62
   250
 10
-55.5325
 20
-27.3224
  0
VERTEX
  8
PRINTING
 62
   250
 10
-55.7193
 20
-27.2209
  0
VERTEX
  8
PRINTING
 62
   250
 10
-55.8821
 20
-27.0866
  0
VERTEX
  8
PRINTING
 62
   250
 10
-56.0164
 20
-26.9238
  0
VERTEX
  8
PRINTING
 62
   250
 10
-56.1179
 20
-26.737
  0
VERTEX
  8
PRINTING
 62
   250
 10
-56.182
 20
-26.5305
  0
VERTEX
  8
PRINTING
 62
   250
 10
-56.2043
 20
-26.3088
  0
VERTEX
  8
PRINTING
 62
   250
 10
-56.182
 20
-26.0871
  0
VERTEX
  8
PRINTING
 62
   250
 10
-56.1179
 20
-25.8806
  0
VERTEX
  8
PRINTING
 62
   250
 10
-56.0164
 20
-25.6938
  0
VERTEX
  8
PRINTING
 62
   250
 10
-55.8821
 20
-25.531
  0
VERTEX
  8
PRINTING
 62
   250
 10
-55.7193
 20
-25.3967
  0
VERTEX
  8
PRINTING
 62
   250
 10
-55.5325
 20
-25.2952
  0
VERTEX
  8
PRINTING
 62
   250
 10
-55.326
 20
-25.2311
  0
VERTEX
  8
PRINTING
 62
   250
 10
-55.1043
 20
-25.2088
  0
SEQEND
  8
PRINTING
 62
   250
  0
POLYLINE
  8
PRINTING
 62
   250
 66
     1
 70
     1
  0
VERTEX
  8
PRINTING
 62
   250
 10
-55.1043
 20
-7.4088
  0
VERTEX
  8
PRINTING
 62
   250
 10
-54.8826
 20
-7.4311
  0
VERTEX
  8
PRINTING
 62
   250
 10
-54.6761
 20
-7.4952
  0
VERTEX
  8
PRINTING
 62
   250
 10
-54.4893
 20
-7.5967
  0
VERTEX
  8
PRINTING
 62
   250
 10
-54.3265
 20
-7.731
  0
VERTEX
  8
PRINTING
 62
   250
 10
-54.1922
 20
-7.8938
  0
VERTEX
  8
PRINTING
 62
   250
 10
-54.0907
 20
-8.0806
  0
VERTEX
  8
PRINTING
 62
   250
 10
-54.0266
 20
-8.2871
  0
VERTEX
  8
PRINTING
 62
   250
 10
-54.0043
 20
-8.5088
  0
VERTEX
  8
PRINTING
 62
   250
 10
-54.0266
 20
-8.7305
  0
VERTEX
  8
PRINTING
 62
   250
 10
-54.0907
 20
-8.937
  0
VERTEX
  8
PRINTING
 62
   250
 10
-54.1922
 20
-9.1238
  0
VERTEX
  8
PRINTING
 62
   250
 10
-54.3265
 20
-9.2866
  0
VERTEX
  8
PRINTING
 62
   250
 10
-54.4893
 20
-9.4209
  0
VERTEX
  8
PRINTING
 62
   250
 10
-54.6761
 20
-9.5224
  0
VERTEX
  8
PRINTING
 62
   250
 10
-54.8826
 20
-9.5865
  0
VERTEX
  8
PRINTING
 62
   250
 10
-55.1043
 20
-9.6088
  0
VERTEX
  8
PRINTING
 62
   250
 10
-55.326
 20
-9.5865
  0
VERTEX
  8
PRINTING
 62
   250
 10
-55.5325
 20
-9.5224
  0
VERTEX
  8
PRINTING
 62
   250
 10
-55.7193
 20
-9.4209
  0
VERTEX
  8
PRINTING
 62
   250
 10
-55.8821
 20
-9.2866
  0
VERTEX
  8
PRINTING
 62
   250
 10
-56.0164
 20
-9.1238
  0
VERTEX
  8
PRINTING
 62
   250
 10
-56.1179
 20
-8.937
  0
VERTEX
  8
PRINTING
 62
   250
 10
-56.182
 20
-8.7305
  0
VERTEX
  8
PRINTING
 62
   250
 10
-56.2043
 20
-8.5088
  0
VERTEX
  8
PRINTING
 62
   250
 10
-56.182
 20
-8.2871
  0
VERTEX
  8
PRINTING
 62
   250
 10
-56.1179
 20
-8.0806
  0
VERTEX
  8
PRINTING
 62
   250
 10
-56.0164
 20
-7.8938
  0
VERTEX
  8
PRINTING
 62
   250
 10
-55.8821
 20
-7.731
  0
VERTEX
  8
PRINTING
 62
   250
 10
-55.7193
 20
-7.5967
  0
VERTEX
  8
PRINTING
 62
   250
 10
-55.5325
 20
-7.4952
  0
VERTEX
  8
PRINTING
 62
   250
 10
-55.326
 20
-7.4311
  0
VERTEX
  8
PRINTING
 62
   250
 10
-55.1043
 20
-7.4088
  0
SEQEND
  8
PRINTING
 62
   250
  0
POLYLINE
  8
PRINTING
 62
   250
 66
     1
 70
     1
  0
VERTEX
  8
PRINTING
 62
   250
 10
-48.2043
 20
-31.4088
  0
VERTEX
  8
PRINTING
 62
   250
 10
-38.1168
 20
-31.4088
  0
VERTEX
  8
PRINTING
 62
   250
 10
-38.1168
 20
-34.4088
  0
VERTEX
  8
PRINTING
 62
   250
 10
-48.2043
 20
-34.4088
  0
VERTEX
  8
PRINTING
 62
   250
 10
-48.2043
 20
-31.4088
  0
SEQEND
  8
PRINTING
 62
   250
  0
POLYLINE
  8
PRINTING
 62
   250
 66
     1
 70
     1
  0
VERTEX
  8
PRINTING
 62
   250
 10
-38.4543
 20
34.0912
  0
VERTEX
  8
PRINTING
 62
   250
 10
-39.4597
 20
33.902
  0
VERTEX
  8
PRINTING
 62
   250
 10
-40.467
 20
33.7331
  0
VERTEX
  8
PRINTING
 62
   250
 10
-41.4751
 20
33.5805
  0
VERTEX
  8
PRINTING
 62
   250
 10
-42.4827
 20
33.4399
  0
VERTEX
  8
PRINTING
 62
   250
 10
-43.4889
 20
33.3072
  0
VERTEX
  8
PRINTING
 62
   250
 10
-44.4925
 20
33.1783
  0
VERTEX
  8
PRINTING
 62
   250
 10
-45.4924
 20
33.0488
  0
VERTEX
  8
PRINTING
 62
   250
 10
-46.4874
 20
32.9148
  0
VERTEX
  8
PRINTING
 62
   250
 10
-46.5092
 20
0.0912
  0
VERTEX
  8
PRINTING
 62
   250
 10
-49.5093
 20
0.0912
  0
VERTEX
  8
PRINTING
 62
   250
 10
-49.5093
 20
-2.9088
  0
VERTEX
  8
PRINTING
 62
   250
 10
-59.5093
 20
-2.9088
  0
VERTEX
  8
PRINTING
 62
   250
 10
-59.5093
 20
0.0912
  0
VERTEX
  8
PRINTING
 62
   250
 10
-62.5093
 20
0.0912
  0
VERTEX
  8
PRINTING
 62
   250
 10
-62.5094
 20
1.5102
  0
VERTEX
  8
PRINTING
 62
   250
 10
-62.51
 20
5.2513
  0
VERTEX
  8
PRINTING
 62
   250
 10
-62.5118
 20
10.5411
  0
VERTEX
  8
PRINTING
 62
   250
 10
-62.5152
 20
16.6059
  0
VERTEX
  8
PRINTING
 62
   250
 10
-62.5207
 20
22.6721
  0
VERTEX
  8
PRINTING
 62
   250
 10
-62.529
 20
27.9662
  0
VERTEX
  8
PRINTING
 62
   250
 10
-62.5407
 20
31.7145
  0
VERTEX
  8
PRINTING
 62
   250
 10
-62.5561
 20
33.1435
  0
VERTEX
  8
PRINTING
 62
   250
 10
-62.7289
 20
33.1681
  0
VERTEX
  8
PRINTING
 62
   250
 10
-63.2012
 20
33.2363
  0
VERTEX
  8
PRINTING
 62
   250
 10
-63.9039
 20
33.3397
  0
VERTEX
  8
PRINTING
 62
   250
 10
-64.7679
 20
33.4699
  0
VERTEX
  8
PRINTING
 62
   250
 10
-65.7241
 20
33.6185
  0
VERTEX
  8
PRINTING
 62
   250
 10
-66.7033
 20
33.7772
  0
VERTEX
  8
PRINTING
 62
   250
 10
-67.6364
 20
33.9376
  0
VERTEX
  8
PRINTING
 62
   250
 10
-68.4543
 20
34.0912
  0
VERTEX
  8
PRINTING
 62
   250
 10
-69.1106
 20
37.4975
  0
VERTEX
  8
PRINTING
 62
   250
 10
-69.5793
 20
40.3412
  0
VERTEX
  8
PRINTING
 62
   250
 10
-69.8606
 20
42.81
  0
VERTEX
  8
PRINTING
 62
   250
 10
-69.9543
 20
45.0912
  0
VERTEX
  8
PRINTING
 62
   250
 10
-69.8606
 20
47.3725
  0
VERTEX
  8
PRINTING
 62
   250
 10
-69.5793
 20
49.8412
  0
VERTEX
  8
PRINTING
 62
   250
 10
-69.1106
 20
52.685
  0
VERTEX
  8
PRINTING
 62
   250
 10
-68.4543
 20
56.0912
  0
VERTEX
  8
PRINTING
 62
   250
 10
-63.4543
 20
56.0912
  0
VERTEX
  8
PRINTING
 62
   250
 10
-63.5093
 20
65.0912
  0
VERTEX
  8
PRINTING
 62
   250
 10
-63.5073
 20
65.4213
  0
VERTEX
  8
PRINTING
 62
   250
 10
-63.4937
 20
65.6693
  0
VERTEX
  8
PRINTING
 62
   250
 10
-63.4566
 20
65.8471
  0
VERTEX
  8
PRINTING
 62
   250
 10
-63.3843
 20
65.9662
  0
VERTEX
  8
PRINTING
 62
   250
 10
-63.2652
 20
66.0385
  0
VERTEX
  8
PRINTING
 62
   250
 10
-63.0874
 20
66.0756
  0
VERTEX
  8
PRINTING
 62
   250
 10
-62.8394
 20
66.0892
  0
VERTEX
  8
PRINTING
 62
   250
 10
-62.5093
 20
66.0912
  0
VERTEX
  8
PRINTING
 62
   250
 10
-46.5093
 20
66.0912
  0
VERTEX
  8
PRINTING
 62
   250
 10
-46.1792
 20
66.0892
  0
VERTEX
  8
PRINTING
 62
   250
 10
-45.9312
 20
66.0756
  0
VERTEX
  8
PRINTING
 62
   250
 10
-45.7534
 20
66.0385
  0
VERTEX
  8
PRINTING
 62
   250
 10
-45.6343
 20
65.9662
  0
VERTEX
  8
PRINTING
 62
   250
 10
-45.562
 20
65.8471
  0
VERTEX
  8
PRINTING
 62
   250
 10
-45.5249
 20
65.6693
  0
VERTEX
  8
PRINTING
 62
   250
 10
-45.5113
 20
65.4213
  0
VERTEX
  8
PRINTING
 62
   250
 10
-45.5093
 20
65.0912
  0
VERTEX
  8
PRINTING
 62
   250
 10
-45.5093
 20
56.0912
  0
VERTEX
  8
PRINTING
 62
   250
 10
-38.4543
 20
56.0912
  0
VERTEX
  8
PRINTING
 62
   250
 10
-38.1262
 20
53.4232
  0
VERTEX
  8
PRINTING
 62
   250
 10
-37.8918
 20
50.685
  0
VERTEX
  8
PRINTING
 62
   250
 10
-37.7512
 20
47.8998
  0
VERTEX
  8
PRINTING
 62
   250
 10
-37.7043
 20
45.0912
  0
VERTEX
  8
PRINTING
 62
   250
 10
-37.7512
 20
42.2826
  0
VERTEX
  8
PRINTING
 62
   250
 10
-37.8918
 20
39.4975
  0
VERTEX
  8
PRINTING
 62
   250
 10
-38.1262
 20
36.7592
  0
VERTEX
  8
PRINTING
 62
   250
 10
-38.4543
 20
34.0912
  0
SEQEND
  8
PRINTING
 62
   250
  0
POLYLINE
  8
PRINTING
 62
   250
 66
     1
 70
     1
  0
VERTEX
  8
PRINTING
 62
   250
 10
-62.4543
 20
40.0912
  0
VERTEX
  8
PRINTING
 62
   250
 10
-63.462
 20
40.1928
  0
VERTEX
  8
PRINTING
 62
   250
 10
-64.4005
 20
40.4841
  0
VERTEX
  8
PRINTING
 62
   250
 10
-65.2498
 20
40.9451
  0
VERTEX
  8
PRINTING
 62
   250
 10
-65.9898
 20
41.5557
  0
VERTEX
  8
PRINTING
 62
   250
 10
-66.6004
 20
42.2957
  0
VERTEX
  8
PRINTING
 62
   250
 10
-67.0614
 20
43.145
  0
VERTEX
  8
PRINTING
 62
   250
 10
-67.3527
 20
44.0835
  0
VERTEX
  8
PRINTING
 62
   250
 10
-67.4543
 20
45.0912
  0
VERTEX
  8
PRINTING
 62
   250
 10
-67.3527
 20
46.0989
  0
VERTEX
  8
PRINTING
 62
   250
 10
-67.0614
 20
47.0374
  0
VERTEX
  8
PRINTING
 62
   250
 10
-66.6004
 20
47.8867
  0
VERTEX
  8
PRINTING
 62
   250
 10
-65.9898
 20
48.6267
  0
VERTEX
  8
PRINTING
 62
   250
 10
-65.2498
 20
49.2373
  0
VERTEX
  8
PRINTING
 62
   250
 10
-64.4005
 20
49.6983
  0
VERTEX
  8
PRINTING
 62
   250
 10
-63.462
 20
49.9896
  0
VERTEX
  8
PRINTING
 62
   250
 10
-62.4543
 20
50.0912
  0
VERTEX
  8
PRINTING
 62
   250
 10
-61.4466
 20
49.9896
  0
VERTEX
  8
PRINTING
 62
   250
 10
-60.5081
 20
49.6983
  0
VERTEX
  8
PRINTING
 62
   250
 10
-59.6588
 20
49.2373
  0
VERTEX
  8
PRINTING
 62
   250
 10
-58.9188
 20
48.6267
  0
VERTEX
  8
PRINTING
 62
   250
 10
-58.3082
 20
47.8867
  0
VERTEX
  8
PRINTING
 62
   250
 10
-57.8472
 20
47.0374
  0
VERTEX
  8
PRINTING
 62
   250
 10
-57.5559
 20
46.0989
  0
VERTEX
  8
PRINTING
 62
   250
 10
-57.4543
 20
45.0912
  0
VERTEX
  8
PRINTING
 62
   250
 10
-57.5559
 20
44.0835
  0
VERTEX
  8
PRINTING
 62
   250
 10
-57.8472
 20
43.145
  0
VERTEX
  8
PRINTING
 62
   250
 10
-58.3082
 20
42.2957
  0
VERTEX
  8
PRINTING
 62
   250
 10
-58.9188
 20
41.5557
  0
VERTEX
  8
PRINTING
 62
   250
 10
-59.6588
 20
40.9451
  0
VERTEX
  8
PRINTING
 62
   250
 10
-60.5081
 20
40.4841
  0
VERTEX
  8
PRINTING
 62
   250
 10
-61.4466
 20
40.1928
  0
VERTEX
  8
PRINTING
 62
   250
 10
-62.4543
 20
40.0912
  0
SEQEND
  8
PRINTING
 62
   250
  0
POLYLINE
  8
PRINTING
 62
   250
 66
     1
 70
     1
  0
VERTEX
  8
PRINTING
 62
   250
 10
-42.5543
 20
52.8912
  0
VERTEX
  8
PRINTING
 62
   250
 10
-42.776
 20
52.9135
  0
VERTEX
  8
PRINTING
 62
   250
 10
-42.9825
 20
52.9776
  0
VERTEX
  8
PRINTING
 62
   250
 10
-43.1693
 20
53.0791
  0
VERTEX
  8
PRINTING
 62
   250
 10
-43.3321
 20
53.2134
  0
VERTEX
  8
PRINTING
 62
   250
 10
-43.4664
 20
53.3762
  0
VERTEX
  8
PRINTING
 62
   250
 10
-43.5679
 20
53.563
  0
VERTEX
  8
PRINTING
 62
   250
 10
-43.632
 20
53.7695
  0
VERTEX
  8
PRINTING
 62
   250
 10
-43.6543
 20
53.9912
  0
VERTEX
  8
PRINTING
 62
   250
 10
-43.632
 20
54.2129
  0
VERTEX
  8
PRINTING
 62
   250
 10
-43.5679
 20
54.4194
  0
VERTEX
  8
PRINTING
 62
   250
 10
-43.4664
 20
54.6062
  0
VERTEX
  8
PRINTING
 62
   250
 10
-43.3321
 20
54.769
  0
VERTEX
  8
PRINTING
 62
   250
 10
-43.1693
 20
54.9033
  0
VERTEX
  8
PRINTING
 62
   250
 10
-42.9825
 20
55.0048
  0
VERTEX
  8
PRINTING
 62
   250
 10
-42.776
 20
55.0689
  0
VERTEX
  8
PRINTING
 62
   250
 10
-42.5543
 20
55.0912
  0
VERTEX
  8
PRINTING
 62
   250
 10
-42.3326
 20
55.0689
  0
VERTEX
  8
PRINTING
 62
   250
 10
-42.1261
 20
55.0048
  0
VERTEX
  8
PRINTING
 62
   250
 10
-41.9393
 20
54.9033
  0
VERTEX
  8
PRINTING
 62
   250
 10
-41.7765
 20
54.769
  0
VERTEX
  8
PRINTING
 62
   250
 10
-41.6422
 20
54.6062
  0
VERTEX
  8
PRINTING
 62
   250
 10
-41.5407
 20
54.4194
  0
VERTEX
  8
PRINTING
 62
   250
 10
-41.4766
 20
54.2129
  0
VERTEX
  8
PRINTING
 62
   250
 10
-41.4543
 20
53.9912
  0
VERTEX
  8
PRINTING
 62
   250
 10
-41.4766
 20
53.7695
  0
VERTEX
  8
PRINTING
 62
   250
 10
-41.5407
 20
53.563
  0
VERTEX
  8
PRINTING
 62
   250
 10
-41.6422
 20
53.3762
  0
VERTEX
  8
PRINTING
 62
   250
 10
-41.7765
 20
53.2134
  0
VERTEX
  8
PRINTING
 62
   250
 10
-41.9393
 20
53.0791
  0
VERTEX
  8
PRINTING
 62
   250
 10
-42.1261
 20
52.9776
  0
VERTEX
  8
PRINTING
 62
   250
 10
-42.3326
 20
52.9135
  0
VERTEX
  8
PRINTING
 62
   250
 10
-42.5543
 20
52.8912
  0
SEQEND
  8
PRINTING
 62
   250
  0
POLYLINE
  8
PRINTING
 62
   250
 66
     1
 70
     1
  0
VERTEX
  8
PRINTING
 62
   250
 10
-42.5543
 20
35.0912
  0
VERTEX
  8
PRINTING
 62
   250
 10
-42.776
 20
35.1135
  0
VERTEX
  8
PRINTING
 62
   250
 10
-42.9825
 20
35.1776
  0
VERTEX
  8
PRINTING
 62
   250
 10
-43.1693
 20
35.2791
  0
VERTEX
  8
PRINTING
 62
   250
 10
-43.3321
 20
35.4134
  0
VERTEX
  8
PRINTING
 62
   250
 10
-43.4664
 20
35.5762
  0
VERTEX
  8
PRINTING
 62
   250
 10
-43.5679
 20
35.763
  0
VERTEX
  8
PRINTING
 62
   250
 10
-43.632
 20
35.9695
  0
VERTEX
  8
PRINTING
 62
   250
 10
-43.6543
 20
36.1912
  0
VERTEX
  8
PRINTING
 62
   250
 10
-43.632
 20
36.4129
  0
VERTEX
  8
PRINTING
 62
   250
 10
-43.5679
 20
36.6194
  0
VERTEX
  8
PRINTING
 62
   250
 10
-43.4664
 20
36.8062
  0
VERTEX
  8
PRINTING
 62
   250
 10
-43.3321
 20
36.969
  0
VERTEX
  8
PRINTING
 62
   250
 10
-43.1693
 20
37.1033
  0
VERTEX
  8
PRINTING
 62
   250
 10
-42.9825
 20
37.2048
  0
VERTEX
  8
PRINTING
 62
   250
 10
-42.776
 20
37.2689
  0
VERTEX
  8
PRINTING
 62
   250
 10
-42.5543
 20
37.2912
  0
VERTEX
  8
PRINTING
 62
   250
 10
-42.3326
 20
37.2689
  0
VERTEX
  8
PRINTING
 62
   250
 10
-42.1261
 20
37.2048
  0
VERTEX
  8
PRINTING
 62
   250
 10
-41.9393
 20
37.1033
  0
VERTEX
  8
PRINTING
 62
   250
 10
-41.7765
 20
36.969
  0
VERTEX
  8
PRINTING
 62
   250
 10
-41.6422
 20
36.8062
  0
VERTEX
  8
PRINTING
 62
   250
 10
-41.5407
 20
36.6194
  0
VERTEX
  8
PRINTING
 62
   250
 10
-41.4766
 20
36.4129
  0
VERTEX
  8
PRINTING
 62
   250
 10
-41.4543
 20
36.1912
  0
VERTEX
  8
PRINTING
 62
   250
 10
-41.4766
 20
35.9695
  0
VERTEX
  8
PRINTING
 62
   250
 10
-41.5407
 20
35.763
  0
VERTEX
  8
PRINTING
 62
   250
 10
-41.6422
 20
35.5762
  0
VERTEX
  8
PRINTING
 62
   250
 10
-41.7765
 20
35.4134
  0
VERTEX
  8
PRINTING
 62
   250
 10
-41.9393
 20
35.2791
  0
VERTEX
  8
PRINTING
 62
   250
 10
-42.1261
 20
35.1776
  0
VERTEX
  8
PRINTING
 62
   250
 10
-42.3326
 20
35.1135
  0
VERTEX
  8
PRINTING
 62
   250
 10
-42.5543
 20
35.0912
  0
SEQEND
  8
PRINTING
 62
   250
  0
POLYLINE
  8
PRINTING
 62
   250
 66
     1
 70
     1
  0
VERTEX
  8
PRINTING
 62
   250
 10
-51.6726
 20
43.4912
  0
VERTEX
  8
PRINTING
 62
   250
 10
-51.9951
 20
43.5237
  0
VERTEX
  8
PRINTING
 62
   250
 10
-52.2954
 20
43.6169
  0
VERTEX
  8
PRINTING
 62
   250
 10
-52.5672
 20
43.7644
  0
VERTEX
  8
PRINTING
 62
   250
 10
-52.804
 20
43.9598
  0
VERTEX
  8
PRINTING
 62
   250
 10
-52.9994
 20
44.1966
  0
VERTEX
  8
PRINTING
 62
   250
 10
-53.1469
 20
44.4684
  0
VERTEX
  8
PRINTING
 62
   250
 10
-53.2401
 20
44.7687
  0
VERTEX
  8
PRINTING
 62
   250
 10
-53.2726
 20
45.0912
  0
VERTEX
  8
PRINTING
 62
   250
 10
-53.2401
 20
45.4137
  0
VERTEX
  8
PRINTING
 62
   250
 10
-53.1469
 20
45.714
  0
VERTEX
  8
PRINTING
 62
   250
 10
-52.9994
 20
45.9858
  0
VERTEX
  8
PRINTING
 62
   250
 10
-52.804
 20
46.2226
  0
VERTEX
  8
PRINTING
 62
   250
 10
-52.5672
 20
46.418
  0
VERTEX
  8
PRINTING
 62
   250
 10
-52.2954
 20
46.5655
  0
VERTEX
  8
PRINTING
 62
   250
 10
-51.9951
 20
46.6587
  0
VERTEX
  8
PRINTING
 62
   250
 10
-51.6726
 20
46.6912
  0
VERTEX
  8
PRINTING
 62
   250
 10
-51.3501
 20
46.6587
  0
VERTEX
  8
PRINTING
 62
   250
 10
-51.0498
 20
46.5655
  0
VERTEX
  8
PRINTING
 62
   250
 10
-50.778
 20
46.418
  0
VERTEX
  8
PRINTING
 62
   250
 10
-50.5412
 20
46.2226
  0
VERTEX
  8
PRINTING
 62
   250
 10
-50.3458
 20
45.9858
  0
VERTEX
  8
PRINTING
 62
   250
 10
-50.1983
 20
45.714
  0
VERTEX
  8
PRINTING
 62
   250
 10
-50.1051
 20
45.4137
  0
VERTEX
  8
PRINTING
 62
   250
 10
-50.0726
 20
45.0912
  0
VERTEX
  8
PRINTING
 62
   250
 10
-50.1051
 20
44.7687
  0
VERTEX
  8
PRINTING
 62
   250
 10
-50.1983
 20
44.4684
  0
VERTEX
  8
PRINTING
 62
   250
 10
-50.3458
 20
44.1966
  0
VERTEX
  8
PRINTING
 62
   250
 10
-50.5412
 20
43.9598
  0
VERTEX
  8
PRINTING
 62
   250
 10
-50.778
 20
43.7644
  0
VERTEX
  8
PRINTING
 62
   250
 10
-51.0498
 20
43.6169
  0
VERTEX
  8
PRINTING
 62
   250
 10
-51.3501
 20
43.5237
  0
VERTEX
  8
PRINTING
 62
   250
 10
-51.6726
 20
43.4912
  0
SEQEND
  8
PRINTING
 62
   250
  0
POLYLINE
  8
PRINTING
 62
   250
 66
     1
 70
     1
  0
VERTEX
  8
PRINTING
 62
   250
 10
-49.4218
 20
59.0912
  0
VERTEX
  8
PRINTING
 62
   250
 10
-59.5093
 20
59.0912
  0
VERTEX
  8
PRINTING
 62
   250
 10
-59.5093
 20
62.0912
  0
VERTEX
  8
PRINTING
 62
   250
 10
-49.4218
 20
62.0912
  0
VERTEX
  8
PRINTING
 62
   250
 10
-49.4218
 20
59.0912
  0
SEQEND
  8
PRINTING
 62
   250
  0
POLYLINE
  8
PRINTING
 62
   250
 66
     1
 70
     1
  0
VERTEX
  8
PRINTING
 62
   250
 10
-51.5093
 20
0.0912
  0
VERTEX
  8
PRINTING
 62
   250
 10
-57.5093
 20
0.0912
  0
VERTEX
  8
PRINTING
 62
   250
 10
-57.5093
 20
3.0912
  0
VERTEX
  8
PRINTING
 62
   250
 10
-51.5093
 20
3.0912
  0
VERTEX
  8
PRINTING
 62
   250
 10
-51.5093
 20
0.0912
  0
SEQEND
  8
PRINTING
 62
   250
  0
POLYLINE
  8
PRINTING
 62
   250
 66
     1
 70
     1
  0
VERTEX
  8
PRINTING
 62
   250
 10
-45.3586
 20
27.4477
  0
VERTEX
  8
PRINTING
 62
   250
 10
-44.3532
 20
27.6369
  0
VERTEX
  8
PRINTING
 62
   250
 10
-43.3459
 20
27.8058
  0
VERTEX
  8
PRINTING
 62
   250
 10
-42.3378
 20
27.9584
  0
VERTEX
  8
PRINTING
 62
   250
 10
-41.3302
 20
28.099
  0
VERTEX
  8
PRINTING
 62
   250
 10
-40.324
 20
28.2317
  0
VERTEX
  8
PRINTING
 62
   250
 10
-39.3204
 20
28.3606
  0
VERTEX
  8
PRINTING
 62
   250
 10
-38.3205
 20
28.4901
  0
VERTEX
  8
PRINTING
 62
   250
 10
-37.3255
 20
28.6241
  0
VERTEX
  8
PRINTING
 62
   250
 10
-37.3037
 20
61.4477
  0
VERTEX
  8
PRINTING
 62
   250
 10
-34.3036
 20
61.4477
  0
VERTEX
  8
PRINTING
 62
   250
 10
-34.3036
 20
64.4477
  0
VERTEX
  8
PRINTING
 62
   250
 10
-24.3036
 20
64.4477
  0
VERTEX
  8
PRINTING
 62
   250
 10
-24.3036
 20
61.4477
  0
VERTEX
  8
PRINTING
 62
   250
 10
-21.3036
 20
61.4477
  0
VERTEX
  8
PRINTING
 62
   250
 10
-21.3035
 20
60.0287
  0
VERTEX
  8
PRINTING
 62
   250
 10
-21.3029
 20
56.2876
  0
VERTEX
  8
PRINTING
 62
   250
 10
-21.3011
 20
50.9978
  0
VERTEX
  8
PRINTING
 62
   250
 10
-21.2978
 20
44.933
  0
VERTEX
  8
PRINTING
 62
   250
 10
-21.2922
 20
38.8668
  0
VERTEX
  8
PRINTING
 62
   250
 10
-21.2839
 20
33.5727
  0
VERTEX
  8
PRINTING
 62
   250
 10
-21.2722
 20
29.8244
  0
VERTEX
  8
PRINTING
 62
   250
 10
-21.2568
 20
28.3954
  0
VERTEX
  8
PRINTING
 62
   250
 10
-21.084
 20
28.3708
  0
VERTEX
  8
PRINTING
 62
   250
 10
-20.6117
 20
28.3026
  0
VERTEX
  8
PRINTING
 62
   250
 10
-19.909
 20
28.1992
  0
VERTEX
  8
PRINTING
 62
   250
 10
-19.045
 20
28.069
  0
VERTEX
  8
PRINTING
 62
   250
 10
-18.0888
 20
27.9204
  0
VERTEX
  8
PRINTING
 62
   250
 10
-17.1096
 20
27.7617
  0
VERTEX
  8
PRINTING
 62
   250
 10
-16.1765
 20
27.6013
  0
VERTEX
  8
PRINTING
 62
   250
 10
-15.3586
 20
27.4477
  0
VERTEX
  8
PRINTING
 62
   250
 10
-14.7024
 20
24.0415
  0
VERTEX
  8
PRINTING
 62
   250
 10
-14.2336
 20
21.1977
  0
VERTEX
  8
PRINTING
 62
   250
 10
-13.9524
 20
18.729
  0
VERTEX
  8
PRINTING
 62
   250
 10
-13.8586
 20
16.4477
  0
VERTEX
  8
PRINTING
 62
   250
 10
-13.9524
 20
14.1665
  0
VERTEX
  8
PRINTING
 62
   250
 10
-14.2336
 20
11.6977
  0
VERTEX
  8
PRINTING
 62
   250
 10
-14.7024
 20
8.854
  0
VERTEX
  8
PRINTING
 62
   250
 10
-15.3586
 20
5.4477
  0
VERTEX
  8
PRINTING
 62
   250
 10
-20.3586
 20
5.4477
  0
VERTEX
  8
PRINTING
 62
   250
 10
-20.3036
 20
-3.5523
  0
VERTEX
  8
PRINTING
 62
   250
 10
-20.3056
 20
-3.8824
  0
VERTEX
  8
PRINTING
 62
   250
 10
-20.3192
 20
-4.1304
  0
VERTEX
  8
PRINTING
 62
   250
 10
-20.3563
 20
-4.3082
  0
VERTEX
  8
PRINTING
 62
   250
 10
-20.4286
 20
-4.4273
  0
VERTEX
  8
PRINTING
 62
   250
 10
-20.5477
 20
-4.4996
  0
VERTEX
  8
PRINTING
 62
   250
 10
-20.7255
 20
-4.5367
  0
VERTEX
  8
PRINTING
 62
   250
 10
-20.9735
 20
-4.5503
  0
VERTEX
  8
PRINTING
 62
   250
 10
-21.3036
 20
-4.5523
  0
VERTEX
  8
PRINTING
 62
   250
 10
-37.3036
 20
-4.5523
  0
VERTEX
  8
PRINTING
 62
   250
 10
-37.6337
 20
-4.5503
  0
VERTEX
  8
PRINTING
 62
   250
 10
-37.8817
 20
-4.5367
  0
VERTEX
  8
PRINTING
 62
   250
 10
-38.0595
 20
-4.4996
  0
VERTEX
  8
PRINTING
 62
   250
 10
-38.1786
 20
-4.4273
  0
VERTEX
  8
PRINTING
 62
   250
 10
-38.2509
 20
-4.3082
  0
VERTEX
  8
PRINTING
 62
   250
 10
-38.288
 20
-4.1304
  0
VERTEX
  8
PRINTING
 62
   250
 10
-38.3016
 20
-3.8824
  0
VERTEX
  8
PRINTING
 62
   250
 10
-38.3036
 20
-3.5523
  0
VERTEX
  8
PRINTING
 62
   250
 10
-38.3036
 20
5.4477
  0
VERTEX
  8
PRINTING
 62
   250
 10
-45.3586
 20
5.4477
  0
VERTEX
  8
PRINTING
 62
   250
 10
-45.6867
 20
8.1157
  0
VERTEX
  8
PRINTING
 62
   250
 10
-45.9211
 20
10.854
  0
VERTEX
  8
PRINTING
 62
   250
 10
-46.0617
 20
13.6391
  0
VERTEX
  8
PRINTING
 62
   250
 10
-46.1086
 20
16.4477
  0
VERTEX
  8
PRINTING
 62
   250
 10
-46.0617
 20
19.2563
  0
VERTEX
  8
PRINTING
 62
   250
 10
-45.9211
 20
22.0415
  0
VERTEX
  8
PRINTING
 62
   250
 10
-45.6867
 20
24.7797
  0
VERTEX
  8
PRINTING
 62
   250
 10
-45.3586
 20
27.4477
  0
SEQEND
  8
PRINTING
 62
   250
  0
POLYLINE
  8
PRINTING
 62
   250
 66
     1
 70
     1
  0
VERTEX
  8
PRINTING
 62
   250
 10
-21.3586
 20
21.4477
  0
VERTEX
  8
PRINTING
 62
   250
 10
-20.3509
 20
21.3461
  0
VERTEX
  8
PRINTING
 62
   250
 10
-19.4124
 20
21.0548
  0
VERTEX
  8
PRINTING
 62
   250
 10
-18.5631
 20
20.5938
  0
VERTEX
  8
PRINTING
 62
   250
 10
-17.8231
 20
19.9832
  0
VERTEX
  8
PRINTING
 62
   250
 10
-17.2125
 20
19.2432
  0
VERTEX
  8
PRINTING
 62
   250
 10
-16.7515
 20
18.3939
  0
VERTEX
  8
PRINTING
 62
   250
 10
-16.4602
 20
17.4554
  0
VERTEX
  8
PRINTING
 62
   250
 10
-16.3586
 20
16.4477
  0
VERTEX
  8
PRINTING
 62
   250
 10
-16.4602
 20
15.44
  0
VERTEX
  8
PRINTING
 62
   250
 10
-16.7515
 20
14.5015
  0
VERTEX
  8
PRINTING
 62
   250
 10
-17.2125
 20
13.6522
  0
VERTEX
  8
PRINTING
 62
   250
 10
-17.8231
 20
12.9122
  0
VERTEX
  8
PRINTING
 62
   250
 10
-18.5631
 20
12.3016
  0
VERTEX
  8
PRINTING
 62
   250
 10
-19.4124
 20
11.8406
  0
VERTEX
  8
PRINTING
 62
   250
 10
-20.3509
 20
11.5493
  0
VERTEX
  8
PRINTING
 62
   250
 10
-21.3586
 20
11.4477
  0
VERTEX
  8
PRINTING
 62
   250
 10
-22.3663
 20
11.5493
  0
VERTEX
  8
PRINTING
 62
   250
 10
-23.3048
 20
11.8406
  0
VERTEX
  8
PRINTING
 62
   250
 10
-24.1541
 20
12.3016
  0
VERTEX
  8
PRINTING
 62
   250
 10
-24.8941
 20
12.9122
  0
VERTEX
  8
PRINTING
 62
   250
 10
-25.5047
 20
13.6522
  0
VERTEX
  8
PRINTING
 62
   250
 10
-25.9657
 20
14.5015
  0
VERTEX
  8
PRINTING
 62
   250
 10
-26.257
 20
15.44
  0
VERTEX
  8
PRINTING
 62
   250
 10
-26.3586
 20
16.4477
  0
VERTEX
  8
PRINTING
 62
   250
 10
-26.257
 20
17.4554
  0
VERTEX
  8
PRINTING
 62
   250
 10
-25.9657
 20
18.3939
  0
VERTEX
  8
PRINTING
 62
   250
 10
-25.5047
 20
19.2432
  0
VERTEX
  8
PRINTING
 62
   250
 10
-24.8941
 20
19.9832
  0
VERTEX
  8
PRINTING
 62
   250
 10
-24.1541
 20
20.5938
  0
VERTEX
  8
PRINTING
 62
   250
 10
-23.3048
 20
21.0548
  0
VERTEX
  8
PRINTING
 62
   250
 10
-22.3663
 20
21.3461
  0
VERTEX
  8
PRINTING
 62
   250
 10
-21.3586
 20
21.4477
  0
SEQEND
  8
PRINTING
 62
   250
  0
POLYLINE
  8
PRINTING
 62
   250
 66
     1
 70
     1
  0
VERTEX
  8
PRINTING
 62
   250
 10
-41.2586
 20
8.6477
  0
VERTEX
  8
PRINTING
 62
   250
 10
-41.0369
 20
8.6254
  0
VERTEX
  8
PRINTING
 62
   250
 10
-40.8304
 20
8.5613
  0
VERTEX
  8
PRINTING
 62
   250
 10
-40.6436
 20
8.4598
  0
VERTEX
  8
PRINTING
 62
   250
 10
-40.4808
 20
8.3255
  0
VERTEX
  8
PRINTING
 62
   250
 10
-40.3465
 20
8.1627
  0
VERTEX
  8
PRINTING
 62
   250
 10
-40.245
 20
7.9759
  0
VERTEX
  8
PRINTING
 62
   250
 10
-40.1809
 20
7.7694
  0
VERTEX
  8
PRINTING
 62
   250
 10
-40.1586
 20
7.5477
  0
VERTEX
  8
PRINTING
 62
   250
 10
-40.1809
 20
7.326
  0
VERTEX
  8
PRINTING
 62
   250
 10
-40.245
 20
7.1195
  0
VERTEX
  8
PRINTING
 62
   250
 10
-40.3465
 20
6.9327
  0
VERTEX
  8
PRINTING
 62
   250
 10
-40.4808
 20
6.7699
  0
VERTEX
  8
PRINTING
 62
   250
 10
-40.6436
 20
6.6356
  0
VERTEX
  8
PRINTING
 62
   250
 10
-40.8304
 20
6.5341
  0
VERTEX
  8
PRINTING
 62
   250
 10
-41.0369
 20
6.47
  0
VERTEX
  8
PRINTING
 62
   250
 10
-41.2586
 20
6.4477
  0
VERTEX
  8
PRINTING
 62
   250
 10
-41.4803
 20
6.47
  0
VERTEX
  8
PRINTING
 62
   250
 10
-41.6868
 20
6.5341
  0
VERTEX
  8
PRINTING
 62
   250
 10
-41.8736
 20
6.6356
  0
VERTEX
  8
PRINTING
 62
   250
 10
-42.0364
 20
6.7699
  0
VERTEX
  8
PRINTING
 62
   250
 10
-42.1707
 20
6.9327
  0
VERTEX
  8
PRINTING
 62
   250
 10
-42.2722
 20
7.1195
  0
VERTEX
  8
PRINTING
 62
   250
 10
-42.3363
 20
7.326
  0
VERTEX
  8
PRINTING
 62
   250
 10
-42.3586
 20
7.5477
  0
VERTEX
  8
PRINTING
 62
   250
 10
-42.3363
 20
7.7694
  0
VERTEX
  8
PRINTING
 62
   250
 10
-42.2722
 20
7.9759
  0
VERTEX
  8
PRINTING
 62
   250
 10
-42.1707
 20
8.1627
  0
VERTEX
  8
PRINTING
 62
   250
 10
-42.0364
 20
8.3255
  0
VERTEX
  8
PRINTING
 62
   250
 10
-41.8736
 20
8.4598
  0
VERTEX
  8
PRINTING
 62
   250
 10
-41.6868
 20
8.5613
  0
VERTEX
  8
PRINTING
 62
   250
 10
-41.4803
 20
8.6254
  0
VERTEX
  8
PRINTING
 62
   250
 10
-41.2586
 20
8.6477
  0
SEQEND
  8
PRINTING
 62
   250
  0
POLYLINE
  8
PRINTING
 62
   250
 66
     1
 70
     1
  0
VERTEX
  8
PRINTING
 62
   250
 10
-41.2586
 20
26.4477
  0
VERTEX
  8
PRINTING
 62
   250
 10
-41.0369
 20
26.4254
  0
VERTEX
  8
PRINTING
 62
   250
 10
-40.8304
 20
26.3613
  0
VERTEX
  8
PRINTING
 62
   250
 10
-40.6436
 20
26.2598
  0
VERTEX
  8
PRINTING
 62
   250
 10
-40.4808
 20
26.1255
  0
VERTEX
  8
PRINTING
 62
   250
 10
-40.3465
 20
25.9627
  0
VERTEX
  8
PRINTING
 62
   250
 10
-40.245
 20
25.7759
  0
VERTEX
  8
PRINTING
 62
   250
 10
-40.1809
 20
25.5694
  0
VERTEX
  8
PRINTING
 62
   250
 10
-40.1586
 20
25.3477
  0
VERTEX
  8
PRINTING
 62
   250
 10
-40.1809
 20
25.126
  0
VERTEX
  8
PRINTING
 62
   250
 10
-40.245
 20
24.9195
  0
VERTEX
  8
PRINTING
 62
   250
 10
-40.3465
 20
24.7327
  0
VERTEX
  8
PRINTING
 62
   250
 10
-40.4808
 20
24.5699
  0
VERTEX
  8
PRINTING
 62
   250
 10
-40.6436
 20
24.4356
  0
VERTEX
  8
PRINTING
 62
   250
 10
-40.8304
 20
24.3341
  0
VERTEX
  8
PRINTING
 62
   250
 10
-41.0369
 20
24.27
  0
VERTEX
  8
PRINTING
 62
   250
 10
-41.2586
 20
24.2477
  0
VERTEX
  8
PRINTING
 62
   250
 10
-41.4803
 20
24.27
  0
VERTEX
  8
PRINTING
 62
   250
 10
-41.6868
 20
24.3341
  0
VERTEX
  8
PRINTING
 62
   250
 10
-41.8736
 20
24.4356
  0
VERTEX
  8
PRINTING
 62
   250
 10
-42.0364
 20
24.5699
  0
VERTEX
  8
PRINTING
 62
   250
 10
-42.1707
 20
24.7327
  0
VERTEX
  8
PRINTING
 62
   250
 10
-42.2722
 20
24.9195
  0
VERTEX
  8
PRINTING
 62
   250
 10
-42.3363
 20
25.126
  0
VERTEX
  8
PRINTING
 62
   250
 10
-42.3586
 20
25.3477
  0
VERTEX
  8
PRINTING
 62
   250
 10
-42.3363
 20
25.5694
  0
VERTEX
  8
PRINTING
 62
   250
 10
-42.2722
 20
25.7759
  0
VERTEX
  8
PRINTING
 62
   250
 10
-42.1707
 20
25.9627
  0
VERTEX
  8
PRINTING
 62
   250
 10
-42.0364
 20
26.1255
  0
VERTEX
  8
PRINTING
 62
   250
 10
-41.8736
 20
26.2598
  0
VERTEX
  8
PRINTING
 62
   250
 10
-41.6868
 20
26.3613
  0
VERTEX
  8
PRINTING
 62
   250
 10
-41.4803
 20
26.4254
  0
VERTEX
  8
PRINTING
 62
   250
 10
-41.2586
 20
26.4477
  0
SEQEND
  8
PRINTING
 62
   250
  0
POLYLINE
  8
PRINTING
 62
   250
 66
     1
 70
     1
  0
VERTEX
  8
PRINTING
 62
   250
 10
-32.1403
 20
18.0477
  0
VERTEX
  8
PRINTING
 62
   250
 10
-31.8178
 20
18.0152
  0
VERTEX
  8
PRINTING
 62
   250
 10
-31.5175
 20
17.922
  0
VERTEX
  8
PRINTING
 62
   250
 10
-31.2457
 20
17.7745
  0
VERTEX
  8
PRINTING
 62
   250
 10
-31.0089
 20
17.5791
  0
VERTEX
  8
PRINTING
 62
   250
 10
-30.8135
 20
17.3423
  0
VERTEX
  8
PRINTING
 62
   250
 10
-30.666
 20
17.0705
  0
VERTEX
  8
PRINTING
 62
   250
 10
-30.5728
 20
16.7702
  0
VERTEX
  8
PRINTING
 62
   250
 10
-30.5403
 20
16.4477
  0
VERTEX
  8
PRINTING
 62
   250
 10
-30.5728
 20
16.1252
  0
VERTEX
  8
PRINTING
 62
   250
 10
-30.666
 20
15.8249
  0
VERTEX
  8
PRINTING
 62
   250
 10
-30.8135
 20
15.5531
  0
VERTEX
  8
PRINTING
 62
   250
 10
-31.0089
 20
15.3163
  0
VERTEX
  8
PRINTING
 62
   250
 10
-31.2457
 20
15.1209
  0
VERTEX
  8
PRINTING
 62
   250
 10
-31.5175
 20
14.9734
  0
VERTEX
  8
PRINTING
 62
   250
 10
-31.8178
 20
14.8802
  0
VERTEX
  8
PRINTING
 62
   250
 10
-32.1403
 20
14.8477
  0
VERTEX
  8
PRINTING
 62
   250
 10
-32.4628
 20
14.8802
  0
VERTEX
  8
PRINTING
 62
   250
 10
-32.7631
 20
14.9734
  0
VERTEX
  8
PRINTING
 62
   250
 10
-33.0349
 20
15.1209
  0
VERTEX
  8
PRINTING
 62
   250
 10
-33.2717
 20
15.3163
  0
VERTEX
  8
PRINTING
 62
   250
 10
-33.4671
 20
15.5531
  0
VERTEX
  8
PRINTING
 62
   250
 10
-33.6146
 20
15.8249
  0
VERTEX
  8
PRINTING
 62
   250
 10
-33.7078
 20
16.1252
  0
VERTEX
  8
PRINTING
 62
   250
 10
-33.7403
 20
16.4477
  0
VERTEX
  8
PRINTING
 62
   250
 10
-33.7078
 20
16.7702
  0
VERTEX
  8
PRINTING
 62
   250
 10
-33.6146
 20
17.0705
  0
VERTEX
  8
PRINTING
 62
   250
 10
-33.4671
 20
17.3423
  0
VERTEX
  8
PRINTING
 62
   250
 10
-33.2717
 20
17.5791
  0
VERTEX
  8
PRINTING
 62
   250
 10
-33.0349
 20
17.7745
  0
VERTEX
  8
PRINTING
 62
   250
 10
-32.7631
 20
17.922
  0
VERTEX
  8
PRINTING
 62
   250
 10
-32.4628
 20
18.0152
  0
VERTEX
  8
PRINTING
 62
   250
 10
-32.1403
 20
18.0477
  0
SEQEND
  8
PRINTING
 62
   250
  0
POLYLINE
  8
PRINTING
 62
   250
 66
     1
 70
     1
  0
VERTEX
  8
PRINTING
 62
   250
 10
-34.3911
 20
2.4477
  0
VERTEX
  8
PRINTING
 62
   250
 10
-24.3036
 20
2.4477
  0
VERTEX
  8
PRINTING
 62
   250
 10
-24.3036
 20
-0.5523
  0
VERTEX
  8
PRINTING
 62
   250
 10
-34.3911
 20
-0.5523
  0
VERTEX
  8
PRINTING
 62
   250
 10
-34.3911
 20
2.4477
  0
SEQEND
  8
PRINTING
 62
   250
  0
POLYLINE
  8
PRINTING
 62
   250
 66
     1
 70
     1
  0
VERTEX
  8
PRINTING
 62
   250
 10
-32.3036
 20
61.4477
  0
VERTEX
  8
PRINTING
 62
   250
 10
-26.3036
 20
61.4477
  0
VERTEX
  8
PRINTING
 62
   250
 10
-26.3036
 20
58.4477
  0
VERTEX
  8
PRINTING
 62
   250
 10
-32.3036
 20
58.4477
  0
VERTEX
  8
PRINTING
 62
   250
 10
-32.3036
 20
61.4477
  0
SEQEND
  8
PRINTING
 62
   250
  0
POLYLINE
  8
PRINTING
 62
   250
 66
     1
 70
     1
  0
VERTEX
  8
PRINTING
 62
   250
 10
-31.7043
 20
-70.4088
  0
VERTEX
  8
PRINTING
 62
   250
 10
-35.4543
 20
-71.0651
  0
VERTEX
  8
PRINTING
 62
   250
 10
-39.2043
 20
-71.5338
  0
VERTEX
  8
PRINTING
 62
   250
 10
-42.9543
 20
-71.8151
  0
VERTEX
  8
PRINTING
 62
   250
 10
-46.7043
 20
-71.9088
  0
VERTEX
  8
PRINTING
 62
   250
 10
-50.4543
 20
-71.8151
  0
VERTEX
  8
PRINTING
 62
   250
 10
-54.2043
 20
-71.5338
  0
VERTEX
  8
PRINTING
 62
   250
 10
-57.9543
 20
-71.0651
  0
VERTEX
  8
PRINTING
 62
   250
 10
-61.7043
 20
-70.4088
  0
VERTEX
  8
PRINTING
 62
   250
 10
-62.3606
 20
-67.0026
  0
VERTEX
  8
PRINTING
 62
   250
 10
-62.8293
 20
-64.1588
  0
VERTEX
  8
PRINTING
 62
   250
 10
-63.1106
 20
-61.6901
  0
VERTEX
  8
PRINTING
 62
   250
 10
-63.2043
 20
-59.4088
  0
VERTEX
  8
PRINTING
 62
   250
 10
-63.1106
 20
-57.1276
  0
VERTEX
  8
PRINTING
 62
   250
 10
-62.8293
 20
-54.6588
  0
VERTEX
  8
PRINTING
 62
   250
 10
-62.3606
 20
-51.8151
  0
VERTEX
  8
PRINTING
 62
   250
 10
-61.7043
 20
-48.4088
  0
VERTEX
  8
PRINTING
 62
   250
 10
-56.7043
 20
-48.4088
  0
VERTEX
  8
PRINTING
 62
   250
 10
-56.7043
 20
-39.4088
  0
VERTEX
  8
PRINTING
 62
   250
 10
-56.7023
 20
-39.0787
  0
VERTEX
  8
PRINTING
 62
   250
 10
-56.6886
 20
-38.8307
  0
VERTEX
  8
PRINTING
 62
   250
 10
-56.6515
 20
-38.6529
  0
VERTEX
  8
PRINTING
 62
   250
 10
-56.5793
 20
-38.5338
  0
VERTEX
  8
PRINTING
 62
   250
 10
-56.4601
 20
-38.4615
  0
VERTEX
  8
PRINTING
 62
   250
 10
-56.2824
 20
-38.4244
  0
VERTEX
  8
PRINTING
 62
   250
 10
-56.0344
 20
-38.4108
  0
VERTEX
  8
PRINTING
 62
   250
 10
-55.7043
 20
-38.4088
  0
VERTEX
  8
PRINTING
 62
   250
 10
-39.7043
 20
-38.4088
  0
VERTEX
  8
PRINTING
 62
   250
 10
-39.3742
 20
-38.4108
  0
VERTEX
  8
PRINTING
 62
   250
 10
-39.1261
 20
-38.4244
  0
VERTEX
  8
PRINTING
 62
   250
 10
-38.9484
 20
-38.4615
  0
VERTEX
  8
PRINTING
 62
   250
 10
-38.8293
 20
-38.5338
  0
VERTEX
  8
PRINTING
 62
   250
 10
-38.757
 20
-38.6529
  0
VERTEX
  8
PRINTING
 62
   250
 10
-38.7199
 20
-38.8307
  0
VERTEX
  8
PRINTING
 62
   250
 10
-38.7062
 20
-39.0787
  0
VERTEX
  8
PRINTING
 62
   250
 10
-38.7043
 20
-39.4088
  0
VERTEX
  8
PRINTING
 62
   250
 10
-38.7593
 20
-48.4088
  0
VERTEX
  8
PRINTING
 62
   250
 10
-31.7043
 20
-48.4088
  0
VERTEX
  8
PRINTING
 62
   250
 10
-31.3762
 20
-51.0768
  0
VERTEX
  8
PRINTING
 62
   250
 10
-31.1418
 20
-53.8151
  0
VERTEX
  8
PRINTING
 62
   250
 10
-31.0012
 20
-56.6002
  0
VERTEX
  8
PRINTING
 62
   250
 10
-30.9543
 20
-59.4088
  0
VERTEX
  8
PRINTING
 62
   250
 10
-31.0012
 20
-62.2174
  0
VERTEX
  8
PRINTING
 62
   250
 10
-31.1418
 20
-65.0026
  0
VERTEX
  8
PRINTING
 62
   250
 10
-31.3762
 20
-67.7408
  0
VERTEX
  8
PRINTING
 62
   250
 10
-31.7043
 20
-70.4088
  0
SEQEND
  8
PRINTING
 62
   250
  0
POLYLINE
  8
PRINTING
 62
   250
 66
     1
 70
     1
  0
VERTEX
  8
PRINTING
 62
   250
 10
-55.7043
 20
-64.4088
  0
VERTEX
  8
PRINTING
 62
   250
 10
-56.712
 20
-64.3072
  0
VERTEX
  8
PRINTING
 62
   250
 10
-57.6505
 20
-64.0159
  0
VERTEX
  8
PRINTING
 62
   250
 10
-58.4998
 20
-63.5549
  0
VERTEX
  8
PRINTING
 62
   250
 10
-59.2398
 20
-62.9443
  0
VERTEX
  8
PRINTING
 62
   250
 10
-59.8504
 20
-62.2043
  0
VERTEX
  8
PRINTING
 62
   250
 10
-60.3114
 20
-61.355
  0
VERTEX
  8
PRINTING
 62
   250
 10
-60.6027
 20
-60.4165
  0
VERTEX
  8
PRINTING
 62
   250
 10
-60.7043
 20
-59.4088
  0
VERTEX
  8
PRINTING
 62
   250
 10
-60.6027
 20
-58.4011
  0
VERTEX
  8
PRINTING
 62
   250
 10
-60.3114
 20
-57.4626
  0
VERTEX
  8
PRINTING
 62
   250
 10
-59.8504
 20
-56.6133
  0
VERTEX
  8
PRINTING
 62
   250
 10
-59.2398
 20
-55.8733
  0
VERTEX
  8
PRINTING
 62
   250
 10
-58.4998
 20
-55.2627
  0
VERTEX
  8
PRINTING
 62
   250
 10
-57.6505
 20
-54.8017
  0
VERTEX
  8
PRINTING
 62
   250
 10
-56.712
 20
-54.5104
  0
VERTEX
  8
PRINTING
 62
   250
 10
-55.7043
 20
-54.4088
  0
VERTEX
  8
PRINTING
 62
   250
 10
-54.6966
 20
-54.5104
  0
VERTEX
  8
PRINTING
 62
   250
 10
-53.7581
 20
-54.8017
  0
VERTEX
  8
PRINTING
 62
   250
 10
-52.9088
 20
-55.2627
  0
VERTEX
  8
PRINTING
 62
   250
 10
-52.1688
 20
-55.8733
  0
VERTEX
  8
PRINTING
 62
   250
 10
-51.5582
 20
-56.6133
  0
VERTEX
  8
PRINTING
 62
   250
 10
-51.0972
 20
-57.4626
  0
VERTEX
  8
PRINTING
 62
   250
 10
-50.8059
 20
-58.4011
  0
VERTEX
  8
PRINTING
 62
   250
 10
-50.7043
 20
-59.4088
  0
VERTEX
  8
PRINTING
 62
   250
 10
-50.8059
 20
-60.4165
  0
VERTEX
  8
PRINTING
 62
   250
 10
-51.0972
 20
-61.355
  0
VERTEX
  8
PRINTING
 62
   250
 10
-51.5582
 20
-62.2043
  0
VERTEX
  8
PRINTING
 62
   250
 10
-52.1688
 20
-62.9443
  0
VERTEX
  8
PRINTING
 62
   250
 10
-52.9088
 20
-63.5549
  0
VERTEX
  8
PRINTING
 62
   250
 10
-53.7581
 20
-64.0159
  0
VERTEX
  8
PRINTING
 62
   250
 10
-54.6966
 20
-64.3072
  0
VERTEX
  8
PRINTING
 62
   250
 10
-55.7043
 20
-64.4088
  0
SEQEND
  8
PRINTING
 62
   250
  0
POLYLINE
  8
PRINTING
 62
   250
 66
     1
 70
     1
  0
VERTEX
  8
PRINTING
 62
   250
 10
-35.8043
 20
-51.6088
  0
VERTEX
  8
PRINTING
 62
   250
 10
-36.026
 20
-51.5865
  0
VERTEX
  8
PRINTING
 62
   250
 10
-36.2325
 20
-51.5224
  0
VERTEX
  8
PRINTING
 62
   250
 10
-36.4193
 20
-51.4209
  0
VERTEX
  8
PRINTING
 62
   250
 10
-36.5821
 20
-51.2866
  0
VERTEX
  8
PRINTING
 62
   250
 10
-36.7164
 20
-51.1238
  0
VERTEX
  8
PRINTING
 62
   250
 10
-36.8179
 20
-50.937
  0
VERTEX
  8
PRINTING
 62
   250
 10
-36.882
 20
-50.7305
  0
VERTEX
  8
PRINTING
 62
   250
 10
-36.9043
 20
-50.5088
  0
VERTEX
  8
PRINTING
 62
   250
 10
-36.882
 20
-50.2871
  0
VERTEX
  8
PRINTING
 62
   250
 10
-36.8179
 20
-50.0806
  0
VERTEX
  8
PRINTING
 62
   250
 10
-36.7164
 20
-49.8938
  0
VERTEX
  8
PRINTING
 62
   250
 10
-36.5821
 20
-49.731
  0
VERTEX
  8
PRINTING
 62
   250
 10
-36.4193
 20
-49.5967
  0
VERTEX
  8
PRINTING
 62
   250
 10
-36.2325
 20
-49.4952
  0
VERTEX
  8
PRINTING
 62
   250
 10
-36.026
 20
-49.4311
  0
VERTEX
  8
PRINTING
 62
   250
 10
-35.8043
 20
-49.4088
  0
VERTEX
  8
PRINTING
 62
   250
 10
-35.5826
 20
-49.4311
  0
VERTEX
  8
PRINTING
 62
   250
 10
-35.3761
 20
-49.4952
  0
VERTEX
  8
PRINTING
 62
   250
 10
-35.1893
 20
-49.5967
  0
VERTEX
  8
PRINTING
 62
   250
 10
-35.0265
 20
-49.731
  0
VERTEX
  8
PRINTING
 62
   250
 10
-34.8922
 20
-49.8938
  0
VERTEX
  8
PRINTING
 62
   250
 10
-34.7907
 20
-50.0806
  0
VERTEX
  8
PRINTING
 62
   250
 10
-34.7266
 20
-50.2871
  0
VERTEX
  8
PRINTING
 62
   250
 10
-34.7043
 20
-50.5088
  0
VERTEX
  8
PRINTING
 62
   250
 10
-34.7266
 20
-50.7305
  0
VERTEX
  8
PRINTING
 62
   250
 10
-34.7907
 20
-50.937
  0
VERTEX
  8
PRINTING
 62
   250
 10
-34.8922
 20
-51.1238
  0
VERTEX
  8
PRINTING
 62
   250
 10
-35.0265
 20
-51.2866
  0
VERTEX
  8
PRINTING
 62
   250
 10
-35.1893
 20
-51.4209
  0
VERTEX
  8
PRINTING
 62
   250
 10
-35.3761
 20
-51.5224
  0
VERTEX
  8
PRINTING
 62
   250
 10
-35.5826
 20
-51.5865
  0
VERTEX
  8
PRINTING
 62
   250
 10
-35.8043
 20
-51.6088
  0
SEQEND
  8
PRINTING
 62
   250
  0
POLYLINE
  8
PRINTING
 62
   250
 66
     1
 70
     1
  0
VERTEX
  8
PRINTING
 62
   250
 10
-35.8043
 20
-69.4088
  0
VERTEX
  8
PRINTING
 62
   250
 10
-36.026
 20
-69.3865
  0
VERTEX
  8
PRINTING
 62
   250
 10
-36.2325
 20
-69.3224
  0
VERTEX
  8
PRINTING
 62
   250
 10
-36.4193
 20
-69.2209
  0
VERTEX
  8
PRINTING
 62
   250
 10
-36.5821
 20
-69.0866
  0
VERTEX
  8
PRINTING
 62
   250
 10
-36.7164
 20
-68.9238
  0
VERTEX
  8
PRINTING
 62
   250
 10
-36.8179
 20
-68.737
  0
VERTEX
  8
PRINTING
 62
   250
 10
-36.882
 20
-68.5305
  0
VERTEX
  8
PRINTING
 62
   250
 10
-36.9043
 20
-68.3088
  0
VERTEX
  8
PRINTING
 62
   250
 10
-36.882
 20
-68.0871
  0
VERTEX
  8
PRINTING
 62
   250
 10
-36.8179
 20
-67.8806
  0
VERTEX
  8
PRINTING
 62
   250
 10
-36.7164
 20
-67.6938
  0
VERTEX
  8
PRINTING
 62
   250
 10
-36.5821
 20
-67.531
  0
VERTEX
  8
PRINTING
 62
   250
 10
-36.4193
 20
-67.3967
  0
VERTEX
  8
PRINTING
 62
   250
 10
-36.2325
 20
-67.2952
  0
VERTEX
  8
PRINTING
 62
   250
 10
-36.026
 20
-67.2311
  0
VERTEX
  8
PRINTING
 62
   250
 10
-35.8043
 20
-67.2088
  0
VERTEX
  8
PRINTING
 62
   250
 10
-35.5826
 20
-67.2311
  0
VERTEX
  8
PRINTING
 62
   250
 10
-35.3761
 20
-67.2952
  0
VERTEX
  8
PRINTING
 62
   250
 10
-35.1893
 20
-67.3967
  0
VERTEX
  8
PRINTING
 62
   250
 10
-35.0265
 20
-67.531
  0
VERTEX
  8
PRINTING
 62
   250
 10
-34.8922
 20
-67.6938
  0
VERTEX
  8
PRINTING
 62
   250
 10
-34.7907
 20
-67.8806
  0
VERTEX
  8
PRINTING
 62
   250
 10
-34.7266
 20
-68.0871
  0
VERTEX
  8
PRINTING
 62
   250
 10
-34.7043
 20
-68.3088
  0
VERTEX
  8
PRINTING
 62
   250
 10
-34.7266
 20
-68.5305
  0
VERTEX
  8
PRINTING
 62
   250
 10
-34.7907
 20
-68.737
  0
VERTEX
  8
PRINTING
 62
   250
 10
-34.8922
 20
-68.9238
  0
VERTEX
  8
PRINTING
 62
   250
 10
-35.0265
 20
-69.0866
  0
VERTEX
  8
PRINTING
 62
   250
 10
-35.1893
 20
-69.2209
  0
VERTEX
  8
PRINTING
 62
   250
 10
-35.3761
 20
-69.3224
  0
VERTEX
  8
PRINTING
 62
   250
 10
-35.5826
 20
-69.3865
  0
VERTEX
  8
PRINTING
 62
   250
 10
-35.8043
 20
-69.4088
  0
SEQEND
  8
PRINTING
 62
   250
  0
POLYLINE
  8
PRINTING
 62
   250
 66
     1
 70
     1
  0
VERTEX
  8
PRINTING
 62
   250
 10
-42.7043
 20
-45.4088
  0
VERTEX
  8
PRINTING
 62
   250
 10
-52.7918
 20
-45.4088
  0
VERTEX
  8
PRINTING
 62
   250
 10
-52.7918
 20
-42.4088
  0
VERTEX
  8
PRINTING
 62
   250
 10
-42.7043
 20
-42.4088
  0
VERTEX
  8
PRINTING
 62
   250
 10
-42.7043
 20
-45.4088
  0
SEQEND
  8
PRINTING
 62
   250
  0
POLYLINE
  8
PRINTING
 62
   250
 66
     1
 70
     1
  0
VERTEX
  8
PRINTING
 62
   250
 10
12.6388
 20
-74.0
  0
VERTEX
  8
PRINTING
 62
   250
 10
12.6388
 20
-68.0
  0
VERTEX
  8
PRINTING
 62
   250
 10
12.6796
 20
-67.5982
  0
VERTEX
  8
PRINTING
 62
   250
 10
12.7966
 20
-67.2234
  0
VERTEX
  8
PRINTING
 62
   250
 10
12.9816
 20
-66.8838
  0
VERTEX
  8
PRINTING
 62
   250
 10
13.2263
 20
-66.5875
  0
VERTEX
  8
PRINTING
 62
   250
 10
13.5226
 20
-66.3428
  0
VERTEX
  8
PRINTING
 62
   250
 10
13.8622
 20
-66.1578
  0
VERTEX
  8
PRINTING
 62
   250
 10
14.237
 20
-66.0408
  0
VERTEX
  8
PRINTING
 62
   250
 10
14.6387
 20
-66.0
  0
VERTEX
  8
PRINTING
 62
   250
 10
39.8195
 20
-66.0
  0
VERTEX
  8
PRINTING
 62
   250
 10
40.2212
 20
-66.0408
  0
VERTEX
  8
PRINTING
 62
   250
 10
40.596
 20
-66.1578
  0
VERTEX
  8
PRINTING
 62
   250
 10
40.9356
 20
-66.3428
  0
VERTEX
  8
PRINTING
 62
   250
 10
41.2319
 20
-66.5875
  0
VERTEX
  8
PRINTING
 62
   250
 10
41.4766
 20
-66.8838
  0
VERTEX
  8
PRINTING
 62
   250
 10
41.6616
 20
-67.2234
  0
VERTEX
  8
PRINTING
 62
   250
 10
41.7786
 20
-67.5982
  0
VERTEX
  8
PRINTING
 62
   250
 10
41.8194
 20
-68.0
  0
VERTEX
  8
PRINTING
 62
   250
 10
41.8194
 20
-74.0
  0
VERTEX
  8
PRINTING
 62
   250
 10
41.7786
 20
-74.4018
  0
VERTEX
  8
PRINTING
 62
   250
 10
41.6616
 20
-74.7766
  0
VERTEX
  8
PRINTING
 62
   250
 10
41.4766
 20
-75.1162
  0
VERTEX
  8
PRINTING
 62
   250
 10
41.2319
 20
-75.4125
  0
VERTEX
  8
PRINTING
 62
   250
 10
40.9356
 20
-75.6572
  0
VERTEX
  8
PRINTING
 62
   250
 10
40.596
 20
-75.8422
  0
VERTEX
  8
PRINTING
 62
   250
 10
40.2212
 20
-75.9592
  0
VERTEX
  8
PRINTING
 62
   250
 10
39.8195
 20
-76.0
  0
VERTEX
  8
PRINTING
 62
   250
 10
14.6387
 20
-76.0
  0
VERTEX
  8
PRINTING
 62
   250
 10
14.237
 20
-75.9592
  0
VERTEX
  8
PRINTING
 62
   250
 10
13.8622
 20
-75.8422
  0
VERTEX
  8
PRINTING
 62
   250
 10
13.5226
 20
-75.6572
  0
VERTEX
  8
PRINTING
 62
   250
 10
13.2263
 20
-75.4125
  0
VERTEX
  8
PRINTING
 62
   250
 10
12.9816
 20
-75.1162
  0
VERTEX
  8
PRINTING
 62
   250
 10
12.7966
 20
-74.7766
  0
VERTEX
  8
PRINTING
 62
   250
 10
12.6796
 20
-74.4018
  0
VERTEX
  8
PRINTING
 62
   250
 10
12.6388
 20
-74.0
  0
SEQEND
  8
PRINTING
 62
   250
  0
POLYLINE
  8
PRINTING
 62
   250
 66
     1
 70
     1
  0
VERTEX
  8
PRINTING
 62
   250
 10
27.2291
 20
-73.0
  0
VERTEX
  8
PRINTING
 62
   250
 10
26.826
 20
-72.9594
  0
VERTEX
  8
PRINTING
 62
   250
 10
26.4506
 20
-72.8428
  0
VERTEX
  8
PRINTING
 62
   250
 10
26.1109
 20
-72.6584
  0
VERTEX
  8
PRINTING
 62
   250
 10
25.8149
 20
-72.4142
  0
VERTEX
  8
PRINTING
 62
   250
 10
25.5707
 20
-72.1182
  0
VERTEX
  8
PRINTING
 62
   250
 10
25.3863
 20
-71.7785
  0
VERTEX
  8
PRINTING
 62
   250
 10
25.2697
 20
-71.4031
  0
VERTEX
  8
PRINTING
 62
   250
 10
25.2291
 20
-71.0
  0
VERTEX
  8
PRINTING
 62
   250
 10
25.2697
 20
-70.5969
  0
VERTEX
  8
PRINTING
 62
   250
 10
25.3863
 20
-70.2215
  0
VERTEX
  8
PRINTING
 62
   250
 10
25.5707
 20
-69.8818
  0
VERTEX
  8
PRINTING
 62
   250
 10
25.8149
 20
-69.5858
  0
VERTEX
  8
PRINTING
 62
   250
 10
26.1109
 20
-69.3416
  0
VERTEX
  8
PRINTING
 62
   250
 10
26.4506
 20
-69.1572
  0
VERTEX
  8
PRINTING
 62
   250
 10
26.826
 20
-69.0406
  0
VERTEX
  8
PRINTING
 62
   250
 10
27.2291
 20
-69.0
  0
VERTEX
  8
PRINTING
 62
   250
 10
27.6322
 20
-69.0406
  0
VERTEX
  8
PRINTING
 62
   250
 10
28.0076
 20
-69.1572
  0
VERTEX
  8
PRINTING
 62
   250
 10
28.3473
 20
-69.3416
  0
VERTEX
  8
PRINTING
 62
   250
 10
28.6433
 20
-69.5858
  0
VERTEX
  8
PRINTING
 62
   250
 10
28.8875
 20
-69.8818
  0
VERTEX
  8
PRINTING
 62
   250
 10
29.0719
 20
-70.2215
  0
VERTEX
  8
PRINTING
 62
   250
 10
29.1885
 20
-70.5969
  0
VERTEX
  8
PRINTING
 62
   250
 10
29.2291
 20
-71.0
  0
VERTEX
  8
PRINTING
 62
   250
 10
29.1885
 20
-71.4031
  0
VERTEX
  8
PRINTING
 62
   250
 10
29.0719
 20
-71.7785
  0
VERTEX
  8
PRINTING
 62
   250
 10
28.8875
 20
-72.1182
  0
VERTEX
  8
PRINTING
 62
   250
 10
28.6433
 20
-72.4142
  0
VERTEX
  8
PRINTING
 62
   250
 10
28.3473
 20
-72.6584
  0
VERTEX
  8
PRINTING
 62
   250
 10
28.0076
 20
-72.8428
  0
VERTEX
  8
PRINTING
 62
   250
 10
27.6322
 20
-72.9594
  0
VERTEX
  8
PRINTING
 62
   250
 10
27.2291
 20
-73.0
  0
SEQEND
  8
PRINTING
 62
   250
  0
POLYLINE
  8
PRINTING
 62
   250
 66
     1
 70
     1
  0
VERTEX
  8
PRINTING
 62
   250
 10
41.8194
 20
-74.0
  0
VERTEX
  8
PRINTING
 62
   250
 10
41.8194
 20
-68.0
  0
VERTEX
  8
PRINTING
 62
   250
 10
41.8602
 20
-67.5982
  0
VERTEX
  8
PRINTING
 62
   250
 10
41.9772
 20
-67.2234
  0
VERTEX
  8
PRINTING
 62
   250
 10
42.1622
 20
-66.8838
  0
VERTEX
  8
PRINTING
 62
   250
 10
42.4069
 20
-66.5875
  0
VERTEX
  8
PRINTING
 62
   250
 10
42.7032
 20
-66.3428
  0
VERTEX
  8
PRINTING
 62
   250
 10
43.0428
 20
-66.1578
  0
VERTEX
  8
PRINTING
 62
   250
 10
43.4176
 20
-66.0408
  0
VERTEX
  8
PRINTING
 62
   250
 10
43.8193
 20
-66.0
  0
VERTEX
  8
PRINTING
 62
   250
 10
69.0001
 20
-66.0
  0
VERTEX
  8
PRINTING
 62
   250
 10
69.4018
 20
-66.0408
  0
VERTEX
  8
PRINTING
 62
   250
 10
69.7766
 20
-66.1578
  0
VERTEX
  8
PRINTING
 62
   250
 10
70.1162
 20
-66.3428
  0
VERTEX
  8
PRINTING
 62
   250
 10
70.4125
 20
-66.5875
  0
VERTEX
  8
PRINTING
 62
   250
 10
70.6572
 20
-66.8838
  0
VERTEX
  8
PRINTING
 62
   250
 10
70.8422
 20
-67.2234
  0
VERTEX
  8
PRINTING
 62
   250
 10
70.9592
 20
-67.5982
  0
VERTEX
  8
PRINTING
 62
   250
 10
71.0
 20
-68.0
  0
VERTEX
  8
PRINTING
 62
   250
 10
71.0
 20
-74.0
  0
VERTEX
  8
PRINTING
 62
   250
 10
70.9592
 20
-74.4018
  0
VERTEX
  8
PRINTING
 62
   250
 10
70.8422
 20
-74.7766
  0
VERTEX
  8
PRINTING
 62
   250
 10
70.6572
 20
-75.1162
  0
VERTEX
  8
PRINTING
 62
   250
 10
70.4125
 20
-75.4125
  0
VERTEX
  8
PRINTING
 62
   250
 10
70.1162
 20
-75.6572
  0
VERTEX
  8
PRINTING
 62
   250
 10
69.7766
 20
-75.8422
  0
VERTEX
  8
PRINTING
 62
   250
 10
69.4018
 20
-75.9592
  0
VERTEX
  8
PRINTING
 62
   250
 10
69.0001
 20
-76.0
  0
VERTEX
  8
PRINTING
 62
   250
 10
43.8193
 20
-76.0
  0
VERTEX
  8
PRINTING
 62
   250
 10
43.4176
 20
-75.9592
  0
VERTEX
  8
PRINTING
 62
   250
 10
43.0428
 20
-75.8422
  0
VERTEX
  8
PRINTING
 62
   250
 10
42.7032
 20
-75.6572
  0
VERTEX
  8
PRINTING
 62
   250
 10
42.4069
 20
-75.4125
  0
VERTEX
  8
PRINTING
 62
   250
 10
42.1622
 20
-75.1162
  0
VERTEX
  8
PRINTING
 62
   250
 10
41.9772
 20
-74.7766
  0
VERTEX
  8
PRINTING
 62
   250
 10
41.8602
 20
-74.4018
  0
VERTEX
  8
PRINTING
 62
   250
 10
41.8194
 20
-74.0
  0
SEQEND
  8
PRINTING
 62
   250
  0
POLYLINE
  8
PRINTING
 62
   250
 66
     1
 70
     1
  0
VERTEX
  8
PRINTING
 62
   250
 10
56.4097
 20
-73.0
  0
VERTEX
  8
PRINTING
 62
   250
 10
56.0066
 20
-72.9594
  0
VERTEX
  8
PRINTING
 62
   250
 10
55.6312
 20
-72.8428
  0
VERTEX
  8
PRINTING
 62
   250
 10
55.2915
 20
-72.6584
  0
VERTEX
  8
PRINTING
 62
   250
 10
54.9955
 20
-72.4142
  0
VERTEX
  8
PRINTING
 62
   250
 10
54.7513
 20
-72.1182
  0
VERTEX
  8
PRINTING
 62
   250
 10
54.5669
 20
-71.7785
  0
VERTEX
  8
PRINTING
 62
   250
 10
54.4503
 20
-71.4031
  0
VERTEX
  8
PRINTING
 62
   250
 10
54.4097
 20
-71.0
  0
VERTEX
  8
PRINTING
 62
   250
 10
54.4503
 20
-70.5969
  0
VERTEX
  8
PRINTING
 62
   250
 10
54.5669
 20
-70.2215
  0
VERTEX
  8
PRINTING
 62
   250
 10
54.7513
 20
-69.8818
  0
VERTEX
  8
PRINTING
 62
   250
 10
54.9955
 20
-69.5858
  0
VERTEX
  8
PRINTING
 62
   250
 10
55.2915
 20
-69.3416
  0
VERTEX
  8
PRINTING
 62
   250
 10
55.6312
 20
-69.1572
  0
VERTEX
  8
PRINTING
 62
   250
 10
56.0066
 20
-69.0406
  0
VERTEX
  8
PRINTING
 62
   250
 10
56.4097
 20
-69.0
  0
VERTEX
  8
PRINTING
 62
   250
 10
56.8128
 20
-69.0406
  0
VERTEX
  8
PRINTING
 62
   250
 10
57.1882
 20
-69.1572
  0
VERTEX
  8
PRINTING
 62
   250
 10
57.5279
 20
-69.3416
  0
VERTEX
  8
PRINTING
 62
   250
 10
57.8239
 20
-69.5858
  0
VERTEX
  8
PRINTING
 62
   250
 10
58.0681
 20
-69.8818
  0
VERTEX
  8
PRINTING
 62
   250
 10
58.2525
 20
-70.2215
  0
VERTEX
  8
PRINTING
 62
   250
 10
58.3691
 20
-70.5969
  0
VERTEX
  8
PRINTING
 62
   250
 10
58.4097
 20
-71.0
  0
VERTEX
  8
PRINTING
 62
   250
 10
58.3691
 20
-71.4031
  0
VERTEX
  8
PRINTING
 62
   250
 10
58.2525
 20
-71.7785
  0
VERTEX
  8
PRINTING
 62
   250
 10
58.0681
 20
-72.1182
  0
VERTEX
  8
PRINTING
 62
   250
 10
57.8239
 20
-72.4142
  0
VERTEX
  8
PRINTING
 62
   250
 10
57.5279
 20
-72.6584
  0
VERTEX
  8
PRINTING
 62
   250
 10
57.1882
 20
-72.8428
  0
VERTEX
  8
PRINTING
 62
   250
 10
56.8128
 20
-72.9594
  0
VERTEX
  8
PRINTING
 62
   250
 10
56.4097
 20
-73.0
  0
SEQEND
  8
PRINTING
 62
   250
  0
POLYLINE
  8
PRINTING
 62
   250
 66
     1
 70
     1
  0
VERTEX
  8
PRINTING
 62
   250
 10
78.2665
 20
-30.9088
  0
VERTEX
  8
PRINTING
 62
   250
 10
78.1154
 20
-30.8936
  0
VERTEX
  8
PRINTING
 62
   250
 10
77.9746
 20
-30.8499
  0
VERTEX
  8
PRINTING
 62
   250
 10
77.8472
 20
-30.7807
  0
VERTEX
  8
PRINTING
 62
   250
 10
77.7362
 20
-30.6891
  0
VERTEX
  8
PRINTING
 62
   250
 10
77.6446
 20
-30.5781
  0
VERTEX
  8
PRINTING
 62
   250
 10
77.5754
 20
-30.4507
  0
VERTEX
  8
PRINTING
 62
   250
 10
77.5317
 20
-30.3099
  0
VERTEX
  8
PRINTING
 62
   250
 10
77.5165
 20
-30.1588
  0
VERTEX
  8
PRINTING
 62
   250
 10
77.5317
 20
-30.0077
  0
VERTEX
  8
PRINTING
 62
   250
 10
77.5754
 20
-29.8669
  0
VERTEX
  8
PRINTING
 62
   250
 10
77.6446
 20
-29.7395
  0
VERTEX
  8
PRINTING
 62
   250
 10
77.7362
 20
-29.6285
  0
VERTEX
  8
PRINTING
 62
   250
 10
77.8472
 20
-29.5369
  0
VERTEX
  8
PRINTING
 62
   250
 10
77.9746
 20
-29.4677
  0
VERTEX
  8
PRINTING
 62
   250
 10
78.1154
 20
-29.424
  0
VERTEX
  8
PRINTING
 62
   250
 10
78.2665
 20
-29.4088
  0
VERTEX
  8
PRINTING
 62
   250
 10
78.4176
 20
-29.424
  0
VERTEX
  8
PRINTING
 62
   250
 10
78.5584
 20
-29.4677
  0
VERTEX
  8
PRINTING
 62
   250
 10
78.6858
 20
-29.5369
  0
VERTEX
  8
PRINTING
 62
   250
 10
78.7968
 20
-29.6285
  0
VERTEX
  8
PRINTING
 62
   250
 10
78.8884
 20
-29.7395
  0
VERTEX
  8
PRINTING
 62
   250
 10
78.9576
 20
-29.8669
  0
VERTEX
  8
PRINTING
 62
   250
 10
79.0013
 20
-30.0077
  0
VERTEX
  8
PRINTING
 62
   250
 10
79.0165
 20
-30.1588
  0
VERTEX
  8
PRINTING
 62
   250
 10
79.0013
 20
-30.3099
  0
VERTEX
  8
PRINTING
 62
   250
 10
78.9576
 20
-30.4507
  0
VERTEX
  8
PRINTING
 62
   250
 10
78.8884
 20
-30.5781
  0
VERTEX
  8
PRINTING
 62
   250
 10
78.7968
 20
-30.6891
  0
VERTEX
  8
PRINTING
 62
   250
 10
78.6858
 20
-30.7807
  0
VERTEX
  8
PRINTING
 62
   250
 10
78.5584
 20
-30.8499
  0
VERTEX
  8
PRINTING
 62
   250
 10
78.4176
 20
-30.8936
  0
VERTEX
  8
PRINTING
 62
   250
 10
78.2665
 20
-30.9088
  0
SEQEND
  8
PRINTING
 62
   250
  0
POLYLINE
  8
PRINTING
 62
   250
 66
     1
 70
     1
  0
VERTEX
  8
PRINTING
 62
   250
 10
78.2665
 20
-0.9088
  0
VERTEX
  8
PRINTING
 62
   250
 10
78.1154
 20
-0.8936
  0
VERTEX
  8
PRINTING
 62
   250
 10
77.9746
 20
-0.8499
  0
VERTEX
  8
PRINTING
 62
   250
 10
77.8472
 20
-0.7807
  0
VERTEX
  8
PRINTING
 62
   250
 10
77.7362
 20
-0.6891
  0
VERTEX
  8
PRINTING
 62
   250
 10
77.6446
 20
-0.5781
  0
VERTEX
  8
PRINTING
 62
   250
 10
77.5754
 20
-0.4507
  0
VERTEX
  8
PRINTING
 62
   250
 10
77.5317
 20
-0.3099
  0
VERTEX
  8
PRINTING
 62
   250
 10
77.5165
 20
-0.1588
  0
VERTEX
  8
PRINTING
 62
   250
 10
77.5317
 20
-0.0077
  0
VERTEX
  8
PRINTING
 62
   250
 10
77.5754
 20
0.1331
  0
VERTEX
  8
PRINTING
 62
   250
 10
77.6446
 20
0.2605
  0
VERTEX
  8
PRINTING
 62
   250
 10
77.7362
 20
0.3715
  0
VERTEX
  8
PRINTING
 62
   250
 10
77.8472
 20
0.4631
  0
VERTEX
  8
PRINTING
 62
   250
 10
77.9746
 20
0.5323
  0
VERTEX
  8
PRINTING
 62
   250
 10
78.1154
 20
0.576
  0
VERTEX
  8
PRINTING
 62
   250
 10
78.2665
 20
0.5912
  0
VERTEX
  8
PRINTING
 62
   250
 10
78.4176
 20
0.576
  0
VERTEX
  8
PRINTING
 62
   250
 10
78.5584
 20
0.5323
  0
VERTEX
  8
PRINTING
 62
   250
 10
78.6858
 20
0.4631
  0
VERTEX
  8
PRINTING
 62
   250
 10
78.7968
 20
0.3715
  0
VERTEX
  8
PRINTING
 62
   250
 10
78.8884
 20
0.2605
  0
VERTEX
  8
PRINTING
 62
   250
 10
78.9576
 20
0.1331
  0
VERTEX
  8
PRINTING
 62
   250
 10
79.0013
 20
-0.0077
  0
VERTEX
  8
PRINTING
 62
   250
 10
79.0165
 20
-0.1588
  0
VERTEX
  8
PRINTING
 62
   250
 10
79.0013
 20
-0.3099
  0
VERTEX
  8
PRINTING
 62
   250
 10
78.9576
 20
-0.4507
  0
VERTEX
  8
PRINTING
 62
   250
 10
78.8884
 20
-0.5781
  0
VERTEX
  8
PRINTING
 62
   250
 10
78.7968
 20
-0.6891
  0
VERTEX
  8
PRINTING
 62
   250
 10
78.6858
 20
-0.7807
  0
VERTEX
  8
PRINTING
 62
   250
 10
78.5584
 20
-0.8499
  0
VERTEX
  8
PRINTING
 62
   250
 10
78.4176
 20
-0.8936
  0
VERTEX
  8
PRINTING
 62
   250
 10
78.2665
 20
-0.9088
  0
SEQEND
  8
PRINTING
 62
   250
  0
POLYLINE
  8
PRINTING
 62
   250
 66
     1
 70
     1
  0
VERTEX
  8
PRINTING
 62
   250
 10
78.2665
 20
17.0912
  0
VERTEX
  8
PRINTING
 62
   250
 10
78.1154
 20
17.1064
  0
VERTEX
  8
PRINTING
 62
   250
 10
77.9746
 20
17.1501
  0
VERTEX
  8
PRINTING
 62
   250
 10
77.8472
 20
17.2193
  0
VERTEX
  8
PRINTING
 62
   250
 10
77.7362
 20
17.3109
  0
VERTEX
  8
PRINTING
 62
   250
 10
77.6446
 20
17.4219
  0
VERTEX
  8
PRINTING
 62
   250
 10
77.5754
 20
17.5493
  0
VERTEX
  8
PRINTING
 62
   250
 10
77.5317
 20
17.6901
  0
VERTEX
  8
PRINTING
 62
   250
 10
77.5165
 20
17.8412
  0
VERTEX
  8
PRINTING
 62
   250
 10
77.5317
 20
17.9923
  0
VERTEX
  8
PRINTING
 62
   250
 10
77.5754
 20
18.1331
  0
VERTEX
  8
PRINTING
 62
   250
 10
77.6446
 20
18.2605
  0
VERTEX
  8
PRINTING
 62
   250
 10
77.7362
 20
18.3715
  0
VERTEX
  8
PRINTING
 62
   250
 10
77.8472
 20
18.4631
  0
VERTEX
  8
PRINTING
 62
   250
 10
77.9746
 20
18.5323
  0
VERTEX
  8
PRINTING
 62
   250
 10
78.1154
 20
18.576
  0
VERTEX
  8
PRINTING
 62
   250
 10
78.2665
 20
18.5912
  0
VERTEX
  8
PRINTING
 62
   250
 10
78.4176
 20
18.576
  0
VERTEX
  8
PRINTING
 62
   250
 10
78.5584
 20
18.5323
  0
VERTEX
  8
PRINTING
 62
   250
 10
78.6858
 20
18.4631
  0
VERTEX
  8
PRINTING
 62
   250
 10
78.7968
 20
18.3715
  0
VERTEX
  8
PRINTING
 62
   250
 10
78.8884
 20
18.2605
  0
VERTEX
  8
PRINTING
 62
   250
 10
78.9576
 20
18.1331
  0
VERTEX
  8
PRINTING
 62
   250
 10
79.0013
 20
17.9923
  0
VERTEX
  8
PRINTING
 62
   250
 10
79.0165
 20
17.8412
  0
VERTEX
  8
PRINTING
 62
   250
 10
79.0013
 20
17.6901
  0
VERTEX
  8
PRINTING
 62
   250
 10
78.9576
 20
17.5493
  0
VERTEX
  8
PRINTING
 62
   250
 10
78.8884
 20
17.4219
  0
VERTEX
  8
PRINTING
 62
   250
 10
78.7968
 20
17.3109
  0
VERTEX
  8
PRINTING
 62
   250
 10
78.6858
 20
17.2193
  0
VERTEX
  8
PRINTING
 62
   250
 10
78.5584
 20
17.1501
  0
VERTEX
  8
PRINTING
 62
   250
 10
78.4176
 20
17.1064
  0
VERTEX
  8
PRINTING
 62
   250
 10
78.2665
 20
17.0912
  0
SEQEND
  8
PRINTING
 62
   250
  0
POLYLINE
  8
PRINTING
 62
   250
 66
     1
 70
     1
  0
VERTEX
  8
PRINTING
 62
   250
 10
78.2665
 20
47.0912
  0
VERTEX
  8
PRINTING
 62
   250
 10
78.1154
 20
47.1064
  0
VERTEX
  8
PRINTING
 62
   250
 10
77.9746
 20
47.1501
  0
VERTEX
  8
PRINTING
 62
   250
 10
77.8472
 20
47.2193
  0
VERTEX
  8
PRINTING
 62
   250
 10
77.7362
 20
47.3109
  0
VERTEX
  8
PRINTING
 62
   250
 10
77.6446
 20
47.4219
  0
VERTEX
  8
PRINTING
 62
   250
 10
77.5754
 20
47.5493
  0
VERTEX
  8
PRINTING
 62
   250
 10
77.5317
 20
47.6901
  0
VERTEX
  8
PRINTING
 62
   250
 10
77.5165
 20
47.8412
  0
VERTEX
  8
PRINTING
 62
   250
 10
77.5317
 20
47.9923
  0
VERTEX
  8
PRINTING
 62
   250
 10
77.5754
 20
48.1331
  0
VERTEX
  8
PRINTING
 62
   250
 10
77.6446
 20
48.2605
  0
VERTEX
  8
PRINTING
 62
   250
 10
77.7362
 20
48.3715
  0
VERTEX
  8
PRINTING
 62
   250
 10
77.8472
 20
48.4631
  0
VERTEX
  8
PRINTING
 62
   250
 10
77.9746
 20
48.5323
  0
VERTEX
  8
PRINTING
 62
   250
 10
78.1154
 20
48.576
  0
VERTEX
  8
PRINTING
 62
   250
 10
78.2665
 20
48.5912
  0
VERTEX
  8
PRINTING
 62
   250
 10
78.4176
 20
48.576
  0
VERTEX
  8
PRINTING
 62
   250
 10
78.5584
 20
48.5323
  0
VERTEX
  8
PRINTING
 62
   250
 10
78.6858
 20
48.4631
  0
VERTEX
  8
PRINTING
 62
   250
 10
78.7968
 20
48.3715
  0
VERTEX
  8
PRINTING
 62
   250
 10
78.8884
 20
48.2605
  0
VERTEX
  8
PRINTING
 62
   250
 10
78.9576
 20
48.1331
  0
VERTEX
  8
PRINTING
 62
   250
 10
79.0013
 20
47.9923
  0
VERTEX
  8
PRINTING
 62
   250
 10
79.0165
 20
47.8412
  0
VERTEX
  8
PRINTING
 62
   250
 10
79.0013
 20
47.6901
  0
VERTEX
  8
PRINTING
 62
   250
 10
78.9576
 20
47.5493
  0
VERTEX
  8
PRINTING
 62
   250
 10
78.8884
 20
47.4219
  0
VERTEX
  8
PRINTING
 62
   250
 10
78.7968
 20
47.3109
  0
VERTEX
  8
PRINTING
 62
   250
 10
78.6858
 20
47.2193
  0
VERTEX
  8
PRINTING
 62
   250
 10
78.5584
 20
47.1501
  0
VERTEX
  8
PRINTING
 62
   250
 10
78.4176
 20
47.1064
  0
VERTEX
  8
PRINTING
 62
   250
 10
78.2665
 20
47.0912
  0
SEQEND
  8
PRINTING
 62
   250
  0
POLYLINE
  8
PRINTING
 62
   250
 66
     1
 70
     1
  0
VERTEX
  8
PRINTING
 62
   250
 10
72.7665
 20
67.0912
  0
VERTEX
  8
PRINTING
 62
   250
 10
83.7665
 20
67.0912
  0
VERTEX
  8
PRINTING
 62
   250
 10
83.7665
 20
-48.9088
  0
VERTEX
  8
PRINTING
 62
   250
 10
72.7665
 20
-48.9088
  0
VERTEX
  8
PRINTING
 62
   250
 10
72.7665
 20
67.0912
  0
SEQEND
  8
PRINTING
 62
   250
  0
POLYLINE
  8
PRINTING
 62
   250
 66
     1
 70
     1
  0
VERTEX
  8
PRINTING
 62
   250
 10
78.2665
 20
58.5912
  0
VERTEX
  8
PRINTING
 62
   250
 10
77.9642
 20
58.6217
  0
VERTEX
  8
PRINTING
 62
   250
 10
77.6826
 20
58.7091
  0
VERTEX
  8
PRINTING
 62
   250
 10
77.4278
 20
58.8474
  0
VERTEX
  8
PRINTING
 62
   250
 10
77.2059
 20
59.0305
  0
VERTEX
  8
PRINTING
 62
   250
 10
77.0227
 20
59.2525
  0
VERTEX
  8
PRINTING
 62
   250
 10
76.8844
 20
59.5073
  0
VERTEX
  8
PRINTING
 62
   250
 10
76.797
 20
59.7889
  0
VERTEX
  8
PRINTING
 62
   250
 10
76.7665
 20
60.0912
  0
VERTEX
  8
PRINTING
 62
   250
 10
76.797
 20
60.3935
  0
VERTEX
  8
PRINTING
 62
   250
 10
76.8844
 20
60.6751
  0
VERTEX
  8
PRINTING
 62
   250
 10
77.0227
 20
60.9299
  0
VERTEX
  8
PRINTING
 62
   250
 10
77.2059
 20
61.1519
  0
VERTEX
  8
PRINTING
 62
   250
 10
77.4278
 20
61.335
  0
VERTEX
  8
PRINTING
 62
   250
 10
77.6826
 20
61.4733
  0
VERTEX
  8
PRINTING
 62
   250
 10
77.9642
 20
61.5607
  0
VERTEX
  8
PRINTING
 62
   250
 10
78.2665
 20
61.5912
  0
VERTEX
  8
PRINTING
 62
   250
 10
78.5688
 20
61.5607
  0
VERTEX
  8
PRINTING
 62
   250
 10
78.8504
 20
61.4733
  0
VERTEX
  8
PRINTING
 62
   250
 10
79.1052
 20
61.335
  0
VERTEX
  8
PRINTING
 62
   250
 10
79.3272
 20
61.1519
  0
VERTEX
  8
PRINTING
 62
   250
 10
79.5103
 20
60.9299
  0
VERTEX
  8
PRINTING
 62
   250
 10
79.6486
 20
60.6751
  0
VERTEX
  8
PRINTING
 62
   250
 10
79.736
 20
60.3935
  0
VERTEX
  8
PRINTING
 62
   250
 10
79.7665
 20
60.0912
  0
VERTEX
  8
PRINTING
 62
   250
 10
79.736
 20
59.7889
  0
VERTEX
  8
PRINTING
 62
   250
 10
79.6486
 20
59.5073
  0
VERTEX
  8
PRINTING
 62
   250
 10
79.5103
 20
59.2525
  0
VERTEX
  8
PRINTING
 62
   250
 10
79.3272
 20
59.0305
  0
VERTEX
  8
PRINTING
 62
   250
 10
79.1052
 20
58.8474
  0
VERTEX
  8
PRINTING
 62
   250
 10
78.8504
 20
58.7091
  0
VERTEX
  8
PRINTING
 62
   250
 10
78.5688
 20
58.6217
  0
VERTEX
  8
PRINTING
 62
   250
 10
78.2665
 20
58.5912
  0
SEQEND
  8
PRINTING
 62
   250
  0
POLYLINE
  8
PRINTING
 62
   250
 66
     1
 70
     1
  0
VERTEX
  8
PRINTING
 62
   250
 10
78.2665
 20
-40.9088
  0
VERTEX
  8
PRINTING
 62
   250
 10
78.5688
 20
-40.9393
  0
VERTEX
  8
PRINTING
 62
   250
 10
78.8504
 20
-41.0267
  0
VERTEX
  8
PRINTING
 62
   250
 10
79.1052
 20
-41.165
  0
VERTEX
  8
PRINTING
 62
   250
 10
79.3272
 20
-41.3481
  0
VERTEX
  8
PRINTING
 62
   250
 10
79.5103
 20
-41.5701
  0
VERTEX
  8
PRINTING
 62
   250
 10
79.6486
 20
-41.8249
  0
VERTEX
  8
PRINTING
 62
   250
 10
79.736
 20
-42.1065
  0
VERTEX
  8
PRINTING
 62
   250
 10
79.7665
 20
-42.4088
  0
VERTEX
  8
PRINTING
 62
   250
 10
79.736
 20
-42.7111
  0
VERTEX
  8
PRINTING
 62
   250
 10
79.6486
 20
-42.9927
  0
VERTEX
  8
PRINTING
 62
   250
 10
79.5103
 20
-43.2475
  0
VERTEX
  8
PRINTING
 62
   250
 10
79.3272
 20
-43.4695
  0
VERTEX
  8
PRINTING
 62
   250
 10
79.1052
 20
-43.6526
  0
VERTEX
  8
PRINTING
 62
   250
 10
78.8504
 20
-43.7909
  0
VERTEX
  8
PRINTING
 62
   250
 10
78.5688
 20
-43.8783
  0
VERTEX
  8
PRINTING
 62
   250
 10
78.2665
 20
-43.9088
  0
VERTEX
  8
PRINTING
 62
   250
 10
77.9642
 20
-43.8783
  0
VERTEX
  8
PRINTING
 62
   250
 10
77.6826
 20
-43.7909
  0
VERTEX
  8
PRINTING
 62
   250
 10
77.4278
 20
-43.6526
  0
VERTEX
  8
PRINTING
 62
   250
 10
77.2059
 20
-43.4695
  0
VERTEX
  8
PRINTING
 62
   250
 10
77.0227
 20
-43.2475
  0
VERTEX
  8
PRINTING
 62
   250
 10
76.8844
 20
-42.9927
  0
VERTEX
  8
PRINTING
 62
   250
 10
76.797
 20
-42.7111
  0
VERTEX
  8
PRINTING
 62
   250
 10
76.7665
 20
-42.4088
  0
VERTEX
  8
PRINTING
 62
   250
 10
76.797
 20
-42.1065
  0
VERTEX
  8
PRINTING
 62
   250
 10
76.8844
 20
-41.8249
  0
VERTEX
  8
PRINTING
 62
   250
 10
77.0227
 20
-41.5701
  0
VERTEX
  8
PRINTING
 62
   250
 10
77.2059
 20
-41.3481
  0
VERTEX
  8
PRINTING
 62
   250
 10
77.4278
 20
-41.165
  0
VERTEX
  8
PRINTING
 62
   250
 10
77.6826
 20
-41.0267
  0
VERTEX
  8
PRINTING
 62
   250
 10
77.9642
 20
-40.9393
  0
VERTEX
  8
PRINTING
 62
   250
 10
78.2665
 20
-40.9088
  0
SEQEND
  8
PRINTING
 62
   250
  0
POLYLINE
  8
PRINTING
 62
   250
 66
     1
 70
     1
  0
VERTEX
  8
PRINTING
 62
   250
 10
97.2665
 20
-45.1588
  0
VERTEX
  8
PRINTING
 62
   250
 10
97.2665
 20
-42.1588
  0
VERTEX
  8
PRINTING
 62
   250
 10
92.2665
 20
-42.1588
  0
VERTEX
  8
PRINTING
 62
   250
 10
92.2665
 20
-45.1588
  0
VERTEX
  8
PRINTING
 62
   250
 10
97.2665
 20
-45.1588
  0
SEQEND
  8
PRINTING
 62
   250
  0
POLYLINE
  8
PRINTING
 62
   250
 66
     1
 70
     1
  0
VERTEX
  8
PRINTING
 62
   250
 10
89.7665
 20
-47.1588
  0
VERTEX
  8
PRINTING
 62
   250
 10
99.7665
 20
-47.1588
  0
VERTEX
  8
PRINTING
 62
   250
 10
99.7665
 20
-36.1588
  0
VERTEX
  8
PRINTING
 62
   250
 10
102.9665
 20
-36.1588
  0
VERTEX
  8
PRINTING
 62
   250
 10
103.7665
 20
-24.1588
  0
VERTEX
  8
PRINTING
 62
   250
 10
102.0087
 20
-21.8619
  0
VERTEX
  8
PRINTING
 62
   250
 10
99.829
 20
-20.2213
  0
VERTEX
  8
PRINTING
 62
   250
 10
97.3681
 20
-19.2369
  0
VERTEX
  8
PRINTING
 62
   250
 10
94.7665
 20
-18.9088
  0
VERTEX
  8
PRINTING
 62
   250
 10
92.1649
 20
-19.2369
  0
VERTEX
  8
PRINTING
 62
   250
 10
89.704
 20
-20.2213
  0
VERTEX
  8
PRINTING
 62
   250
 10
87.5243
 20
-21.8619
  0
VERTEX
  8
PRINTING
 62
   250
 10
85.7665
 20
-24.1588
  0
VERTEX
  8
PRINTING
 62
   250
 10
86.5665
 20
-36.1588
  0
VERTEX
  8
PRINTING
 62
   250
 10
89.7665
 20
-36.1588
  0
VERTEX
  8
PRINTING
 62
   250
 10
89.7665
 20
-47.1588
  0
SEQEND
  8
PRINTING
 62
   250
  0
POLYLINE
  8
PRINTING
 62
   250
 66
     1
 70
     1
  0
VERTEX
  8
PRINTING
 62
   250
 10
129.7665
 20
-6.9089
  0
VERTEX
  8
PRINTING
 62
   250
 10
129.7665
 20
-22.9089
  0
VERTEX
  8
PRINTING
 62
   250
 10
129.8073
 20
-23.3107
  0
VERTEX
  8
PRINTING
 62
   250
 10
129.9243
 20
-23.6855
  0
VERTEX
  8
PRINTING
 62
   250
 10
130.1093
 20
-24.0251
  0
VERTEX
  8
PRINTING
 62
   250
 10
130.354
 20
-24.3214
  0
VERTEX
  8
PRINTING
 62
   250
 10
130.6503
 20
-24.5661
  0
VERTEX
  8
PRINTING
 62
   250
 10
130.9899
 20
-24.7511
  0
VERTEX
  8
PRINTING
 62
   250
 10
131.3647
 20
-24.8681
  0
VERTEX
  8
PRINTING
 62
   250
 10
131.7665
 20
-24.9089
  0
VERTEX
  8
PRINTING
 62
   250
 10
132.7665
 20
-24.9089
  0
VERTEX
  8
PRINTING
 62
   250
 10
133.1683
 20
-24.8681
  0
VERTEX
  8
PRINTING
 62
   250
 10
133.5431
 20
-24.7511
  0
VERTEX
  8
PRINTING
 62
   250
 10
133.8827
 20
-24.5661
  0
VERTEX
  8
PRINTING
 62
   250
 10
134.179
 20
-24.3214
  0
VERTEX
  8
PRINTING
 62
   250
 10
134.4237
 20
-24.0251
  0
VERTEX
  8
PRINTING
 62
   250
 10
134.6087
 20
-23.6855
  0
VERTEX
  8
PRINTING
 62
   250
 10
134.7257
 20
-23.3107
  0
VERTEX
  8
PRINTING
 62
   250
 10
134.7665
 20
-22.9089
  0
VERTEX
  8
PRINTING
 62
   250
 10
134.7665
 20
-6.9089
  0
VERTEX
  8
PRINTING
 62
   250
 10
134.7257
 20
-6.5071
  0
VERTEX
  8
PRINTING
 62
   250
 10
134.6087
 20
-6.1323
  0
VERTEX
  8
PRINTING
 62
   250
 10
134.4237
 20
-5.7927
  0
VERTEX
  8
PRINTING
 62
   250
 10
134.179
 20
-5.4964
  0
VERTEX
  8
PRINTING
 62
   250
 10
133.8827
 20
-5.2516
  0
VERTEX
  8
PRINTING
 62
   250
 10
133.5431
 20
-5.0666
  0
VERTEX
  8
PRINTING
 62
   250
 10
133.1683
 20
-4.9496
  0
VERTEX
  8
PRINTING
 62
   250
 10
132.7665
 20
-4.9088
  0
VERTEX
  8
PRINTING
 62
   250
 10
131.7665
 20
-4.9088
  0
VERTEX
  8
PRINTING
 62
   250
 10
131.3647
 20
-4.9496
  0
VERTEX
  8
PRINTING
 62
   250
 10
130.9899
 20
-5.0666
  0
VERTEX
  8
PRINTING
 62
   250
 10
130.6503
 20
-5.2516
  0
VERTEX
  8
PRINTING
 62
   250
 10
130.354
 20
-5.4964
  0
VERTEX
  8
PRINTING
 62
   250
 10
130.1093
 20
-5.7927
  0
VERTEX
  8
PRINTING
 62
   250
 10
129.9243
 20
-6.1323
  0
VERTEX
  8
PRINTING
 62
   250
 10
129.8073
 20
-6.5071
  0
VERTEX
  8
PRINTING
 62
   250
 10
129.7665
 20
-6.9089
  0
SEQEND
  8
PRINTING
 62
   250
  0
POLYLINE
  8
PRINTING
 62
   250
 66
     1
 70
     1
  0
VERTEX
  8
PRINTING
 62
   250
 10
130.7665
 20
-20.9089
  0
VERTEX
  8
PRINTING
 62
   250
 10
130.797
 20
-20.6066
  0
VERTEX
  8
PRINTING
 62
   250
 10
130.8844
 20
-20.325
  0
VERTEX
  8
PRINTING
 62
   250
 10
131.0227
 20
-20.0702
  0
VERTEX
  8
PRINTING
 62
   250
 10
131.2058
 20
-19.8482
  0
VERTEX
  8
PRINTING
 62
   250
 10
131.4278
 20
-19.6651
  0
VERTEX
  8
PRINTING
 62
   250
 10
131.6826
 20
-19.5268
  0
VERTEX
  8
PRINTING
 62
   250
 10
131.9642
 20
-19.4394
  0
VERTEX
  8
PRINTING
 62
   250
 10
132.2665
 20
-19.4089
  0
VERTEX
  8
PRINTING
 62
   250
 10
132.5688
 20
-19.4394
  0
VERTEX
  8
PRINTING
 62
   250
 10
132.8504
 20
-19.5268
  0
VERTEX
  8
PRINTING
 62
   250
 10
133.1052
 20
-19.6651
  0
VERTEX
  8
PRINTING
 62
   250
 10
133.3272
 20
-19.8483
  0
VERTEX
  8
PRINTING
 62
   250
 10
133.5103
 20
-20.0702
  0
VERTEX
  8
PRINTING
 62
   250
 10
133.6486
 20
-20.325
  0
VERTEX
  8
PRINTING
 62
   250
 10
133.736
 20
-20.6066
  0
VERTEX
  8
PRINTING
 62
   250
 10
133.7665
 20
-20.9089
  0
VERTEX
  8
PRINTING
 62
   250
 10
133.736
 20
-21.2112
  0
VERTEX
  8
PRINTING
 62
   250
 10
133.6486
 20
-21.4928
  0
VERTEX
  8
PRINTING
 62
   250
 10
133.5103
 20
-21.7476
  0
VERTEX
  8
PRINTING
 62
   250
 10
133.3272
 20
-21.9696
  0
VERTEX
  8
PRINTING
 62
   250
 10
133.1052
 20
-22.1527
  0
VERTEX
  8
PRINTING
 62
   250
 10
132.8504
 20
-22.291
  0
VERTEX
  8
PRINTING
 62
   250
 10
132.5688
 20
-22.3784
  0
VERTEX
  8
PRINTING
 62
   250
 10
132.2665
 20
-22.4089
  0
VERTEX
  8
PRINTING
 62
   250
 10
131.9642
 20
-22.3784
  0
VERTEX
  8
PRINTING
 62
   250
 10
131.6826
 20
-22.291
  0
VERTEX
  8
PRINTING
 62
   250
 10
131.4278
 20
-22.1527
  0
VERTEX
  8
PRINTING
 62
   250
 10
131.2058
 20
-21.9696
  0
VERTEX
  8
PRINTING
 62
   250
 10
131.0227
 20
-21.7476
  0
VERTEX
  8
PRINTING
 62
   250
 10
130.8844
 20
-21.4928
  0
VERTEX
  8
PRINTING
 62
   250
 10
130.797
 20
-21.2112
  0
VERTEX
  8
PRINTING
 62
   250
 10
130.7665
 20
-20.9089
  0
SEQEND
  8
PRINTING
 62
   250
  0
POLYLINE
  8
PRINTING
 62
   250
 66
     1
 70
     1
  0
VERTEX
  8
PRINTING
 62
   250
 10
130.7665
 20
-8.9089
  0
VERTEX
  8
PRINTING
 62
   250
 10
130.797
 20
-8.6066
  0
VERTEX
  8
PRINTING
 62
   250
 10
130.8844
 20
-8.325
  0
VERTEX
  8
PRINTING
 62
   250
 10
131.0227
 20
-8.0702
  0
VERTEX
  8
PRINTING
 62
   250
 10
131.2059
 20
-7.8482
  0
VERTEX
  8
PRINTING
 62
   250
 10
131.4278
 20
-7.6651
  0
VERTEX
  8
PRINTING
 62
   250
 10
131.6826
 20
-7.5268
  0
VERTEX
  8
PRINTING
 62
   250
 10
131.9642
 20
-7.4394
  0
VERTEX
  8
PRINTING
 62
   250
 10
132.2665
 20
-7.4089
  0
VERTEX
  8
PRINTING
 62
   250
 10
132.5688
 20
-7.4394
  0
VERTEX
  8
PRINTING
 62
   250
 10
132.8504
 20
-7.5268
  0
VERTEX
  8
PRINTING
 62
   250
 10
133.1052
 20
-7.6651
  0
VERTEX
  8
PRINTING
 62
   250
 10
133.3272
 20
-7.8483
  0
VERTEX
  8
PRINTING
 62
   250
 10
133.5103
 20
-8.0702
  0
VERTEX
  8
PRINTING
 62
   250
 10
133.6486
 20
-8.325
  0
VERTEX
  8
PRINTING
 62
   250
 10
133.736
 20
-8.6066
  0
VERTEX
  8
PRINTING
 62
   250
 10
133.7665
 20
-8.9089
  0
VERTEX
  8
PRINTING
 62
   250
 10
133.736
 20
-9.2112
  0
VERTEX
  8
PRINTING
 62
   250
 10
133.6486
 20
-9.4928
  0
VERTEX
  8
PRINTING
 62
   250
 10
133.5103
 20
-9.7476
  0
VERTEX
  8
PRINTING
 62
   250
 10
133.3272
 20
-9.9696
  0
VERTEX
  8
PRINTING
 62
   250
 10
133.1052
 20
-10.1527
  0
VERTEX
  8
PRINTING
 62
   250
 10
132.8504
 20
-10.291
  0
VERTEX
  8
PRINTING
 62
   250
 10
132.5688
 20
-10.3784
  0
VERTEX
  8
PRINTING
 62
   250
 10
132.2665
 20
-10.4089
  0
VERTEX
  8
PRINTING
 62
   250
 10
131.9642
 20
-10.3784
  0
VERTEX
  8
PRINTING
 62
   250
 10
131.6826
 20
-10.291
  0
VERTEX
  8
PRINTING
 62
   250
 10
131.4278
 20
-10.1527
  0
VERTEX
  8
PRINTING
 62
   250
 10
131.2059
 20
-9.9696
  0
VERTEX
  8
PRINTING
 62
   250
 10
131.0227
 20
-9.7476
  0
VERTEX
  8
PRINTING
 62
   250
 10
130.8844
 20
-9.4928
  0
VERTEX
  8
PRINTING
 62
   250
 10
130.797
 20
-9.2112
  0
VERTEX
  8
PRINTING
 62
   250
 10
130.7665
 20
-8.9089
  0
SEQEND
  8
PRINTING
 62
   250
  0
POLYLINE
  8
PRINTING
 62
   250
 66
     1
 70
     1
  0
VERTEX
  8
PRINTING
 62
   250
 10
98.594
 20
48.917
  0
VERTEX
  8
PRINTING
 62
   250
 10
88.594
 20
48.917
  0
VERTEX
  8
PRINTING
 62
   250
 10
88.594
 20
45.917
  0
VERTEX
  8
PRINTING
 62
   250
 10
85.594
 20
45.917
  0
VERTEX
  8
PRINTING
 62
   250
 10
85.594
 20
-10.083
  0
VERTEX
  8
PRINTING
 62
   250
 10
88.594
 20
-10.083
  0
VERTEX
  8
PRINTING
 62
   250
 10
88.594
 20
-18.083
  0
VERTEX
  8
PRINTING
 62
   250
 10
98.594
 20
-18.083
  0
VERTEX
  8
PRINTING
 62
   250
 10
98.594
 20
-10.083
  0
VERTEX
  8
PRINTING
 62
   250
 10
101.594
 20
-10.083
  0
VERTEX
  8
PRINTING
 62
   250
 10
101.594
 20
45.917
  0
VERTEX
  8
PRINTING
 62
   250
 10
98.594
 20
45.917
  0
VERTEX
  8
PRINTING
 62
   250
 10
98.594
 20
48.917
  0
SEQEND
  8
PRINTING
 62
   250
  0
POLYLINE
  8
PRINTING
 62
   250
 66
     1
 70
     1
  0
VERTEX
  8
PRINTING
 62
   250
 10
96.094
 20
-16.083
  0
VERTEX
  8
PRINTING
 62
   250
 10
96.094
 20
-13.083
  0
VERTEX
  8
PRINTING
 62
   250
 10
91.094
 20
-13.083
  0
VERTEX
  8
PRINTING
 62
   250
 10
91.094
 20
-16.083
  0
VERTEX
  8
PRINTING
 62
   250
 10
96.094
 20
-16.083
  0
SEQEND
  8
PRINTING
 62
   250
  0
POLYLINE
  8
PRINTING
 62
   250
 66
     1
 70
     1
  0
VERTEX
  8
PRINTING
 62
   250
 10
22.7665
 20
-55.4088
  0
VERTEX
  8
PRINTING
 62
   250
 10
19.7665
 20
-55.4088
  0
VERTEX
  8
PRINTING
 62
   250
 10
19.7665
 20
-44.4088
  0
VERTEX
  8
PRINTING
 62
   250
 10
22.7665
 20
-44.4088
  0
VERTEX
  8
PRINTING
 62
   250
 10
22.7665
 20
-55.4088
  0
SEQEND
  8
PRINTING
 62
   250
  0
POLYLINE
  8
PRINTING
 62
   250
 66
     1
 70
     1
  0
VERTEX
  8
PRINTING
 62
   250
 10
14.2665
 20
-38.4088
  0
VERTEX
  8
PRINTING
 62
   250
 10
18.7665
 20
-37.9088
  0
VERTEX
  8
PRINTING
 62
   250
 10
18.7665
 20
-34.9088
  0
VERTEX
  8
PRINTING
 62
   250
 10
23.7665
 20
-34.9088
  0
VERTEX
  8
PRINTING
 62
   250
 10
23.7665
 20
-37.9088
  0
VERTEX
  8
PRINTING
 62
   250
 10
28.2665
 20
-38.4088
  0
VERTEX
  8
PRINTING
 62
   250
 10
28.2665
 20
-40.4088
  0
VERTEX
  8
PRINTING
 62
   250
 10
25.2665
 20
-44.4088
  0
VERTEX
  8
PRINTING
 62
   250
 10
25.2665
 20
-55.4088
  0
VERTEX
  8
PRINTING
 62
   250
 10
28.2665
 20
-59.4088
  0
VERTEX
  8
PRINTING
 62
   250
 10
28.2665
 20
-61.4088
  0
VERTEX
  8
PRINTING
 62
   250
 10
23.7665
 20
-61.4088
  0
VERTEX
  8
PRINTING
 62
   250
 10
23.7665
 20
-64.4088
  0
VERTEX
  8
PRINTING
 62
   250
 10
18.7665
 20
-64.4088
  0
VERTEX
  8
PRINTING
 62
   250
 10
18.7665
 20
-61.4088
  0
VERTEX
  8
PRINTING
 62
   250
 10
14.2665
 20
-61.4088
  0
VERTEX
  8
PRINTING
 62
   250
 10
14.2665
 20
-59.4821
  0
VERTEX
  8
PRINTING
 62
   250
 10
17.2665
 20
-55.4088
  0
VERTEX
  8
PRINTING
 62
   250
 10
17.2665
 20
-44.4088
  0
VERTEX
  8
PRINTING
 62
   250
 10
14.2665
 20
-40.4088
  0
VERTEX
  8
PRINTING
 62
   250
 10
14.2665
 20
-38.4088
  0
SEQEND
  8
PRINTING
 62
   250
  0
POLYLINE
  8
PRINTING
 62
   250
 66
     1
 70
     1
  0
VERTEX
  8
PRINTING
 62
   250
 10
21.2665
 20
-39.9088
  0
VERTEX
  8
PRINTING
 62
   250
 10
20.97386451697581
 20
-39.93762207939515
  0
VERTEX
  8
PRINTING
 62
   250
 10
20.69247485145237
 20
-40.02298070123307
  0
VERTEX
  8
PRINTING
 62
   250
 10
20.4331446504706
 20
-40.16159558154618
  0
VERTEX
  8
PRINTING
 62
   250
 10
20.20583982822018
 20
-40.34813982822018
  0
VERTEX
  8
PRINTING
 62
   250
 10
20.01929558154618
 20
-40.57544465047059
  0
VERTEX
  8
PRINTING
 62
   250
 10
19.88068070123307
 20
-40.83477485145237
  0
VERTEX
  8
PRINTING
 62
   250
 10
19.79532207939516
 20
-41.11616451697581
  0
VERTEX
  8
PRINTING
 62
   250
 10
19.7665
 20
-41.4088
  0
VERTEX
  8
PRINTING
 62
   250
 10
19.79532207939516
 20
-41.70143548302419
  0
VERTEX
  8
PRINTING
 62
   250
 10
19.88068070123307
 20
-41.98282514854763
  0
VERTEX
  8
PRINTING
 62
   250
 10
20.01929558154618
 20
-42.2421553495294
  0
VERTEX
  8
PRINTING
 62
   250
 10
20.20583982822018
 20
-42.46946017177982
  0
VERTEX
  8
PRINTING
 62
   250
 10
20.4331446504706
 20
-42.65600441845382
  0
VERTEX
  8
PRINTING
 62
   250
 10
20.69247485145237
 20
-42.79461929876693
  0
VERTEX
  8
PRINTING
 62
   250
 10
20.97386451697581
 20
-42.87997792060484
  0
VERTEX
  8
PRINTING
 62
   250
 10
21.2665
 20
-42.9088
  0
VERTEX
  8
PRINTING
 62
   250
 10
21.5591354830242
 20
-42.87997792060484
  0
VERTEX
  8
PRINTING
 62
   250
 10
21.84052514854764
 20
-42.79461929876693
  0
VERTEX
  8
PRINTING
 62
   250
 10
22.09985534952941
 20
-42.65600441845382
  0
VERTEX
  8
PRINTING
 62
   250
 10
22.32716017177982
 20
-42.46946017177982
  0
VERTEX
  8
PRINTING
 62
   250
 10
22.51370441845382
 20
-42.2421553495294
  0
VERTEX
  8
PRINTING
 62
   250
 10
22.65231929876693
 20
-41.98282514854763
  0
VERTEX
  8
PRINTING
 62
   250
 10
22.73767792060485
 20
-41.70143548302419
  0
VERTEX
  8
PRINTING
 62
   250
 10
22.7665
 20
-41.40879999999999
  0
VERTEX
  8
PRINTING
 62
   250
 10
22.73767792060485
 20
-41.1161645169758
  0
VERTEX
  8
PRINTING
 62
   250
 10
22.65231929876693
 20
-40.83477485145236
  0
VERTEX
  8
PRINTING
 62
   250
 10
22.51370441845382
 20
-40.57544465047059
  0
VERTEX
  8
PRINTING
 62
   250
 10
22.32716017177982
 20
-40.34813982822018
  0
VERTEX
  8
PRINTING
 62
   250
 10
22.0998553495294
 20
-40.16159558154618
  0
VERTEX
  8
PRINTING
 62
   250
 10
21.84052514854763
 20
-40.02298070123307
  0
VERTEX
  8
PRINTING
 62
   250
 10
21.55913548302419
 20
-39.93762207939515
  0
SEQEND
  8
PRINTING
 62
   250
  0
POLYLINE
  8
PRINTING
 62
   250
 66
     1
 70
     1
  0
VERTEX
  8
PRINTING
 62
   250
 10
21.2665
 20
-56.9088
  0
VERTEX
  8
PRINTING
 62
   250
 10
20.97386451697581
 20
-56.93762207939515
  0
VERTEX
  8
PRINTING
 62
   250
 10
20.69247485145237
 20
-57.02298070123307
  0
VERTEX
  8
PRINTING
 62
   250
 10
20.4331446504706
 20
-57.16159558154618
  0
VERTEX
  8
PRINTING
 62
   250
 10
20.20583982822018
 20
-57.34813982822018
  0
VERTEX
  8
PRINTING
 62
   250
 10
20.01929558154618
 20
-57.57544465047059
  0
VERTEX
  8
PRINTING
 62
   250
 10
19.88068070123307
 20
-57.83477485145237
  0
VERTEX
  8
PRINTING
 62
   250
 10
19.79532207939516
 20
-58.11616451697581
  0
VERTEX
  8
PRINTING
 62
   250
 10
19.7665
 20
-58.4088
  0
VERTEX
  8
PRINTING
 62
   250
 10
19.79532207939516
 20
-58.70143548302419
  0
VERTEX
  8
PRINTING
 62
   250
 10
19.88068070123307
 20
-58.98282514854763
  0
VERTEX
  8
PRINTING
 62
   250
 10
20.01929558154618
 20
-59.2421553495294
  0
VERTEX
  8
PRINTING
 62
   250
 10
20.20583982822018
 20
-59.46946017177982
  0
VERTEX
  8
PRINTING
 62
   250
 10
20.4331446504706
 20
-59.65600441845382
  0
VERTEX
  8
PRINTING
 62
   250
 10
20.69247485145237
 20
-59.79461929876693
  0
VERTEX
  8
PRINTING
 62
   250
 10
20.97386451697581
 20
-59.87997792060484
  0
VERTEX
  8
PRINTING
 62
   250
 10
21.2665
 20
-59.9088
  0
VERTEX
  8
PRINTING
 62
   250
 10
21.5591354830242
 20
-59.87997792060484
  0
VERTEX
  8
PRINTING
 62
   250
 10
21.84052514854764
 20
-59.79461929876693
  0
VERTEX
  8
PRINTING
 62
   250
 10
22.09985534952941
 20
-59.65600441845382
  0
VERTEX
  8
PRINTING
 62
   250
 10
22.32716017177982
 20
-59.46946017177982
  0
VERTEX
  8
PRINTING
 62
   250
 10
22.51370441845382
 20
-59.2421553495294
  0
VERTEX
  8
PRINTING
 62
   250
 10
22.65231929876693
 20
-58.98282514854763
  0
VERTEX
  8
PRINTING
 62
   250
 10
22.73767792060485
 20
-58.70143548302419
  0
VERTEX
  8
PRINTING
 62
   250
 10
22.7665
 20
-58.40879999999999
  0
VERTEX
  8
PRINTING
 62
   250
 10
22.73767792060485
 20
-58.1161645169758
  0
VERTEX
  8
PRINTING
 62
   250
 10
22.65231929876693
 20
-57.83477485145236
  0
VERTEX
  8
PRINTING
 62
   250
 10
22.51370441845382
 20
-57.57544465047059
  0
VERTEX
  8
PRINTING
 62
   250
 10
22.32716017177982
 20
-57.34813982822018
  0
VERTEX
  8
PRINTING
 62
   250
 10
22.0998553495294
 20
-57.16159558154618
  0
VERTEX
  8
PRINTING
 62
   250
 10
21.84052514854763
 20
-57.02298070123307
  0
VERTEX
  8
PRINTING
 62
   250
 10
21.55913548302419
 20
-56.93762207939515
  0
SEQEND
  8
PRINTING
 62
   250
  0
POLYLINE
  8
PRINTING
 62
   250
 66
     1
  0
VERTEX
  8
PRINTING
 62
   250
 10
19.7665
 20
-49.9088
  0
VERTEX
  8
PRINTING
 62
   250
 10
17.2665
 20
-49.9088
  0
SEQEND
  8
PRINTING
 62
   250
  0
POLYLINE
  8
PRINTING
 62
   250
 66
     1
  0
VERTEX
  8
PRINTING
 62
   250
 10
25.2665
 20
-49.9088
  0
VERTEX
  8
PRINTING
 62
   250
 10
22.7665
 20
-49.9088
  0
SEQEND
  8
PRINTING
 62
   250
  0
POLYLINE
  8
PRINTING
 62
   250
 66
     1
 70
     1
  0
VERTEX
  8
PRINTING
 62
   250
 10
126.7665
 20
3.0912
  0
VERTEX
  8
PRINTING
 62
   250
 10
126.7665
 20
5.0912
  0
VERTEX
  8
PRINTING
 62
   250
 10
126.8073
 20
5.493
  0
VERTEX
  8
PRINTING
 62
   250
 10
126.9244
 20
5.8678
  0
VERTEX
  8
PRINTING
 62
   250
 10
127.1094
 20
6.2074
  0
VERTEX
  8
PRINTING
 62
   250
 10
127.3541
 20
6.5037
  0
VERTEX
  8
PRINTING
 62
   250
 10
127.6504
 20
6.7484
  0
VERTEX
  8
PRINTING
 62
   250
 10
127.9901
 20
6.9334
  0
VERTEX
  8
PRINTING
 62
   250
 10
128.3648
 20
7.0504
  0
VERTEX
  8
PRINTING
 62
   250
 10
128.7665
 20
7.0912
  0
VERTEX
  8
PRINTING
 62
   250
 10
140.7665
 20
7.0912
  0
VERTEX
  8
PRINTING
 62
   250
 10
141.1683
 20
7.0504
  0
VERTEX
  8
PRINTING
 62
   250
 10
141.5432
 20
6.9334
  0
VERTEX
  8
PRINTING
 62
   250
 10
141.8828
 20
6.7484
  0
VERTEX
  8
PRINTING
 62
   250
 10
142.1791
 20
6.5037
  0
VERTEX
  8
PRINTING
 62
   250
 10
142.4238
 20
6.2074
  0
VERTEX
  8
PRINTING
 62
   250
 10
142.6087
 20
5.8678
  0
VERTEX
  8
PRINTING
 62
   250
 10
142.7257
 20
5.493
  0
VERTEX
  8
PRINTING
 62
   250
 10
142.7665
 20
5.0912
  0
VERTEX
  8
PRINTING
 62
   250
 10
142.7665
 20
3.0912
  0
VERTEX
  8
PRINTING
 62
   250
 10
142.7257
 20
2.6894
  0
VERTEX
  8
PRINTING
 62
   250
 10
142.6087
 20
2.3146
  0
VERTEX
  8
PRINTING
 62
   250
 10
142.4238
 20
1.975
  0
VERTEX
  8
PRINTING
 62
   250
 10
142.1791
 20
1.6787
  0
VERTEX
  8
PRINTING
 62
   250
 10
141.8828
 20
1.434
  0
VERTEX
  8
PRINTING
 62
   250
 10
141.5432
 20
1.249
  0
VERTEX
  8
PRINTING
 62
   250
 10
141.1683
 20
1.132
  0
VERTEX
  8
PRINTING
 62
   250
 10
140.7665
 20
1.0912
  0
VERTEX
  8
PRINTING
 62
   250
 10
128.7665
 20
1.0912
  0
VERTEX
  8
PRINTING
 62
   250
 10
128.3648
 20
1.132
  0
VERTEX
  8
PRINTING
 62
   250
 10
127.9901
 20
1.249
  0
VERTEX
  8
PRINTING
 62
   250
 10
127.6504
 20
1.434
  0
VERTEX
  8
PRINTING
 62
   250
 10
127.3541
 20
1.6787
  0
VERTEX
  8
PRINTING
 62
   250
 10
127.1094
 20
1.975
  0
VERTEX
  8
PRINTING
 62
   250
 10
126.9244
 20
2.3146
  0
VERTEX
  8
PRINTING
 62
   250
 10
126.8073
 20
2.6894
  0
VERTEX
  8
PRINTING
 62
   250
 10
126.7665
 20
3.0912
  0
SEQEND
  8
PRINTING
 62
   250
  0
POLYLINE
  8
PRINTING
 62
   250
 66
     1
 70
     1
  0
VERTEX
  8
PRINTING
 62
   250
 10
129.7665
 20
5.5912
  0
VERTEX
  8
PRINTING
 62
   250
 10
129.4738645169758
 20
5.562377920604845
  0
VERTEX
  8
PRINTING
 62
   250
 10
129.1924748514524
 20
5.47701929876693
  0
VERTEX
  8
PRINTING
 62
   250
 10
128.9331446504706
 20
5.338404418453818
  0
VERTEX
  8
PRINTING
 62
   250
 10
128.7058398282202
 20
5.151860171779822
  0
VERTEX
  8
PRINTING
 62
   250
 10
128.5192955815462
 20
4.924555349529403
  0
VERTEX
  8
PRINTING
 62
   250
 10
128.3806807012331
 20
4.665225148547634
  0
VERTEX
  8
PRINTING
 62
   250
 10
128.2953220793952
 20
4.383835483024193
  0
VERTEX
  8
PRINTING
 62
   250
 10
128.2665
 20
4.0912
  0
VERTEX
  8
PRINTING
 62
   250
 10
128.2953220793952
 20
3.798564516975807
  0
VERTEX
  8
PRINTING
 62
   250
 10
128.3806807012331
 20
3.517174851452365
  0
VERTEX
  8
PRINTING
 62
   250
 10
128.5192955815462
 20
3.257844650470597
  0
VERTEX
  8
PRINTING
 62
   250
 10
128.7058398282202
 20
3.030539828220179
  0
VERTEX
  8
PRINTING
 62
   250
 10
128.9331446504706
 20
2.843995581546181
  0
VERTEX
  8
PRINTING
 62
   250
 10
129.1924748514524
 20
2.70538070123307
  0
VERTEX
  8
PRINTING
 62
   250
 10
129.4738645169758
 20
2.620022079395154
  0
VERTEX
  8
PRINTING
 62
   250
 10
129.7665
 20
2.5912
  0
VERTEX
  8
PRINTING
 62
   250
 10
130.0591354830242
 20
2.620022079395155
  0
VERTEX
  8
PRINTING
 62
   250
 10
130.3405251485476
 20
2.70538070123307
  0
VERTEX
  8
PRINTING
 62
   250
 10
130.5998553495294
 20
2.843995581546183
  0
VERTEX
  8
PRINTING
 62
   250
 10
130.8271601717798
 20
3.03053982822018
  0
VERTEX
  8
PRINTING
 62
   250
 10
131.0137044184538
 20
3.257844650470599
  0
VERTEX
  8
PRINTING
 62
   250
 10
131.1523192987669
 20
3.517174851452368
  0
VERTEX
  8
PRINTING
 62
   250
 10
131.2376779206049
 20
3.79856451697581
  0
VERTEX
  8
PRINTING
 62
   250
 10
131.2665
 20
4.091200000000003
  0
VERTEX
  8
PRINTING
 62
   250
 10
131.2376779206049
 20
4.383835483024196
  0
VERTEX
  8
PRINTING
 62
   250
 10
131.1523192987669
 20
4.665225148547639
  0
VERTEX
  8
PRINTING
 62
   250
 10
131.0137044184538
 20
4.924555349529407
  0
VERTEX
  8
PRINTING
 62
   250
 10
130.8271601717798
 20
5.151860171779825
  0
VERTEX
  8
PRINTING
 62
   250
 10
130.5998553495294
 20
5.338404418453821
  0
VERTEX
  8
PRINTING
 62
   250
 10
130.3405251485476
 20
5.477019298766931
  0
VERTEX
  8
PRINTING
 62
   250
 10
130.0591354830242
 20
5.562377920604846
  0
SEQEND
  8
PRINTING
 62
   250
  0
POLYLINE
  8
PRINTING
 62
   250
 66
     1
 70
     1
  0
VERTEX
  8
PRINTING
 62
   250
 10
139.7665
 20
5.5912
  0
VERTEX
  8
PRINTING
 62
   250
 10
139.4738645169758
 20
5.562377920604845
  0
VERTEX
  8
PRINTING
 62
   250
 10
139.1924748514524
 20
5.47701929876693
  0
VERTEX
  8
PRINTING
 62
   250
 10
138.9331446504706
 20
5.338404418453818
  0
VERTEX
  8
PRINTING
 62
   250
 10
138.7058398282202
 20
5.151860171779822
  0
VERTEX
  8
PRINTING
 62
   250
 10
138.5192955815462
 20
4.924555349529403
  0
VERTEX
  8
PRINTING
 62
   250
 10
138.3806807012331
 20
4.665225148547634
  0
VERTEX
  8
PRINTING
 62
   250
 10
138.2953220793952
 20
4.383835483024193
  0
VERTEX
  8
PRINTING
 62
   250
 10
138.2665
 20
4.0912
  0
VERTEX
  8
PRINTING
 62
   250
 10
138.2953220793952
 20
3.798564516975807
  0
VERTEX
  8
PRINTING
 62
   250
 10
138.3806807012331
 20
3.517174851452365
  0
VERTEX
  8
PRINTING
 62
   250
 10
138.5192955815462
 20
3.257844650470597
  0
VERTEX
  8
PRINTING
 62
   250
 10
138.7058398282202
 20
3.030539828220179
  0
VERTEX
  8
PRINTING
 62
   250
 10
138.9331446504706
 20
2.843995581546181
  0
VERTEX
  8
PRINTING
 62
   250
 10
139.1924748514524
 20
2.70538070123307
  0
VERTEX
  8
PRINTING
 62
   250
 10
139.4738645169758
 20
2.620022079395154
  0
VERTEX
  8
PRINTING
 62
   250
 10
139.7665
 20
2.5912
  0
VERTEX
  8
PRINTING
 62
   250
 10
140.0591354830242
 20
2.620022079395155
  0
VERTEX
  8
PRINTING
 62
   250
 10
140.3405251485476
 20
2.70538070123307
  0
VERTEX
  8
PRINTING
 62
   250
 10
140.5998553495294
 20
2.843995581546183
  0
VERTEX
  8
PRINTING
 62
   250
 10
140.8271601717798
 20
3.03053982822018
  0
VERTEX
  8
PRINTING
 62
   250
 10
141.0137044184538
 20
3.257844650470599
  0
VERTEX
  8
PRINTING
 62
   250
 10
141.1523192987669
 20
3.517174851452368
  0
VERTEX
  8
PRINTING
 62
   250
 10
141.2376779206049
 20
3.79856451697581
  0
VERTEX
  8
PRINTING
 62
   250
 10
141.2665
 20
4.091200000000003
  0
VERTEX
  8
PRINTING
 62
   250
 10
141.2376779206049
 20
4.383835483024196
  0
VERTEX
  8
PRINTING
 62
   250
 10
141.1523192987669
 20
4.665225148547639
  0
VERTEX
  8
PRINTING
 62
   250
 10
141.0137044184538
 20
4.924555349529407
  0
VERTEX
  8
PRINTING
 62
   250
 10
140.8271601717798
 20
5.151860171779825
  0
VERTEX
  8
PRINTING
 62
   250
 10
140.5998553495294
 20
5.338404418453821
  0
VERTEX
  8
PRINTING
 62
   250
 10
140.3405251485476
 20
5.477019298766931
  0
VERTEX
  8
PRINTING
 62
   250
 10
140.0591354830242
 20
5.562377920604846
  0
SEQEND
  8
PRINTING
 62
   250
  0
POLYLINE
  8
PRINTING
 62
   250
 66
     1
 70
     1
  0
VERTEX
  8
PRINTING
 62
   250
 10
63.7665
 20
32.0912
  0
VERTEX
  8
PRINTING
 62
   250
 10
63.7665
 20
29.5912
  0
VERTEX
  8
PRINTING
 62
   250
 10
60.7665
 20
29.5912
  0
VERTEX
  8
PRINTING
 62
   250
 10
59.7665
 20
28.5912
  0
VERTEX
  8
PRINTING
 62
   250
 10
59.7665
 20
25.5912
  0
VERTEX
  8
PRINTING
 62
   250
 10
60.7665
 20
24.5912
  0
VERTEX
  8
PRINTING
 62
   250
 10
63.7665
 20
24.5912
  0
VERTEX
  8
PRINTING
 62
   250
 10
63.7665
 20
22.0912
  0
VERTEX
  8
PRINTING
 62
   250
 10
69.7665
 20
22.0912
  0
VERTEX
  8
PRINTING
 62
   250
 10
70.7665
 20
23.0912
  0
VERTEX
  8
PRINTING
 62
   250
 10
70.7665
 20
31.0912
  0
VERTEX
  8
PRINTING
 62
   250
 10
69.7665
 20
32.0912
  0
VERTEX
  8
PRINTING
 62
   250
 10
63.7665
 20
32.0912
  0
SEQEND
  8
PRINTING
 62
   250
  0
POLYLINE
  8
PRINTING
 62
   250
 66
     1
 70
     1
  0
VERTEX
  8
PRINTING
 62
   250
 10
66.7665
 20
29.0912
  0
VERTEX
  8
PRINTING
 62
   250
 10
66.37631935596774
 20
29.05277056080646
  0
VERTEX
  8
PRINTING
 62
   250
 10
66.00113313526981
 20
28.93895906502257
  0
VERTEX
  8
PRINTING
 62
   250
 10
65.65535953396079
 20
28.75413922460509
  0
VERTEX
  8
PRINTING
 62
   250
 10
65.3522864376269
 20
28.5054135623731
  0
VERTEX
  8
PRINTING
 62
   250
 10
65.1035607753949
 20
28.20234046603921
  0
VERTEX
  8
PRINTING
 62
   250
 10
64.91874093497742
 20
27.85656686473018
  0
VERTEX
  8
PRINTING
 62
   250
 10
64.80492943919353
 20
27.48138064403226
  0
VERTEX
  8
PRINTING
 62
   250
 10
64.7665
 20
27.0912
  0
VERTEX
  8
PRINTING
 62
   250
 10
64.80492943919353
 20
26.70101935596774
  0
VERTEX
  8
PRINTING
 62
   250
 10
64.91874093497742
 20
26.32583313526982
  0
VERTEX
  8
PRINTING
 62
   250
 10
65.1035607753949
 20
25.9800595339608
  0
VERTEX
  8
PRINTING
 62
   250
 10
65.3522864376269
 20
25.6769864376269
  0
VERTEX
  8
PRINTING
 62
   250
 10
65.65535953396079
 20
25.42826077539491
  0
VERTEX
  8
PRINTING
 62
   250
 10
66.00113313526981
 20
25.24344093497743
  0
VERTEX
  8
PRINTING
 62
   250
 10
66.37631935596774
 20
25.12962943919354
  0
VERTEX
  8
PRINTING
 62
   250
 10
66.7665
 20
25.0912
  0
VERTEX
  8
PRINTING
 62
   250
 10
67.15668064403225
 20
25.12962943919354
  0
VERTEX
  8
PRINTING
 62
   250
 10
67.53186686473018
 20
25.24344093497743
  0
VERTEX
  8
PRINTING
 62
   250
 10
67.8776404660392
 20
25.42826077539491
  0
VERTEX
  8
PRINTING
 62
   250
 10
68.18071356237309
 20
25.67698643762691
  0
VERTEX
  8
PRINTING
 62
   250
 10
68.42943922460509
 20
25.9800595339608
  0
VERTEX
  8
PRINTING
 62
   250
 10
68.61425906502257
 20
26.32583313526982
  0
VERTEX
  8
PRINTING
 62
   250
 10
68.72807056080646
 20
26.70101935596775
  0
VERTEX
  8
PRINTING
 62
   250
 10
68.7665
 20
27.0912
  0
VERTEX
  8
PRINTING
 62
   250
 10
68.72807056080646
 20
27.48138064403226
  0
VERTEX
  8
PRINTING
 62
   250
 10
68.61425906502257
 20
27.85656686473019
  0
VERTEX
  8
PRINTING
 62
   250
 10
68.42943922460508
 20
28.20234046603921
  0
VERTEX
  8
PRINTING
 62
   250
 10
68.18071356237309
 20
28.5054135623731
  0
VERTEX
  8
PRINTING
 62
   250
 10
67.8776404660392
 20
28.75413922460509
  0
VERTEX
  8
PRINTING
 62
   250
 10
67.53186686473016
 20
28.93895906502258
  0
VERTEX
  8
PRINTING
 62
   250
 10
67.15668064403224
 20
29.05277056080646
  0
SEQEND
  8
PRINTING
 62
   250
  0
POLYLINE
  8
PRINTING
 62
   250
 66
     1
 70
     1
  0
VERTEX
  8
PRINTING
 62
   250
 10
52.7665
 20
32.0912
  0
VERTEX
  8
PRINTING
 62
   250
 10
52.7665
 20
29.5912
  0
VERTEX
  8
PRINTING
 62
   250
 10
49.7665
 20
29.5912
  0
VERTEX
  8
PRINTING
 62
   250
 10
48.7665
 20
28.5912
  0
VERTEX
  8
PRINTING
 62
   250
 10
48.7665
 20
25.5912
  0
VERTEX
  8
PRINTING
 62
   250
 10
49.7665
 20
24.5912
  0
VERTEX
  8
PRINTING
 62
   250
 10
52.7665
 20
24.5912
  0
VERTEX
  8
PRINTING
 62
   250
 10
52.7665
 20
22.0912
  0
VERTEX
  8
PRINTING
 62
   250
 10
58.7665
 20
22.0912
  0
VERTEX
  8
PRINTING
 62
   250
 10
59.7665
 20
23.0912
  0
VERTEX
  8
PRINTING
 62
   250
 10
59.7665
 20
31.0912
  0
VERTEX
  8
PRINTING
 62
   250
 10
58.7665
 20
32.0912
  0
VERTEX
  8
PRINTING
 62
   250
 10
52.7665
 20
32.0912
  0
SEQEND
  8
PRINTING
 62
   250
  0
POLYLINE
  8
PRINTING
 62
   250
 66
     1
 70
     1
  0
VERTEX
  8
PRINTING
 62
   250
 10
55.7665
 20
29.0912
  0
VERTEX
  8
PRINTING
 62
   250
 10
55.37631935596774
 20
29.05277056080646
  0
VERTEX
  8
PRINTING
 62
   250
 10
55.00113313526982
 20
28.93895906502257
  0
VERTEX
  8
PRINTING
 62
   250
 10
54.6553595339608
 20
28.75413922460509
  0
VERTEX
  8
PRINTING
 62
   250
 10
54.35228643762691
 20
28.5054135623731
  0
VERTEX
  8
PRINTING
 62
   250
 10
54.10356077539491
 20
28.20234046603921
  0
VERTEX
  8
PRINTING
 62
   250
 10
53.91874093497743
 20
27.85656686473018
  0
VERTEX
  8
PRINTING
 62
   250
 10
53.80492943919354
 20
27.48138064403226
  0
VERTEX
  8
PRINTING
 62
   250
 10
53.7665
 20
27.0912
  0
VERTEX
  8
PRINTING
 62
   250
 10
53.80492943919354
 20
26.70101935596774
  0
VERTEX
  8
PRINTING
 62
   250
 10
53.91874093497743
 20
26.32583313526982
  0
VERTEX
  8
PRINTING
 62
   250
 10
54.10356077539491
 20
25.9800595339608
  0
VERTEX
  8
PRINTING
 62
   250
 10
54.35228643762691
 20
25.6769864376269
  0
VERTEX
  8
PRINTING
 62
   250
 10
54.6553595339608
 20
25.42826077539491
  0
VERTEX
  8
PRINTING
 62
   250
 10
55.00113313526982
 20
25.24344093497743
  0
VERTEX
  8
PRINTING
 62
   250
 10
55.37631935596774
 20
25.12962943919354
  0
VERTEX
  8
PRINTING
 62
   250
 10
55.7665
 20
25.0912
  0
VERTEX
  8
PRINTING
 62
   250
 10
56.15668064403226
 20
25.12962943919354
  0
VERTEX
  8
PRINTING
 62
   250
 10
56.53186686473018
 20
25.24344093497743
  0
VERTEX
  8
PRINTING
 62
   250
 10
56.87764046603921
 20
25.42826077539491
  0
VERTEX
  8
PRINTING
 62
   250
 10
57.1807135623731
 20
25.67698643762691
  0
VERTEX
  8
PRINTING
 62
   250
 10
57.42943922460509
 20
25.9800595339608
  0
VERTEX
  8
PRINTING
 62
   250
 10
57.61425906502257
 20
26.32583313526982
  0
VERTEX
  8
PRINTING
 62
   250
 10
57.72807056080647
 20
26.70101935596775
  0
VERTEX
  8
PRINTING
 62
   250
 10
57.7665
 20
27.0912
  0
VERTEX
  8
PRINTING
 62
   250
 10
57.72807056080646
 20
27.48138064403226
  0
VERTEX
  8
PRINTING
 62
   250
 10
57.61425906502257
 20
27.85656686473019
  0
VERTEX
  8
PRINTING
 62
   250
 10
57.42943922460509
 20
28.20234046603921
  0
VERTEX
  8
PRINTING
 62
   250
 10
57.18071356237309
 20
28.5054135623731
  0
VERTEX
  8
PRINTING
 62
   250
 10
56.8776404660392
 20
28.75413922460509
  0
VERTEX
  8
PRINTING
 62
   250
 10
56.53186686473018
 20
28.93895906502258
  0
VERTEX
  8
PRINTING
 62
   250
 10
56.15668064403225
 20
29.05277056080646
  0
SEQEND
  8
PRINTING
 62
   250
  0
POLYLINE
  8
PRINTING
 62
   250
 66
     1
 70
     1
  0
VERTEX
  8
PRINTING
 62
   250
 10
63.7665
 20
22.0912
  0
VERTEX
  8
PRINTING
 62
   250
 10
63.7665
 20
19.5912
  0
VERTEX
  8
PRINTING
 62
   250
 10
60.7665
 20
19.5912
  0
VERTEX
  8
PRINTING
 62
   250
 10
59.7665
 20
18.5912
  0
VERTEX
  8
PRINTING
 62
   250
 10
59.7665
 20
15.5912
  0
VERTEX
  8
PRINTING
 62
   250
 10
60.7665
 20
14.5912
  0
VERTEX
  8
PRINTING
 62
   250
 10
63.7665
 20
14.5912
  0
VERTEX
  8
PRINTING
 62
   250
 10
63.7665
 20
12.0912
  0
VERTEX
  8
PRINTING
 62
   250
 10
69.7665
 20
12.0912
  0
VERTEX
  8
PRINTING
 62
   250
 10
70.7665
 20
13.0912
  0
VERTEX
  8
PRINTING
 62
   250
 10
70.7665
 20
21.0912
  0
VERTEX
  8
PRINTING
 62
   250
 10
69.7665
 20
22.0912
  0
VERTEX
  8
PRINTING
 62
   250
 10
63.7665
 20
22.0912
  0
SEQEND
  8
PRINTING
 62
   250
  0
POLYLINE
  8
PRINTING
 62
   250
 66
     1
 70
     1
  0
VERTEX
  8
PRINTING
 62
   250
 10
66.7665
 20
19.0912
  0
VERTEX
  8
PRINTING
 62
   250
 10
66.37631935596774
 20
19.05277056080646
  0
VERTEX
  8
PRINTING
 62
   250
 10
66.00113313526981
 20
18.93895906502257
  0
VERTEX
  8
PRINTING
 62
   250
 10
65.65535953396079
 20
18.75413922460509
  0
VERTEX
  8
PRINTING
 62
   250
 10
65.3522864376269
 20
18.5054135623731
  0
VERTEX
  8
PRINTING
 62
   250
 10
65.1035607753949
 20
18.20234046603921
  0
VERTEX
  8
PRINTING
 62
   250
 10
64.91874093497742
 20
17.85656686473018
  0
VERTEX
  8
PRINTING
 62
   250
 10
64.80492943919353
 20
17.48138064403226
  0
VERTEX
  8
PRINTING
 62
   250
 10
64.7665
 20
17.0912
  0
VERTEX
  8
PRINTING
 62
   250
 10
64.80492943919353
 20
16.70101935596774
  0
VERTEX
  8
PRINTING
 62
   250
 10
64.91874093497742
 20
16.32583313526982
  0
VERTEX
  8
PRINTING
 62
   250
 10
65.1035607753949
 20
15.9800595339608
  0
VERTEX
  8
PRINTING
 62
   250
 10
65.3522864376269
 20
15.6769864376269
  0
VERTEX
  8
PRINTING
 62
   250
 10
65.65535953396079
 20
15.42826077539491
  0
VERTEX
  8
PRINTING
 62
   250
 10
66.00113313526981
 20
15.24344093497743
  0
VERTEX
  8
PRINTING
 62
   250
 10
66.37631935596774
 20
15.12962943919354
  0
VERTEX
  8
PRINTING
 62
   250
 10
66.7665
 20
15.0912
  0
VERTEX
  8
PRINTING
 62
   250
 10
67.15668064403225
 20
15.12962943919354
  0
VERTEX
  8
PRINTING
 62
   250
 10
67.53186686473018
 20
15.24344093497743
  0
VERTEX
  8
PRINTING
 62
   250
 10
67.8776404660392
 20
15.42826077539491
  0
VERTEX
  8
PRINTING
 62
   250
 10
68.18071356237309
 20
15.67698643762691
  0
VERTEX
  8
PRINTING
 62
   250
 10
68.42943922460509
 20
15.9800595339608
  0
VERTEX
  8
PRINTING
 62
   250
 10
68.61425906502257
 20
16.32583313526982
  0
VERTEX
  8
PRINTING
 62
   250
 10
68.72807056080646
 20
16.70101935596775
  0
VERTEX
  8
PRINTING
 62
   250
 10
68.7665
 20
17.0912
  0
VERTEX
  8
PRINTING
 62
   250
 10
68.72807056080646
 20
17.48138064403226
  0
VERTEX
  8
PRINTING
 62
   250
 10
68.61425906502257
 20
17.85656686473019
  0
VERTEX
  8
PRINTING
 62
   250
 10
68.42943922460508
 20
18.20234046603921
  0
VERTEX
  8
PRINTING
 62
   250
 10
68.18071356237309
 20
18.5054135623731
  0
VERTEX
  8
PRINTING
 62
   250
 10
67.8776404660392
 20
18.75413922460509
  0
VERTEX
  8
PRINTING
 62
   250
 10
67.53186686473016
 20
18.93895906502258
  0
VERTEX
  8
PRINTING
 62
   250
 10
67.15668064403224
 20
19.05277056080646
  0
SEQEND
  8
PRINTING
 62
   250
  0
POLYLINE
  8
PRINTING
 62
   250
 66
     1
 70
     1
  0
VERTEX
  8
PRINTING
 62
   250
 10
52.7665
 20
22.0912
  0
VERTEX
  8
PRINTING
 62
   250
 10
52.7665
 20
19.5912
  0
VERTEX
  8
PRINTING
 62
   250
 10
49.7665
 20
19.5912
  0
VERTEX
  8
PRINTING
 62
   250
 10
48.7665
 20
18.5912
  0
VERTEX
  8
PRINTING
 62
   250
 10
48.7665
 20
15.5912
  0
VERTEX
  8
PRINTING
 62
   250
 10
49.7665
 20
14.5912
  0
VERTEX
  8
PRINTING
 62
   250
 10
52.7665
 20
14.5912
  0
VERTEX
  8
PRINTING
 62
   250
 10
52.7665
 20
12.0912
  0
VERTEX
  8
PRINTING
 62
   250
 10
58.7665
 20
12.0912
  0
VERTEX
  8
PRINTING
 62
   250
 10
59.7665
 20
13.0912
  0
VERTEX
  8
PRINTING
 62
   250
 10
59.7665
 20
21.0912
  0
VERTEX
  8
PRINTING
 62
   250
 10
58.7665
 20
22.0912
  0
VERTEX
  8
PRINTING
 62
   250
 10
52.7665
 20
22.0912
  0
SEQEND
  8
PRINTING
 62
   250
  0
POLYLINE
  8
PRINTING
 62
   250
 66
     1
 70
     1
  0
VERTEX
  8
PRINTING
 62
   250
 10
55.7665
 20
19.0912
  0
VERTEX
  8
PRINTING
 62
   250
 10
55.37631935596774
 20
19.05277056080646
  0
VERTEX
  8
PRINTING
 62
   250
 10
55.00113313526982
 20
18.93895906502257
  0
VERTEX
  8
PRINTING
 62
   250
 10
54.6553595339608
 20
18.75413922460509
  0
VERTEX
  8
PRINTING
 62
   250
 10
54.35228643762691
 20
18.5054135623731
  0
VERTEX
  8
PRINTING
 62
   250
 10
54.10356077539491
 20
18.20234046603921
  0
VERTEX
  8
PRINTING
 62
   250
 10
53.91874093497743
 20
17.85656686473018
  0
VERTEX
  8
PRINTING
 62
   250
 10
53.80492943919354
 20
17.48138064403226
  0
VERTEX
  8
PRINTING
 62
   250
 10
53.7665
 20
17.0912
  0
VERTEX
  8
PRINTING
 62
   250
 10
53.80492943919354
 20
16.70101935596774
  0
VERTEX
  8
PRINTING
 62
   250
 10
53.91874093497743
 20
16.32583313526982
  0
VERTEX
  8
PRINTING
 62
   250
 10
54.10356077539491
 20
15.9800595339608
  0
VERTEX
  8
PRINTING
 62
   250
 10
54.35228643762691
 20
15.6769864376269
  0
VERTEX
  8
PRINTING
 62
   250
 10
54.6553595339608
 20
15.42826077539491
  0
VERTEX
  8
PRINTING
 62
   250
 10
55.00113313526982
 20
15.24344093497743
  0
VERTEX
  8
PRINTING
 62
   250
 10
55.37631935596774
 20
15.12962943919354
  0
VERTEX
  8
PRINTING
 62
   250
 10
55.7665
 20
15.0912
  0
VERTEX
  8
PRINTING
 62
   250
 10
56.15668064403226
 20
15.12962943919354
  0
VERTEX
  8
PRINTING
 62
   250
 10
56.53186686473018
 20
15.24344093497743
  0
VERTEX
  8
PRINTING
 62
   250
 10
56.87764046603921
 20
15.42826077539491
  0
VERTEX
  8
PRINTING
 62
   250
 10
57.1807135623731
 20
15.67698643762691
  0
VERTEX
  8
PRINTING
 62
   250
 10
57.42943922460509
 20
15.9800595339608
  0
VERTEX
  8
PRINTING
 62
   250
 10
57.61425906502257
 20
16.32583313526982
  0
VERTEX
  8
PRINTING
 62
   250
 10
57.72807056080647
 20
16.70101935596775
  0
VERTEX
  8
PRINTING
 62
   250
 10
57.7665
 20
17.0912
  0
VERTEX
  8
PRINTING
 62
   250
 10
57.72807056080646
 20
17.48138064403226
  0
VERTEX
  8
PRINTING
 62
   250
 10
57.61425906502257
 20
17.85656686473019
  0
VERTEX
  8
PRINTING
 62
   250
 10
57.42943922460509
 20
18.20234046603921
  0
VERTEX
  8
PRINTING
 62
   250
 10
57.18071356237309
 20
18.5054135623731
  0
VERTEX
  8
PRINTING
 62
   250
 10
56.8776404660392
 20
18.75413922460509
  0
VERTEX
  8
PRINTING
 62
   250
 10
56.53186686473018
 20
18.93895906502258
  0
VERTEX
  8
PRINTING
 62
   250
 10
56.15668064403225
 20
19.05277056080646
  0
SEQEND
  8
PRINTING
 62
   250
  0
POLYLINE
  8
PRINTING
 62
   250
 66
     1
 70
     1
  0
VERTEX
  8
PRINTING
 62
   250
 10
94.7665
 20
68.0912
  0
VERTEX
  8
PRINTING
 62
   250
 10
136.7665
 20
68.0912
  0
VERTEX
  8
PRINTING
 62
   250
 10
145.7665
 20
67.0912
  0
VERTEX
  8
PRINTING
 62
   250
 10
147.7665
 20
65.0912
  0
VERTEX
  8
PRINTING
 62
   250
 10
147.7665
 20
51.0912
  0
VERTEX
  8
PRINTING
 62
   250
 10
145.7665
 20
49.0912
  0
VERTEX
  8
PRINTING
 62
   250
 10
127.7444
 20
49.1137
  0
VERTEX
  8
PRINTING
 62
   250
 10
125.7665
 20
47.0912
  0
VERTEX
  8
PRINTING
 62
   250
 10
125.7665
 20
-45.9088
  0
VERTEX
  8
PRINTING
 62
   250
 10
123.7665
 20
-47.9088
  0
VERTEX
  8
PRINTING
 62
   250
 10
107.7665
 20
-47.9088
  0
VERTEX
  8
PRINTING
 62
   250
 10
105.7665
 20
-45.9088
  0
VERTEX
  8
PRINTING
 62
   250
 10
105.7665
 20
47.0912
  0
VERTEX
  8
PRINTING
 62
   250
 10
103.7665
 20
49.0912
  0
VERTEX
  8
PRINTING
 62
   250
 10
85.7444
 20
49.1137
  0
VERTEX
  8
PRINTING
 62
   250
 10
83.7665
 20
51.0912
  0
VERTEX
  8
PRINTING
 62
   250
 10
83.7665
 20
65.0912
  0
VERTEX
  8
PRINTING
 62
   250
 10
85.7665
 20
67.0912
  0
VERTEX
  8
PRINTING
 62
   250
 10
94.7665
 20
68.0912
  0
SEQEND
  8
PRINTING
 62
   250
  0
POLYLINE
  8
PRINTING
 62
   250
 66
     1
 70
     1
  0
VERTEX
  8
PRINTING
 62
   250
 10
142.7665
 20
54.0912
  0
VERTEX
  8
PRINTING
 62
   250
 10
139.7665
 20
54.0912
  0
VERTEX
  8
PRINTING
 62
   250
 10
139.7665
 20
64.0912
  0
VERTEX
  8
PRINTING
 62
   250
 10
142.7665
 20
64.0912
  0
VERTEX
  8
PRINTING
 62
   250
 10
142.7665
 20
54.0912
  0
SEQEND
  8
PRINTING
 62
   250
  0
POLYLINE
  8
PRINTING
 62
   250
 66
     1
 70
     1
  0
VERTEX
  8
PRINTING
 62
   250
 10
91.7665
 20
54.0912
  0
VERTEX
  8
PRINTING
 62
   250
 10
88.7665
 20
54.0912
  0
VERTEX
  8
PRINTING
 62
   250
 10
88.7665
 20
64.0912
  0
VERTEX
  8
PRINTING
 62
   250
 10
91.7665
 20
64.0912
  0
VERTEX
  8
PRINTING
 62
   250
 10
91.7665
 20
54.0912
  0
SEQEND
  8
PRINTING
 62
   250
  0
POLYLINE
  8
PRINTING
 62
   250
 66
     1
 70
     1
  0
VERTEX
  8
PRINTING
 62
   250
 10
115.7665
 20
60.5912
  0
VERTEX
  8
PRINTING
 62
   250
 10
115.4642
 20
60.6217
  0
VERTEX
  8
PRINTING
 62
   250
 10
115.1826
 20
60.7091
  0
VERTEX
  8
PRINTING
 62
   250
 10
114.9278
 20
60.8474
  0
VERTEX
  8
PRINTING
 62
   250
 10
114.7059
 20
61.0305
  0
VERTEX
  8
PRINTING
 62
   250
 10
114.5227
 20
61.2525
  0
VERTEX
  8
PRINTING
 62
   250
 10
114.3844
 20
61.5073
  0
VERTEX
  8
PRINTING
 62
   250
 10
114.297
 20
61.7889
  0
VERTEX
  8
PRINTING
 62
   250
 10
114.2665
 20
62.0912
  0
VERTEX
  8
PRINTING
 62
   250
 10
114.297
 20
62.3935
  0
VERTEX
  8
PRINTING
 62
   250
 10
114.3844
 20
62.6751
  0
VERTEX
  8
PRINTING
 62
   250
 10
114.5227
 20
62.9299
  0
VERTEX
  8
PRINTING
 62
   250
 10
114.7059
 20
63.1519
  0
VERTEX
  8
PRINTING
 62
   250
 10
114.9278
 20
63.335
  0
VERTEX
  8
PRINTING
 62
   250
 10
115.1826
 20
63.4733
  0
VERTEX
  8
PRINTING
 62
   250
 10
115.4642
 20
63.5607
  0
VERTEX
  8
PRINTING
 62
   250
 10
115.7665
 20
63.5912
  0
VERTEX
  8
PRINTING
 62
   250
 10
116.0688
 20
63.5607
  0
VERTEX
  8
PRINTING
 62
   250
 10
116.3504
 20
63.4733
  0
VERTEX
  8
PRINTING
 62
   250
 10
116.6052
 20
63.335
  0
VERTEX
  8
PRINTING
 62
   250
 10
116.8272
 20
63.1519
  0
VERTEX
  8
PRINTING
 62
   250
 10
117.0103
 20
62.9299
  0
VERTEX
  8
PRINTING
 62
   250
 10
117.1486
 20
62.6751
  0
VERTEX
  8
PRINTING
 62
   250
 10
117.236
 20
62.3935
  0
VERTEX
  8
PRINTING
 62
   250
 10
117.2665
 20
62.0912
  0
VERTEX
  8
PRINTING
 62
   250
 10
117.236
 20
61.7889
  0
VERTEX
  8
PRINTING
 62
   250
 10
117.1486
 20
61.5073
  0
VERTEX
  8
PRINTING
 62
   250
 10
117.0103
 20
61.2525
  0
VERTEX
  8
PRINTING
 62
   250
 10
116.8272
 20
61.0305
  0
VERTEX
  8
PRINTING
 62
   250
 10
116.6052
 20
60.8474
  0
VERTEX
  8
PRINTING
 62
   250
 10
116.3504
 20
60.7091
  0
VERTEX
  8
PRINTING
 62
   250
 10
116.0688
 20
60.6217
  0
VERTEX
  8
PRINTING
 62
   250
 10
115.7665
 20
60.5912
  0
SEQEND
  8
PRINTING
 62
   250
  0
POLYLINE
  8
PRINTING
 62
   250
 66
     1
 70
     1
  0
VERTEX
  8
PRINTING
 62
   250
 10
120.7665
 20
-35.4088
  0
VERTEX
  8
PRINTING
 62
   250
 10
110.7665
 20
-35.4088
  0
VERTEX
  8
PRINTING
 62
   250
 10
110.7665
 20
-32.4088
  0
VERTEX
  8
PRINTING
 62
   250
 10
120.7665
 20
-32.4088
  0
VERTEX
  8
PRINTING
 62
   250
 10
120.7665
 20
-35.4088
  0
SEQEND
  8
PRINTING
 62
   250
  0
POLYLINE
  8
PRINTING
 62
   250
 66
     1
 70
     1
  0
VERTEX
  8
PRINTING
 62
   250
 10
115.7665
 20
-38.9088
  0
VERTEX
  8
PRINTING
 62
   250
 10
116.0688
 20
-38.9393
  0
VERTEX
  8
PRINTING
 62
   250
 10
116.3504
 20
-39.0267
  0
VERTEX
  8
PRINTING
 62
   250
 10
116.6052
 20
-39.165
  0
VERTEX
  8
PRINTING
 62
   250
 10
116.8272
 20
-39.3481
  0
VERTEX
  8
PRINTING
 62
   250
 10
117.0103
 20
-39.5701
  0
VERTEX
  8
PRINTING
 62
   250
 10
117.1486
 20
-39.8249
  0
VERTEX
  8
PRINTING
 62
   250
 10
117.236
 20
-40.1065
  0
VERTEX
  8
PRINTING
 62
   250
 10
117.2665
 20
-40.4088
  0
VERTEX
  8
PRINTING
 62
   250
 10
117.236
 20
-40.7111
  0
VERTEX
  8
PRINTING
 62
   250
 10
117.1486
 20
-40.9927
  0
VERTEX
  8
PRINTING
 62
   250
 10
117.0103
 20
-41.2475
  0
VERTEX
  8
PRINTING
 62
   250
 10
116.8272
 20
-41.4695
  0
VERTEX
  8
PRINTING
 62
   250
 10
116.6052
 20
-41.6526
  0
VERTEX
  8
PRINTING
 62
   250
 10
116.3504
 20
-41.7909
  0
VERTEX
  8
PRINTING
 62
   250
 10
116.0688
 20
-41.8783
  0
VERTEX
  8
PRINTING
 62
   250
 10
115.7665
 20
-41.9088
  0
VERTEX
  8
PRINTING
 62
   250
 10
115.4642
 20
-41.8783
  0
VERTEX
  8
PRINTING
 62
   250
 10
115.1826
 20
-41.7909
  0
VERTEX
  8
PRINTING
 62
   250
 10
114.9278
 20
-41.6526
  0
VERTEX
  8
PRINTING
 62
   250
 10
114.7059
 20
-41.4695
  0
VERTEX
  8
PRINTING
 62
   250
 10
114.5227
 20
-41.2475
  0
VERTEX
  8
PRINTING
 62
   250
 10
114.3844
 20
-40.9927
  0
VERTEX
  8
PRINTING
 62
   250
 10
114.297
 20
-40.7111
  0
VERTEX
  8
PRINTING
 62
   250
 10
114.2665
 20
-40.4088
  0
VERTEX
  8
PRINTING
 62
   250
 10
114.297
 20
-40.1065
  0
VERTEX
  8
PRINTING
 62
   250
 10
114.3844
 20
-39.8249
  0
VERTEX
  8
PRINTING
 62
   250
 10
114.5227
 20
-39.5701
  0
VERTEX
  8
PRINTING
 62
   250
 10
114.7059
 20
-39.3481
  0
VERTEX
  8
PRINTING
 62
   250
 10
114.9278
 20
-39.165
  0
VERTEX
  8
PRINTING
 62
   250
 10
115.1826
 20
-39.0267
  0
VERTEX
  8
PRINTING
 62
   250
 10
115.4642
 20
-38.9393
  0
VERTEX
  8
PRINTING
 62
   250
 10
115.7665
 20
-38.9088
  0
SEQEND
  8
PRINTING
 62
   250
  0
POLYLINE
  8
PRINTING
 62
   250
 66
     1
 70
     1
  0
VERTEX
  8
PRINTING
 62
   250
 10
94.7665
 20
61.0912
  0
VERTEX
  8
PRINTING
 62
   250
 10
94.37631935596774
 20
61.05277056080647
  0
VERTEX
  8
PRINTING
 62
   250
 10
94.00113313526981
 20
60.93895906502257
  0
VERTEX
  8
PRINTING
 62
   250
 10
93.65535953396079
 20
60.75413922460509
  0
VERTEX
  8
PRINTING
 62
   250
 10
93.3522864376269
 20
60.50541356237309
  0
VERTEX
  8
PRINTING
 62
   250
 10
93.1035607753949
 20
60.2023404660392
  0
VERTEX
  8
PRINTING
 62
   250
 10
92.91874093497742
 20
59.85656686473018
  0
VERTEX
  8
PRINTING
 62
   250
 10
92.80492943919353
 20
59.48138064403226
  0
VERTEX
  8
PRINTING
 62
   250
 10
92.7665
 20
59.0912
  0
VERTEX
  8
PRINTING
 62
   250
 10
92.80492943919353
 20
58.70101935596774
  0
VERTEX
  8
PRINTING
 62
   250
 10
92.91874093497742
 20
58.32583313526982
  0
VERTEX
  8
PRINTING
 62
   250
 10
93.1035607753949
 20
57.9800595339608
  0
VERTEX
  8
PRINTING
 62
   250
 10
93.3522864376269
 20
57.67698643762691
  0
VERTEX
  8
PRINTING
 62
   250
 10
93.65535953396079
 20
57.42826077539491
  0
VERTEX
  8
PRINTING
 62
   250
 10
94.00113313526981
 20
57.24344093497743
  0
VERTEX
  8
PRINTING
 62
   250
 10
94.37631935596774
 20
57.12962943919354
  0
VERTEX
  8
PRINTING
 62
   250
 10
94.7665
 20
57.0912
  0
VERTEX
  8
PRINTING
 62
   250
 10
95.15668064403225
 20
57.12962943919354
  0
VERTEX
  8
PRINTING
 62
   250
 10
95.53186686473018
 20
57.24344093497743
  0
VERTEX
  8
PRINTING
 62
   250
 10
95.8776404660392
 20
57.42826077539491
  0
VERTEX
  8
PRINTING
 62
   250
 10
96.18071356237309
 20
57.67698643762691
  0
VERTEX
  8
PRINTING
 62
   250
 10
96.42943922460509
 20
57.9800595339608
  0
VERTEX
  8
PRINTING
 62
   250
 10
96.61425906502257
 20
58.32583313526982
  0
VERTEX
  8
PRINTING
 62
   250
 10
96.72807056080646
 20
58.70101935596775
  0
VERTEX
  8
PRINTING
 62
   250
 10
96.7665
 20
59.09120000000001
  0
VERTEX
  8
PRINTING
 62
   250
 10
96.72807056080646
 20
59.48138064403226
  0
VERTEX
  8
PRINTING
 62
   250
 10
96.61425906502257
 20
59.85656686473018
  0
VERTEX
  8
PRINTING
 62
   250
 10
96.42943922460508
 20
60.20234046603921
  0
VERTEX
  8
PRINTING
 62
   250
 10
96.18071356237309
 20
60.5054135623731
  0
VERTEX
  8
PRINTING
 62
   250
 10
95.8776404660392
 20
60.7541392246051
  0
VERTEX
  8
PRINTING
 62
   250
 10
95.53186686473016
 20
60.93895906502258
  0
VERTEX
  8
PRINTING
 62
   250
 10
95.15668064403224
 20
61.05277056080647
  0
SEQEND
  8
PRINTING
 62
   250
  0
POLYLINE
  8
PRINTING
 62
   250
 66
     1
 70
     1
  0
VERTEX
  8
PRINTING
 62
   250
 10
136.7665
 20
57.0912
  0
VERTEX
  8
PRINTING
 62
   250
 10
136.3634
 20
57.1318
  0
VERTEX
  8
PRINTING
 62
   250
 10
135.988
 20
57.2484
  0
VERTEX
  8
PRINTING
 62
   250
 10
135.6483
 20
57.4328
  0
VERTEX
  8
PRINTING
 62
   250
 10
135.3523
 20
57.677
  0
VERTEX
  8
PRINTING
 62
   250
 10
135.1081
 20
57.973
  0
VERTEX
  8
PRINTING
 62
   250
 10
134.9237
 20
58.3127
  0
VERTEX
  8
PRINTING
 62
   250
 10
134.8071
 20
58.6881
  0
VERTEX
  8
PRINTING
 62
   250
 10
134.7665
 20
59.0912
  0
VERTEX
  8
PRINTING
 62
   250
 10
134.8071
 20
59.4943
  0
VERTEX
  8
PRINTING
 62
   250
 10
134.9237
 20
59.8697
  0
VERTEX
  8
PRINTING
 62
   250
 10
135.1081
 20
60.2094
  0
VERTEX
  8
PRINTING
 62
   250
 10
135.3523
 20
60.5054
  0
VERTEX
  8
PRINTING
 62
   250
 10
135.6483
 20
60.7496
  0
VERTEX
  8
PRINTING
 62
   250
 10
135.988
 20
60.934
  0
VERTEX
  8
PRINTING
 62
   250
 10
136.3634
 20
61.0506
  0
VERTEX
  8
PRINTING
 62
   250
 10
136.7665
 20
61.0912
  0
VERTEX
  8
PRINTING
 62
   250
 10
137.1696
 20
61.0506
  0
VERTEX
  8
PRINTING
 62
   250
 10
137.545
 20
60.934
  0
VERTEX
  8
PRINTING
 62
   250
 10
137.8847
 20
60.7496
  0
VERTEX
  8
PRINTING
 62
   250
 10
138.1807
 20
60.5054
  0
VERTEX
  8
PRINTING
 62
   250
 10
138.4249
 20
60.2094
  0
VERTEX
  8
PRINTING
 62
   250
 10
138.6093
 20
59.8697
  0
VERTEX
  8
PRINTING
 62
   250
 10
138.7259
 20
59.4943
  0
VERTEX
  8
PRINTING
 62
   250
 10
138.7665
 20
59.0912
  0
VERTEX
  8
PRINTING
 62
   250
 10
138.7259
 20
58.6881
  0
VERTEX
  8
PRINTING
 62
   250
 10
138.6093
 20
58.3127
  0
VERTEX
  8
PRINTING
 62
   250
 10
138.4249
 20
57.973
  0
VERTEX
  8
PRINTING
 62
   250
 10
138.1807
 20
57.677
  0
VERTEX
  8
PRINTING
 62
   250
 10
137.8847
 20
57.4328
  0
VERTEX
  8
PRINTING
 62
   250
 10
137.545
 20
57.2484
  0
VERTEX
  8
PRINTING
 62
   250
 10
137.1696
 20
57.1318
  0
VERTEX
  8
PRINTING
 62
   250
 10
136.7665
 20
57.0912
  0
SEQEND
  8
PRINTING
 62
   250
  0
POLYLINE
  8
PRINTING
 62
   250
 66
     1
 70
     1
  0
VERTEX
  8
PRINTING
 62
   250
 10
53.7665
 20
70.0912
  0
VERTEX
  8
PRINTING
 62
   250
 10
43.7665
 20
70.0912
  0
VERTEX
  8
PRINTING
 62
   250
 10
43.7665
 20
67.0912
  0
VERTEX
  8
PRINTING
 62
   250
 10
40.7665
 20
67.0912
  0
VERTEX
  8
PRINTING
 62
   250
 10
40.7665
 20
40.0912
  0
VERTEX
  8
PRINTING
 62
   250
 10
43.7665
 20
40.0912
  0
VERTEX
  8
PRINTING
 62
   250
 10
43.7665
 20
32.0912
  0
VERTEX
  8
PRINTING
 62
   250
 10
53.7665
 20
32.0912
  0
VERTEX
  8
PRINTING
 62
   250
 10
53.7665
 20
40.0912
  0
VERTEX
  8
PRINTING
 62
   250
 10
56.7665
 20
40.0912
  0
VERTEX
  8
PRINTING
 62
   250
 10
56.7665
 20
67.0912
  0
VERTEX
  8
PRINTING
 62
   250
 10
53.7665
 20
67.0912
  0
VERTEX
  8
PRINTING
 62
   250
 10
53.7665
 20
70.0912
  0
SEQEND
  8
PRINTING
 62
   250
  0
POLYLINE
  8
PRINTING
 62
   250
 66
     1
 70
     1
  0
VERTEX
  8
PRINTING
 62
   250
 10
51.2665
 20
34.0912
  0
VERTEX
  8
PRINTING
 62
   250
 10
51.2665
 20
37.0912
  0
VERTEX
  8
PRINTING
 62
   250
 10
46.2665
 20
37.0912
  0
VERTEX
  8
PRINTING
 62
   250
 10
46.2665
 20
34.0912
  0
VERTEX
  8
PRINTING
 62
   250
 10
51.2665
 20
34.0912
  0
SEQEND
  8
PRINTING
 62
   250
  0
POLYLINE
  8
PRINTING
 62
   250
 66
     1
 70
     1
  0
VERTEX
  8
PRINTING
 62
   250
 10
51.2665
 20
64.0912
  0
VERTEX
  8
PRINTING
 62
   250
 10
51.2665
 20
67.0912
  0
VERTEX
  8
PRINTING
 62
   250
 10
46.2665
 20
67.0912
  0
VERTEX
  8
PRINTING
 62
   250
 10
46.2665
 20
64.0912
  0
VERTEX
  8
PRINTING
 62
   250
 10
51.2665
 20
64.0912
  0
SEQEND
  8
PRINTING
 62
   250
  0
POLYLINE
  8
PRINTING
 62
   250
 66
     1
 70
     1
  0
VERTEX
  8
PRINTING
 62
   250
 10
69.7665
 20
70.0912
  0
VERTEX
  8
PRINTING
 62
   250
 10
59.7665
 20
70.0912
  0
VERTEX
  8
PRINTING
 62
   250
 10
59.7665
 20
67.0912
  0
VERTEX
  8
PRINTING
 62
   250
 10
56.7665
 20
67.0912
  0
VERTEX
  8
PRINTING
 62
   250
 10
56.7665
 20
40.0912
  0
VERTEX
  8
PRINTING
 62
   250
 10
59.7665
 20
40.0912
  0
VERTEX
  8
PRINTING
 62
   250
 10
59.7665
 20
32.0912
  0
VERTEX
  8
PRINTING
 62
   250
 10
69.7665
 20
32.0912
  0
VERTEX
  8
PRINTING
 62
   250
 10
69.7665
 20
40.0912
  0
VERTEX
  8
PRINTING
 62
   250
 10
72.7665
 20
40.0912
  0
VERTEX
  8
PRINTING
 62
   250
 10
72.7665
 20
67.0912
  0
VERTEX
  8
PRINTING
 62
   250
 10
69.7665
 20
67.0912
  0
VERTEX
  8
PRINTING
 62
   250
 10
69.7665
 20
70.0912
  0
SEQEND
  8
PRINTING
 62
   250
  0
POLYLINE
  8
PRINTING
 62
   250
 66
     1
 70
     1
  0
VERTEX
  8
PRINTING
 62
   250
 10
67.2665
 20
34.0912
  0
VERTEX
  8
PRINTING
 62
   250
 10
67.2665
 20
37.0912
  0
VERTEX
  8
PRINTING
 62
   250
 10
62.2665
 20
37.0912
  0
VERTEX
  8
PRINTING
 62
   250
 10
62.2665
 20
34.0912
  0
VERTEX
  8
PRINTING
 62
   250
 10
67.2665
 20
34.0912
  0
SEQEND
  8
PRINTING
 62
   250
  0
POLYLINE
  8
PRINTING
 62
   250
 66
     1
 70
     1
  0
VERTEX
  8
PRINTING
 62
   250
 10
67.2665
 20
64.0912
  0
VERTEX
  8
PRINTING
 62
   250
 10
67.2665
 20
67.0912
  0
VERTEX
  8
PRINTING
 62
   250
 10
62.2665
 20
67.0912
  0
VERTEX
  8
PRINTING
 62
   250
 10
62.2665
 20
64.0912
  0
VERTEX
  8
PRINTING
 62
   250
 10
67.2665
 20
64.0912
  0
SEQEND
  8
PRINTING
 62
   250
  0
POLYLINE
  8
PRINTING
 62
   250
 66
     1
 70
     1
  0
VERTEX
  8
PRINTING
 62
   250
 10
138.888
 20
48.7856
  0
VERTEX
  8
PRINTING
 62
   250
 10
128.888
 20
48.7856
  0
VERTEX
  8
PRINTING
 62
   250
 10
128.888
 20
45.7856
  0
VERTEX
  8
PRINTING
 62
   250
 10
125.888
 20
45.7856
  0
VERTEX
  8
PRINTING
 62
   250
 10
125.888
 20
18.7856
  0
VERTEX
  8
PRINTING
 62
   250
 10
128.888
 20
18.7856
  0
VERTEX
  8
PRINTING
 62
   250
 10
128.888
 20
10.7856
  0
VERTEX
  8
PRINTING
 62
   250
 10
138.888
 20
10.7856
  0
VERTEX
  8
PRINTING
 62
   250
 10
138.888
 20
18.7856
  0
VERTEX
  8
PRINTING
 62
   250
 10
141.888
 20
18.7856
  0
VERTEX
  8
PRINTING
 62
   250
 10
141.888
 20
45.7856
  0
VERTEX
  8
PRINTING
 62
   250
 10
138.888
 20
45.7856
  0
VERTEX
  8
PRINTING
 62
   250
 10
138.888
 20
48.7856
  0
SEQEND
  8
PRINTING
 62
   250
  0
POLYLINE
  8
PRINTING
 62
   250
 66
     1
 70
     1
  0
VERTEX
  8
PRINTING
 62
   250
 10
136.388
 20
12.7856
  0
VERTEX
  8
PRINTING
 62
   250
 10
136.388
 20
15.7856
  0
VERTEX
  8
PRINTING
 62
   250
 10
131.388
 20
15.7856
  0
VERTEX
  8
PRINTING
 62
   250
 10
131.388
 20
12.7856
  0
VERTEX
  8
PRINTING
 62
   250
 10
136.388
 20
12.7856
  0
SEQEND
  8
PRINTING
 62
   250
  0
POLYLINE
  8
PRINTING
 62
   250
 66
     1
 70
     1
  0
VERTEX
  8
PRINTING
 62
   250
 10
136.388
 20
42.7856
  0
VERTEX
  8
PRINTING
 62
   250
 10
136.388
 20
45.7856
  0
VERTEX
  8
PRINTING
 62
   250
 10
131.388
 20
45.7856
  0
VERTEX
  8
PRINTING
 62
   250
 10
131.388
 20
42.7856
  0
VERTEX
  8
PRINTING
 62
   250
 10
136.388
 20
42.7856
  0
SEQEND
  8
PRINTING
 62
   250
  0
POLYLINE
  8
PRINTING
 62
   250
 66
     1
 70
     1
  0
VERTEX
  8
PRINTING
 62
   250
 10
-27.0
 20
-69.0
  0
VERTEX
  8
PRINTING
 62
   250
 10
-27.0
 20
-67.0
  0
VERTEX
  8
PRINTING
 62
   250
 10
-26.9592
 20
-66.5982
  0
VERTEX
  8
PRINTING
 62
   250
 10
-26.8421
 20
-66.2234
  0
VERTEX
  8
PRINTING
 62
   250
 10
-26.6571
 20
-65.8838
  0
VERTEX
  8
PRINTING
 62
   250
 10
-26.4124
 20
-65.5875
  0
VERTEX
  8
PRINTING
 62
   250
 10
-26.1161
 20
-65.3428
  0
VERTEX
  8
PRINTING
 62
   250
 10
-25.7764
 20
-65.1578
  0
VERTEX
  8
PRINTING
 62
   250
 10
-25.4017
 20
-65.0408
  0
VERTEX
  8
PRINTING
 62
   250
 10
-25.0
 20
-65.0
  0
VERTEX
  8
PRINTING
 62
   250
 10
-13.0
 20
-65.0
  0
VERTEX
  8
PRINTING
 62
   250
 10
-12.5982
 20
-65.0408
  0
VERTEX
  8
PRINTING
 62
   250
 10
-12.2233
 20
-65.1578
  0
VERTEX
  8
PRINTING
 62
   250
 10
-11.8837
 20
-65.3428
  0
VERTEX
  8
PRINTING
 62
   250
 10
-11.5874
 20
-65.5875
  0
VERTEX
  8
PRINTING
 62
   250
 10
-11.3427
 20
-65.8838
  0
VERTEX
  8
PRINTING
 62
   250
 10
-11.1578
 20
-66.2234
  0
VERTEX
  8
PRINTING
 62
   250
 10
-11.0408
 20
-66.5982
  0
VERTEX
  8
PRINTING
 62
   250
 10
-11.0
 20
-67.0
  0
VERTEX
  8
PRINTING
 62
   250
 10
-11.0
 20
-69.0
  0
VERTEX
  8
PRINTING
 62
   250
 10
-11.0408
 20
-69.4018
  0
VERTEX
  8
PRINTING
 62
   250
 10
-11.1578
 20
-69.7766
  0
VERTEX
  8
PRINTING
 62
   250
 10
-11.3427
 20
-70.1162
  0
VERTEX
  8
PRINTING
 62
   250
 10
-11.5874
 20
-70.4125
  0
VERTEX
  8
PRINTING
 62
   250
 10
-11.8837
 20
-70.6572
  0
VERTEX
  8
PRINTING
 62
   250
 10
-12.2233
 20
-70.8422
  0
VERTEX
  8
PRINTING
 62
   250
 10
-12.5982
 20
-70.9592
  0
VERTEX
  8
PRINTING
 62
   250
 10
-13.0
 20
-71.0
  0
VERTEX
  8
PRINTING
 62
   250
 10
-25.0
 20
-71.0
  0
VERTEX
  8
PRINTING
 62
   250
 10
-25.4017
 20
-70.9592
  0
VERTEX
  8
PRINTING
 62
   250
 10
-25.7764
 20
-70.8422
  0
VERTEX
  8
PRINTING
 62
   250
 10
-26.1161
 20
-70.6572
  0
VERTEX
  8
PRINTING
 62
   250
 10
-26.4124
 20
-70.4125
  0
VERTEX
  8
PRINTING
 62
   250
 10
-26.6571
 20
-70.1162
  0
VERTEX
  8
PRINTING
 62
   250
 10
-26.8421
 20
-69.7766
  0
VERTEX
  8
PRINTING
 62
   250
 10
-26.9592
 20
-69.4018
  0
VERTEX
  8
PRINTING
 62
   250
 10
-27.0
 20
-69.0
  0
SEQEND
  8
PRINTING
 62
   250
  0
POLYLINE
  8
PRINTING
 62
   250
 66
     1
 70
     1
  0
VERTEX
  8
PRINTING
 62
   250
 10
-24.0
 20
-66.5
  0
VERTEX
  8
PRINTING
 62
   250
 10
-24.29263548302419
 20
-66.52882207939516
  0
VERTEX
  8
PRINTING
 62
   250
 10
-24.57402514854763
 20
-66.61418070123307
  0
VERTEX
  8
PRINTING
 62
   250
 10
-24.8333553495294
 20
-66.75279558154618
  0
VERTEX
  8
PRINTING
 62
   250
 10
-25.06066017177982
 20
-66.93933982822018
  0
VERTEX
  8
PRINTING
 62
   250
 10
-25.24720441845382
 20
-67.1666446504706
  0
VERTEX
  8
PRINTING
 62
   250
 10
-25.38581929876693
 20
-67.42597485145237
  0
VERTEX
  8
PRINTING
 62
   250
 10
-25.47117792060484
 20
-67.7073645169758
  0
VERTEX
  8
PRINTING
 62
   250
 10
-25.5
 20
-68.0
  0
VERTEX
  8
PRINTING
 62
   250
 10
-25.47117792060484
 20
-68.2926354830242
  0
VERTEX
  8
PRINTING
 62
   250
 10
-25.38581929876693
 20
-68.57402514854763
  0
VERTEX
  8
PRINTING
 62
   250
 10
-25.24720441845382
 20
-68.8333553495294
  0
VERTEX
  8
PRINTING
 62
   250
 10
-25.06066017177982
 20
-69.06066017177982
  0
VERTEX
  8
PRINTING
 62
   250
 10
-24.8333553495294
 20
-69.24720441845382
  0
VERTEX
  8
PRINTING
 62
   250
 10
-24.57402514854763
 20
-69.38581929876693
  0
VERTEX
  8
PRINTING
 62
   250
 10
-24.29263548302419
 20
-69.47117792060484
  0
VERTEX
  8
PRINTING
 62
   250
 10
-24.0
 20
-69.5
  0
VERTEX
  8
PRINTING
 62
   250
 10
-23.7073645169758
 20
-69.47117792060484
  0
VERTEX
  8
PRINTING
 62
   250
 10
-23.42597485145236
 20
-69.38581929876693
  0
VERTEX
  8
PRINTING
 62
   250
 10
-23.16664465047059
 20
-69.24720441845382
  0
VERTEX
  8
PRINTING
 62
   250
 10
-22.93933982822018
 20
-69.06066017177982
  0
VERTEX
  8
PRINTING
 62
   250
 10
-22.75279558154618
 20
-68.8333553495294
  0
VERTEX
  8
PRINTING
 62
   250
 10
-22.61418070123307
 20
-68.57402514854763
  0
VERTEX
  8
PRINTING
 62
   250
 10
-22.52882207939516
 20
-68.29263548302418
  0
VERTEX
  8
PRINTING
 62
   250
 10
-22.5
 20
-68.0
  0
VERTEX
  8
PRINTING
 62
   250
 10
-22.52882207939516
 20
-67.7073645169758
  0
VERTEX
  8
PRINTING
 62
   250
 10
-22.61418070123307
 20
-67.42597485145237
  0
VERTEX
  8
PRINTING
 62
   250
 10
-22.75279558154618
 20
-67.16664465047059
  0
VERTEX
  8
PRINTING
 62
   250
 10
-22.93933982822018
 20
-66.93933982822017
  0
VERTEX
  8
PRINTING
 62
   250
 10
-23.1666446504706
 20
-66.75279558154618
  0
VERTEX
  8
PRINTING
 62
   250
 10
-23.42597485145237
 20
-66.61418070123307
  0
VERTEX
  8
PRINTING
 62
   250
 10
-23.70736451697582
 20
-66.52882207939516
  0
SEQEND
  8
PRINTING
 62
   250
  0
POLYLINE
  8
PRINTING
 62
   250
 66
     1
 70
     1
  0
VERTEX
  8
PRINTING
 62
   250
 10
-14.0
 20
-66.5
  0
VERTEX
  8
PRINTING
 62
   250
 10
-14.29263548302419
 20
-66.52882207939516
  0
VERTEX
  8
PRINTING
 62
   250
 10
-14.57402514854764
 20
-66.61418070123307
  0
VERTEX
  8
PRINTING
 62
   250
 10
-14.8333553495294
 20
-66.75279558154618
  0
VERTEX
  8
PRINTING
 62
   250
 10
-15.06066017177982
 20
-66.93933982822018
  0
VERTEX
  8
PRINTING
 62
   250
 10
-15.24720441845382
 20
-67.1666446504706
  0
VERTEX
  8
PRINTING
 62
   250
 10
-15.38581929876693
 20
-67.42597485145237
  0
VERTEX
  8
PRINTING
 62
   250
 10
-15.47117792060484
 20
-67.7073645169758
  0
VERTEX
  8
PRINTING
 62
   250
 10
-15.5
 20
-68.0
  0
VERTEX
  8
PRINTING
 62
   250
 10
-15.47117792060484
 20
-68.2926354830242
  0
VERTEX
  8
PRINTING
 62
   250
 10
-15.38581929876693
 20
-68.57402514854763
  0
VERTEX
  8
PRINTING
 62
   250
 10
-15.24720441845382
 20
-68.8333553495294
  0
VERTEX
  8
PRINTING
 62
   250
 10
-15.06066017177982
 20
-69.06066017177982
  0
VERTEX
  8
PRINTING
 62
   250
 10
-14.8333553495294
 20
-69.24720441845382
  0
VERTEX
  8
PRINTING
 62
   250
 10
-14.57402514854763
 20
-69.38581929876693
  0
VERTEX
  8
PRINTING
 62
   250
 10
-14.29263548302419
 20
-69.47117792060484
  0
VERTEX
  8
PRINTING
 62
   250
 10
-14.0
 20
-69.5
  0
VERTEX
  8
PRINTING
 62
   250
 10
-13.70736451697581
 20
-69.47117792060484
  0
VERTEX
  8
PRINTING
 62
   250
 10
-13.42597485145236
 20
-69.38581929876693
  0
VERTEX
  8
PRINTING
 62
   250
 10
-13.16664465047059
 20
-69.24720441845382
  0
VERTEX
  8
PRINTING
 62
   250
 10
-12.93933982822018
 20
-69.06066017177982
  0
VERTEX
  8
PRINTING
 62
   250
 10
-12.75279558154618
 20
-68.8333553495294
  0
VERTEX
  8
PRINTING
 62
   250
 10
-12.61418070123307
 20
-68.57402514854763
  0
VERTEX
  8
PRINTING
 62
   250
 10
-12.52882207939515
 20
-68.29263548302418
  0
VERTEX
  8
PRINTING
 62
   250
 10
-12.5
 20
-68.0
  0
VERTEX
  8
PRINTING
 62
   250
 10
-12.52882207939516
 20
-67.7073645169758
  0
VERTEX
  8
PRINTING
 62
   250
 10
-12.61418070123307
 20
-67.42597485145237
  0
VERTEX
  8
PRINTING
 62
   250
 10
-12.75279558154618
 20
-67.16664465047059
  0
VERTEX
  8
PRINTING
 62
   250
 10
-12.93933982822018
 20
-66.93933982822017
  0
VERTEX
  8
PRINTING
 62
   250
 10
-13.1666446504706
 20
-66.75279558154618
  0
VERTEX
  8
PRINTING
 62
   250
 10
-13.42597485145237
 20
-66.61418070123307
  0
VERTEX
  8
PRINTING
 62
   250
 10
-13.70736451697581
 20
-66.52882207939516
  0
SEQEND
  8
PRINTING
 62
   250
  0
POLYLINE
  8
PRINTING
 62
   250
 66
     1
 70
     1
  0
VERTEX
  8
PRINTING
 62
   250
 10
-11.0
 20
-69.0
  0
VERTEX
  8
PRINTING
 62
   250
 10
-11.0
 20
-67.0
  0
VERTEX
  8
PRINTING
 62
   250
 10
-10.9592
 20
-66.5982
  0
VERTEX
  8
PRINTING
 62
   250
 10
-10.8421
 20
-66.2234
  0
VERTEX
  8
PRINTING
 62
   250
 10
-10.6571
 20
-65.8838
  0
VERTEX
  8
PRINTING
 62
   250
 10
-10.4124
 20
-65.5875
  0
VERTEX
  8
PRINTING
 62
   250
 10
-10.1161
 20
-65.3428
  0
VERTEX
  8
PRINTING
 62
   250
 10
-9.7764
 20
-65.1578
  0
VERTEX
  8
PRINTING
 62
   250
 10
-9.4017
 20
-65.0408
  0
VERTEX
  8
PRINTING
 62
   250
 10
-9.0
 20
-65.0
  0
VERTEX
  8
PRINTING
 62
   250
 10
3.0
 20
-65.0
  0
VERTEX
  8
PRINTING
 62
   250
 10
3.4018
 20
-65.0408
  0
VERTEX
  8
PRINTING
 62
   250
 10
3.7767
 20
-65.1578
  0
VERTEX
  8
PRINTING
 62
   250
 10
4.1163
 20
-65.3428
  0
VERTEX
  8
PRINTING
 62
   250
 10
4.4126
 20
-65.5875
  0
VERTEX
  8
PRINTING
 62
   250
 10
4.6573
 20
-65.8838
  0
VERTEX
  8
PRINTING
 62
   250
 10
4.8422
 20
-66.2234
  0
VERTEX
  8
PRINTING
 62
   250
 10
4.9592
 20
-66.5982
  0
VERTEX
  8
PRINTING
 62
   250
 10
5.0
 20
-67.0
  0
VERTEX
  8
PRINTING
 62
   250
 10
5.0
 20
-69.0
  0
VERTEX
  8
PRINTING
 62
   250
 10
4.9592
 20
-69.4018
  0
VERTEX
  8
PRINTING
 62
   250
 10
4.8422
 20
-69.7766
  0
VERTEX
  8
PRINTING
 62
   250
 10
4.6573
 20
-70.1162
  0
VERTEX
  8
PRINTING
 62
   250
 10
4.4126
 20
-70.4125
  0
VERTEX
  8
PRINTING
 62
   250
 10
4.1163
 20
-70.6572
  0
VERTEX
  8
PRINTING
 62
   250
 10
3.7767
 20
-70.8422
  0
VERTEX
  8
PRINTING
 62
   250
 10
3.4018
 20
-70.9592
  0
VERTEX
  8
PRINTING
 62
   250
 10
3.0
 20
-71.0
  0
VERTEX
  8
PRINTING
 62
   250
 10
-9.0
 20
-71.0
  0
VERTEX
  8
PRINTING
 62
   250
 10
-9.4017
 20
-70.9592
  0
VERTEX
  8
PRINTING
 62
   250
 10
-9.7764
 20
-70.8422
  0
VERTEX
  8
PRINTING
 62
   250
 10
-10.1161
 20
-70.6572
  0
VERTEX
  8
PRINTING
 62
   250
 10
-10.4124
 20
-70.4125
  0
VERTEX
  8
PRINTING
 62
   250
 10
-10.6571
 20
-70.1162
  0
VERTEX
  8
PRINTING
 62
   250
 10
-10.8421
 20
-69.7766
  0
VERTEX
  8
PRINTING
 62
   250
 10
-10.9592
 20
-69.4018
  0
VERTEX
  8
PRINTING
 62
   250
 10
-11.0
 20
-69.0
  0
SEQEND
  8
PRINTING
 62
   250
  0
POLYLINE
  8
PRINTING
 62
   250
 66
     1
 70
     1
  0
VERTEX
  8
PRINTING
 62
   250
 10
-8.0
 20
-66.5
  0
VERTEX
  8
PRINTING
 62
   250
 10
-8.292635483024192
 20
-66.52882207939516
  0
VERTEX
  8
PRINTING
 62
   250
 10
-8.574025148547635
 20
-66.61418070123307
  0
VERTEX
  8
PRINTING
 62
   250
 10
-8.833355349529404
 20
-66.75279558154618
  0
VERTEX
  8
PRINTING
 62
   250
 10
-9.060660171779821
 20
-66.93933982822018
  0
VERTEX
  8
PRINTING
 62
   250
 10
-9.247204418453817
 20
-67.1666446504706
  0
VERTEX
  8
PRINTING
 62
   250
 10
-9.385819298766929
 20
-67.42597485145237
  0
VERTEX
  8
PRINTING
 62
   250
 10
-9.471177920604845
 20
-67.7073645169758
  0
VERTEX
  8
PRINTING
 62
   250
 10
-9.5
 20
-68.0
  0
VERTEX
  8
PRINTING
 62
   250
 10
-9.471177920604845
 20
-68.2926354830242
  0
VERTEX
  8
PRINTING
 62
   250
 10
-9.385819298766929
 20
-68.57402514854763
  0
VERTEX
  8
PRINTING
 62
   250
 10
-9.247204418453817
 20
-68.8333553495294
  0
VERTEX
  8
PRINTING
 62
   250
 10
-9.060660171779821
 20
-69.06066017177982
  0
VERTEX
  8
PRINTING
 62
   250
 10
-8.833355349529404
 20
-69.24720441845382
  0
VERTEX
  8
PRINTING
 62
   250
 10
-8.574025148547634
 20
-69.38581929876693
  0
VERTEX
  8
PRINTING
 62
   250
 10
-8.292635483024192
 20
-69.47117792060484
  0
VERTEX
  8
PRINTING
 62
   250
 10
-7.999999999999999
 20
-69.5
  0
VERTEX
  8
PRINTING
 62
   250
 10
-7.707364516975806
 20
-69.47117792060484
  0
VERTEX
  8
PRINTING
 62
   250
 10
-7.425974851452364
 20
-69.38581929876693
  0
VERTEX
  8
PRINTING
 62
   250
 10
-7.166644650470595
 20
-69.24720441845382
  0
VERTEX
  8
PRINTING
 62
   250
 10
-6.939339828220177
 20
-69.06066017177982
  0
VERTEX
  8
PRINTING
 62
   250
 10
-6.752795581546181
 20
-68.8333553495294
  0
VERTEX
  8
PRINTING
 62
   250
 10
-6.614180701233069
 20
-68.57402514854763
  0
VERTEX
  8
PRINTING
 62
   250
 10
-6.528822079395153
 20
-68.29263548302418
  0
VERTEX
  8
PRINTING
 62
   250
 10
-6.5
 20
-68.0
  0
VERTEX
  8
PRINTING
 62
   250
 10
-6.528822079395155
 20
-67.7073645169758
  0
VERTEX
  8
PRINTING
 62
   250
 10
-6.614180701233072
 20
-67.42597485145237
  0
VERTEX
  8
PRINTING
 62
   250
 10
-6.752795581546184
 20
-67.16664465047059
  0
VERTEX
  8
PRINTING
 62
   250
 10
-6.939339828220183
 20
-66.93933982822017
  0
VERTEX
  8
PRINTING
 62
   250
 10
-7.166644650470601
 20
-66.75279558154618
  0
VERTEX
  8
PRINTING
 62
   250
 10
-7.425974851452371
 20
-66.61418070123307
  0
VERTEX
  8
PRINTING
 62
   250
 10
-7.707364516975813
 20
-66.52882207939516
  0
SEQEND
  8
PRINTING
 62
   250
  0
POLYLINE
  8
PRINTING
 62
   250
 66
     1
 70
     1
  0
VERTEX
  8
PRINTING
 62
   250
 10
2.0
 20
-66.5
  0
VERTEX
  8
PRINTING
 62
   250
 10
1.707364516975808
 20
-66.52882207939516
  0
VERTEX
  8
PRINTING
 62
   250
 10
1.425974851452365
 20
-66.61418070123307
  0
VERTEX
  8
PRINTING
 62
   250
 10
1.166644650470597
 20
-66.75279558154618
  0
VERTEX
  8
PRINTING
 62
   250
 10
0.9393398282201788
 20
-66.93933982822018
  0
VERTEX
  8
PRINTING
 62
   250
 10
0.7527955815461822
 20
-67.1666446504706
  0
VERTEX
  8
PRINTING
 62
   250
 10
0.61418070123307
 20
-67.42597485145237
  0
VERTEX
  8
PRINTING
 62
   250
 10
0.5288220793951544
 20
-67.7073645169758
  0
VERTEX
  8
PRINTING
 62
   250
 10
0.5
 20
-68.0
  0
VERTEX
  8
PRINTING
 62
   250
 10
0.5288220793951544
 20
-68.2926354830242
  0
VERTEX
  8
PRINTING
 62
   250
 10
0.61418070123307
 20
-68.57402514854763
  0
VERTEX
  8
PRINTING
 62
   250
 10
0.752795581546182
 20
-68.8333553495294
  0
VERTEX
  8
PRINTING
 62
   250
 10
0.9393398282201786
 20
-69.06066017177982
  0
VERTEX
  8
PRINTING
 62
   250
 10
1.166644650470597
 20
-69.24720441845382
  0
VERTEX
  8
PRINTING
 62
   250
 10
1.425974851452366
 20
-69.38581929876693
  0
VERTEX
  8
PRINTING
 62
   250
 10
1.707364516975808
 20
-69.47117792060484
  0
VERTEX
  8
PRINTING
 62
   250
 10
2.000000000000001
 20
-69.5
  0
VERTEX
  8
PRINTING
 62
   250
 10
2.292635483024194
 20
-69.47117792060484
  0
VERTEX
  8
PRINTING
 62
   250
 10
2.574025148547636
 20
-69.38581929876693
  0
VERTEX
  8
PRINTING
 62
   250
 10
2.833355349529405
 20
-69.24720441845382
  0
VERTEX
  8
PRINTING
 62
   250
 10
3.060660171779823
 20
-69.06066017177982
  0
VERTEX
  8
PRINTING
 62
   250
 10
3.247204418453819
 20
-68.8333553495294
  0
VERTEX
  8
PRINTING
 62
   250
 10
3.385819298766931
 20
-68.57402514854763
  0
VERTEX
  8
PRINTING
 62
   250
 10
3.471177920604847
 20
-68.29263548302418
  0
VERTEX
  8
PRINTING
 62
   250
 10
3.5
 20
-68.0
  0
VERTEX
  8
PRINTING
 62
   250
 10
3.471177920604845
 20
-67.7073645169758
  0
VERTEX
  8
PRINTING
 62
   250
 10
3.385819298766928
 20
-67.42597485145237
  0
VERTEX
  8
PRINTING
 62
   250
 10
3.247204418453815
 20
-67.16664465047059
  0
VERTEX
  8
PRINTING
 62
   250
 10
3.060660171779817
 20
-66.93933982822017
  0
VERTEX
  8
PRINTING
 62
   250
 10
2.833355349529399
 20
-66.75279558154618
  0
VERTEX
  8
PRINTING
 62
   250
 10
2.57402514854763
 20
-66.61418070123307
  0
VERTEX
  8
PRINTING
 62
   250
 10
2.292635483024187
 20
-66.52882207939516
  0
SEQEND
  8
PRINTING
 62
   250
  0
POLYLINE
  8
PRINTING
 62
   250
 66
     1
 70
     1
  0
VERTEX
  8
PRINTING
 62
   250
 10
63.7665
 20
12.0912
  0
VERTEX
  8
PRINTING
 62
   250
 10
63.7665
 20
9.5912
  0
VERTEX
  8
PRINTING
 62
   250
 10
60.7665
 20
9.5912
  0
VERTEX
  8
PRINTING
 62
   250
 10
59.7665
 20
8.5912
  0
VERTEX
  8
PRINTING
 62
   250
 10
59.7665
 20
5.5912
  0
VERTEX
  8
PRINTING
 62
   250
 10
60.7665
 20
4.5912
  0
VERTEX
  8
PRINTING
 62
   250
 10
63.7665
 20
4.5912
  0
VERTEX
  8
PRINTING
 62
   250
 10
63.7665
 20
2.0912
  0
VERTEX
  8
PRINTING
 62
   250
 10
69.7665
 20
2.0912
  0
VERTEX
  8
PRINTING
 62
   250
 10
70.7665
 20
3.0912
  0
VERTEX
  8
PRINTING
 62
   250
 10
70.7665
 20
11.0912
  0
VERTEX
  8
PRINTING
 62
   250
 10
69.7665
 20
12.0912
  0
VERTEX
  8
PRINTING
 62
   250
 10
63.7665
 20
12.0912
  0
SEQEND
  8
PRINTING
 62
   250
  0
POLYLINE
  8
PRINTING
 62
   250
 66
     1
 70
     1
  0
VERTEX
  8
PRINTING
 62
   250
 10
66.7665
 20
9.0912
  0
VERTEX
  8
PRINTING
 62
   250
 10
66.37631935596774
 20
9.052770560806461
  0
VERTEX
  8
PRINTING
 62
   250
 10
66.00113313526981
 20
8.938959065022573
  0
VERTEX
  8
PRINTING
 62
   250
 10
65.65535953396079
 20
8.75413922460509
  0
VERTEX
  8
PRINTING
 62
   250
 10
65.3522864376269
 20
8.505413562373095
  0
VERTEX
  8
PRINTING
 62
   250
 10
65.1035607753949
 20
8.202340466039205
  0
VERTEX
  8
PRINTING
 62
   250
 10
64.91874093497742
 20
7.85656686473018
  0
VERTEX
  8
PRINTING
 62
   250
 10
64.80492943919353
 20
7.481380644032257
  0
VERTEX
  8
PRINTING
 62
   250
 10
64.7665
 20
7.0912
  0
VERTEX
  8
PRINTING
 62
   250
 10
64.80492943919353
 20
6.701019355967743
  0
VERTEX
  8
PRINTING
 62
   250
 10
64.91874093497742
 20
6.32583313526982
  0
VERTEX
  8
PRINTING
 62
   250
 10
65.1035607753949
 20
5.980059533960796
  0
VERTEX
  8
PRINTING
 62
   250
 10
65.3522864376269
 20
5.676986437626905
  0
VERTEX
  8
PRINTING
 62
   250
 10
65.65535953396079
 20
5.428260775394909
  0
VERTEX
  8
PRINTING
 62
   250
 10
66.00113313526981
 20
5.243440934977426
  0
VERTEX
  8
PRINTING
 62
   250
 10
66.37631935596774
 20
5.129629439193539
  0
VERTEX
  8
PRINTING
 62
   250
 10
66.7665
 20
5.0912
  0
VERTEX
  8
PRINTING
 62
   250
 10
67.15668064403225
 20
5.12962943919354
  0
VERTEX
  8
PRINTING
 62
   250
 10
67.53186686473018
 20
5.243440934977427
  0
VERTEX
  8
PRINTING
 62
   250
 10
67.8776404660392
 20
5.428260775394911
  0
VERTEX
  8
PRINTING
 62
   250
 10
68.18071356237309
 20
5.676986437626907
  0
VERTEX
  8
PRINTING
 62
   250
 10
68.42943922460509
 20
5.980059533960798
  0
VERTEX
  8
PRINTING
 62
   250
 10
68.61425906502257
 20
6.325833135269824
  0
VERTEX
  8
PRINTING
 62
   250
 10
68.72807056080646
 20
6.701019355967747
  0
VERTEX
  8
PRINTING
 62
   250
 10
68.7665
 20
7.091200000000005
  0
VERTEX
  8
PRINTING
 62
   250
 10
68.72807056080646
 20
7.481380644032262
  0
VERTEX
  8
PRINTING
 62
   250
 10
68.61425906502257
 20
7.856566864730184
  0
VERTEX
  8
PRINTING
 62
   250
 10
68.42943922460508
 20
8.20234046603921
  0
VERTEX
  8
PRINTING
 62
   250
 10
68.18071356237309
 20
8.5054135623731
  0
VERTEX
  8
PRINTING
 62
   250
 10
67.8776404660392
 20
8.754139224605094
  0
VERTEX
  8
PRINTING
 62
   250
 10
67.53186686473016
 20
8.938959065022576
  0
VERTEX
  8
PRINTING
 62
   250
 10
67.15668064403224
 20
9.052770560806461
  0
SEQEND
  8
PRINTING
 62
   250
  0
POLYLINE
  8
PRINTING
 62
   250
 66
     1
 70
     1
  0
VERTEX
  8
PRINTING
 62
   250
 10
108.5
 20
-59.0
  0
VERTEX
  8
PRINTING
 62
   250
 10
108.0969
 20
-58.9594
  0
VERTEX
  8
PRINTING
 62
   250
 10
107.7215
 20
-58.8428
  0
VERTEX
  8
PRINTING
 62
   250
 10
107.3818
 20
-58.6584
  0
VERTEX
  8
PRINTING
 62
   250
 10
107.0858
 20
-58.4142
  0
VERTEX
  8
PRINTING
 62
   250
 10
106.8416
 20
-58.1182
  0
VERTEX
  8
PRINTING
 62
   250
 10
106.6572
 20
-57.7785
  0
VERTEX
  8
PRINTING
 62
   250
 10
106.5406
 20
-57.4031
  0
VERTEX
  8
PRINTING
 62
   250
 10
106.5
 20
-57.0
  0
VERTEX
  8
PRINTING
 62
   250
 10
106.5406
 20
-56.5969
  0
VERTEX
  8
PRINTING
 62
   250
 10
106.6572
 20
-56.2215
  0
VERTEX
  8
PRINTING
 62
   250
 10
106.8416
 20
-55.8818
  0
VERTEX
  8
PRINTING
 62
   250
 10
107.0858
 20
-55.5858
  0
VERTEX
  8
PRINTING
 62
   250
 10
107.3818
 20
-55.3416
  0
VERTEX
  8
PRINTING
 62
   250
 10
107.7215
 20
-55.1572
  0
VERTEX
  8
PRINTING
 62
   250
 10
108.0969
 20
-55.0406
  0
VERTEX
  8
PRINTING
 62
   250
 10
108.5
 20
-55.0
  0
VERTEX
  8
PRINTING
 62
   250
 10
108.9031
 20
-55.0406
  0
VERTEX
  8
PRINTING
 62
   250
 10
109.2785
 20
-55.1572
  0
VERTEX
  8
PRINTING
 62
   250
 10
109.6182
 20
-55.3416
  0
VERTEX
  8
PRINTING
 62
   250
 10
109.9142
 20
-55.5858
  0
VERTEX
  8
PRINTING
 62
   250
 10
110.1584
 20
-55.8818
  0
VERTEX
  8
PRINTING
 62
   250
 10
110.3428
 20
-56.2215
  0
VERTEX
  8
PRINTING
 62
   250
 10
110.4594
 20
-56.5969
  0
VERTEX
  8
PRINTING
 62
   250
 10
110.5
 20
-57.0
  0
VERTEX
  8
PRINTING
 62
   250
 10
110.4594
 20
-57.4031
  0
VERTEX
  8
PRINTING
 62
   250
 10
110.3428
 20
-57.7785
  0
VERTEX
  8
PRINTING
 62
   250
 10
110.1584
 20
-58.1182
  0
VERTEX
  8
PRINTING
 62
   250
 10
109.9142
 20
-58.4142
  0
VERTEX
  8
PRINTING
 62
   250
 10
109.6182
 20
-58.6584
  0
VERTEX
  8
PRINTING
 62
   250
 10
109.2785
 20
-58.8428
  0
VERTEX
  8
PRINTING
 62
   250
 10
108.9031
 20
-58.9594
  0
VERTEX
  8
PRINTING
 62
   250
 10
108.5
 20
-59.0
  0
SEQEND
  8
PRINTING
 62
   250
  0
POLYLINE
  8
PRINTING
 62
   250
 66
     1
 70
     1
  0
VERTEX
  8
PRINTING
 62
   250
 10
96.5
 20
-59.0
  0
VERTEX
  8
PRINTING
 62
   250
 10
96.0969
 20
-58.9594
  0
VERTEX
  8
PRINTING
 62
   250
 10
95.7215
 20
-58.8428
  0
VERTEX
  8
PRINTING
 62
   250
 10
95.3818
 20
-58.6584
  0
VERTEX
  8
PRINTING
 62
   250
 10
95.0858
 20
-58.4142
  0
VERTEX
  8
PRINTING
 62
   250
 10
94.8416
 20
-58.1182
  0
VERTEX
  8
PRINTING
 62
   250
 10
94.6572
 20
-57.7785
  0
VERTEX
  8
PRINTING
 62
   250
 10
94.5406
 20
-57.4031
  0
VERTEX
  8
PRINTING
 62
   250
 10
94.5
 20
-57.0
  0
VERTEX
  8
PRINTING
 62
   250
 10
94.5406
 20
-56.5969
  0
VERTEX
  8
PRINTING
 62
   250
 10
94.6572
 20
-56.2215
  0
VERTEX
  8
PRINTING
 62
   250
 10
94.8416
 20
-55.8818
  0
VERTEX
  8
PRINTING
 62
   250
 10
95.0858
 20
-55.5858
  0
VERTEX
  8
PRINTING
 62
   250
 10
95.3818
 20
-55.3416
  0
VERTEX
  8
PRINTING
 62
   250
 10
95.7215
 20
-55.1572
  0
VERTEX
  8
PRINTING
 62
   250
 10
96.0969
 20
-55.0406
  0
VERTEX
  8
PRINTING
 62
   250
 10
96.5
 20
-55.0
  0
VERTEX
  8
PRINTING
 62
   250
 10
96.9031
 20
-55.0406
  0
VERTEX
  8
PRINTING
 62
   250
 10
97.2785
 20
-55.1572
  0
VERTEX
  8
PRINTING
 62
   250
 10
97.6182
 20
-55.3416
  0
VERTEX
  8
PRINTING
 62
   250
 10
97.9142
 20
-55.5858
  0
VERTEX
  8
PRINTING
 62
   250
 10
98.1584
 20
-55.8818
  0
VERTEX
  8
PRINTING
 62
   250
 10
98.3428
 20
-56.2215
  0
VERTEX
  8
PRINTING
 62
   250
 10
98.4594
 20
-56.5969
  0
VERTEX
  8
PRINTING
 62
   250
 10
98.5
 20
-57.0
  0
VERTEX
  8
PRINTING
 62
   250
 10
98.4594
 20
-57.4031
  0
VERTEX
  8
PRINTING
 62
   250
 10
98.3428
 20
-57.7785
  0
VERTEX
  8
PRINTING
 62
   250
 10
98.1584
 20
-58.1182
  0
VERTEX
  8
PRINTING
 62
   250
 10
97.9142
 20
-58.4142
  0
VERTEX
  8
PRINTING
 62
   250
 10
97.6182
 20
-58.6584
  0
VERTEX
  8
PRINTING
 62
   250
 10
97.2785
 20
-58.8428
  0
VERTEX
  8
PRINTING
 62
   250
 10
96.9031
 20
-58.9594
  0
VERTEX
  8
PRINTING
 62
   250
 10
96.5
 20
-59.0
  0
SEQEND
  8
PRINTING
 62
   250
  0
POLYLINE
  8
PRINTING
 62
   250
 66
     1
 70
     1
  0
VERTEX
  8
PRINTING
 62
   250
 10
83.1
 20
-66.0
  0
VERTEX
  8
PRINTING
 62
   250
 10
121.9
 20
-66.0
  0
VERTEX
  8
PRINTING
 62
   250
 10
122.0205
 20
-66.0122
  0
VERTEX
  8
PRINTING
 62
   250
 10
122.1329
 20
-66.0473
  0
VERTEX
  8
PRINTING
 62
   250
 10
122.2348
 20
-66.1028
  0
VERTEX
  8
PRINTING
 62
   250
 10
122.3237
 20
-66.1763
  0
VERTEX
  8
PRINTING
 62
   250
 10
122.3971
 20
-66.2651
  0
VERTEX
  8
PRINTING
 62
   250
 10
122.4526
 20
-66.367
  0
VERTEX
  8
PRINTING
 62
   250
 10
122.4877
 20
-66.4795
  0
VERTEX
  8
PRINTING
 62
   250
 10
122.5
 20
-66.6
  0
VERTEX
  8
PRINTING
 62
   250
 10
122.5
 20
-67.4
  0
VERTEX
  8
PRINTING
 62
   250
 10
122.4877
 20
-67.5205
  0
VERTEX
  8
PRINTING
 62
   250
 10
122.4526
 20
-67.633
  0
VERTEX
  8
PRINTING
 62
   250
 10
122.3971
 20
-67.7349
  0
VERTEX
  8
PRINTING
 62
   250
 10
122.3237
 20
-67.8238
  0
VERTEX
  8
PRINTING
 62
   250
 10
122.2348
 20
-67.8972
  0
VERTEX
  8
PRINTING
 62
   250
 10
122.1329
 20
-67.9527
  0
VERTEX
  8
PRINTING
 62
   250
 10
122.0205
 20
-67.9878
  0
VERTEX
  8
PRINTING
 62
   250
 10
121.9
 20
-68.0
  0
VERTEX
  8
PRINTING
 62
   250
 10
83.1
 20
-68.0
  0
VERTEX
  8
PRINTING
 62
   250
 10
82.9794
 20
-67.9878
  0
VERTEX
  8
PRINTING
 62
   250
 10
82.867
 20
-67.9527
  0
VERTEX
  8
PRINTING
 62
   250
 10
82.7651
 20
-67.8972
  0
VERTEX
  8
PRINTING
 62
   250
 10
82.6762
 20
-67.8238
  0
VERTEX
  8
PRINTING
 62
   250
 10
82.6028
 20
-67.7349
  0
VERTEX
  8
PRINTING
 62
   250
 10
82.5473
 20
-67.633
  0
VERTEX
  8
PRINTING
 62
   250
 10
82.5122
 20
-67.5205
  0
VERTEX
  8
PRINTING
 62
   250
 10
82.5
 20
-67.4
  0
VERTEX
  8
PRINTING
 62
   250
 10
82.5
 20
-66.6
  0
VERTEX
  8
PRINTING
 62
   250
 10
82.5122
 20
-66.4795
  0
VERTEX
  8
PRINTING
 62
   250
 10
82.5473
 20
-66.367
  0
VERTEX
  8
PRINTING
 62
   250
 10
82.6028
 20
-66.2651
  0
VERTEX
  8
PRINTING
 62
   250
 10
82.6762
 20
-66.1763
  0
VERTEX
  8
PRINTING
 62
   250
 10
82.7651
 20
-66.1028
  0
VERTEX
  8
PRINTING
 62
   250
 10
82.867
 20
-66.0473
  0
VERTEX
  8
PRINTING
 62
   250
 10
82.9794
 20
-66.0122
  0
VERTEX
  8
PRINTING
 62
   250
 10
83.1
 20
-66.0
  0
SEQEND
  8
PRINTING
 62
   250
  0
POLYLINE
  8
PRINTING
 62
   250
 66
     1
 70
     1
  0
VERTEX
  8
PRINTING
 62
   250
 10
115.0001
 20
-60.0
  0
VERTEX
  8
PRINTING
 62
   250
 10
115.0407
 20
-60.4031
  0
VERTEX
  8
PRINTING
 62
   250
 10
115.1573
 20
-60.7785
  0
VERTEX
  8
PRINTING
 62
   250
 10
115.3417
 20
-61.1182
  0
VERTEX
  8
PRINTING
 62
   250
 10
115.5859
 20
-61.4142
  0
VERTEX
  8
PRINTING
 62
   250
 10
115.8819
 20
-61.6584
  0
VERTEX
  8
PRINTING
 62
   250
 10
116.2216
 20
-61.8428
  0
VERTEX
  8
PRINTING
 62
   250
 10
116.597
 20
-61.9594
  0
VERTEX
  8
PRINTING
 62
   250
 10
117.0001
 20
-62.0
  0
VERTEX
  8
PRINTING
 62
   250
 10
129.5
 20
-62.0
  0
VERTEX
  8
PRINTING
 62
   250
 10
130.1026
 20
-62.0612
  0
VERTEX
  8
PRINTING
 62
   250
 10
130.6648
 20
-62.2367
  0
VERTEX
  8
PRINTING
 62
   250
 10
131.1743
 20
-62.5142
  0
VERTEX
  8
PRINTING
 62
   250
 10
131.6188
 20
-62.8813
  0
VERTEX
  8
PRINTING
 62
   250
 10
131.9858
 20
-63.3257
  0
VERTEX
  8
PRINTING
 62
   250
 10
132.2633
 20
-63.8352
  0
VERTEX
  8
PRINTING
 62
   250
 10
132.4388
 20
-64.3974
  0
VERTEX
  8
PRINTING
 62
   250
 10
132.5
 20
-65.0
  0
VERTEX
  8
PRINTING
 62
   250
 10
132.5
 20
-69.0
  0
VERTEX
  8
PRINTING
 62
   250
 10
132.4388
 20
-69.6026
  0
VERTEX
  8
PRINTING
 62
   250
 10
132.2633
 20
-70.1648
  0
VERTEX
  8
PRINTING
 62
   250
 10
131.9858
 20
-70.6743
  0
VERTEX
  8
PRINTING
 62
   250
 10
131.6188
 20
-71.1188
  0
VERTEX
  8
PRINTING
 62
   250
 10
131.1743
 20
-71.4858
  0
VERTEX
  8
PRINTING
 62
   250
 10
130.6648
 20
-71.7633
  0
VERTEX
  8
PRINTING
 62
   250
 10
130.1026
 20
-71.9388
  0
VERTEX
  8
PRINTING
 62
   250
 10
129.5
 20
-72.0
  0
VERTEX
  8
PRINTING
 62
   250
 10
75.5
 20
-72.0
  0
VERTEX
  8
PRINTING
 62
   250
 10
74.8974
 20
-71.9388
  0
VERTEX
  8
PRINTING
 62
   250
 10
74.3352
 20
-71.7633
  0
VERTEX
  8
PRINTING
 62
   250
 10
73.8257
 20
-71.4858
  0
VERTEX
  8
PRINTING
 62
   250
 10
73.3813
 20
-71.1188
  0
VERTEX
  8
PRINTING
 62
   250
 10
73.0142
 20
-70.6743
  0
VERTEX
  8
PRINTING
 62
   250
 10
72.7367
 20
-70.1648
  0
VERTEX
  8
PRINTING
 62
   250
 10
72.5612
 20
-69.6026
  0
VERTEX
  8
PRINTING
 62
   250
 10
72.5
 20
-69.0
  0
VERTEX
  8
PRINTING
 62
   250
 10
72.5
 20
-65.0
  0
VERTEX
  8
PRINTING
 62
   250
 10
72.5612
 20
-64.3974
  0
VERTEX
  8
PRINTING
 62
   250
 10
72.7367
 20
-63.8352
  0
VERTEX
  8
PRINTING
 62
   250
 10
73.0142
 20
-63.3257
  0
VERTEX
  8
PRINTING
 62
   250
 10
73.3813
 20
-62.8813
  0
VERTEX
  8
PRINTING
 62
   250
 10
73.8257
 20
-62.5142
  0
VERTEX
  8
PRINTING
 62
   250
 10
74.3352
 20
-62.2367
  0
VERTEX
  8
PRINTING
 62
   250
 10
74.8974
 20
-62.0612
  0
VERTEX
  8
PRINTING
 62
   250
 10
75.5
 20
-62.0
  0
VERTEX
  8
PRINTING
 62
   250
 10
88.0
 20
-62.0
  0
VERTEX
  8
PRINTING
 62
   250
 10
88.4031
 20
-61.9594
  0
VERTEX
  8
PRINTING
 62
   250
 10
88.7785
 20
-61.8428
  0
VERTEX
  8
PRINTING
 62
   250
 10
89.1182
 20
-61.6584
  0
VERTEX
  8
PRINTING
 62
   250
 10
89.4142
 20
-61.4142
  0
VERTEX
  8
PRINTING
 62
   250
 10
89.6584
 20
-61.1182
  0
VERTEX
  8
PRINTING
 62
   250
 10
89.8428
 20
-60.7785
  0
VERTEX
  8
PRINTING
 62
   250
 10
89.9594
 20
-60.4031
  0
VERTEX
  8
PRINTING
 62
   250
 10
90.0
 20
-60.0
  0
VERTEX
  8
PRINTING
 62
   250
 10
90.0
 20
-55.0
  0
VERTEX
  8
PRINTING
 62
   250
 10
90.0612
 20
-54.3974
  0
VERTEX
  8
PRINTING
 62
   250
 10
90.2367
 20
-53.8352
  0
VERTEX
  8
PRINTING
 62
   250
 10
90.5142
 20
-53.3257
  0
VERTEX
  8
PRINTING
 62
   250
 10
90.8813
 20
-52.8813
  0
VERTEX
  8
PRINTING
 62
   250
 10
91.3257
 20
-52.5142
  0
VERTEX
  8
PRINTING
 62
   250
 10
91.8352
 20
-52.2367
  0
VERTEX
  8
PRINTING
 62
   250
 10
92.3974
 20
-52.0612
  0
VERTEX
  8
PRINTING
 62
   250
 10
93.0
 20
-52.0
  0
VERTEX
  8
PRINTING
 62
   250
 10
112.0
 20
-52.0
  0
VERTEX
  8
PRINTING
 62
   250
 10
112.6026
 20
-52.0612
  0
VERTEX
  8
PRINTING
 62
   250
 10
113.1648
 20
-52.2367
  0
VERTEX
  8
PRINTING
 62
   250
 10
113.6743
 20
-52.5142
  0
VERTEX
  8
PRINTING
 62
   250
 10
114.1188
 20
-52.8813
  0
VERTEX
  8
PRINTING
 62
   250
 10
114.4858
 20
-53.3257
  0
VERTEX
  8
PRINTING
 62
   250
 10
114.7633
 20
-53.8352
  0
VERTEX
  8
PRINTING
 62
   250
 10
114.9388
 20
-54.3974
  0
VERTEX
  8
PRINTING
 62
   250
 10
115.0
 20
-55.0
  0
VERTEX
  8
PRINTING
 62
   250
 10
115.0001
 20
-60.0
  0
SEQEND
  8
PRINTING
 62
   250
  0
POLYLINE
  8
PRINTING
 62
   250
 66
     1
 70
     1
  0
VERTEX
  8
PRINTING
 62
   250
 10
75.3012
 20
-55.0549
  0
VERTEX
  8
PRINTING
 62
   250
 10
74.91101935596774
 20
-55.09332943919354
  0
VERTEX
  8
PRINTING
 62
   250
 10
74.53583313526981
 20
-55.20714093497743
  0
VERTEX
  8
PRINTING
 62
   250
 10
74.19005953396079
 20
-55.39196077539491
  0
VERTEX
  8
PRINTING
 62
   250
 10
73.8869864376269
 20
-55.64068643762691
  0
VERTEX
  8
PRINTING
 62
   250
 10
73.6382607753949
 20
-55.9437595339608
  0
VERTEX
  8
PRINTING
 62
   250
 10
73.45344093497742
 20
-56.28953313526982
  0
VERTEX
  8
PRINTING
 62
   250
 10
73.33962943919353
 20
-56.66471935596775
  0
VERTEX
  8
PRINTING
 62
   250
 10
73.3012
 20
-57.0549
  0
VERTEX
  8
PRINTING
 62
   250
 10
73.33962943919353
 20
-57.44508064403226
  0
VERTEX
  8
PRINTING
 62
   250
 10
73.45344093497742
 20
-57.82026686473019
  0
VERTEX
  8
PRINTING
 62
   250
 10
73.6382607753949
 20
-58.16604046603921
  0
VERTEX
  8
PRINTING
 62
   250
 10
73.8869864376269
 20
-58.4691135623731
  0
VERTEX
  8
PRINTING
 62
   250
 10
74.19005953396079
 20
-58.71783922460509
  0
VERTEX
  8
PRINTING
 62
   250
 10
74.53583313526981
 20
-58.90265906502258
  0
VERTEX
  8
PRINTING
 62
   250
 10
74.91101935596774
 20
-59.01647056080647
  0
VERTEX
  8
PRINTING
 62
   250
 10
75.3012
 20
-59.0549
  0
VERTEX
  8
PRINTING
 62
   250
 10
75.69138064403225
 20
-59.01647056080646
  0
VERTEX
  8
PRINTING
 62
   250
 10
76.06656686473018
 20
-58.90265906502258
  0
VERTEX
  8
PRINTING
 62
   250
 10
76.4123404660392
 20
-58.71783922460509
  0
VERTEX
  8
PRINTING
 62
   250
 10
76.71541356237309
 20
-58.4691135623731
  0
VERTEX
  8
PRINTING
 62
   250
 10
76.96413922460509
 20
-58.16604046603921
  0
VERTEX
  8
PRINTING
 62
   250
 10
77.14895906502257
 20
-57.82026686473018
  0
VERTEX
  8
PRINTING
 62
   250
 10
77.26277056080646
 20
-57.44508064403225
  0
VERTEX
  8
PRINTING
 62
   250
 10
77.3012
 20
-57.0549
  0
VERTEX
  8
PRINTING
 62
   250
 10
77.26277056080646
 20
-56.66471935596774
  0
VERTEX
  8
PRINTING
 62
   250
 10
77.14895906502257
 20
-56.28953313526982
  0
VERTEX
  8
PRINTING
 62
   250
 10
76.96413922460508
 20
-55.94375953396079
  0
VERTEX
  8
PRINTING
 62
   250
 10
76.71541356237309
 20
-55.6406864376269
  0
VERTEX
  8
PRINTING
 62
   250
 10
76.4123404660392
 20
-55.39196077539491
  0
VERTEX
  8
PRINTING
 62
   250
 10
76.06656686473016
 20
-55.20714093497742
  0
VERTEX
  8
PRINTING
 62
   250
 10
75.69138064403224
 20
-55.09332943919354
  0
SEQEND
  8
PRINTING
 62
   250
  0
POLYLINE
  8
PRINTING
 62
   250
 66
     1
 70
     1
  0
VERTEX
  8
PRINTING
 62
   250
 10
87.3012
 20
-55.0549
  0
VERTEX
  8
PRINTING
 62
   250
 10
86.91101935596774
 20
-55.09332943919354
  0
VERTEX
  8
PRINTING
 62
   250
 10
86.53583313526981
 20
-55.20714093497743
  0
VERTEX
  8
PRINTING
 62
   250
 10
86.19005953396079
 20
-55.39196077539491
  0
VERTEX
  8
PRINTING
 62
   250
 10
85.8869864376269
 20
-55.64068643762691
  0
VERTEX
  8
PRINTING
 62
   250
 10
85.6382607753949
 20
-55.9437595339608
  0
VERTEX
  8
PRINTING
 62
   250
 10
85.45344093497742
 20
-56.28953313526982
  0
VERTEX
  8
PRINTING
 62
   250
 10
85.33962943919353
 20
-56.66471935596775
  0
VERTEX
  8
PRINTING
 62
   250
 10
85.3012
 20
-57.0549
  0
VERTEX
  8
PRINTING
 62
   250
 10
85.33962943919353
 20
-57.44508064403226
  0
VERTEX
  8
PRINTING
 62
   250
 10
85.45344093497742
 20
-57.82026686473019
  0
VERTEX
  8
PRINTING
 62
   250
 10
85.6382607753949
 20
-58.16604046603921
  0
VERTEX
  8
PRINTING
 62
   250
 10
85.8869864376269
 20
-58.4691135623731
  0
VERTEX
  8
PRINTING
 62
   250
 10
86.19005953396079
 20
-58.71783922460509
  0
VERTEX
  8
PRINTING
 62
   250
 10
86.53583313526981
 20
-58.90265906502258
  0
VERTEX
  8
PRINTING
 62
   250
 10
86.91101935596774
 20
-59.01647056080647
  0
VERTEX
  8
PRINTING
 62
   250
 10
87.3012
 20
-59.0549
  0
VERTEX
  8
PRINTING
 62
   250
 10
87.69138064403225
 20
-59.01647056080646
  0
VERTEX
  8
PRINTING
 62
   250
 10
88.06656686473018
 20
-58.90265906502258
  0
VERTEX
  8
PRINTING
 62
   250
 10
88.4123404660392
 20
-58.71783922460509
  0
VERTEX
  8
PRINTING
 62
   250
 10
88.71541356237309
 20
-58.4691135623731
  0
VERTEX
  8
PRINTING
 62
   250
 10
88.96413922460509
 20
-58.16604046603921
  0
VERTEX
  8
PRINTING
 62
   250
 10
89.14895906502257
 20
-57.82026686473018
  0
VERTEX
  8
PRINTING
 62
   250
 10
89.26277056080646
 20
-57.44508064403225
  0
VERTEX
  8
PRINTING
 62
   250
 10
89.3012
 20
-57.0549
  0
VERTEX
  8
PRINTING
 62
   250
 10
89.26277056080646
 20
-56.66471935596774
  0
VERTEX
  8
PRINTING
 62
   250
 10
89.14895906502257
 20
-56.28953313526982
  0
VERTEX
  8
PRINTING
 62
   250
 10
88.96413922460508
 20
-55.94375953396079
  0
VERTEX
  8
PRINTING
 62
   250
 10
88.71541356237309
 20
-55.6406864376269
  0
VERTEX
  8
PRINTING
 62
   250
 10
88.4123404660392
 20
-55.39196077539491
  0
VERTEX
  8
PRINTING
 62
   250
 10
88.06656686473016
 20
-55.20714093497742
  0
VERTEX
  8
PRINTING
 62
   250
 10
87.69138064403224
 20
-55.09332943919354
  0
SEQEND
  8
PRINTING
 62
   250
  0
POLYLINE
  8
PRINTING
 62
   250
 66
     1
 70
     1
  0
VERTEX
  8
PRINTING
 62
   250
 10
86.0
 20
-52.0114
  0
VERTEX
  8
PRINTING
 62
   250
 10
76.5
 20
-52.0114
  0
VERTEX
  8
PRINTING
 62
   250
 10
75.6965
 20
-52.093
  0
VERTEX
  8
PRINTING
 62
   250
 10
74.9469
 20
-52.327
  0
VERTEX
  8
PRINTING
 62
   250
 10
74.2676
 20
-52.6969
  0
VERTEX
  8
PRINTING
 62
   250
 10
73.675
 20
-53.1864
  0
VERTEX
  8
PRINTING
 62
   250
 10
73.1855
 20
-53.779
  0
VERTEX
  8
PRINTING
 62
   250
 10
72.8156
 20
-54.4583
  0
VERTEX
  8
PRINTING
 62
   250
 10
72.5816
 20
-55.2079
  0
VERTEX
  8
PRINTING
 62
   250
 10
72.5
 20
-56.0114
  0
VERTEX
  8
PRINTING
 62
   250
 10
72.5
 20
-57.9732
  0
VERTEX
  8
PRINTING
 62
   250
 10
72.5816
 20
-58.7767
  0
VERTEX
  8
PRINTING
 62
   250
 10
72.8156
 20
-59.5263
  0
VERTEX
  8
PRINTING
 62
   250
 10
73.1855
 20
-60.2056
  0
VERTEX
  8
PRINTING
 62
   250
 10
73.675
 20
-60.7982
  0
VERTEX
  8
PRINTING
 62
   250
 10
74.2676
 20
-61.2877
  0
VERTEX
  8
PRINTING
 62
   250
 10
74.9469
 20
-61.6576
  0
VERTEX
  8
PRINTING
 62
   250
 10
75.6965
 20
-61.8916
  0
VERTEX
  8
PRINTING
 62
   250
 10
76.5
 20
-61.9732
  0
VERTEX
  8
PRINTING
 62
   250
 10
86.0
 20
-61.9732
  0
VERTEX
  8
PRINTING
 62
   250
 10
86.8035
 20
-61.8916
  0
VERTEX
  8
PRINTING
 62
   250
 10
87.5531
 20
-61.6576
  0
VERTEX
  8
PRINTING
 62
   250
 10
88.2324
 20
-61.2877
  0
VERTEX
  8
PRINTING
 62
   250
 10
88.825
 20
-60.7982
  0
VERTEX
  8
PRINTING
 62
   250
 10
89.3145
 20
-60.2056
  0
VERTEX
  8
PRINTING
 62
   250
 10
89.6844
 20
-59.5263
  0
VERTEX
  8
PRINTING
 62
   250
 10
89.9184
 20
-58.7767
  0
VERTEX
  8
PRINTING
 62
   250
 10
90.0
 20
-57.9732
  0
VERTEX
  8
PRINTING
 62
   250
 10
90.0
 20
-56.0114
  0
VERTEX
  8
PRINTING
 62
   250
 10
89.9184
 20
-55.2079
  0
VERTEX
  8
PRINTING
 62
   250
 10
89.6844
 20
-54.4583
  0
VERTEX
  8
PRINTING
 62
   250
 10
89.3145
 20
-53.779
  0
VERTEX
  8
PRINTING
 62
   250
 10
88.825
 20
-53.1864
  0
VERTEX
  8
PRINTING
 62
   250
 10
88.2324
 20
-52.6969
  0
VERTEX
  8
PRINTING
 62
   250
 10
87.5531
 20
-52.327
  0
VERTEX
  8
PRINTING
 62
   250
 10
86.8035
 20
-52.093
  0
VERTEX
  8
PRINTING
 62
   250
 10
86.0
 20
-52.0114
  0
SEQEND
  8
PRINTING
 62
   250
  0
POLYLINE
  8
PRINTING
 62
   250
 66
     1
 70
     1
  0
VERTEX
  8
PRINTING
 62
   250
 10
117.8013
 20
-55.0548
  0
VERTEX
  8
PRINTING
 62
   250
 10
117.4111193559677
 20
-55.09322943919354
  0
VERTEX
  8
PRINTING
 62
   250
 10
117.0359331352698
 20
-55.20704093497743
  0
VERTEX
  8
PRINTING
 62
   250
 10
116.6901595339608
 20
-55.39186077539491
  0
VERTEX
  8
PRINTING
 62
   250
 10
116.3870864376269
 20
-55.64058643762691
  0
VERTEX
  8
PRINTING
 62
   250
 10
116.1383607753949
 20
-55.9436595339608
  0
VERTEX
  8
PRINTING
 62
   250
 10
115.9535409349774
 20
-56.28943313526982
  0
VERTEX
  8
PRINTING
 62
   250
 10
115.8397294391935
 20
-56.66461935596774
  0
VERTEX
  8
PRINTING
 62
   250
 10
115.8013
 20
-57.0548
  0
VERTEX
  8
PRINTING
 62
   250
 10
115.8397294391935
 20
-57.44498064403226
  0
VERTEX
  8
PRINTING
 62
   250
 10
115.9535409349774
 20
-57.82016686473018
  0
VERTEX
  8
PRINTING
 62
   250
 10
116.1383607753949
 20
-58.1659404660392
  0
VERTEX
  8
PRINTING
 62
   250
 10
116.3870864376269
 20
-58.46901356237309
  0
VERTEX
  8
PRINTING
 62
   250
 10
116.6901595339608
 20
-58.71773922460509
  0
VERTEX
  8
PRINTING
 62
   250
 10
117.0359331352698
 20
-58.90255906502257
  0
VERTEX
  8
PRINTING
 62
   250
 10
117.4111193559677
 20
-59.01637056080646
  0
VERTEX
  8
PRINTING
 62
   250
 10
117.8013
 20
-59.0548
  0
VERTEX
  8
PRINTING
 62
   250
 10
118.1914806440323
 20
-59.01637056080646
  0
VERTEX
  8
PRINTING
 62
   250
 10
118.5666668647302
 20
-58.90255906502257
  0
VERTEX
  8
PRINTING
 62
   250
 10
118.9124404660392
 20
-58.71773922460509
  0
VERTEX
  8
PRINTING
 62
   250
 10
119.2155135623731
 20
-58.46901356237309
  0
VERTEX
  8
PRINTING
 62
   250
 10
119.4642392246051
 20
-58.1659404660392
  0
VERTEX
  8
PRINTING
 62
   250
 10
119.6490590650226
 20
-57.82016686473018
  0
VERTEX
  8
PRINTING
 62
   250
 10
119.7628705608065
 20
-57.44498064403225
  0
VERTEX
  8
PRINTING
 62
   250
 10
119.8013
 20
-57.05479999999999
  0
VERTEX
  8
PRINTING
 62
   250
 10
119.7628705608065
 20
-56.66461935596774
  0
VERTEX
  8
PRINTING
 62
   250
 10
119.6490590650226
 20
-56.28943313526982
  0
VERTEX
  8
PRINTING
 62
   250
 10
119.4642392246051
 20
-55.94365953396079
  0
VERTEX
  8
PRINTING
 62
   250
 10
119.2155135623731
 20
-55.6405864376269
  0
VERTEX
  8
PRINTING
 62
   250
 10
118.9124404660392
 20
-55.3918607753949
  0
VERTEX
  8
PRINTING
 62
   250
 10
118.5666668647302
 20
-55.20704093497742
  0
VERTEX
  8
PRINTING
 62
   250
 10
118.1914806440322
 20
-55.09322943919354
  0
SEQEND
  8
PRINTING
 62
   250
  0
POLYLINE
  8
PRINTING
 62
   250
 66
     1
 70
     1
  0
VERTEX
  8
PRINTING
 62
   250
 10
129.8013
 20
-55.0548
  0
VERTEX
  8
PRINTING
 62
   250
 10
129.4111193559677
 20
-55.09322943919354
  0
VERTEX
  8
PRINTING
 62
   250
 10
129.0359331352698
 20
-55.20704093497743
  0
VERTEX
  8
PRINTING
 62
   250
 10
128.6901595339608
 20
-55.39186077539491
  0
VERTEX
  8
PRINTING
 62
   250
 10
128.3870864376269
 20
-55.64058643762691
  0
VERTEX
  8
PRINTING
 62
   250
 10
128.1383607753949
 20
-55.9436595339608
  0
VERTEX
  8
PRINTING
 62
   250
 10
127.9535409349774
 20
-56.28943313526982
  0
VERTEX
  8
PRINTING
 62
   250
 10
127.8397294391935
 20
-56.66461935596774
  0
VERTEX
  8
PRINTING
 62
   250
 10
127.8013
 20
-57.0548
  0
VERTEX
  8
PRINTING
 62
   250
 10
127.8397294391935
 20
-57.44498064403226
  0
VERTEX
  8
PRINTING
 62
   250
 10
127.9535409349774
 20
-57.82016686473018
  0
VERTEX
  8
PRINTING
 62
   250
 10
128.1383607753949
 20
-58.1659404660392
  0
VERTEX
  8
PRINTING
 62
   250
 10
128.3870864376269
 20
-58.46901356237309
  0
VERTEX
  8
PRINTING
 62
   250
 10
128.6901595339608
 20
-58.71773922460509
  0
VERTEX
  8
PRINTING
 62
   250
 10
129.0359331352698
 20
-58.90255906502257
  0
VERTEX
  8
PRINTING
 62
   250
 10
129.4111193559677
 20
-59.01637056080646
  0
VERTEX
  8
PRINTING
 62
   250
 10
129.8013
 20
-59.0548
  0
VERTEX
  8
PRINTING
 62
   250
 10
130.1914806440323
 20
-59.01637056080646
  0
VERTEX
  8
PRINTING
 62
   250
 10
130.5666668647302
 20
-58.90255906502257
  0
VERTEX
  8
PRINTING
 62
   250
 10
130.9124404660392
 20
-58.71773922460509
  0
VERTEX
  8
PRINTING
 62
   250
 10
131.2155135623731
 20
-58.46901356237309
  0
VERTEX
  8
PRINTING
 62
   250
 10
131.4642392246051
 20
-58.1659404660392
  0
VERTEX
  8
PRINTING
 62
   250
 10
131.6490590650226
 20
-57.82016686473018
  0
VERTEX
  8
PRINTING
 62
   250
 10
131.7628705608064
 20
-57.44498064403225
  0
VERTEX
  8
PRINTING
 62
   250
 10
131.8013
 20
-57.05479999999999
  0
VERTEX
  8
PRINTING
 62
   250
 10
131.7628705608064
 20
-56.66461935596774
  0
VERTEX
  8
PRINTING
 62
   250
 10
131.6490590650226
 20
-56.28943313526982
  0
VERTEX
  8
PRINTING
 62
   250
 10
131.4642392246051
 20
-55.94365953396079
  0
VERTEX
  8
PRINTING
 62
   250
 10
131.2155135623731
 20
-55.6405864376269
  0
VERTEX
  8
PRINTING
 62
   250
 10
130.9124404660392
 20
-55.3918607753949
  0
VERTEX
  8
PRINTING
 62
   250
 10
130.5666668647302
 20
-55.20704093497742
  0
VERTEX
  8
PRINTING
 62
   250
 10
130.1914806440323
 20
-55.09322943919354
  0
SEQEND
  8
PRINTING
 62
   250
  0
POLYLINE
  8
PRINTING
 62
   250
 66
     1
 70
     1
  0
VERTEX
  8
PRINTING
 62
   250
 10
128.5001
 20
-52.0113
  0
VERTEX
  8
PRINTING
 62
   250
 10
119.0001
 20
-52.0113
  0
VERTEX
  8
PRINTING
 62
   250
 10
118.1966
 20
-52.0929
  0
VERTEX
  8
PRINTING
 62
   250
 10
117.447
 20
-52.3269
  0
VERTEX
  8
PRINTING
 62
   250
 10
116.7677
 20
-52.6968
  0
VERTEX
  8
PRINTING
 62
   250
 10
116.1751
 20
-53.1863
  0
VERTEX
  8
PRINTING
 62
   250
 10
115.6856
 20
-53.7789
  0
VERTEX
  8
PRINTING
 62
   250
 10
115.3157
 20
-54.4582
  0
VERTEX
  8
PRINTING
 62
   250
 10
115.0817
 20
-55.2078
  0
VERTEX
  8
PRINTING
 62
   250
 10
115.0001
 20
-56.0113
  0
VERTEX
  8
PRINTING
 62
   250
 10
115.0001
 20
-57.9731
  0
VERTEX
  8
PRINTING
 62
   250
 10
115.0817
 20
-58.7766
  0
VERTEX
  8
PRINTING
 62
   250
 10
115.3157
 20
-59.5262
  0
VERTEX
  8
PRINTING
 62
   250
 10
115.6856
 20
-60.2055
  0
VERTEX
  8
PRINTING
 62
   250
 10
116.1751
 20
-60.7981
  0
VERTEX
  8
PRINTING
 62
   250
 10
116.7677
 20
-61.2876
  0
VERTEX
  8
PRINTING
 62
   250
 10
117.447
 20
-61.6575
  0
VERTEX
  8
PRINTING
 62
   250
 10
118.1966
 20
-61.8915
  0
VERTEX
  8
PRINTING
 62
   250
 10
119.0001
 20
-61.9731
  0
VERTEX
  8
PRINTING
 62
   250
 10
128.5001
 20
-61.9731
  0
VERTEX
  8
PRINTING
 62
   250
 10
129.3036
 20
-61.8915
  0
VERTEX
  8
PRINTING
 62
   250
 10
130.0532
 20
-61.6575
  0
VERTEX
  8
PRINTING
 62
   250
 10
130.7325
 20
-61.2876
  0
VERTEX
  8
PRINTING
 62
   250
 10
131.3251
 20
-60.7981
  0
VERTEX
  8
PRINTING
 62
   250
 10
131.8146
 20
-60.2055
  0
VERTEX
  8
PRINTING
 62
   250
 10
132.1845
 20
-59.5262
  0
VERTEX
  8
PRINTING
 62
   250
 10
132.4185
 20
-58.7766
  0
VERTEX
  8
PRINTING
 62
   250
 10
132.5001
 20
-57.9731
  0
VERTEX
  8
PRINTING
 62
   250
 10
132.5001
 20
-56.0113
  0
VERTEX
  8
PRINTING
 62
   250
 10
132.4185
 20
-55.2078
  0
VERTEX
  8
PRINTING
 62
   250
 10
132.1845
 20
-54.4582
  0
VERTEX
  8
PRINTING
 62
   250
 10
131.8146
 20
-53.7789
  0
VERTEX
  8
PRINTING
 62
   250
 10
131.3251
 20
-53.1863
  0
VERTEX
  8
PRINTING
 62
   250
 10
130.7325
 20
-52.6968
  0
VERTEX
  8
PRINTING
 62
   250
 10
130.0532
 20
-52.3269
  0
VERTEX
  8
PRINTING
 62
   250
 10
129.3036
 20
-52.0929
  0
VERTEX
  8
PRINTING
 62
   250
 10
128.5001
 20
-52.0113
  0
SEQEND
  8
PRINTING
 62
   250
  0
POLYLINE
  8
PRINTING
 62
   250
 66
     1
 70
     1
  0
VERTEX
  8
PRINTING
 62
   250
 10
135.6833
 20
-54.8153
  0
VERTEX
  8
PRINTING
 62
   250
 10
135.2931193559677
 20
-54.85372943919354
  0
VERTEX
  8
PRINTING
 62
   250
 10
134.9179331352698
 20
-54.96754093497743
  0
VERTEX
  8
PRINTING
 62
   250
 10
134.5721595339608
 20
-55.15236077539491
  0
VERTEX
  8
PRINTING
 62
   250
 10
134.2690864376269
 20
-55.40108643762691
  0
VERTEX
  8
PRINTING
 62
   250
 10
134.0203607753949
 20
-55.7041595339608
  0
VERTEX
  8
PRINTING
 62
   250
 10
133.8355409349774
 20
-56.04993313526982
  0
VERTEX
  8
PRINTING
 62
   250
 10
133.7217294391936
 20
-56.42511935596774
  0
VERTEX
  8
PRINTING
 62
   250
 10
133.6833
 20
-56.8153
  0
VERTEX
  8
PRINTING
 62
   250
 10
133.7217294391936
 20
-57.20548064403226
  0
VERTEX
  8
PRINTING
 62
   250
 10
133.8355409349774
 20
-57.58066686473018
  0
VERTEX
  8
PRINTING
 62
   250
 10
134.0203607753949
 20
-57.9264404660392
  0
VERTEX
  8
PRINTING
 62
   250
 10
134.2690864376269
 20
-58.22951356237309
  0
VERTEX
  8
PRINTING
 62
   250
 10
134.5721595339608
 20
-58.47823922460509
  0
VERTEX
  8
PRINTING
 62
   250
 10
134.9179331352698
 20
-58.66305906502257
  0
VERTEX
  8
PRINTING
 62
   250
 10
135.2931193559677
 20
-58.77687056080646
  0
VERTEX
  8
PRINTING
 62
   250
 10
135.6833
 20
-58.8153
  0
VERTEX
  8
PRINTING
 62
   250
 10
136.0734806440323
 20
-58.77687056080646
  0
VERTEX
  8
PRINTING
 62
   250
 10
136.4486668647302
 20
-58.66305906502257
  0
VERTEX
  8
PRINTING
 62
   250
 10
136.7944404660392
 20
-58.47823922460509
  0
VERTEX
  8
PRINTING
 62
   250
 10
137.0975135623731
 20
-58.22951356237309
  0
VERTEX
  8
PRINTING
 62
   250
 10
137.3462392246051
 20
-57.9264404660392
  0
VERTEX
  8
PRINTING
 62
   250
 10
137.5310590650226
 20
-57.58066686473018
  0
VERTEX
  8
PRINTING
 62
   250
 10
137.6448705608065
 20
-57.20548064403225
  0
VERTEX
  8
PRINTING
 62
   250
 10
137.6833
 20
-56.81529999999999
  0
VERTEX
  8
PRINTING
 62
   250
 10
137.6448705608065
 20
-56.42511935596774
  0
VERTEX
  8
PRINTING
 62
   250
 10
137.5310590650226
 20
-56.04993313526982
  0
VERTEX
  8
PRINTING
 62
   250
 10
137.3462392246051
 20
-55.70415953396079
  0
VERTEX
  8
PRINTING
 62
   250
 10
137.0975135623731
 20
-55.4010864376269
  0
VERTEX
  8
PRINTING
 62
   250
 10
136.7944404660392
 20
-55.1523607753949
  0
VERTEX
  8
PRINTING
 62
   250
 10
136.4486668647302
 20
-54.96754093497742
  0
VERTEX
  8
PRINTING
 62
   250
 10
136.0734806440323
 20
-54.85372943919354
  0
SEQEND
  8
PRINTING
 62
   250
  0
POLYLINE
  8
PRINTING
 62
   250
 66
     1
 70
     1
  0
VERTEX
  8
PRINTING
 62
   250
 10
147.6833
 20
-54.8153
  0
VERTEX
  8
PRINTING
 62
   250
 10
147.2931193559677
 20
-54.85372943919354
  0
VERTEX
  8
PRINTING
 62
   250
 10
146.9179331352698
 20
-54.96754093497743
  0
VERTEX
  8
PRINTING
 62
   250
 10
146.5721595339608
 20
-55.15236077539491
  0
VERTEX
  8
PRINTING
 62
   250
 10
146.2690864376269
 20
-55.40108643762691
  0
VERTEX
  8
PRINTING
 62
   250
 10
146.0203607753949
 20
-55.7041595339608
  0
VERTEX
  8
PRINTING
 62
   250
 10
145.8355409349774
 20
-56.04993313526982
  0
VERTEX
  8
PRINTING
 62
   250
 10
145.7217294391936
 20
-56.42511935596774
  0
VERTEX
  8
PRINTING
 62
   250
 10
145.6833
 20
-56.8153
  0
VERTEX
  8
PRINTING
 62
   250
 10
145.7217294391936
 20
-57.20548064403226
  0
VERTEX
  8
PRINTING
 62
   250
 10
145.8355409349774
 20
-57.58066686473018
  0
VERTEX
  8
PRINTING
 62
   250
 10
146.0203607753949
 20
-57.9264404660392
  0
VERTEX
  8
PRINTING
 62
   250
 10
146.2690864376269
 20
-58.22951356237309
  0
VERTEX
  8
PRINTING
 62
   250
 10
146.5721595339608
 20
-58.47823922460509
  0
VERTEX
  8
PRINTING
 62
   250
 10
146.9179331352698
 20
-58.66305906502257
  0
VERTEX
  8
PRINTING
 62
   250
 10
147.2931193559677
 20
-58.77687056080646
  0
VERTEX
  8
PRINTING
 62
   250
 10
147.6833
 20
-58.8153
  0
VERTEX
  8
PRINTING
 62
   250
 10
148.0734806440323
 20
-58.77687056080646
  0
VERTEX
  8
PRINTING
 62
   250
 10
148.4486668647302
 20
-58.66305906502257
  0
VERTEX
  8
PRINTING
 62
   250
 10
148.7944404660392
 20
-58.47823922460509
  0
VERTEX
  8
PRINTING
 62
   250
 10
149.0975135623731
 20
-58.22951356237309
  0
VERTEX
  8
PRINTING
 62
   250
 10
149.3462392246051
 20
-57.9264404660392
  0
VERTEX
  8
PRINTING
 62
   250
 10
149.5310590650226
 20
-57.58066686473018
  0
VERTEX
  8
PRINTING
 62
   250
 10
149.6448705608065
 20
-57.20548064403225
  0
VERTEX
  8
PRINTING
 62
   250
 10
149.6833
 20
-56.81529999999999
  0
VERTEX
  8
PRINTING
 62
   250
 10
149.6448705608065
 20
-56.42511935596774
  0
VERTEX
  8
PRINTING
 62
   250
 10
149.5310590650226
 20
-56.04993313526982
  0
VERTEX
  8
PRINTING
 62
   250
 10
149.3462392246051
 20
-55.70415953396079
  0
VERTEX
  8
PRINTING
 62
   250
 10
149.0975135623731
 20
-55.4010864376269
  0
VERTEX
  8
PRINTING
 62
   250
 10
148.7944404660392
 20
-55.1523607753949
  0
VERTEX
  8
PRINTING
 62
   250
 10
148.4486668647302
 20
-54.96754093497742
  0
VERTEX
  8
PRINTING
 62
   250
 10
148.0734806440323
 20
-54.85372943919354
  0
SEQEND
  8
PRINTING
 62
   250
  0
POLYLINE
  8
PRINTING
 62
   250
 66
     1
 70
     1
  0
VERTEX
  8
PRINTING
 62
   250
 10
146.3821
 20
-51.7718
  0
VERTEX
  8
PRINTING
 62
   250
 10
136.8821
 20
-51.7718
  0
VERTEX
  8
PRINTING
 62
   250
 10
136.0786
 20
-51.8534
  0
VERTEX
  8
PRINTING
 62
   250
 10
135.329
 20
-52.0874
  0
VERTEX
  8
PRINTING
 62
   250
 10
134.6497
 20
-52.4573
  0
VERTEX
  8
PRINTING
 62
   250
 10
134.0571
 20
-52.9468
  0
VERTEX
  8
PRINTING
 62
   250
 10
133.5676
 20
-53.5394
  0
VERTEX
  8
PRINTING
 62
   250
 10
133.1977
 20
-54.2187
  0
VERTEX
  8
PRINTING
 62
   250
 10
132.9637
 20
-54.9683
  0
VERTEX
  8
PRINTING
 62
   250
 10
132.8821
 20
-55.7718
  0
VERTEX
  8
PRINTING
 62
   250
 10
132.8821
 20
-57.7336
  0
VERTEX
  8
PRINTING
 62
   250
 10
132.9637
 20
-58.5371
  0
VERTEX
  8
PRINTING
 62
   250
 10
133.1977
 20
-59.2867
  0
VERTEX
  8
PRINTING
 62
   250
 10
133.5676
 20
-59.966
  0
VERTEX
  8
PRINTING
 62
   250
 10
134.0571
 20
-60.5586
  0
VERTEX
  8
PRINTING
 62
   250
 10
134.6497
 20
-61.0481
  0
VERTEX
  8
PRINTING
 62
   250
 10
135.329
 20
-61.418
  0
VERTEX
  8
PRINTING
 62
   250
 10
136.0786
 20
-61.652
  0
VERTEX
  8
PRINTING
 62
   250
 10
136.8821
 20
-61.7336
  0
VERTEX
  8
PRINTING
 62
   250
 10
146.3821
 20
-61.7336
  0
VERTEX
  8
PRINTING
 62
   250
 10
147.1856
 20
-61.652
  0
VERTEX
  8
PRINTING
 62
   250
 10
147.9352
 20
-61.418
  0
VERTEX
  8
PRINTING
 62
   250
 10
148.6145
 20
-61.0481
  0
VERTEX
  8
PRINTING
 62
   250
 10
149.2071
 20
-60.5586
  0
VERTEX
  8
PRINTING
 62
   250
 10
149.6966
 20
-59.966
  0
VERTEX
  8
PRINTING
 62
   250
 10
150.0665
 20
-59.2867
  0
VERTEX
  8
PRINTING
 62
   250
 10
150.3005
 20
-58.5371
  0
VERTEX
  8
PRINTING
 62
   250
 10
150.3821
 20
-57.7336
  0
VERTEX
  8
PRINTING
 62
   250
 10
150.3821
 20
-55.7718
  0
VERTEX
  8
PRINTING
 62
   250
 10
150.3005
 20
-54.9683
  0
VERTEX
  8
PRINTING
 62
   250
 10
150.0665
 20
-54.2187
  0
VERTEX
  8
PRINTING
 62
   250
 10
149.6966
 20
-53.5394
  0
VERTEX
  8
PRINTING
 62
   250
 10
149.2071
 20
-52.9468
  0
VERTEX
  8
PRINTING
 62
   250
 10
148.6145
 20
-52.4573
  0
VERTEX
  8
PRINTING
 62
   250
 10
147.9352
 20
-52.0874
  0
VERTEX
  8
PRINTING
 62
   250
 10
147.1856
 20
-51.8534
  0
VERTEX
  8
PRINTING
 62
   250
 10
146.3821
 20
-51.7718
  0
SEQEND
  8
PRINTING
 62
   250
  0
ENDSEC
  0
EOF
