  0
SECTION
  2
HEADER
  9
$ACADVER
  1
AC1004
  9
$INSBASE
 10
0.0
 20
0.0
  9
$EXTMIN
 10
-278.7551
 20
175.7404
  9
$EXTMAX
 10
-256.5595
 20
215.7208
  9
$LIMMIN
 10
0.0
 20
0.0
  9
$LIMMAX
 10
12.0
 20
9.0
  9
$ORTHOMODE
 70
     0
  9
$REGENMODE
 70
     1
  9
$FILLMODE
 70
     1
  9
$QTEXTMODE
 70
     0
  9
$DRAGMODE
 70
     2
  9
$LTSCALE
 40
1.0
  9
$OSMODE
 70
    37
  9
$ATTMODE
 70
     1
  9
$TEXTSIZE
 40
0.2
  9
$TRACEWID
 40
0.05
  9
$TEXTSTYLE
  7
STANDARD
  9
$CLAYER
  8
0
  9
$CELTYPE
  6
BYLAYER
  9
$CECOLOR
 62
   256
  9
$DIMSCALE
 40
1.0
  9
$DIMASZ
 40
0.18
  9
$DIMEXO
 40
0.0625
  9
$DIMDLI
 40
0.38
  9
$DIMRND
 40
0.0
  9
$DIMDLE
 40
0.0
  9
$DIMEXE
 40
0.18
  9
$DIMTP
 40
0.0
  9
$DIMTM
 40
0.0
  9
$DIMTXT
 40
0.18
  9
$DIMCEN
 40
0.09
  9
$DIMTSZ
 40
0.0
  9
$DIMTOL
 70
     0
  9
$DIMLIM
 70
     0
  9
$DIMTIH
 70
     1
  9
$DIMTOH
 70
     1
  9
$DIMSE1
 70
     0
  9
$DIMSE2
 70
     0
  9
$DIMTAD
 70
     0
  9
$DIMZIN
 70
     0
  9
$DIMBLK
  1

  9
$DIMASO
 70
     1
  9
$DIMSHO
 70
     1
  9
$DIMPOST
  1

  9
$DIMAPOST
  1

  9
$DIMALT
 70
     0
  9
$DIMALTD
 70
     2
  9
$DIMALTF
 40
25.4
  9
$DIMLFAC
 40
1.0
  9
$DIMTOFL
 70
     0
  9
$DIMTVP
 40
0.0
  9
$DIMTIX
 70
     0
  9
$DIMSOXD
 70
     0
  9
$DIMSAH
 70
     0
  9
$DIMBLK1
  1

  9
$DIMBLK2
  1

  9
$LUNITS
 70
     2
  9
$LUPREC
 70
     4
  9
$SKETCHINC
 40
0.1
  9
$FILLETRAD
 40
0.5
  9
$AUNITS
 70
     0
  9
$AUPREC
 70
     0
  9
$MENU
  1
.
  9
$ELEVATION
 40
0.0
  9
$THICKNESS
 40
0.0
  9
$LIMCHECK
 70
     0
  9
$CHAMFERA
 40
0.5
  9
$CHAMFERB
 40
0.5
  9
$SKPOLY
 70
     0
  9
$TDCREATE
 40
2457174.854676157
  9
$TDUPDATE
 40
2457174.854676169
  9
$TDINDWG
 40
0.0000000116
  9
$TDUSRTIMER
 40
0.0000000116
  9
$USRTIMER
 70
     1
  9
$ANGBASE
 50
0.0
  9
$ANGDIR
 70
     0
  9
$PDMODE
 70
     0
  9
$PDSIZE
 40
0.0
  9
$PLINEWID
 40
0.0
  9
$COORDS
 70
     1
  9
$SPLFRAME
 70
     0
  9
$SPLINETYPE
 70
     6
  9
$SPLINESEGS
 70
     8
  9
$ATTDIA
 70
     0
  9
$ATTREQ
 70
     1
  9
$SURFTAB1
 70
     6
  9
$SURFTAB2
 70
     6
  9
$SURFTYPE
 70
     6
  9
$SURFU
 70
     6
  9
$SURFV
 70
     6
  9
$UCSNAME
  2

  9
$UCSORG
 10
0.0
 20
0.0
 30
0.0
  9
$UCSXDIR
 10
1.0
 20
0.0
 30
0.0
  9
$UCSYDIR
 10
0.0
 20
1.0
 30
0.0
  9
$USERI1
 70
     0
  9
$USERI2
 70
     0
  9
$USERI3
 70
     0
  9
$USERI4
 70
     0
  9
$USERI5
 70
     0
  9
$USERR1
 40
0.0
  9
$USERR2
 40
0.0
  9
$USERR3
 40
0.0
  9
$USERR4
 40
0.0
  9
$USERR5
 40
0.0
  9
$WORLDVIEW
 70
     1
  0
ENDSEC
  0
SECTION
  2
TABLES
  0
TABLE
  2
LTYPE
 70
     1
  0
LTYPE
  2
CONTINUOUS
 70
     0
  3
Solid line
 72
    65
 73
     0
 40
0.0
  0
ENDTAB
  0
TABLE
  2
LAYER
 70
     2
  0
LAYER
  2
0
 70
     0
 62
     7
  6
CONTINUOUS
  0
LAYER
  2
LAYER_1
 70
     0
 62
     7
  6
CONTINUOUS
  0
ENDTAB
  0
TABLE
  2
STYLE
 70
     1
  0
STYLE
  2
STANDARD
 70
     0
 40
0.0
 41
1.0
 50
0.0
 71
     0
 42
0.2
  3
txt
  4

  0
ENDTAB
  0
TABLE
  2
VIEW
 70
     0
  0
ENDTAB
  0
ENDSEC
  0
SECTION
  2
BLOCKS
  0
ENDSEC
  0
SECTION
  2
ENTITIES
  0
POLYLINE
  8
LAYER_1
 66
     1
 70
     1
  0
VERTEX
  8
LAYER_1
 10
-257.5925
 20
177.1544
  0
VERTEX
  8
LAYER_1
 10
-257.3753
 20
177.1621
  0
VERTEX
  8
LAYER_1
 10
-257.2038
 20
177.0864
  0
VERTEX
  8
LAYER_1
 10
-257.0827
 20
176.9508
  0
VERTEX
  8
LAYER_1
 10
-257.0166
 20
176.7786
  0
VERTEX
  8
LAYER_1
 10
-257.0101
 20
176.5932
  0
VERTEX
  8
LAYER_1
 10
-257.0676
 20
176.4179
  0
VERTEX
  8
LAYER_1
 10
-257.194
 20
176.2762
  0
VERTEX
  8
LAYER_1
 10
-257.3936
 20
176.1913
  0
VERTEX
  8
LAYER_1
 10
-257.6051
 20
176.1902
  0
VERTEX
  8
LAYER_1
 10
-257.7781
 20
176.2662
  0
VERTEX
  8
LAYER_1
 10
-257.9053
 20
176.398
  0
VERTEX
  8
LAYER_1
 10
-257.9791
 20
176.5645
  0
VERTEX
  8
LAYER_1
 10
-257.9922
 20
176.7445
  0
VERTEX
  8
LAYER_1
 10
-257.937
 20
176.917
  0
VERTEX
  8
LAYER_1
 10
-257.8063
 20
177.0607
  0
VERTEX
  8
LAYER_1
 10
-257.5925
 20
177.1544
  0
SEQEND
  8
LAYER_1
  0
POLYLINE
  8
LAYER_1
 66
     1
 70
     1
  0
VERTEX
  8
LAYER_1
 10
-267.4985
 20
192.1827
  0
VERTEX
  8
LAYER_1
 10
-267.5137
 20
192.0787
  0
VERTEX
  8
LAYER_1
 10
-267.5418
 20
192.0143
  0
VERTEX
  8
LAYER_1
 10
-267.5601
 20
191.4611
  0
VERTEX
  8
LAYER_1
 10
-267.5702
 20
191.2899
  0
VERTEX
  8
LAYER_1
 10
-267.5698
 20
191.0874
  0
VERTEX
  8
LAYER_1
 10
-267.565
 20
190.8818
  0
VERTEX
  8
LAYER_1
 10
-267.562
 20
190.7011
  0
VERTEX
  8
LAYER_1
 10
-267.5594
 20
184.6065
  0
VERTEX
  8
LAYER_1
 10
-267.5653
 20
184.4347
  0
VERTEX
  8
LAYER_1
 10
-267.5703
 20
184.2378
  0
VERTEX
  8
LAYER_1
 10
-267.5579
 20
184.0459
  0
VERTEX
  8
LAYER_1
 10
-267.5115
 20
183.8888
  0
VERTEX
  8
LAYER_1
 10
-267.4341
 20
183.7917
  0
VERTEX
  8
LAYER_1
 10
-267.3244
 20
183.7029
  0
VERTEX
  8
LAYER_1
 10
-267.2047
 20
183.6211
  0
VERTEX
  8
LAYER_1
 10
-267.0971
 20
183.5451
  0
VERTEX
  8
LAYER_1
 10
-265.3636
 20
182.2315
  0
VERTEX
  8
LAYER_1
 10
-260.1419
 20
178.2881
  0
VERTEX
  8
LAYER_1
 10
-259.7118
 20
177.9595
  0
VERTEX
  8
LAYER_1
 10
-259.2756
 20
177.6245
  0
VERTEX
  8
LAYER_1
 10
-258.8363
 20
177.2955
  0
VERTEX
  8
LAYER_1
 10
-258.3969
 20
176.9851
  0
VERTEX
  8
LAYER_1
 10
-258.3969
 20
176.3077
  0
VERTEX
  8
LAYER_1
 10
-257.8626
 20
175.7837
  0
VERTEX
  8
LAYER_1
 10
-257.1269
 20
175.7786
  0
VERTEX
  8
LAYER_1
 10
-256.6028
 20
176.3128
  0
VERTEX
  8
LAYER_1
 10
-256.5977
 20
177.0486
  0
VERTEX
  8
LAYER_1
 10
-257.1436
 20
177.5822
  0
VERTEX
  8
LAYER_1
 10
-257.8677
 20
177.5777
  0
VERTEX
  8
LAYER_1
 10
-257.9901
 20
177.4461
  0
VERTEX
  8
LAYER_1
 10
-265.8294
 20
183.3532
  0
VERTEX
  8
LAYER_1
 10
-266.0605
 20
183.5313
  0
VERTEX
  8
LAYER_1
 10
-266.4098
 20
183.8002
  0
VERTEX
  8
LAYER_1
 10
-266.7485
 20
184.0528
  0
VERTEX
  8
LAYER_1
 10
-266.9482
 20
184.1817
  0
VERTEX
  8
LAYER_1
 10
-266.9482
 20
188.2246
  0
VERTEX
  8
LAYER_1
 10
-266.9484
 20
191.2512
  0
VERTEX
  8
LAYER_1
 10
-266.9697
 20
191.7379
  0
VERTEX
  8
LAYER_1
 10
-266.9727
 20
191.995
  0
VERTEX
  8
LAYER_1
 10
-266.9875
 20
192.0716
  0
VERTEX
  8
LAYER_1
 10
-267.0039
 20
192.0899
  0
VERTEX
  8
LAYER_1
 10
-267.0117
 20
192.1722
  0
VERTEX
  8
LAYER_1
 10
-267.4985
 20
192.1827
  0
SEQEND
  8
LAYER_1
  0
POLYLINE
  8
LAYER_1
 66
     1
 70
     1
  0
VERTEX
  8
LAYER_1
 10
-277.9126
 20
177.1544
  0
VERTEX
  8
LAYER_1
 10
-277.6953
 20
177.1621
  0
VERTEX
  8
LAYER_1
 10
-277.5239
 20
177.0864
  0
VERTEX
  8
LAYER_1
 10
-277.4028
 20
176.9508
  0
VERTEX
  8
LAYER_1
 10
-277.3367
 20
176.7786
  0
VERTEX
  8
LAYER_1
 10
-277.3301
 20
176.5932
  0
VERTEX
  8
LAYER_1
 10
-277.3877
 20
176.4179
  0
VERTEX
  8
LAYER_1
 10
-277.514
 20
176.2762
  0
VERTEX
  8
LAYER_1
 10
-277.7137
 20
176.1913
  0
VERTEX
  8
LAYER_1
 10
-277.9252
 20
176.1902
  0
VERTEX
  8
LAYER_1
 10
-278.0982
 20
176.2662
  0
VERTEX
  8
LAYER_1
 10
-278.2253
 20
176.398
  0
VERTEX
  8
LAYER_1
 10
-278.2992
 20
176.5645
  0
VERTEX
  8
LAYER_1
 10
-278.3122
 20
176.7445
  0
VERTEX
  8
LAYER_1
 10
-278.2571
 20
176.917
  0
VERTEX
  8
LAYER_1
 10
-278.1264
 20
177.0607
  0
VERTEX
  8
LAYER_1
 10
-277.9126
 20
177.1544
  0
SEQEND
  8
LAYER_1
  0
POLYLINE
  8
LAYER_1
 66
     1
 70
     1
  0
VERTEX
  8
LAYER_1
 10
-276.9177
 20
176.9851
  0
VERTEX
  8
LAYER_1
 10
-276.4757
 20
177.2973
  0
VERTEX
  8
LAYER_1
 10
-276.033
 20
177.6287
  0
VERTEX
  8
LAYER_1
 10
-275.5933
 20
177.9664
  0
VERTEX
  8
LAYER_1
 10
-275.1607
 20
178.2972
  0
VERTEX
  8
LAYER_1
 10
-269.9508
 20
182.2313
  0
VERTEX
  8
LAYER_1
 10
-268.2058
 20
183.5547
  0
VERTEX
  8
LAYER_1
 10
-268.0977
 20
183.6299
  0
VERTEX
  8
LAYER_1
 10
-267.9789
 20
183.7107
  0
VERTEX
  8
LAYER_1
 10
-267.8714
 20
183.8
  0
VERTEX
  8
LAYER_1
 10
-267.797
 20
183.901
  0
VERTEX
  8
LAYER_1
 10
-267.7552
 20
184.0612
  0
VERTEX
  8
LAYER_1
 10
-267.7446
 20
184.2556
  0
VERTEX
  8
LAYER_1
 10
-267.7497
 20
184.4544
  0
VERTEX
  8
LAYER_1
 10
-267.755
 20
184.6284
  0
VERTEX
  8
LAYER_1
 10
-267.7543
 20
185.1178
  0
VERTEX
  8
LAYER_1
 10
-267.7522
 20
185.9724
  0
VERTEX
  8
LAYER_1
 10
-267.7495
 20
187.062
  0
VERTEX
  8
LAYER_1
 10
-267.7471
 20
188.2565
  0
VERTEX
  8
LAYER_1
 10
-267.7458
 20
189.4257
  0
VERTEX
  8
LAYER_1
 10
-267.7466
 20
190.4394
  0
VERTEX
  8
LAYER_1
 10
-267.7502
 20
191.1673
  0
VERTEX
  8
LAYER_1
 10
-267.7575
 20
191.4793
  0
VERTEX
  8
LAYER_1
 10
-267.7737
 20
191.8441
  0
VERTEX
  8
LAYER_1
 10
-267.7801
 20
192.0425
  0
VERTEX
  8
LAYER_1
 10
-267.7947
 20
192.0803
  0
VERTEX
  8
LAYER_1
 10
-267.8094
 20
192.0846
  0
VERTEX
  8
LAYER_1
 10
-267.8161
 20
192.1827
  0
VERTEX
  8
LAYER_1
 10
-268.3029
 20
192.1827
  0
VERTEX
  8
LAYER_1
 10
-268.3335
 20
192.0363
  0
VERTEX
  8
LAYER_1
 10
-268.3462
 20
191.9552
  0
VERTEX
  8
LAYER_1
 10
-268.3476
 20
191.8712
  0
VERTEX
  8
LAYER_1
 10
-268.3444
 20
191.7162
  0
VERTEX
  8
LAYER_1
 10
-268.3659
 20
191.2298
  0
VERTEX
  8
LAYER_1
 10
-268.3599
 20
190.3578
  0
VERTEX
  8
LAYER_1
 10
-268.3571
 20
189.4786
  0
VERTEX
  8
LAYER_1
 10
-268.3568
 20
188.5944
  0
VERTEX
  8
LAYER_1
 10
-268.3583
 20
187.7077
  0
VERTEX
  8
LAYER_1
 10
-268.3607
 20
186.8207
  0
VERTEX
  8
LAYER_1
 10
-268.3634
 20
185.9359
  0
VERTEX
  8
LAYER_1
 10
-268.3655
 20
185.0554
  0
VERTEX
  8
LAYER_1
 10
-268.3664
 20
184.1817
  0
VERTEX
  8
LAYER_1
 10
-272.8506
 20
180.8131
  0
VERTEX
  8
LAYER_1
 10
-275.0823
 20
179.129
  0
VERTEX
  8
LAYER_1
 10
-276.2042
 20
178.2823
  0
VERTEX
  8
LAYER_1
 10
-276.4791
 20
178.0727
  0
VERTEX
  8
LAYER_1
 10
-276.7571
 20
177.857
  0
VERTEX
  8
LAYER_1
 10
-277.0375
 20
177.646
  0
VERTEX
  8
LAYER_1
 10
-277.3199
 20
177.4507
  0
VERTEX
  8
LAYER_1
 10
-277.4515
 20
177.5731
  0
VERTEX
  8
LAYER_1
 10
-278.1877
 20
177.5777
  0
VERTEX
  8
LAYER_1
 10
-278.7118
 20
177.0434
  0
VERTEX
  8
LAYER_1
 10
-278.7169
 20
176.3077
  0
VERTEX
  8
LAYER_1
 10
-278.1826
 20
175.7837
  0
VERTEX
  8
LAYER_1
 10
-277.4469
 20
175.7786
  0
VERTEX
  8
LAYER_1
 10
-276.9228
 20
176.3128
  0
VERTEX
  8
LAYER_1
 10
-276.9177
 20
176.9851
  0
SEQEND
  8
LAYER_1
  0
POLYLINE
  8
LAYER_1
 66
     1
 70
     1
  0
VERTEX
  8
LAYER_1
 10
-257.5925
 20
215.2544
  0
VERTEX
  8
LAYER_1
 10
-257.3753
 20
215.2621
  0
VERTEX
  8
LAYER_1
 10
-257.2038
 20
215.1864
  0
VERTEX
  8
LAYER_1
 10
-257.0827
 20
215.0508
  0
VERTEX
  8
LAYER_1
 10
-257.0166
 20
214.8786
  0
VERTEX
  8
LAYER_1
 10
-257.0101
 20
214.6931
  0
VERTEX
  8
LAYER_1
 10
-257.0676
 20
214.5179
  0
VERTEX
  8
LAYER_1
 10
-257.194
 20
214.3761
  0
VERTEX
  8
LAYER_1
 10
-257.3936
 20
214.2913
  0
VERTEX
  8
LAYER_1
 10
-257.6051
 20
214.2902
  0
VERTEX
  8
LAYER_1
 10
-257.7781
 20
214.3662
  0
VERTEX
  8
LAYER_1
 10
-257.9053
 20
214.498
  0
VERTEX
  8
LAYER_1
 10
-257.9791
 20
214.6645
  0
VERTEX
  8
LAYER_1
 10
-257.9922
 20
214.8445
  0
VERTEX
  8
LAYER_1
 10
-257.937
 20
215.017
  0
VERTEX
  8
LAYER_1
 10
-257.8063
 20
215.1607
  0
VERTEX
  8
LAYER_1
 10
-257.5925
 20
215.2544
  0
SEQEND
  8
LAYER_1
  0
POLYLINE
  8
LAYER_1
 66
     1
 70
     1
  0
VERTEX
  8
LAYER_1
 10
-258.392
 20
215.1437
  0
VERTEX
  8
LAYER_1
 10
-258.3969
 20
214.4289
  0
VERTEX
  8
LAYER_1
 10
-258.7012
 20
214.1992
  0
VERTEX
  8
LAYER_1
 10
-259.1986
 20
213.7965
  0
VERTEX
  8
LAYER_1
 10
-259.7174
 20
213.3703
  0
VERTEX
  8
LAYER_1
 10
-260.0859
 20
213.0699
  0
VERTEX
  8
LAYER_1
 10
-261.7658
 20
211.7018
  0
VERTEX
  8
LAYER_1
 10
-262.3861
 20
211.1917
  0
VERTEX
  8
LAYER_1
 10
-263.0159
 20
210.6809
  0
VERTEX
  8
LAYER_1
 10
-263.6519
 20
210.1693
  0
VERTEX
  8
LAYER_1
 10
-264.2908
 20
209.6569
  0
VERTEX
  8
LAYER_1
 10
-264.9289
 20
209.1435
  0
VERTEX
  8
LAYER_1
 10
-265.5631
 20
208.6293
  0
VERTEX
  8
LAYER_1
 10
-266.1899
 20
208.1141
  0
VERTEX
  8
LAYER_1
 10
-266.8058
 20
207.5978
  0
VERTEX
  8
LAYER_1
 10
-267.2284
 20
207.2584
  0
VERTEX
  8
LAYER_1
 10
-267.3437
 20
207.1692
  0
VERTEX
  8
LAYER_1
 10
-267.4497
 20
207.0809
  0
VERTEX
  8
LAYER_1
 10
-267.4937
 20
207.0311
  0
VERTEX
  8
LAYER_1
 10
-267.5287
 20
206.9745
  0
VERTEX
  8
LAYER_1
 10
-267.5525
 20
206.9085
  0
VERTEX
  8
LAYER_1
 10
-267.5628
 20
206.8308
  0
VERTEX
  8
LAYER_1
 10
-267.562
 20
205.306
  0
VERTEX
  8
LAYER_1
 10
-267.5627
 20
205.0047
  0
VERTEX
  8
LAYER_1
 10
-267.5644
 20
204.3789
  0
VERTEX
  8
LAYER_1
 10
-267.5665
 20
203.5386
  0
VERTEX
  8
LAYER_1
 10
-267.5681
 20
202.594
  0
VERTEX
  8
LAYER_1
 10
-267.5687
 20
201.6554
  0
VERTEX
  8
LAYER_1
 10
-267.5675
 20
200.8329
  0
VERTEX
  8
LAYER_1
 10
-267.5639
 20
200.2367
  0
VERTEX
  8
LAYER_1
 10
-267.5571
 20
199.977
  0
VERTEX
  8
LAYER_1
 10
-267.5384
 20
199.7691
  0
VERTEX
  8
LAYER_1
 10
-267.5433
 20
199.6259
  0
VERTEX
  8
LAYER_1
 10
-267.5405
 20
199.4823
  0
VERTEX
  8
LAYER_1
 10
-267.4985
 20
199.2735
  0
VERTEX
  8
LAYER_1
 10
-267.0117
 20
199.2735
  0
VERTEX
  8
LAYER_1
 10
-267.0051
 20
199.3589
  0
VERTEX
  8
LAYER_1
 10
-266.9905
 20
199.3814
  0
VERTEX
  8
LAYER_1
 10
-266.9759
 20
199.4559
  0
VERTEX
  8
LAYER_1
 10
-266.9694
 20
199.6969
  0
VERTEX
  8
LAYER_1
 10
-266.9482
 20
200.1413
  0
VERTEX
  8
LAYER_1
 10
-266.9482
 20
206.703
  0
VERTEX
  8
LAYER_1
 10
-266.6646
 20
206.9185
  0
VERTEX
  8
LAYER_1
 10
-266.3815
 20
207.1484
  0
VERTEX
  8
LAYER_1
 10
-266.1006
 20
207.3825
  0
VERTEX
  8
LAYER_1
 10
-265.8239
 20
207.6108
  0
VERTEX
  8
LAYER_1
 10
-264.7033
 20
208.5221
  0
VERTEX
  8
LAYER_1
 10
-262.4612
 20
210.344
  0
VERTEX
  8
LAYER_1
 10
-257.9691
 20
213.9888
  0
VERTEX
  8
LAYER_1
 10
-257.8677
 20
213.8785
  0
VERTEX
  8
LAYER_1
 10
-257.132
 20
213.8837
  0
VERTEX
  8
LAYER_1
 10
-256.5977
 20
214.4077
  0
VERTEX
  8
LAYER_1
 10
-256.6028
 20
215.1434
  0
VERTEX
  8
LAYER_1
 10
-257.1269
 20
215.6777
  0
VERTEX
  8
LAYER_1
 10
-257.8512
 20
215.6824
  0
VERTEX
  8
LAYER_1
 10
-258.392
 20
215.1437
  0
SEQEND
  8
LAYER_1
  0
POLYLINE
  8
LAYER_1
 66
     1
 70
     1
  0
VERTEX
  8
LAYER_1
 10
-277.9126
 20
215.2544
  0
VERTEX
  8
LAYER_1
 10
-277.6953
 20
215.2621
  0
VERTEX
  8
LAYER_1
 10
-277.5239
 20
215.1864
  0
VERTEX
  8
LAYER_1
 10
-277.4028
 20
215.0508
  0
VERTEX
  8
LAYER_1
 10
-277.3367
 20
214.8786
  0
VERTEX
  8
LAYER_1
 10
-277.3301
 20
214.6931
  0
VERTEX
  8
LAYER_1
 10
-277.3877
 20
214.5179
  0
VERTEX
  8
LAYER_1
 10
-277.514
 20
214.3761
  0
VERTEX
  8
LAYER_1
 10
-277.7137
 20
214.2913
  0
VERTEX
  8
LAYER_1
 10
-277.9252
 20
214.2902
  0
VERTEX
  8
LAYER_1
 10
-278.0982
 20
214.3662
  0
VERTEX
  8
LAYER_1
 10
-278.2253
 20
214.498
  0
VERTEX
  8
LAYER_1
 10
-278.2992
 20
214.6645
  0
VERTEX
  8
LAYER_1
 10
-278.3122
 20
214.8445
  0
VERTEX
  8
LAYER_1
 10
-278.2571
 20
215.017
  0
VERTEX
  8
LAYER_1
 10
-278.1264
 20
215.1607
  0
VERTEX
  8
LAYER_1
 10
-277.9126
 20
215.2544
  0
SEQEND
  8
LAYER_1
  0
POLYLINE
  8
LAYER_1
 66
     1
 70
     1
  0
VERTEX
  8
LAYER_1
 10
-278.712
 20
215.1437
  0
VERTEX
  8
LAYER_1
 10
-278.7118
 20
214.4128
  0
VERTEX
  8
LAYER_1
 10
-278.1877
 20
213.8785
  0
VERTEX
  8
LAYER_1
 10
-277.4514
 20
213.883
  0
VERTEX
  8
LAYER_1
 10
-277.3359
 20
213.9907
  0
VERTEX
  8
LAYER_1
 10
-268.3664
 20
206.703
  0
VERTEX
  8
LAYER_1
 10
-268.3466
 20
199.4838
  0
VERTEX
  8
LAYER_1
 10
-268.3029
 20
199.2735
  0
VERTEX
  8
LAYER_1
 10
-267.8161
 20
199.2735
  0
VERTEX
  8
LAYER_1
 10
-267.8094
 20
199.3716
  0
VERTEX
  8
LAYER_1
 10
-267.7947
 20
199.376
  0
VERTEX
  8
LAYER_1
 10
-267.7801
 20
199.4138
  0
VERTEX
  8
LAYER_1
 10
-267.7737
 20
199.6122
  0
VERTEX
  8
LAYER_1
 10
-267.7575
 20
199.977
  0
VERTEX
  8
LAYER_1
 10
-267.7518
 20
206.8308
  0
VERTEX
  8
LAYER_1
 10
-267.7755
 20
206.9277
  0
VERTEX
  8
LAYER_1
 10
-267.8349
 20
207.0258
  0
VERTEX
  8
LAYER_1
 10
-267.9224
 20
207.1244
  0
VERTEX
  8
LAYER_1
 10
-268.0301
 20
207.2226
  0
VERTEX
  8
LAYER_1
 10
-268.2753
 20
207.4153
  0
VERTEX
  8
LAYER_1
 10
-268.5088
 20
207.5978
  0
VERTEX
  8
LAYER_1
 10
-269.3462
 20
208.2844
  0
VERTEX
  8
LAYER_1
 10
-273.5503
 20
211.7003
  0
VERTEX
  8
LAYER_1
 10
-276.9177
 20
214.4289
  0
VERTEX
  8
LAYER_1
 10
-276.9224
 20
215.1439
  0
VERTEX
  8
LAYER_1
 10
-277.4681
 20
215.6777
  0
VERTEX
  8
LAYER_1
 10
-278.1715
 20
215.6826
  0
VERTEX
  8
LAYER_1
 10
-278.712
 20
215.1437
  0
SEQEND
  8
LAYER_1
  0
POLYLINE
  8
LAYER_1
 66
     1
 70
     1
  0
VERTEX
  8
LAYER_1
 10
-257.5925
 20
179.6944
  0
VERTEX
  8
LAYER_1
 10
-257.3753
 20
179.7021
  0
VERTEX
  8
LAYER_1
 10
-257.2038
 20
179.6264
  0
VERTEX
  8
LAYER_1
 10
-257.0827
 20
179.4908
  0
VERTEX
  8
LAYER_1
 10
-257.0166
 20
179.3186
  0
VERTEX
  8
LAYER_1
 10
-257.0101
 20
179.1332
  0
VERTEX
  8
LAYER_1
 10
-257.0676
 20
178.9579
  0
VERTEX
  8
LAYER_1
 10
-257.194
 20
178.8162
  0
VERTEX
  8
LAYER_1
 10
-257.3936
 20
178.7313
  0
VERTEX
  8
LAYER_1
 10
-257.6051
 20
178.7302
  0
VERTEX
  8
LAYER_1
 10
-257.7781
 20
178.8062
  0
VERTEX
  8
LAYER_1
 10
-257.9053
 20
178.938
  0
VERTEX
  8
LAYER_1
 10
-257.9791
 20
179.1045
  0
VERTEX
  8
LAYER_1
 10
-257.9922
 20
179.2845
  0
VERTEX
  8
LAYER_1
 10
-257.937
 20
179.457
  0
VERTEX
  8
LAYER_1
 10
-257.8063
 20
179.6007
  0
VERTEX
  8
LAYER_1
 10
-257.5925
 20
179.6944
  0
SEQEND
  8
LAYER_1
  0
POLYLINE
  8
LAYER_1
 66
     1
 70
     1
  0
VERTEX
  8
LAYER_1
 10
-266.6942
 20
192.1722
  0
VERTEX
  8
LAYER_1
 10
-266.7073
 20
192.0907
  0
VERTEX
  8
LAYER_1
 10
-266.7304
 20
192.0498
  0
VERTEX
  8
LAYER_1
 10
-266.7381
 20
191.5493
  0
VERTEX
  8
LAYER_1
 10
-266.7521
 20
191.2561
  0
VERTEX
  8
LAYER_1
 10
-266.7606
 20
190.7303
  0
VERTEX
  8
LAYER_1
 10
-266.7645
 20
190.048
  0
VERTEX
  8
LAYER_1
 10
-266.7652
 20
189.2853
  0
VERTEX
  8
LAYER_1
 10
-266.7636
 20
188.5185
  0
VERTEX
  8
LAYER_1
 10
-266.7611
 20
187.8237
  0
VERTEX
  8
LAYER_1
 10
-266.7587
 20
187.277
  0
VERTEX
  8
LAYER_1
 10
-266.7577
 20
186.9546
  0
VERTEX
  8
LAYER_1
 10
-266.7624
 20
186.6787
  0
VERTEX
  8
LAYER_1
 10
-266.7666
 20
186.2767
  0
VERTEX
  8
LAYER_1
 10
-266.7639
 20
186.0728
  0
VERTEX
  8
LAYER_1
 10
-266.7556
 20
185.8907
  0
VERTEX
  8
LAYER_1
 10
-266.7397
 20
185.7481
  0
VERTEX
  8
LAYER_1
 10
-266.7145
 20
185.6628
  0
VERTEX
  8
LAYER_1
 10
-266.5935
 20
185.5477
  0
VERTEX
  8
LAYER_1
 10
-266.3715
 20
185.3765
  0
VERTEX
  8
LAYER_1
 10
-266.1363
 20
185.2055
  0
VERTEX
  8
LAYER_1
 10
-265.9755
 20
185.0909
  0
VERTEX
  8
LAYER_1
 10
-264.4659
 20
183.9759
  0
VERTEX
  8
LAYER_1
 10
-259.909
 20
180.6165
  0
VERTEX
  8
LAYER_1
 10
-259.1546
 20
180.0585
  0
VERTEX
  8
LAYER_1
 10
-258.966
 20
179.9219
  0
VERTEX
  8
LAYER_1
 10
-258.7767
 20
179.7766
  0
VERTEX
  8
LAYER_1
 10
-258.5868
 20
179.6335
  0
VERTEX
  8
LAYER_1
 10
-258.3969
 20
179.5039
  0
VERTEX
  8
LAYER_1
 10
-258.3969
 20
178.8477
  0
VERTEX
  8
LAYER_1
 10
-257.8626
 20
178.3237
  0
VERTEX
  8
LAYER_1
 10
-257.1269
 20
178.3186
  0
VERTEX
  8
LAYER_1
 10
-256.6028
 20
178.8528
  0
VERTEX
  8
LAYER_1
 10
-256.5977
 20
179.5886
  0
VERTEX
  8
LAYER_1
 10
-257.132
 20
180.1126
  0
VERTEX
  8
LAYER_1
 10
-257.8677
 20
180.1177
  0
VERTEX
  8
LAYER_1
 10
-257.9983
 20
179.973
  0
VERTEX
  8
LAYER_1
 10
-259.0199
 20
180.7224
  0
VERTEX
  8
LAYER_1
 10
-260.0308
 20
181.4683
  0
VERTEX
  8
LAYER_1
 10
-260.2874
 20
181.6527
  0
VERTEX
  8
LAYER_1
 10
-260.5436
 20
181.8511
  0
VERTEX
  8
LAYER_1
 10
-260.7981
 20
182.0477
  0
VERTEX
  8
LAYER_1
 10
-261.0497
 20
182.2269
  0
VERTEX
  8
LAYER_1
 10
-262.0648
 20
182.9691
  0
VERTEX
  8
LAYER_1
 10
-264.0997
 20
184.4691
  0
VERTEX
  8
LAYER_1
 10
-264.5258
 20
184.7889
  0
VERTEX
  8
LAYER_1
 10
-265.1575
 20
185.2604
  0
VERTEX
  8
LAYER_1
 10
-265.7713
 20
185.7089
  0
VERTEX
  8
LAYER_1
 10
-266.1439
 20
185.9597
  0
VERTEX
  8
LAYER_1
 10
-266.1469
 20
191.46
  0
VERTEX
  8
LAYER_1
 10
-266.1651
 20
191.844
  0
VERTEX
  8
LAYER_1
 10
-266.1717
 20
192.0446
  0
VERTEX
  8
LAYER_1
 10
-266.1862
 20
192.0811
  0
VERTEX
  8
LAYER_1
 10
-266.2008
 20
192.081
  0
VERTEX
  8
LAYER_1
 10
-266.2074
 20
192.1722
  0
VERTEX
  8
LAYER_1
 10
-266.6942
 20
192.1722
  0
SEQEND
  8
LAYER_1
  0
POLYLINE
  8
LAYER_1
 66
     1
 70
     1
  0
VERTEX
  8
LAYER_1
 10
-277.9126
 20
179.6944
  0
VERTEX
  8
LAYER_1
 10
-277.6953
 20
179.7021
  0
VERTEX
  8
LAYER_1
 10
-277.5239
 20
179.6264
  0
VERTEX
  8
LAYER_1
 10
-277.4028
 20
179.4908
  0
VERTEX
  8
LAYER_1
 10
-277.3367
 20
179.3186
  0
VERTEX
  8
LAYER_1
 10
-277.3301
 20
179.1332
  0
VERTEX
  8
LAYER_1
 10
-277.3877
 20
178.9579
  0
VERTEX
  8
LAYER_1
 10
-277.514
 20
178.8162
  0
VERTEX
  8
LAYER_1
 10
-277.7137
 20
178.7313
  0
VERTEX
  8
LAYER_1
 10
-277.9252
 20
178.7302
  0
VERTEX
  8
LAYER_1
 10
-278.0982
 20
178.8062
  0
VERTEX
  8
LAYER_1
 10
-278.2253
 20
178.938
  0
VERTEX
  8
LAYER_1
 10
-278.2992
 20
179.1045
  0
VERTEX
  8
LAYER_1
 10
-278.3122
 20
179.2845
  0
VERTEX
  8
LAYER_1
 10
-278.2571
 20
179.457
  0
VERTEX
  8
LAYER_1
 10
-278.1264
 20
179.6007
  0
VERTEX
  8
LAYER_1
 10
-277.9126
 20
179.6944
  0
SEQEND
  8
LAYER_1
  0
POLYLINE
  8
LAYER_1
 66
     1
 70
     1
  0
VERTEX
  8
LAYER_1
 10
-276.9177
 20
179.5039
  0
VERTEX
  8
LAYER_1
 10
-276.1526
 20
180.0557
  0
VERTEX
  8
LAYER_1
 10
-275.3901
 20
180.6123
  0
VERTEX
  8
LAYER_1
 10
-274.6294
 20
181.1724
  0
VERTEX
  8
LAYER_1
 10
-273.8699
 20
181.7346
  0
VERTEX
  8
LAYER_1
 10
-273.1109
 20
182.2977
  0
VERTEX
  8
LAYER_1
 10
-272.3517
 20
182.8602
  0
VERTEX
  8
LAYER_1
 10
-271.5917
 20
183.4209
  0
VERTEX
  8
LAYER_1
 10
-270.8301
 20
183.9784
  0
VERTEX
  8
LAYER_1
 10
-269.3062
 20
185.1003
  0
VERTEX
  8
LAYER_1
 10
-269.0046
 20
185.315
  0
VERTEX
  8
LAYER_1
 10
-268.7914
 20
185.4661
  0
VERTEX
  8
LAYER_1
 10
-268.6515
 20
185.5882
  0
VERTEX
  8
LAYER_1
 10
-268.5704
 20
185.716
  0
VERTEX
  8
LAYER_1
 10
-268.533
 20
185.884
  0
VERTEX
  8
LAYER_1
 10
-268.5246
 20
186.1268
  0
VERTEX
  8
LAYER_1
 10
-268.5305
 20
186.4792
  0
VERTEX
  8
LAYER_1
 10
-268.5357
 20
186.9757
  0
VERTEX
  8
LAYER_1
 10
-268.5357
 20
191.2726
  0
VERTEX
  8
LAYER_1
 10
-268.5568
 20
191.9077
  0
VERTEX
  8
LAYER_1
 10
-268.5668
 20
192.0578
  0
VERTEX
  8
LAYER_1
 10
-268.5977
 20
192.1208
  0
VERTEX
  8
LAYER_1
 10
-268.5992
 20
192.1827
  0
VERTEX
  8
LAYER_1
 10
-269.0861
 20
192.1827
  0
VERTEX
  8
LAYER_1
 10
-269.1186
 20
192.0591
  0
VERTEX
  8
LAYER_1
 10
-269.1302
 20
192.0032
  0
VERTEX
  8
LAYER_1
 10
-269.1302
 20
191.947
  0
VERTEX
  8
LAYER_1
 10
-269.1283
 20
191.8228
  0
VERTEX
  8
LAYER_1
 10
-269.1487
 20
191.441
  0
VERTEX
  8
LAYER_1
 10
-269.1496
 20
190.6587
  0
VERTEX
  8
LAYER_1
 10
-269.1496
 20
185.9597
  0
VERTEX
  8
LAYER_1
 10
-271.209
 20
184.4632
  0
VERTEX
  8
LAYER_1
 10
-271.7159
 20
184.083
  0
VERTEX
  8
LAYER_1
 10
-272.2246
 20
183.7073
  0
VERTEX
  8
LAYER_1
 10
-272.7344
 20
183.3348
  0
VERTEX
  8
LAYER_1
 10
-273.2448
 20
182.9638
  0
VERTEX
  8
LAYER_1
 10
-273.7553
 20
182.5929
  0
VERTEX
  8
LAYER_1
 10
-274.2654
 20
182.2208
  0
VERTEX
  8
LAYER_1
 10
-274.7745
 20
181.8458
  0
VERTEX
  8
LAYER_1
 10
-275.2821
 20
181.4666
  0
VERTEX
  8
LAYER_1
 10
-276.3064
 20
180.7129
  0
VERTEX
  8
LAYER_1
 10
-277.3199
 20
179.9696
  0
VERTEX
  8
LAYER_1
 10
-277.4643
 20
180.1215
  0
VERTEX
  8
LAYER_1
 10
-278.1877
 20
180.1177
  0
VERTEX
  8
LAYER_1
 10
-278.7118
 20
179.5834
  0
VERTEX
  8
LAYER_1
 10
-278.7169
 20
178.8477
  0
VERTEX
  8
LAYER_1
 10
-278.1826
 20
178.3237
  0
VERTEX
  8
LAYER_1
 10
-277.4469
 20
178.3186
  0
VERTEX
  8
LAYER_1
 10
-276.9228
 20
178.8528
  0
VERTEX
  8
LAYER_1
 10
-276.9177
 20
179.5039
  0
SEQEND
  8
LAYER_1
  0
POLYLINE
  8
LAYER_1
 66
     1
 70
     1
  0
VERTEX
  8
LAYER_1
 10
-257.5925
 20
212.7144
  0
VERTEX
  8
LAYER_1
 10
-257.3753
 20
212.7221
  0
VERTEX
  8
LAYER_1
 10
-257.2038
 20
212.6464
  0
VERTEX
  8
LAYER_1
 10
-257.0827
 20
212.5108
  0
VERTEX
  8
LAYER_1
 10
-257.0166
 20
212.3386
  0
VERTEX
  8
LAYER_1
 10
-257.0101
 20
212.1531
  0
VERTEX
  8
LAYER_1
 10
-257.0676
 20
211.9779
  0
VERTEX
  8
LAYER_1
 10
-257.194
 20
211.8361
  0
VERTEX
  8
LAYER_1
 10
-257.3936
 20
211.7513
  0
VERTEX
  8
LAYER_1
 10
-257.6051
 20
211.7502
  0
VERTEX
  8
LAYER_1
 10
-257.7781
 20
211.8262
  0
VERTEX
  8
LAYER_1
 10
-257.9053
 20
211.958
  0
VERTEX
  8
LAYER_1
 10
-257.9791
 20
212.1245
  0
VERTEX
  8
LAYER_1
 10
-257.9922
 20
212.3045
  0
VERTEX
  8
LAYER_1
 10
-257.937
 20
212.477
  0
VERTEX
  8
LAYER_1
 10
-257.8063
 20
212.6207
  0
VERTEX
  8
LAYER_1
 10
-257.5925
 20
212.7144
  0
SEQEND
  8
LAYER_1
  0
POLYLINE
  8
LAYER_1
 66
     1
 70
     1
  0
VERTEX
  8
LAYER_1
 10
-258.392
 20
212.6037
  0
VERTEX
  8
LAYER_1
 10
-258.3969
 20
211.8889
  0
VERTEX
  8
LAYER_1
 10
-258.7603
 20
211.6171
  0
VERTEX
  8
LAYER_1
 10
-259.1297
 20
211.3179
  0
VERTEX
  8
LAYER_1
 10
-259.4958
 20
211.0112
  0
VERTEX
  8
LAYER_1
 10
-259.8497
 20
210.7171
  0
VERTEX
  8
LAYER_1
 10
-265.6429
 20
205.9904
  0
VERTEX
  8
LAYER_1
 10
-266.3654
 20
205.4006
  0
VERTEX
  8
LAYER_1
 10
-266.5185
 20
205.2741
  0
VERTEX
  8
LAYER_1
 10
-266.6268
 20
205.1817
  0
VERTEX
  8
LAYER_1
 10
-266.698
 20
205.1079
  0
VERTEX
  8
LAYER_1
 10
-266.7395
 20
205.0374
  0
VERTEX
  8
LAYER_1
 10
-266.7631
 20
204.8447
  0
VERTEX
  8
LAYER_1
 10
-266.7577
 20
204.4805
  0
VERTEX
  8
LAYER_1
 10
-266.7587
 20
204.1589
  0
VERTEX
  8
LAYER_1
 10
-266.7611
 20
203.6145
  0
VERTEX
  8
LAYER_1
 10
-266.7636
 20
202.9229
  0
VERTEX
  8
LAYER_1
 10
-266.7651
 20
202.1599
  0
VERTEX
  8
LAYER_1
 10
-266.7645
 20
201.4011
  0
VERTEX
  8
LAYER_1
 10
-266.7605
 20
200.7223
  0
VERTEX
  8
LAYER_1
 10
-266.7521
 20
200.199
  0
VERTEX
  8
LAYER_1
 10
-266.7381
 20
199.907
  0
VERTEX
  8
LAYER_1
 10
-266.7366
 20
199.5698
  0
VERTEX
  8
LAYER_1
 10
-266.7304
 20
199.4067
  0
VERTEX
  8
LAYER_1
 10
-266.7107
 20
199.3734
  0
VERTEX
  8
LAYER_1
 10
-266.6942
 20
199.2735
  0
VERTEX
  8
LAYER_1
 10
-266.2074
 20
199.2735
  0
VERTEX
  8
LAYER_1
 10
-266.1952
 20
199.3665
  0
VERTEX
  8
LAYER_1
 10
-266.1712
 20
199.4067
  0
VERTEX
  8
LAYER_1
 10
-266.1606
 20
199.9253
  0
VERTEX
  8
LAYER_1
 10
-266.1485
 20
200.1931
  0
VERTEX
  8
LAYER_1
 10
-266.141
 20
200.7425
  0
VERTEX
  8
LAYER_1
 10
-266.1371
 20
201.4814
  0
VERTEX
  8
LAYER_1
 10
-266.1359
 20
202.3176
  0
VERTEX
  8
LAYER_1
 10
-266.1365
 20
203.1591
  0
VERTEX
  8
LAYER_1
 10
-266.1379
 20
203.9136
  0
VERTEX
  8
LAYER_1
 10
-266.1394
 20
204.4891
  0
VERTEX
  8
LAYER_1
 10
-266.14
 20
204.7933
  0
VERTEX
  8
LAYER_1
 10
-257.9691
 20
211.4489
  0
VERTEX
  8
LAYER_1
 10
-257.8677
 20
211.3385
  0
VERTEX
  8
LAYER_1
 10
-257.132
 20
211.3437
  0
VERTEX
  8
LAYER_1
 10
-256.5977
 20
211.8677
  0
VERTEX
  8
LAYER_1
 10
-256.6028
 20
212.6034
  0
VERTEX
  8
LAYER_1
 10
-257.1269
 20
213.1377
  0
VERTEX
  8
LAYER_1
 10
-257.8515
 20
213.1426
  0
VERTEX
  8
LAYER_1
 10
-258.392
 20
212.6037
  0
SEQEND
  8
LAYER_1
  0
POLYLINE
  8
LAYER_1
 66
     1
 70
     1
  0
VERTEX
  8
LAYER_1
 10
-277.9126
 20
212.7144
  0
VERTEX
  8
LAYER_1
 10
-277.6953
 20
212.7221
  0
VERTEX
  8
LAYER_1
 10
-277.5239
 20
212.6464
  0
VERTEX
  8
LAYER_1
 10
-277.4028
 20
212.5108
  0
VERTEX
  8
LAYER_1
 10
-277.3367
 20
212.3386
  0
VERTEX
  8
LAYER_1
 10
-277.3301
 20
212.1531
  0
VERTEX
  8
LAYER_1
 10
-277.3877
 20
211.9779
  0
VERTEX
  8
LAYER_1
 10
-277.514
 20
211.8361
  0
VERTEX
  8
LAYER_1
 10
-277.7137
 20
211.7513
  0
VERTEX
  8
LAYER_1
 10
-277.9252
 20
211.7502
  0
VERTEX
  8
LAYER_1
 10
-278.0982
 20
211.8262
  0
VERTEX
  8
LAYER_1
 10
-278.2253
 20
211.958
  0
VERTEX
  8
LAYER_1
 10
-278.2992
 20
212.1245
  0
VERTEX
  8
LAYER_1
 10
-278.3122
 20
212.3045
  0
VERTEX
  8
LAYER_1
 10
-278.2571
 20
212.477
  0
VERTEX
  8
LAYER_1
 10
-278.1264
 20
212.6207
  0
VERTEX
  8
LAYER_1
 10
-277.9126
 20
212.7144
  0
SEQEND
  8
LAYER_1
  0
POLYLINE
  8
LAYER_1
 66
     1
 70
     1
  0
VERTEX
  8
LAYER_1
 10
-278.712
 20
212.6037
  0
VERTEX
  8
LAYER_1
 10
-278.7118
 20
211.8728
  0
VERTEX
  8
LAYER_1
 10
-278.1877
 20
211.3385
  0
VERTEX
  8
LAYER_1
 10
-277.4514
 20
211.343
  0
VERTEX
  8
LAYER_1
 10
-277.336
 20
211.4506
  0
VERTEX
  8
LAYER_1
 10
-269.1496
 20
204.798
  0
VERTEX
  8
LAYER_1
 10
-269.1506
 20
204.4905
  0
VERTEX
  8
LAYER_1
 10
-269.1528
 20
203.9145
  0
VERTEX
  8
LAYER_1
 10
-269.1553
 20
203.1611
  0
VERTEX
  8
LAYER_1
 10
-269.1568
 20
202.3215
  0
VERTEX
  8
LAYER_1
 10
-269.1564
 20
201.487
  0
VERTEX
  8
LAYER_1
 10
-269.153
 20
200.7486
  0
VERTEX
  8
LAYER_1
 10
-269.1455
 20
200.1977
  0
VERTEX
  8
LAYER_1
 10
-269.1328
 20
199.9253
  0
VERTEX
  8
LAYER_1
 10
-269.1284
 20
199.591
  0
VERTEX
  8
LAYER_1
 10
-269.1268
 20
199.4273
  0
VERTEX
  8
LAYER_1
 10
-269.0861
 20
199.2735
  0
VERTEX
  8
LAYER_1
 10
-268.5992
 20
199.2735
  0
VERTEX
  8
LAYER_1
 10
-268.5885
 20
199.3715
  0
VERTEX
  8
LAYER_1
 10
-268.5699
 20
199.3924
  0
VERTEX
  8
LAYER_1
 10
-268.5357
 20
200.5224
  0
VERTEX
  8
LAYER_1
 10
-268.5357
 20
204.4594
  0
VERTEX
  8
LAYER_1
 10
-268.5286
 20
204.8252
  0
VERTEX
  8
LAYER_1
 10
-268.5485
 20
205.0207
  0
VERTEX
  8
LAYER_1
 10
-268.5879
 20
205.0929
  0
VERTEX
  8
LAYER_1
 10
-268.6572
 20
205.1685
  0
VERTEX
  8
LAYER_1
 10
-268.7641
 20
205.2627
  0
VERTEX
  8
LAYER_1
 10
-268.9164
 20
205.391
  0
VERTEX
  8
LAYER_1
 10
-269.6403
 20
205.9795
  0
VERTEX
  8
LAYER_1
 10
-270.179
 20
206.4248
  0
VERTEX
  8
LAYER_1
 10
-270.7228
 20
206.869
  0
VERTEX
  8
LAYER_1
 10
-271.2701
 20
207.3125
  0
VERTEX
  8
LAYER_1
 10
-271.8193
 20
207.7556
  0
VERTEX
  8
LAYER_1
 10
-272.3689
 20
208.1988
  0
VERTEX
  8
LAYER_1
 10
-272.9174
 20
208.6423
  0
VERTEX
  8
LAYER_1
 10
-273.463
 20
209.0865
  0
VERTEX
  8
LAYER_1
 10
-274.0044
 20
209.5317
  0
VERTEX
  8
LAYER_1
 10
-276.9177
 20
211.8889
  0
VERTEX
  8
LAYER_1
 10
-276.9224
 20
212.6039
  0
VERTEX
  8
LAYER_1
 10
-277.4681
 20
213.1377
  0
VERTEX
  8
LAYER_1
 10
-278.1715
 20
213.1426
  0
VERTEX
  8
LAYER_1
 10
-278.712
 20
212.6037
  0
SEQEND
  8
LAYER_1
  0
POLYLINE
  8
LAYER_1
 66
     1
 70
     1
  0
VERTEX
  8
LAYER_1
 10
-257.5925
 20
182.2344
  0
VERTEX
  8
LAYER_1
 10
-257.3753
 20
182.2421
  0
VERTEX
  8
LAYER_1
 10
-257.2038
 20
182.1664
  0
VERTEX
  8
LAYER_1
 10
-257.0827
 20
182.0308
  0
VERTEX
  8
LAYER_1
 10
-257.0166
 20
181.8586
  0
VERTEX
  8
LAYER_1
 10
-257.0101
 20
181.6732
  0
VERTEX
  8
LAYER_1
 10
-257.0676
 20
181.4979
  0
VERTEX
  8
LAYER_1
 10
-257.194
 20
181.3562
  0
VERTEX
  8
LAYER_1
 10
-257.3936
 20
181.2713
  0
VERTEX
  8
LAYER_1
 10
-257.6051
 20
181.2702
  0
VERTEX
  8
LAYER_1
 10
-257.7781
 20
181.3462
  0
VERTEX
  8
LAYER_1
 10
-257.9053
 20
181.478
  0
VERTEX
  8
LAYER_1
 10
-257.9791
 20
181.6445
  0
VERTEX
  8
LAYER_1
 10
-257.9922
 20
181.8245
  0
VERTEX
  8
LAYER_1
 10
-257.937
 20
181.997
  0
VERTEX
  8
LAYER_1
 10
-257.8063
 20
182.1407
  0
VERTEX
  8
LAYER_1
 10
-257.5925
 20
182.2344
  0
SEQEND
  8
LAYER_1
  0
POLYLINE
  8
LAYER_1
 66
     1
 70
     1
  0
VERTEX
  8
LAYER_1
 10
-265.8899
 20
192.1722
  0
VERTEX
  8
LAYER_1
 10
-265.8969
 20
192.0915
  0
VERTEX
  8
LAYER_1
 10
-265.9121
 20
192.0748
  0
VERTEX
  8
LAYER_1
 10
-265.9269
 20
192.0459
  0
VERTEX
  8
LAYER_1
 10
-265.9325
 20
191.9291
  0
VERTEX
  8
LAYER_1
 10
-265.9541
 20
191.4003
  0
VERTEX
  8
LAYER_1
 10
-265.9534
 20
188.9016
  0
VERTEX
  8
LAYER_1
 10
-265.9575
 20
188.5373
  0
VERTEX
  8
LAYER_1
 10
-265.9596
 20
188.2782
  0
VERTEX
  8
LAYER_1
 10
-265.9472
 20
188.097
  0
VERTEX
  8
LAYER_1
 10
-265.9079
 20
187.9661
  0
VERTEX
  8
LAYER_1
 10
-265.8294
 20
187.8583
  0
VERTEX
  8
LAYER_1
 10
-265.6992
 20
187.746
  0
VERTEX
  8
LAYER_1
 10
-265.505
 20
187.6018
  0
VERTEX
  8
LAYER_1
 10
-265.2344
 20
187.3984
  0
VERTEX
  8
LAYER_1
 10
-264.6165
 20
186.9156
  0
VERTEX
  8
LAYER_1
 10
-263.3785
 20
185.9523
  0
VERTEX
  8
LAYER_1
 10
-263.1439
 20
185.768
  0
VERTEX
  8
LAYER_1
 10
-262.6006
 20
185.3417
  0
VERTEX
  8
LAYER_1
 10
-261.8507
 20
184.754
  0
VERTEX
  8
LAYER_1
 10
-260.9967
 20
184.0854
  0
VERTEX
  8
LAYER_1
 10
-260.1406
 20
183.4167
  0
VERTEX
  8
LAYER_1
 10
-259.3849
 20
182.8285
  0
VERTEX
  8
LAYER_1
 10
-258.8318
 20
182.4014
  0
VERTEX
  8
LAYER_1
 10
-258.5836
 20
182.2161
  0
VERTEX
  8
LAYER_1
 10
-258.4313
 20
182.0942
  0
VERTEX
  8
LAYER_1
 10
-258.3969
 20
181.3877
  0
VERTEX
  8
LAYER_1
 10
-257.8626
 20
180.8637
  0
VERTEX
  8
LAYER_1
 10
-257.1269
 20
180.8586
  0
VERTEX
  8
LAYER_1
 10
-256.6028
 20
181.3928
  0
VERTEX
  8
LAYER_1
 10
-256.5977
 20
182.1286
  0
VERTEX
  8
LAYER_1
 10
-257.1436
 20
182.6622
  0
VERTEX
  8
LAYER_1
 10
-257.8677
 20
182.6577
  0
VERTEX
  8
LAYER_1
 10
-257.9769
 20
182.5339
  0
VERTEX
  8
LAYER_1
 10
-265.3336
 20
188.2534
  0
VERTEX
  8
LAYER_1
 10
-265.3395
 20
191.2514
  0
VERTEX
  8
LAYER_1
 10
-265.3591
 20
191.9938
  0
VERTEX
  8
LAYER_1
 10
-265.3848
 20
192.0776
  0
VERTEX
  8
LAYER_1
 10
-265.403
 20
192.1722
  0
VERTEX
  8
LAYER_1
 10
-265.8899
 20
192.1722
  0
SEQEND
  8
LAYER_1
  0
POLYLINE
  8
LAYER_1
 66
     1
 70
     1
  0
VERTEX
  8
LAYER_1
 10
-257.5925
 20
210.1744
  0
VERTEX
  8
LAYER_1
 10
-257.3753
 20
210.1821
  0
VERTEX
  8
LAYER_1
 10
-257.2038
 20
210.1064
  0
VERTEX
  8
LAYER_1
 10
-257.0827
 20
209.9708
  0
VERTEX
  8
LAYER_1
 10
-257.0166
 20
209.7986
  0
VERTEX
  8
LAYER_1
 10
-257.0101
 20
209.6131
  0
VERTEX
  8
LAYER_1
 10
-257.0676
 20
209.4379
  0
VERTEX
  8
LAYER_1
 10
-257.194
 20
209.2961
  0
VERTEX
  8
LAYER_1
 10
-257.3936
 20
209.2113
  0
VERTEX
  8
LAYER_1
 10
-257.6051
 20
209.2102
  0
VERTEX
  8
LAYER_1
 10
-257.7781
 20
209.2862
  0
VERTEX
  8
LAYER_1
 10
-257.9053
 20
209.418
  0
VERTEX
  8
LAYER_1
 10
-257.9791
 20
209.5845
  0
VERTEX
  8
LAYER_1
 10
-257.9922
 20
209.7645
  0
VERTEX
  8
LAYER_1
 10
-257.937
 20
209.937
  0
VERTEX
  8
LAYER_1
 10
-257.8063
 20
210.0807
  0
VERTEX
  8
LAYER_1
 10
-257.5925
 20
210.1744
  0
SEQEND
  8
LAYER_1
  0
POLYLINE
  8
LAYER_1
 66
     1
 70
     1
  0
VERTEX
  8
LAYER_1
 10
-258.392
 20
210.0637
  0
VERTEX
  8
LAYER_1
 10
-258.3969
 20
209.37
  0
VERTEX
  8
LAYER_1
 10
-258.6673
 20
209.1729
  0
VERTEX
  8
LAYER_1
 10
-259.2456
 20
208.7305
  0
VERTEX
  8
LAYER_1
 10
-260.0281
 20
208.1246
  0
VERTEX
  8
LAYER_1
 10
-260.9114
 20
207.437
  0
VERTEX
  8
LAYER_1
 10
-261.7918
 20
206.7495
  0
VERTEX
  8
LAYER_1
 10
-262.5658
 20
206.1438
  0
VERTEX
  8
LAYER_1
 10
-263.1297
 20
205.7019
  0
VERTEX
  8
LAYER_1
 10
-263.38
 20
205.5055
  0
VERTEX
  8
LAYER_1
 10
-265.8636
 20
203.5652
  0
VERTEX
  8
LAYER_1
 10
-265.9029
 20
203.5136
  0
VERTEX
  8
LAYER_1
 10
-265.9296
 20
203.4604
  0
VERTEX
  8
LAYER_1
 10
-265.9462
 20
203.4054
  0
VERTEX
  8
LAYER_1
 10
-265.9547
 20
203.3486
  0
VERTEX
  8
LAYER_1
 10
-265.9567
 20
203.2301
  0
VERTEX
  8
LAYER_1
 10
-265.9534
 20
203.1047
  0
VERTEX
  8
LAYER_1
 10
-265.9541
 20
200.0559
  0
VERTEX
  8
LAYER_1
 10
-265.932
 20
199.803
  0
VERTEX
  8
LAYER_1
 10
-265.9351
 20
199.5915
  0
VERTEX
  8
LAYER_1
 10
-265.9192
 20
199.3924
  0
VERTEX
  8
LAYER_1
 10
-265.9053
 20
199.3757
  0
VERTEX
  8
LAYER_1
 10
-265.8899
 20
199.2735
  0
VERTEX
  8
LAYER_1
 10
-265.403
 20
199.2735
  0
VERTEX
  8
LAYER_1
 10
-265.3847
 20
199.3782
  0
VERTEX
  8
LAYER_1
 10
-265.3591
 20
199.4624
  0
VERTEX
  8
LAYER_1
 10
-265.3395
 20
200.2049
  0
VERTEX
  8
LAYER_1
 10
-265.3337
 20
203.203
  0
VERTEX
  8
LAYER_1
 10
-257.9769
 20
208.9224
  0
VERTEX
  8
LAYER_1
 10
-257.8677
 20
208.7985
  0
VERTEX
  8
LAYER_1
 10
-257.132
 20
208.8037
  0
VERTEX
  8
LAYER_1
 10
-256.5977
 20
209.3277
  0
VERTEX
  8
LAYER_1
 10
-256.6028
 20
210.0634
  0
VERTEX
  8
LAYER_1
 10
-257.1269
 20
210.5977
  0
VERTEX
  8
LAYER_1
 10
-257.8515
 20
210.6026
  0
VERTEX
  8
LAYER_1
 10
-258.392
 20
210.0637
  0
SEQEND
  8
LAYER_1
  0
POLYLINE
  8
LAYER_1
 66
     1
 70
     1
  0
VERTEX
  8
LAYER_1
 10
-277.9126
 20
182.2344
  0
VERTEX
  8
LAYER_1
 10
-277.6953
 20
182.2421
  0
VERTEX
  8
LAYER_1
 10
-277.5239
 20
182.1664
  0
VERTEX
  8
LAYER_1
 10
-277.4028
 20
182.0308
  0
VERTEX
  8
LAYER_1
 10
-277.3367
 20
181.8586
  0
VERTEX
  8
LAYER_1
 10
-277.3301
 20
181.6732
  0
VERTEX
  8
LAYER_1
 10
-277.3877
 20
181.4979
  0
VERTEX
  8
LAYER_1
 10
-277.514
 20
181.3562
  0
VERTEX
  8
LAYER_1
 10
-277.7137
 20
181.2713
  0
VERTEX
  8
LAYER_1
 10
-277.9252
 20
181.2702
  0
VERTEX
  8
LAYER_1
 10
-278.0982
 20
181.3462
  0
VERTEX
  8
LAYER_1
 10
-278.2253
 20
181.478
  0
VERTEX
  8
LAYER_1
 10
-278.2992
 20
181.6445
  0
VERTEX
  8
LAYER_1
 10
-278.3122
 20
181.8245
  0
VERTEX
  8
LAYER_1
 10
-278.2571
 20
181.997
  0
VERTEX
  8
LAYER_1
 10
-278.1264
 20
182.1407
  0
VERTEX
  8
LAYER_1
 10
-277.9126
 20
182.2344
  0
SEQEND
  8
LAYER_1
  0
POLYLINE
  8
LAYER_1
 66
     1
 70
     1
  0
VERTEX
  8
LAYER_1
 10
-276.9177
 20
182.0651
  0
VERTEX
  8
LAYER_1
 10
-276.6031
 20
182.2688
  0
VERTEX
  8
LAYER_1
 10
-276.2711
 20
182.5142
  0
VERTEX
  8
LAYER_1
 10
-275.9419
 20
182.7702
  0
VERTEX
  8
LAYER_1
 10
-275.6359
 20
183.0058
  0
VERTEX
  8
LAYER_1
 10
-270.5435
 20
186.8034
  0
VERTEX
  8
LAYER_1
 10
-269.8993
 20
187.281
  0
VERTEX
  8
LAYER_1
 10
-269.7405
 20
187.3906
  0
VERTEX
  8
LAYER_1
 10
-269.5655
 20
187.5196
  0
VERTEX
  8
LAYER_1
 10
-269.4857
 20
187.591
  0
VERTEX
  8
LAYER_1
 10
-269.4183
 20
187.6667
  0
VERTEX
  8
LAYER_1
 10
-269.369
 20
187.7468
  0
VERTEX
  8
LAYER_1
 10
-269.3432
 20
187.8309
  0
VERTEX
  8
LAYER_1
 10
-269.3365
 20
188.0026
  0
VERTEX
  8
LAYER_1
 10
-269.333
 20
188.358
  0
VERTEX
  8
LAYER_1
 10
-269.3321
 20
188.84
  0
VERTEX
  8
LAYER_1
 10
-269.333
 20
189.3914
  0
VERTEX
  8
LAYER_1
 10
-269.335
 20
189.9548
  0
VERTEX
  8
LAYER_1
 10
-269.3374
 20
190.4731
  0
VERTEX
  8
LAYER_1
 10
-269.3393
 20
190.8891
  0
VERTEX
  8
LAYER_1
 10
-269.3401
 20
191.1456
  0
VERTEX
  8
LAYER_1
 10
-269.3604
 20
191.9507
  0
VERTEX
  8
LAYER_1
 10
-269.3713
 20
192.0666
  0
VERTEX
  8
LAYER_1
 10
-269.402
 20
192.1208
  0
VERTEX
  8
LAYER_1
 10
-269.4036
 20
192.1827
  0
VERTEX
  8
LAYER_1
 10
-269.8904
 20
192.1827
  0
VERTEX
  8
LAYER_1
 10
-269.9058
 20
192.0805
  0
VERTEX
  8
LAYER_1
 10
-269.9197
 20
192.0638
  0
VERTEX
  8
LAYER_1
 10
-269.9539
 20
191.1667
  0
VERTEX
  8
LAYER_1
 10
-269.9539
 20
187.9917
  0
VERTEX
  8
LAYER_1
 10
-270.6191
 20
187.5019
  0
VERTEX
  8
LAYER_1
 10
-271.6105
 20
186.7654
  0
VERTEX
  8
LAYER_1
 10
-272.8016
 20
185.8779
  0
VERTEX
  8
LAYER_1
 10
-274.0656
 20
184.9353
  0
VERTEX
  8
LAYER_1
 10
-275.2761
 20
184.0335
  0
VERTEX
  8
LAYER_1
 10
-276.3064
 20
183.2682
  0
VERTEX
  8
LAYER_1
 10
-277.0299
 20
182.7353
  0
VERTEX
  8
LAYER_1
 10
-277.3199
 20
182.5307
  0
VERTEX
  8
LAYER_1
 10
-277.4656
 20
182.6604
  0
VERTEX
  8
LAYER_1
 10
-278.1877
 20
182.6577
  0
VERTEX
  8
LAYER_1
 10
-278.7118
 20
182.1234
  0
VERTEX
  8
LAYER_1
 10
-278.7169
 20
181.3877
  0
VERTEX
  8
LAYER_1
 10
-278.1826
 20
180.8637
  0
VERTEX
  8
LAYER_1
 10
-277.4469
 20
180.8586
  0
VERTEX
  8
LAYER_1
 10
-276.9228
 20
181.3928
  0
VERTEX
  8
LAYER_1
 10
-276.9177
 20
182.0651
  0
SEQEND
  8
LAYER_1
  0
POLYLINE
  8
LAYER_1
 66
     1
 70
     1
  0
VERTEX
  8
LAYER_1
 10
-277.9126
 20
210.1744
  0
VERTEX
  8
LAYER_1
 10
-277.6953
 20
210.1821
  0
VERTEX
  8
LAYER_1
 10
-277.5239
 20
210.1064
  0
VERTEX
  8
LAYER_1
 10
-277.4028
 20
209.9708
  0
VERTEX
  8
LAYER_1
 10
-277.3367
 20
209.7986
  0
VERTEX
  8
LAYER_1
 10
-277.3301
 20
209.6131
  0
VERTEX
  8
LAYER_1
 10
-277.3877
 20
209.4379
  0
VERTEX
  8
LAYER_1
 10
-277.514
 20
209.2961
  0
VERTEX
  8
LAYER_1
 10
-277.7137
 20
209.2113
  0
VERTEX
  8
LAYER_1
 10
-277.9252
 20
209.2102
  0
VERTEX
  8
LAYER_1
 10
-278.0982
 20
209.2862
  0
VERTEX
  8
LAYER_1
 10
-278.2253
 20
209.418
  0
VERTEX
  8
LAYER_1
 10
-278.2992
 20
209.5845
  0
VERTEX
  8
LAYER_1
 10
-278.3122
 20
209.7645
  0
VERTEX
  8
LAYER_1
 10
-278.2571
 20
209.937
  0
VERTEX
  8
LAYER_1
 10
-278.1264
 20
210.0807
  0
VERTEX
  8
LAYER_1
 10
-277.9126
 20
210.1744
  0
SEQEND
  8
LAYER_1
  0
POLYLINE
  8
LAYER_1
 66
     1
 70
     1
  0
VERTEX
  8
LAYER_1
 10
-278.712
 20
210.0637
  0
VERTEX
  8
LAYER_1
 10
-278.7118
 20
209.3328
  0
VERTEX
  8
LAYER_1
 10
-278.1877
 20
208.7985
  0
VERTEX
  8
LAYER_1
 10
-277.4511
 20
208.8027
  0
VERTEX
  8
LAYER_1
 10
-277.323
 20
208.9224
  0
VERTEX
  8
LAYER_1
 10
-276.9316
 20
208.6329
  0
VERTEX
  8
LAYER_1
 10
-276.4261
 20
208.2402
  0
VERTEX
  8
LAYER_1
 10
-275.9101
 20
207.8327
  0
VERTEX
  8
LAYER_1
 10
-275.4869
 20
207.4989
  0
VERTEX
  8
LAYER_1
 10
-269.9539
 20
203.2105
  0
VERTEX
  8
LAYER_1
 10
-269.9341
 20
199.4838
  0
VERTEX
  8
LAYER_1
 10
-269.8904
 20
199.2735
  0
VERTEX
  8
LAYER_1
 10
-269.4036
 20
199.2735
  0
VERTEX
  8
LAYER_1
 10
-269.3955
 20
199.3621
  0
VERTEX
  8
LAYER_1
 10
-269.3824
 20
199.3794
  0
VERTEX
  8
LAYER_1
 10
-269.3626
 20
199.4231
  0
VERTEX
  8
LAYER_1
 10
-269.3401
 20
200.3107
  0
VERTEX
  8
LAYER_1
 10
-269.3401
 20
203.0624
  0
VERTEX
  8
LAYER_1
 10
-269.3412
 20
203.2482
  0
VERTEX
  8
LAYER_1
 10
-269.3472
 20
203.3776
  0
VERTEX
  8
LAYER_1
 10
-269.3624
 20
203.4656
  0
VERTEX
  8
LAYER_1
 10
-269.3912
 20
203.5267
  0
VERTEX
  8
LAYER_1
 10
-269.5062
 20
203.6275
  0
VERTEX
  8
LAYER_1
 10
-269.7262
 20
203.798
  0
VERTEX
  8
LAYER_1
 10
-270.0351
 20
204.0395
  0
VERTEX
  8
LAYER_1
 10
-270.6675
 20
204.5289
  0
VERTEX
  8
LAYER_1
 10
-274.4062
 20
207.4365
  0
VERTEX
  8
LAYER_1
 10
-276.9177
 20
209.37
  0
VERTEX
  8
LAYER_1
 10
-276.9224
 20
210.0639
  0
VERTEX
  8
LAYER_1
 10
-277.4681
 20
210.5977
  0
VERTEX
  8
LAYER_1
 10
-278.1715
 20
210.6026
  0
VERTEX
  8
LAYER_1
 10
-278.712
 20
210.0637
  0
SEQEND
  8
LAYER_1
  0
POLYLINE
  8
LAYER_1
 66
     1
 70
     1
  0
VERTEX
  8
LAYER_1
 10
-257.5925
 20
184.7744
  0
VERTEX
  8
LAYER_1
 10
-257.3753
 20
184.7821
  0
VERTEX
  8
LAYER_1
 10
-257.2038
 20
184.7064
  0
VERTEX
  8
LAYER_1
 10
-257.0827
 20
184.5708
  0
VERTEX
  8
LAYER_1
 10
-257.0166
 20
184.3986
  0
VERTEX
  8
LAYER_1
 10
-257.0101
 20
184.2132
  0
VERTEX
  8
LAYER_1
 10
-257.0676
 20
184.0379
  0
VERTEX
  8
LAYER_1
 10
-257.194
 20
183.8962
  0
VERTEX
  8
LAYER_1
 10
-257.3936
 20
183.8113
  0
VERTEX
  8
LAYER_1
 10
-257.6051
 20
183.8102
  0
VERTEX
  8
LAYER_1
 10
-257.7781
 20
183.8862
  0
VERTEX
  8
LAYER_1
 10
-257.9053
 20
184.018
  0
VERTEX
  8
LAYER_1
 10
-257.9791
 20
184.1845
  0
VERTEX
  8
LAYER_1
 10
-257.9922
 20
184.3645
  0
VERTEX
  8
LAYER_1
 10
-257.937
 20
184.537
  0
VERTEX
  8
LAYER_1
 10
-257.8063
 20
184.6807
  0
VERTEX
  8
LAYER_1
 10
-257.5925
 20
184.7744
  0
SEQEND
  8
LAYER_1
  0
POLYLINE
  8
LAYER_1
 66
     1
 70
     1
  0
VERTEX
  8
LAYER_1
 10
-265.0855
 20
192.1722
  0
VERTEX
  8
LAYER_1
 10
-265.1038
 20
192.0776
  0
VERTEX
  8
LAYER_1
 10
-265.1295
 20
191.9938
  0
VERTEX
  8
LAYER_1
 10
-265.1492
 20
191.3362
  0
VERTEX
  8
LAYER_1
 10
-265.149
 20
190.4259
  0
VERTEX
  8
LAYER_1
 10
-265.1526
 20
190.0778
  0
VERTEX
  8
LAYER_1
 10
-265.1571
 20
189.8283
  0
VERTEX
  8
LAYER_1
 10
-265.1526
 20
189.6545
  0
VERTEX
  8
LAYER_1
 10
-265.1296
 20
189.5334
  0
VERTEX
  8
LAYER_1
 10
-265.0782
 20
189.4423
  0
VERTEX
  8
LAYER_1
 10
-264.9887
 20
189.3581
  0
VERTEX
  8
LAYER_1
 10
-264.8514
 20
189.258
  0
VERTEX
  8
LAYER_1
 10
-264.6567
 20
189.1191
  0
VERTEX
  8
LAYER_1
 10
-262.5723
 20
187.6051
  0
VERTEX
  8
LAYER_1
 10
-262.2856
 20
187.3961
  0
VERTEX
  8
LAYER_1
 10
-261.7879
 20
187.0317
  0
VERTEX
  8
LAYER_1
 10
-261.1511
 20
186.5655
  0
VERTEX
  8
LAYER_1
 10
-260.4471
 20
186.0512
  0
VERTEX
  8
LAYER_1
 10
-259.7478
 20
185.5422
  0
VERTEX
  8
LAYER_1
 10
-259.125
 20
185.0923
  0
VERTEX
  8
LAYER_1
 10
-258.6508
 20
184.755
  0
VERTEX
  8
LAYER_1
 10
-258.3969
 20
184.5839
  0
VERTEX
  8
LAYER_1
 10
-258.3969
 20
183.9277
  0
VERTEX
  8
LAYER_1
 10
-257.8626
 20
183.4037
  0
VERTEX
  8
LAYER_1
 10
-257.1269
 20
183.3986
  0
VERTEX
  8
LAYER_1
 10
-256.6028
 20
183.9328
  0
VERTEX
  8
LAYER_1
 10
-256.5977
 20
184.6686
  0
VERTEX
  8
LAYER_1
 10
-257.132
 20
185.1926
  0
VERTEX
  8
LAYER_1
 10
-257.8677
 20
185.1977
  0
VERTEX
  8
LAYER_1
 10
-257.9983
 20
185.053
  0
VERTEX
  8
LAYER_1
 10
-264.5364
 20
189.7892
  0
VERTEX
  8
LAYER_1
 10
-264.5351
 20
191.3362
  0
VERTEX
  8
LAYER_1
 10
-264.5572
 20
191.6104
  0
VERTEX
  8
LAYER_1
 10
-264.556
 20
191.9291
  0
VERTEX
  8
LAYER_1
 10
-264.5617
 20
192.0459
  0
VERTEX
  8
LAYER_1
 10
-264.5765
 20
192.0748
  0
VERTEX
  8
LAYER_1
 10
-264.5917
 20
192.0915
  0
VERTEX
  8
LAYER_1
 10
-264.5987
 20
192.1722
  0
VERTEX
  8
LAYER_1
 10
-265.0855
 20
192.1722
  0
SEQEND
  8
LAYER_1
  0
POLYLINE
  8
LAYER_1
 66
     1
 70
     1
  0
VERTEX
  8
LAYER_1
 10
-277.9126
 20
184.7744
  0
VERTEX
  8
LAYER_1
 10
-277.6953
 20
184.7821
  0
VERTEX
  8
LAYER_1
 10
-277.5239
 20
184.7064
  0
VERTEX
  8
LAYER_1
 10
-277.4028
 20
184.5708
  0
VERTEX
  8
LAYER_1
 10
-277.3367
 20
184.3986
  0
VERTEX
  8
LAYER_1
 10
-277.3301
 20
184.2132
  0
VERTEX
  8
LAYER_1
 10
-277.3877
 20
184.0379
  0
VERTEX
  8
LAYER_1
 10
-277.514
 20
183.8962
  0
VERTEX
  8
LAYER_1
 10
-277.7137
 20
183.8113
  0
VERTEX
  8
LAYER_1
 10
-277.9252
 20
183.8102
  0
VERTEX
  8
LAYER_1
 10
-278.0982
 20
183.8862
  0
VERTEX
  8
LAYER_1
 10
-278.2253
 20
184.018
  0
VERTEX
  8
LAYER_1
 10
-278.2992
 20
184.1845
  0
VERTEX
  8
LAYER_1
 10
-278.3122
 20
184.3645
  0
VERTEX
  8
LAYER_1
 10
-278.2571
 20
184.537
  0
VERTEX
  8
LAYER_1
 10
-278.1264
 20
184.6807
  0
VERTEX
  8
LAYER_1
 10
-277.9126
 20
184.7744
  0
SEQEND
  8
LAYER_1
  0
POLYLINE
  8
LAYER_1
 66
     1
 70
     1
  0
VERTEX
  8
LAYER_1
 10
-276.9177
 20
184.5839
  0
VERTEX
  8
LAYER_1
 10
-276.6524
 20
184.7559
  0
VERTEX
  8
LAYER_1
 10
-276.3818
 20
184.95
  0
VERTEX
  8
LAYER_1
 10
-276.1135
 20
185.1505
  0
VERTEX
  8
LAYER_1
 10
-275.8553
 20
185.3417
  0
VERTEX
  8
LAYER_1
 10
-270.6244
 20
189.1279
  0
VERTEX
  8
LAYER_1
 10
-270.4942
 20
189.2158
  0
VERTEX
  8
LAYER_1
 10
-270.3472
 20
189.3205
  0
VERTEX
  8
LAYER_1
 10
-270.2792
 20
189.3782
  0
VERTEX
  8
LAYER_1
 10
-270.2209
 20
189.4391
  0
VERTEX
  8
LAYER_1
 10
-270.1773
 20
189.5029
  0
VERTEX
  8
LAYER_1
 10
-270.1528
 20
189.5691
  0
VERTEX
  8
LAYER_1
 10
-270.1403
 20
189.8688
  0
VERTEX
  8
LAYER_1
 10
-270.1388
 20
190.4159
  0
VERTEX
  8
LAYER_1
 10
-270.1421
 20
190.9868
  0
VERTEX
  8
LAYER_1
 10
-270.1441
 20
191.3575
  0
VERTEX
  8
LAYER_1
 10
-270.1656
 20
191.7806
  0
VERTEX
  8
LAYER_1
 10
-270.1722
 20
192.0252
  0
VERTEX
  8
LAYER_1
 10
-270.1867
 20
192.0795
  0
VERTEX
  8
LAYER_1
 10
-270.2013
 20
192.0849
  0
VERTEX
  8
LAYER_1
 10
-270.2079
 20
192.1827
  0
VERTEX
  8
LAYER_1
 10
-270.6947
 20
192.1827
  0
VERTEX
  8
LAYER_1
 10
-270.7218
 20
192.065
  0
VERTEX
  8
LAYER_1
 10
-270.7372
 20
191.9077
  0
VERTEX
  8
LAYER_1
 10
-270.7583
 20
191.3149
  0
VERTEX
  8
LAYER_1
 10
-270.7582
 20
189.7909
  0
VERTEX
  8
LAYER_1
 10
-276.9072
 20
185.3354
  0
VERTEX
  8
LAYER_1
 10
-277.1174
 20
185.1837
  0
VERTEX
  8
LAYER_1
 10
-277.3199
 20
185.0496
  0
VERTEX
  8
LAYER_1
 10
-277.4643
 20
185.2015
  0
VERTEX
  8
LAYER_1
 10
-278.1877
 20
185.1977
  0
VERTEX
  8
LAYER_1
 10
-278.7118
 20
184.6634
  0
VERTEX
  8
LAYER_1
 10
-278.7169
 20
183.9277
  0
VERTEX
  8
LAYER_1
 10
-278.1826
 20
183.4037
  0
VERTEX
  8
LAYER_1
 10
-277.4469
 20
183.3986
  0
VERTEX
  8
LAYER_1
 10
-276.9228
 20
183.9328
  0
VERTEX
  8
LAYER_1
 10
-276.9177
 20
184.5839
  0
SEQEND
  8
LAYER_1
  0
POLYLINE
  8
LAYER_1
 66
     1
 70
     1
  0
VERTEX
  8
LAYER_1
 10
-257.5925
 20
207.6344
  0
VERTEX
  8
LAYER_1
 10
-257.3753
 20
207.6421
  0
VERTEX
  8
LAYER_1
 10
-257.2038
 20
207.5664
  0
VERTEX
  8
LAYER_1
 10
-257.0827
 20
207.4308
  0
VERTEX
  8
LAYER_1
 10
-257.0166
 20
207.2586
  0
VERTEX
  8
LAYER_1
 10
-257.0101
 20
207.0731
  0
VERTEX
  8
LAYER_1
 10
-257.0676
 20
206.8979
  0
VERTEX
  8
LAYER_1
 10
-257.194
 20
206.7561
  0
VERTEX
  8
LAYER_1
 10
-257.3936
 20
206.6713
  0
VERTEX
  8
LAYER_1
 10
-257.6051
 20
206.6702
  0
VERTEX
  8
LAYER_1
 10
-257.7781
 20
206.7462
  0
VERTEX
  8
LAYER_1
 10
-257.9053
 20
206.878
  0
VERTEX
  8
LAYER_1
 10
-257.9791
 20
207.0445
  0
VERTEX
  8
LAYER_1
 10
-257.9922
 20
207.2245
  0
VERTEX
  8
LAYER_1
 10
-257.937
 20
207.397
  0
VERTEX
  8
LAYER_1
 10
-257.8063
 20
207.5407
  0
VERTEX
  8
LAYER_1
 10
-257.5925
 20
207.6344
  0
SEQEND
  8
LAYER_1
  0
POLYLINE
  8
LAYER_1
 66
     1
 70
     1
  0
VERTEX
  8
LAYER_1
 10
-258.392
 20
207.5237
  0
VERTEX
  8
LAYER_1
 10
-258.3969
 20
206.83
  0
VERTEX
  8
LAYER_1
 10
-258.7601
 20
206.5714
  0
VERTEX
  8
LAYER_1
 10
-259.3654
 20
206.1037
  0
VERTEX
  8
LAYER_1
 10
-259.9919
 20
205.6103
  0
VERTEX
  8
LAYER_1
 10
-260.4187
 20
205.2747
  0
VERTEX
  8
LAYER_1
 10
-264.4658
 20
202.1252
  0
VERTEX
  8
LAYER_1
 10
-264.8963
 20
201.7933
  0
VERTEX
  8
LAYER_1
 10
-265.0952
 20
201.6037
  0
VERTEX
  8
LAYER_1
 10
-265.1352
 20
201.512
  0
VERTEX
  8
LAYER_1
 10
-265.1502
 20
201.3958
  0
VERTEX
  8
LAYER_1
 10
-265.1511
 20
201.2349
  0
VERTEX
  8
LAYER_1
 10
-265.149
 20
201.0092
  0
VERTEX
  8
LAYER_1
 10
-265.1492
 20
200.1201
  0
VERTEX
  8
LAYER_1
 10
-265.0855
 20
199.2735
  0
VERTEX
  8
LAYER_1
 10
-264.5987
 20
199.2735
  0
VERTEX
  8
LAYER_1
 10
-264.578
 20
199.3791
  0
VERTEX
  8
LAYER_1
 10
-264.555
 20
199.4838
  0
VERTEX
  8
LAYER_1
 10
-264.5564
 20
199.7392
  0
VERTEX
  8
LAYER_1
 10
-264.5352
 20
200.2472
  0
VERTEX
  8
LAYER_1
 10
-264.5295
 20
201.2981
  0
VERTEX
  8
LAYER_1
 10
-257.9769
 20
206.3824
  0
VERTEX
  8
LAYER_1
 10
-257.8677
 20
206.2585
  0
VERTEX
  8
LAYER_1
 10
-257.132
 20
206.2637
  0
VERTEX
  8
LAYER_1
 10
-256.5977
 20
206.7877
  0
VERTEX
  8
LAYER_1
 10
-256.6028
 20
207.5234
  0
VERTEX
  8
LAYER_1
 10
-257.1269
 20
208.0577
  0
VERTEX
  8
LAYER_1
 10
-257.8515
 20
208.0626
  0
VERTEX
  8
LAYER_1
 10
-258.392
 20
207.5237
  0
SEQEND
  8
LAYER_1
  0
POLYLINE
  8
LAYER_1
 66
     1
 70
     1
  0
VERTEX
  8
LAYER_1
 10
-277.9126
 20
207.6344
  0
VERTEX
  8
LAYER_1
 10
-277.6953
 20
207.6421
  0
VERTEX
  8
LAYER_1
 10
-277.5239
 20
207.5664
  0
VERTEX
  8
LAYER_1
 10
-277.4028
 20
207.4308
  0
VERTEX
  8
LAYER_1
 10
-277.3367
 20
207.2586
  0
VERTEX
  8
LAYER_1
 10
-277.3301
 20
207.0731
  0
VERTEX
  8
LAYER_1
 10
-277.3877
 20
206.8979
  0
VERTEX
  8
LAYER_1
 10
-277.514
 20
206.7561
  0
VERTEX
  8
LAYER_1
 10
-277.7137
 20
206.6713
  0
VERTEX
  8
LAYER_1
 10
-277.9252
 20
206.6702
  0
VERTEX
  8
LAYER_1
 10
-278.0982
 20
206.7462
  0
VERTEX
  8
LAYER_1
 10
-278.2253
 20
206.878
  0
VERTEX
  8
LAYER_1
 10
-278.2992
 20
207.0445
  0
VERTEX
  8
LAYER_1
 10
-278.3122
 20
207.2245
  0
VERTEX
  8
LAYER_1
 10
-278.2571
 20
207.397
  0
VERTEX
  8
LAYER_1
 10
-278.1264
 20
207.5407
  0
VERTEX
  8
LAYER_1
 10
-277.9126
 20
207.6344
  0
SEQEND
  8
LAYER_1
  0
POLYLINE
  8
LAYER_1
 66
     1
 70
     1
  0
VERTEX
  8
LAYER_1
 10
-278.712
 20
207.5237
  0
VERTEX
  8
LAYER_1
 10
-278.7118
 20
206.7928
  0
VERTEX
  8
LAYER_1
 10
-278.1877
 20
206.2585
  0
VERTEX
  8
LAYER_1
 10
-277.4515
 20
206.2631
  0
VERTEX
  8
LAYER_1
 10
-277.3209
 20
206.3843
  0
VERTEX
  8
LAYER_1
 10
-270.7582
 20
201.3055
  0
VERTEX
  8
LAYER_1
 10
-270.7582
 20
200.2684
  0
VERTEX
  8
LAYER_1
 10
-270.724
 20
199.3924
  0
VERTEX
  8
LAYER_1
 10
-270.7102
 20
199.3757
  0
VERTEX
  8
LAYER_1
 10
-270.6947
 20
199.2735
  0
VERTEX
  8
LAYER_1
 10
-270.2079
 20
199.2735
  0
VERTEX
  8
LAYER_1
 10
-270.2013
 20
199.3714
  0
VERTEX
  8
LAYER_1
 10
-270.1867
 20
199.3768
  0
VERTEX
  8
LAYER_1
 10
-270.1722
 20
199.4311
  0
VERTEX
  8
LAYER_1
 10
-270.1656
 20
199.6757
  0
VERTEX
  8
LAYER_1
 10
-270.1441
 20
200.0988
  0
VERTEX
  8
LAYER_1
 10
-270.144
 20
201.4541
  0
VERTEX
  8
LAYER_1
 10
-270.159
 20
201.5436
  0
VERTEX
  8
LAYER_1
 10
-270.1913
 20
201.6096
  0
VERTEX
  8
LAYER_1
 10
-270.2428
 20
201.6659
  0
VERTEX
  8
LAYER_1
 10
-270.3157
 20
201.7265
  0
VERTEX
  8
LAYER_1
 10
-272.8546
 20
203.6965
  0
VERTEX
  8
LAYER_1
 10
-276.9177
 20
206.83
  0
VERTEX
  8
LAYER_1
 10
-276.9224
 20
207.5239
  0
VERTEX
  8
LAYER_1
 10
-277.4681
 20
208.0577
  0
VERTEX
  8
LAYER_1
 10
-278.1715
 20
208.0626
  0
VERTEX
  8
LAYER_1
 10
-278.712
 20
207.5237
  0
SEQEND
  8
LAYER_1
  0
POLYLINE
  8
LAYER_1
 66
     1
 70
     1
  0
VERTEX
  8
LAYER_1
 10
-257.5925
 20
187.3144
  0
VERTEX
  8
LAYER_1
 10
-257.3753
 20
187.3221
  0
VERTEX
  8
LAYER_1
 10
-257.2038
 20
187.2464
  0
VERTEX
  8
LAYER_1
 10
-257.0827
 20
187.1108
  0
VERTEX
  8
LAYER_1
 10
-257.0166
 20
186.9386
  0
VERTEX
  8
LAYER_1
 10
-257.0101
 20
186.7532
  0
VERTEX
  8
LAYER_1
 10
-257.0676
 20
186.5779
  0
VERTEX
  8
LAYER_1
 10
-257.194
 20
186.4362
  0
VERTEX
  8
LAYER_1
 10
-257.3936
 20
186.3513
  0
VERTEX
  8
LAYER_1
 10
-257.6051
 20
186.3502
  0
VERTEX
  8
LAYER_1
 10
-257.7781
 20
186.4262
  0
VERTEX
  8
LAYER_1
 10
-257.9053
 20
186.558
  0
VERTEX
  8
LAYER_1
 10
-257.9791
 20
186.7245
  0
VERTEX
  8
LAYER_1
 10
-257.9922
 20
186.9045
  0
VERTEX
  8
LAYER_1
 10
-257.937
 20
187.077
  0
VERTEX
  8
LAYER_1
 10
-257.8063
 20
187.2207
  0
VERTEX
  8
LAYER_1
 10
-257.5925
 20
187.3144
  0
SEQEND
  8
LAYER_1
  0
POLYLINE
  8
LAYER_1
 66
     1
 70
     1
  0
VERTEX
  8
LAYER_1
 10
-264.0907
 20
192.6907
  0
VERTEX
  8
LAYER_1
 10
-263.9526
 20
192.6586
  0
VERTEX
  8
LAYER_1
 10
-263.8834
 20
192.6469
  0
VERTEX
  8
LAYER_1
 10
-263.8119
 20
192.6465
  0
VERTEX
  8
LAYER_1
 10
-263.6674
 20
192.6484
  0
VERTEX
  8
LAYER_1
 10
-263.6461
 20
192.3523
  0
VERTEX
  8
LAYER_1
 10
-263.6479
 20
192.1057
  0
VERTEX
  8
LAYER_1
 10
-263.6398
 20
191.8504
  0
VERTEX
  8
LAYER_1
 10
-263.5939
 20
191.7508
  0
VERTEX
  8
LAYER_1
 10
-263.5138
 20
191.6598
  0
VERTEX
  8
LAYER_1
 10
-263.4193
 20
191.5776
  0
VERTEX
  8
LAYER_1
 10
-263.3302
 20
191.5039
  0
VERTEX
  8
LAYER_1
 10
-261.2248
 20
189.6723
  0
VERTEX
  8
LAYER_1
 10
-259.8092
 20
188.442
  0
VERTEX
  8
LAYER_1
 10
-259.5205
 20
188.1877
  0
VERTEX
  8
LAYER_1
 10
-259.0744
 20
187.7963
  0
VERTEX
  8
LAYER_1
 10
-258.6425
 20
187.4247
  0
VERTEX
  8
LAYER_1
 10
-258.3969
 20
187.2297
  0
VERTEX
  8
LAYER_1
 10
-258.3969
 20
186.4677
  0
VERTEX
  8
LAYER_1
 10
-257.8626
 20
185.9437
  0
VERTEX
  8
LAYER_1
 10
-257.1269
 20
185.9386
  0
VERTEX
  8
LAYER_1
 10
-256.6028
 20
186.4728
  0
VERTEX
  8
LAYER_1
 10
-256.5977
 20
187.2086
  0
VERTEX
  8
LAYER_1
 10
-257.132
 20
187.7326
  0
VERTEX
  8
LAYER_1
 10
-257.5925
 20
187.7377
  0
VERTEX
  8
LAYER_1
 10
-257.7848
 20
187.7387
  0
VERTEX
  8
LAYER_1
 10
-257.8575
 20
187.7318
  0
VERTEX
  8
LAYER_1
 10
-257.8877
 20
187.7067
  0
VERTEX
  8
LAYER_1
 10
-257.9524
 20
187.6531
  0
VERTEX
  8
LAYER_1
 10
-258.5924
 20
188.1983
  0
VERTEX
  8
LAYER_1
 10
-258.7413
 20
188.3363
  0
VERTEX
  8
LAYER_1
 10
-258.9063
 20
188.4735
  0
VERTEX
  8
LAYER_1
 10
-259.0732
 20
188.6105
  0
VERTEX
  8
LAYER_1
 10
-259.2277
 20
188.7484
  0
VERTEX
  8
LAYER_1
 10
-259.5326
 20
189.0276
  0
VERTEX
  8
LAYER_1
 10
-259.8552
 20
189.3034
  0
VERTEX
  8
LAYER_1
 10
-260.1815
 20
189.5769
  0
VERTEX
  8
LAYER_1
 10
-260.4978
 20
189.8489
  0
VERTEX
  8
LAYER_1
 10
-260.6535
 20
189.9902
  0
VERTEX
  8
LAYER_1
 10
-260.8111
 20
190.1349
  0
VERTEX
  8
LAYER_1
 10
-260.9703
 20
190.2746
  0
VERTEX
  8
LAYER_1
 10
-261.1308
 20
190.4013
  0
VERTEX
  8
LAYER_1
 10
-261.2866
 20
190.5269
  0
VERTEX
  8
LAYER_1
 10
-261.446
 20
190.6702
  0
VERTEX
  8
LAYER_1
 10
-261.6066
 20
190.8166
  0
VERTEX
  8
LAYER_1
 10
-261.7662
 20
190.9512
  0
VERTEX
  8
LAYER_1
 10
-262.0445
 20
191.1898
  0
VERTEX
  8
LAYER_1
 10
-262.4215
 20
191.5291
  0
VERTEX
  8
LAYER_1
 10
-262.7873
 20
191.8556
  0
VERTEX
  8
LAYER_1
 10
-263.0324
 20
192.0557
  0
VERTEX
  8
LAYER_1
 10
-263.0535
 20
192.6484
  0
VERTEX
  8
LAYER_1
 10
-262.7149
 20
192.6484
  0
VERTEX
  8
LAYER_1
 10
-262.7149
 20
193.2199
  0
VERTEX
  8
LAYER_1
 10
-263.9016
 20
193.2213
  0
VERTEX
  8
LAYER_1
 10
-264.0055
 20
193.1997
  0
VERTEX
  8
LAYER_1
 10
-264.0907
 20
193.1776
  0
VERTEX
  8
LAYER_1
 10
-264.0907
 20
192.6907
  0
SEQEND
  8
LAYER_1
  0
POLYLINE
  8
LAYER_1
 66
     1
 70
     1
  0
VERTEX
  8
LAYER_1
 10
-257.5925
 20
205.0944
  0
VERTEX
  8
LAYER_1
 10
-257.3753
 20
205.1021
  0
VERTEX
  8
LAYER_1
 10
-257.2038
 20
205.0264
  0
VERTEX
  8
LAYER_1
 10
-257.0827
 20
204.8908
  0
VERTEX
  8
LAYER_1
 10
-257.0166
 20
204.7186
  0
VERTEX
  8
LAYER_1
 10
-257.0101
 20
204.5331
  0
VERTEX
  8
LAYER_1
 10
-257.0676
 20
204.3579
  0
VERTEX
  8
LAYER_1
 10
-257.194
 20
204.2161
  0
VERTEX
  8
LAYER_1
 10
-257.3936
 20
204.1313
  0
VERTEX
  8
LAYER_1
 10
-257.6051
 20
204.1302
  0
VERTEX
  8
LAYER_1
 10
-257.7781
 20
204.2062
  0
VERTEX
  8
LAYER_1
 10
-257.9053
 20
204.338
  0
VERTEX
  8
LAYER_1
 10
-257.9791
 20
204.5045
  0
VERTEX
  8
LAYER_1
 10
-257.9922
 20
204.6845
  0
VERTEX
  8
LAYER_1
 10
-257.937
 20
204.857
  0
VERTEX
  8
LAYER_1
 10
-257.8063
 20
205.0007
  0
VERTEX
  8
LAYER_1
 10
-257.5925
 20
205.0944
  0
SEQEND
  8
LAYER_1
  0
POLYLINE
  8
LAYER_1
 66
     1
 70
     1
  0
VERTEX
  8
LAYER_1
 10
-258.392
 20
204.9837
  0
VERTEX
  8
LAYER_1
 10
-258.3969
 20
204.2265
  0
VERTEX
  8
LAYER_1
 10
-258.8969
 20
203.8154
  0
VERTEX
  8
LAYER_1
 10
-259.8317
 20
203.011
  0
VERTEX
  8
LAYER_1
 10
-260.7658
 20
202.1977
  0
VERTEX
  8
LAYER_1
 10
-261.264
 20
201.7597
  0
VERTEX
  8
LAYER_1
 10
-263.4072
 20
199.9024
  0
VERTEX
  8
LAYER_1
 10
-263.5182
 20
199.8102
  0
VERTEX
  8
LAYER_1
 10
-263.5991
 20
199.7331
  0
VERTEX
  8
LAYER_1
 10
-263.6281
 20
199.6895
  0
VERTEX
  8
LAYER_1
 10
-263.6494
 20
199.6368
  0
VERTEX
  8
LAYER_1
 10
-263.663
 20
199.5706
  0
VERTEX
  8
LAYER_1
 10
-263.6689
 20
199.4867
  0
VERTEX
  8
LAYER_1
 10
-263.6674
 20
198.8079
  0
VERTEX
  8
LAYER_1
 10
-263.8119
 20
198.8098
  0
VERTEX
  8
LAYER_1
 10
-263.8834
 20
198.8094
  0
VERTEX
  8
LAYER_1
 10
-263.9526
 20
198.7976
  0
VERTEX
  8
LAYER_1
 10
-264.0907
 20
198.7655
  0
VERTEX
  8
LAYER_1
 10
-264.0907
 20
198.2787
  0
VERTEX
  8
LAYER_1
 10
-264.0057
 20
198.2661
  0
VERTEX
  8
LAYER_1
 10
-263.9623
 20
198.2378
  0
VERTEX
  8
LAYER_1
 10
-263.7321
 20
198.2371
  0
VERTEX
  8
LAYER_1
 10
-263.4258
 20
198.2234
  0
VERTEX
  8
LAYER_1
 10
-262.7149
 20
198.2364
  0
VERTEX
  8
LAYER_1
 10
-262.7149
 20
198.8079
  0
VERTEX
  8
LAYER_1
 10
-263.0535
 20
198.8079
  0
VERTEX
  8
LAYER_1
 10
-263.0535
 20
199.4005
  0
VERTEX
  8
LAYER_1
 10
-260.5124
 20
201.6007
  0
VERTEX
  8
LAYER_1
 10
-257.9524
 20
203.8032
  0
VERTEX
  8
LAYER_1
 10
-257.8877
 20
203.7496
  0
VERTEX
  8
LAYER_1
 10
-257.8575
 20
203.7245
  0
VERTEX
  8
LAYER_1
 10
-257.7848
 20
203.7175
  0
VERTEX
  8
LAYER_1
 10
-257.5925
 20
203.7185
  0
VERTEX
  8
LAYER_1
 10
-257.132
 20
203.7237
  0
VERTEX
  8
LAYER_1
 10
-256.5977
 20
204.2477
  0
VERTEX
  8
LAYER_1
 10
-256.6028
 20
204.9834
  0
VERTEX
  8
LAYER_1
 10
-257.1269
 20
205.5177
  0
VERTEX
  8
LAYER_1
 10
-257.8515
 20
205.5226
  0
VERTEX
  8
LAYER_1
 10
-258.392
 20
204.9837
  0
SEQEND
  8
LAYER_1
  0
POLYLINE
  8
LAYER_1
 66
     1
 70
     1
  0
VERTEX
  8
LAYER_1
 10
-277.9126
 20
205.0944
  0
VERTEX
  8
LAYER_1
 10
-277.6953
 20
205.1021
  0
VERTEX
  8
LAYER_1
 10
-277.5239
 20
205.0264
  0
VERTEX
  8
LAYER_1
 10
-277.4028
 20
204.8908
  0
VERTEX
  8
LAYER_1
 10
-277.3367
 20
204.7186
  0
VERTEX
  8
LAYER_1
 10
-277.3301
 20
204.5331
  0
VERTEX
  8
LAYER_1
 10
-277.3877
 20
204.3579
  0
VERTEX
  8
LAYER_1
 10
-277.514
 20
204.2161
  0
VERTEX
  8
LAYER_1
 10
-277.7137
 20
204.1313
  0
VERTEX
  8
LAYER_1
 10
-277.9252
 20
204.1302
  0
VERTEX
  8
LAYER_1
 10
-278.0982
 20
204.2062
  0
VERTEX
  8
LAYER_1
 10
-278.2253
 20
204.338
  0
VERTEX
  8
LAYER_1
 10
-278.2992
 20
204.5045
  0
VERTEX
  8
LAYER_1
 10
-278.3122
 20
204.6845
  0
VERTEX
  8
LAYER_1
 10
-278.2571
 20
204.857
  0
VERTEX
  8
LAYER_1
 10
-278.1264
 20
205.0007
  0
VERTEX
  8
LAYER_1
 10
-277.9126
 20
205.0944
  0
SEQEND
  8
LAYER_1
  0
POLYLINE
  8
LAYER_1
 66
     1
 70
     1
  0
VERTEX
  8
LAYER_1
 10
-278.712
 20
204.9837
  0
VERTEX
  8
LAYER_1
 10
-278.7118
 20
204.2528
  0
VERTEX
  8
LAYER_1
 10
-278.1877
 20
203.7185
  0
VERTEX
  8
LAYER_1
 10
-277.7432
 20
203.7185
  0
VERTEX
  8
LAYER_1
 10
-277.5956
 20
203.7148
  0
VERTEX
  8
LAYER_1
 10
-277.5259
 20
203.7157
  0
VERTEX
  8
LAYER_1
 10
-277.4695
 20
203.7392
  0
VERTEX
  8
LAYER_1
 10
-277.3622
 20
203.8032
  0
VERTEX
  8
LAYER_1
 10
-277.1065
 20
203.5953
  0
VERTEX
  8
LAYER_1
 10
-276.5201
 20
203.0953
  0
VERTEX
  8
LAYER_1
 10
-275.714
 20
202.4003
  0
VERTEX
  8
LAYER_1
 10
-274.7987
 20
201.6075
  0
VERTEX
  8
LAYER_1
 10
-273.885
 20
200.814
  0
VERTEX
  8
LAYER_1
 10
-273.0837
 20
200.1169
  0
VERTEX
  8
LAYER_1
 10
-272.5055
 20
199.6134
  0
VERTEX
  8
LAYER_1
 10
-272.2611
 20
199.4005
  0
VERTEX
  8
LAYER_1
 10
-272.2611
 20
198.8079
  0
VERTEX
  8
LAYER_1
 10
-272.5997
 20
198.8079
  0
VERTEX
  8
LAYER_1
 10
-272.5997
 20
198.2364
  0
VERTEX
  8
LAYER_1
 10
-272.2399
 20
198.2364
  0
VERTEX
  8
LAYER_1
 10
-271.8888
 20
198.2234
  0
VERTEX
  8
LAYER_1
 10
-271.5414
 20
198.2364
  0
VERTEX
  8
LAYER_1
 10
-271.4239
 20
198.2349
  0
VERTEX
  8
LAYER_1
 10
-271.3664
 20
198.2362
  0
VERTEX
  8
LAYER_1
 10
-271.3117
 20
198.2482
  0
VERTEX
  8
LAYER_1
 10
-271.2027
 20
198.2787
  0
VERTEX
  8
LAYER_1
 10
-271.2027
 20
198.7655
  0
VERTEX
  8
LAYER_1
 10
-271.2799
 20
198.7725
  0
VERTEX
  8
LAYER_1
 10
-271.3156
 20
198.7878
  0
VERTEX
  8
LAYER_1
 10
-271.4059
 20
198.8025
  0
VERTEX
  8
LAYER_1
 10
-271.6472
 20
198.8079
  0
VERTEX
  8
LAYER_1
 10
-271.6456
 20
199.4657
  0
VERTEX
  8
LAYER_1
 10
-271.6496
 20
199.5537
  0
VERTEX
  8
LAYER_1
 10
-271.6605
 20
199.6221
  0
VERTEX
  8
LAYER_1
 10
-271.6787
 20
199.6759
  0
VERTEX
  8
LAYER_1
 10
-271.7047
 20
199.7198
  0
VERTEX
  8
LAYER_1
 10
-271.782
 20
199.7971
  0
VERTEX
  8
LAYER_1
 10
-271.8961
 20
199.8925
  0
VERTEX
  8
LAYER_1
 10
-272.6094
 20
200.5127
  0
VERTEX
  8
LAYER_1
 10
-273.3055
 20
201.1253
  0
VERTEX
  8
LAYER_1
 10
-274.035
 20
201.7481
  0
VERTEX
  8
LAYER_1
 10
-274.766
 20
202.3723
  0
VERTEX
  8
LAYER_1
 10
-275.4669
 20
202.9892
  0
VERTEX
  8
LAYER_1
 10
-276.9177
 20
204.2265
  0
VERTEX
  8
LAYER_1
 10
-276.9224
 20
204.9839
  0
VERTEX
  8
LAYER_1
 10
-277.4681
 20
205.5177
  0
VERTEX
  8
LAYER_1
 10
-278.1715
 20
205.5226
  0
VERTEX
  8
LAYER_1
 10
-278.712
 20
204.9837
  0
SEQEND
  8
LAYER_1
  0
POLYLINE
  8
LAYER_1
 66
     1
 70
     1
  0
VERTEX
  8
LAYER_1
 10
-277.9126
 20
187.3144
  0
VERTEX
  8
LAYER_1
 10
-277.6953
 20
187.3221
  0
VERTEX
  8
LAYER_1
 10
-277.5239
 20
187.2464
  0
VERTEX
  8
LAYER_1
 10
-277.4028
 20
187.1108
  0
VERTEX
  8
LAYER_1
 10
-277.3367
 20
186.9386
  0
VERTEX
  8
LAYER_1
 10
-277.3301
 20
186.7532
  0
VERTEX
  8
LAYER_1
 10
-277.3877
 20
186.5779
  0
VERTEX
  8
LAYER_1
 10
-277.514
 20
186.4362
  0
VERTEX
  8
LAYER_1
 10
-277.7137
 20
186.3513
  0
VERTEX
  8
LAYER_1
 10
-277.9252
 20
186.3502
  0
VERTEX
  8
LAYER_1
 10
-278.0982
 20
186.4262
  0
VERTEX
  8
LAYER_1
 10
-278.2253
 20
186.558
  0
VERTEX
  8
LAYER_1
 10
-278.2992
 20
186.7245
  0
VERTEX
  8
LAYER_1
 10
-278.3122
 20
186.9045
  0
VERTEX
  8
LAYER_1
 10
-278.2571
 20
187.077
  0
VERTEX
  8
LAYER_1
 10
-278.1264
 20
187.2207
  0
VERTEX
  8
LAYER_1
 10
-277.9126
 20
187.3144
  0
SEQEND
  8
LAYER_1
  0
POLYLINE
  8
LAYER_1
 66
     1
 70
     1
  0
VERTEX
  8
LAYER_1
 10
-271.6472
 20
192.6484
  0
VERTEX
  8
LAYER_1
 10
-271.3916
 20
192.6468
  0
VERTEX
  8
LAYER_1
 10
-271.3074
 20
192.6723
  0
VERTEX
  8
LAYER_1
 10
-271.2027
 20
192.6907
  0
VERTEX
  8
LAYER_1
 10
-271.2027
 20
193.1776
  0
VERTEX
  8
LAYER_1
 10
-271.4477
 20
193.2173
  0
VERTEX
  8
LAYER_1
 10
-271.5941
 20
193.2218
  0
VERTEX
  8
LAYER_1
 10
-271.7207
 20
193.2191
  0
VERTEX
  8
LAYER_1
 10
-271.9063
 20
193.237
  0
VERTEX
  8
LAYER_1
 10
-272.0184
 20
193.2342
  0
VERTEX
  8
LAYER_1
 10
-272.1341
 20
193.2199
  0
VERTEX
  8
LAYER_1
 10
-272.5997
 20
193.2199
  0
VERTEX
  8
LAYER_1
 10
-272.5997
 20
192.6484
  0
VERTEX
  8
LAYER_1
 10
-272.2611
 20
192.6484
  0
VERTEX
  8
LAYER_1
 10
-272.2611
 20
192.0557
  0
VERTEX
  8
LAYER_1
 10
-276.0837
 20
188.7452
  0
VERTEX
  8
LAYER_1
 10
-276.3498
 20
188.5128
  0
VERTEX
  8
LAYER_1
 10
-276.7509
 20
188.1608
  0
VERTEX
  8
LAYER_1
 10
-277.1381
 20
187.8279
  0
VERTEX
  8
LAYER_1
 10
-277.3622
 20
187.6531
  0
VERTEX
  8
LAYER_1
 10
-277.4666
 20
187.7395
  0
VERTEX
  8
LAYER_1
 10
-278.1877
 20
187.7377
  0
VERTEX
  8
LAYER_1
 10
-278.7118
 20
187.2034
  0
VERTEX
  8
LAYER_1
 10
-278.7169
 20
186.4677
  0
VERTEX
  8
LAYER_1
 10
-278.1826
 20
185.9437
  0
VERTEX
  8
LAYER_1
 10
-277.4469
 20
185.9386
  0
VERTEX
  8
LAYER_1
 10
-276.9228
 20
186.4728
  0
VERTEX
  8
LAYER_1
 10
-276.9177
 20
187.2297
  0
VERTEX
  8
LAYER_1
 10
-275.502
 20
188.4387
  0
VERTEX
  8
LAYER_1
 10
-274.1065
 20
189.6467
  0
VERTEX
  8
LAYER_1
 10
-273.7577
 20
189.9518
  0
VERTEX
  8
LAYER_1
 10
-273.4069
 20
190.2624
  0
VERTEX
  8
LAYER_1
 10
-273.0545
 20
190.5699
  0
VERTEX
  8
LAYER_1
 10
-272.7009
 20
190.8657
  0
VERTEX
  8
LAYER_1
 10
-271.9965
 20
191.4737
  0
VERTEX
  8
LAYER_1
 10
-271.8463
 20
191.6081
  0
VERTEX
  8
LAYER_1
 10
-271.7432
 20
191.7119
  0
VERTEX
  8
LAYER_1
 10
-271.679
 20
191.8021
  0
VERTEX
  8
LAYER_1
 10
-271.6452
 20
191.8958
  0
VERTEX
  8
LAYER_1
 10
-271.6355
 20
192.1623
  0
VERTEX
  8
LAYER_1
 10
-271.6472
 20
192.6484
  0
SEQEND
  8
LAYER_1
  0
POLYLINE
  8
LAYER_1
 66
     1
 70
     1
  0
VERTEX
  8
LAYER_1
 10
-257.5925
 20
189.8544
  0
VERTEX
  8
LAYER_1
 10
-257.3753
 20
189.8621
  0
VERTEX
  8
LAYER_1
 10
-257.2038
 20
189.7864
  0
VERTEX
  8
LAYER_1
 10
-257.0827
 20
189.6508
  0
VERTEX
  8
LAYER_1
 10
-257.0166
 20
189.4786
  0
VERTEX
  8
LAYER_1
 10
-257.0101
 20
189.2932
  0
VERTEX
  8
LAYER_1
 10
-257.0676
 20
189.1179
  0
VERTEX
  8
LAYER_1
 10
-257.194
 20
188.9762
  0
VERTEX
  8
LAYER_1
 10
-257.3936
 20
188.8913
  0
VERTEX
  8
LAYER_1
 10
-257.6051
 20
188.8902
  0
VERTEX
  8
LAYER_1
 10
-257.7781
 20
188.9662
  0
VERTEX
  8
LAYER_1
 10
-257.9053
 20
189.098
  0
VERTEX
  8
LAYER_1
 10
-257.9791
 20
189.2645
  0
VERTEX
  8
LAYER_1
 10
-257.9922
 20
189.4445
  0
VERTEX
  8
LAYER_1
 10
-257.937
 20
189.617
  0
VERTEX
  8
LAYER_1
 10
-257.8063
 20
189.7607
  0
VERTEX
  8
LAYER_1
 10
-257.5925
 20
189.8544
  0
SEQEND
  8
LAYER_1
  0
POLYLINE
  8
LAYER_1
 66
     1
 70
     1
  0
VERTEX
  8
LAYER_1
 10
-264.0907
 20
193.4951
  0
VERTEX
  8
LAYER_1
 10
-263.9875
 20
193.4615
  0
VERTEX
  8
LAYER_1
 10
-263.8368
 20
193.4526
  0
VERTEX
  8
LAYER_1
 10
-263.2653
 20
193.4314
  0
VERTEX
  8
LAYER_1
 10
-263.0653
 20
193.435
  0
VERTEX
  8
LAYER_1
 10
-262.7993
 20
193.4378
  0
VERTEX
  8
LAYER_1
 10
-262.5513
 20
193.4301
  0
VERTEX
  8
LAYER_1
 10
-262.4056
 20
193.4021
  0
VERTEX
  8
LAYER_1
 10
-260.2383
 20
191.4419
  0
VERTEX
  8
LAYER_1
 10
-259.6195
 20
190.8754
  0
VERTEX
  8
LAYER_1
 10
-258.3757
 20
189.7697
  0
VERTEX
  8
LAYER_1
 10
-258.3969
 20
189.0077
  0
VERTEX
  8
LAYER_1
 10
-257.8626
 20
188.4837
  0
VERTEX
  8
LAYER_1
 10
-257.1269
 20
188.4786
  0
VERTEX
  8
LAYER_1
 10
-256.6028
 20
189.0128
  0
VERTEX
  8
LAYER_1
 10
-256.5977
 20
189.7486
  0
VERTEX
  8
LAYER_1
 10
-257.1436
 20
190.2822
  0
VERTEX
  8
LAYER_1
 10
-257.8677
 20
190.2777
  0
VERTEX
  8
LAYER_1
 10
-257.9338
 20
190.1953
  0
VERTEX
  8
LAYER_1
 10
-259.0273
 20
191.1713
  0
VERTEX
  8
LAYER_1
 10
-259.2837
 20
191.4185
  0
VERTEX
  8
LAYER_1
 10
-259.5612
 20
191.6611
  0
VERTEX
  8
LAYER_1
 10
-259.8417
 20
191.9021
  0
VERTEX
  8
LAYER_1
 10
-260.1071
 20
192.1446
  0
VERTEX
  8
LAYER_1
 10
-261.1858
 20
193.1191
  0
VERTEX
  8
LAYER_1
 10
-261.4113
 20
193.3327
  0
VERTEX
  8
LAYER_1
 10
-261.7456
 20
193.6435
  0
VERTEX
  8
LAYER_1
 10
-261.9202
 20
193.7953
  0
VERTEX
  8
LAYER_1
 10
-262.0818
 20
193.9236
  0
VERTEX
  8
LAYER_1
 10
-262.2171
 20
194.0123
  0
VERTEX
  8
LAYER_1
 10
-262.3127
 20
194.0454
  0
VERTEX
  8
LAYER_1
 10
-263.371
 20
194.0454
  0
VERTEX
  8
LAYER_1
 10
-263.752
 20
194.0242
  0
VERTEX
  8
LAYER_1
 10
-263.9696
 20
194.0184
  0
VERTEX
  8
LAYER_1
 10
-264.0094
 20
194.0051
  0
VERTEX
  8
LAYER_1
 10
-264.0052
 20
193.9907
  0
VERTEX
  8
LAYER_1
 10
-264.0907
 20
193.9819
  0
VERTEX
  8
LAYER_1
 10
-264.0907
 20
193.4951
  0
SEQEND
  8
LAYER_1
  0
POLYLINE
  8
LAYER_1
 66
     1
 70
     1
  0
VERTEX
  8
LAYER_1
 10
-277.9126
 20
202.5544
  0
VERTEX
  8
LAYER_1
 10
-277.6953
 20
202.5621
  0
VERTEX
  8
LAYER_1
 10
-277.5239
 20
202.4864
  0
VERTEX
  8
LAYER_1
 10
-277.4028
 20
202.3508
  0
VERTEX
  8
LAYER_1
 10
-277.3367
 20
202.1786
  0
VERTEX
  8
LAYER_1
 10
-277.3301
 20
201.9931
  0
VERTEX
  8
LAYER_1
 10
-277.3877
 20
201.8179
  0
VERTEX
  8
LAYER_1
 10
-277.514
 20
201.6761
  0
VERTEX
  8
LAYER_1
 10
-277.7137
 20
201.5913
  0
VERTEX
  8
LAYER_1
 10
-277.9252
 20
201.5902
  0
VERTEX
  8
LAYER_1
 10
-278.0982
 20
201.6662
  0
VERTEX
  8
LAYER_1
 10
-278.2253
 20
201.798
  0
VERTEX
  8
LAYER_1
 10
-278.2992
 20
201.9645
  0
VERTEX
  8
LAYER_1
 10
-278.3122
 20
202.1445
  0
VERTEX
  8
LAYER_1
 10
-278.2571
 20
202.317
  0
VERTEX
  8
LAYER_1
 10
-278.1264
 20
202.4607
  0
VERTEX
  8
LAYER_1
 10
-277.9126
 20
202.5544
  0
SEQEND
  8
LAYER_1
  0
POLYLINE
  8
LAYER_1
 66
     1
 70
     1
  0
VERTEX
  8
LAYER_1
 10
-278.712
 20
202.4437
  0
VERTEX
  8
LAYER_1
 10
-278.7118
 20
201.7128
  0
VERTEX
  8
LAYER_1
 10
-278.1877
 20
201.1785
  0
VERTEX
  8
LAYER_1
 10
-277.4517
 20
201.1834
  0
VERTEX
  8
LAYER_1
 10
-277.2564
 20
201.369
  0
VERTEX
  8
LAYER_1
 10
-277.1005
 20
201.2354
  0
VERTEX
  8
LAYER_1
 10
-276.9301
 20
201.0753
  0
VERTEX
  8
LAYER_1
 10
-276.7628
 20
200.9098
  0
VERTEX
  8
LAYER_1
 10
-276.6164
 20
200.7602
  0
VERTEX
  8
LAYER_1
 10
-275.9697
 20
200.158
  0
VERTEX
  8
LAYER_1
 10
-274.6794
 20
198.9296
  0
VERTEX
  8
LAYER_1
 10
-274.358
 20
198.6273
  0
VERTEX
  8
LAYER_1
 10
-274.0386
 20
198.3094
  0
VERTEX
  8
LAYER_1
 10
-273.7171
 20
197.9942
  0
VERTEX
  8
LAYER_1
 10
-273.3899
 20
197.7002
  0
VERTEX
  8
LAYER_1
 10
-273.1918
 20
197.5171
  0
VERTEX
  8
LAYER_1
 10
-273.08
 20
197.4406
  0
VERTEX
  8
LAYER_1
 10
-272.8779
 20
197.4268
  0
VERTEX
  8
LAYER_1
 10
-272.4092
 20
197.432
  0
VERTEX
  8
LAYER_1
 10
-271.4778
 20
197.4531
  0
VERTEX
  8
LAYER_1
 10
-271.3358
 20
197.4593
  0
VERTEX
  8
LAYER_1
 10
-271.3026
 20
197.4791
  0
VERTEX
  8
LAYER_1
 10
-271.2027
 20
197.4955
  0
VERTEX
  8
LAYER_1
 10
-271.2027
 20
197.9824
  0
VERTEX
  8
LAYER_1
 10
-271.3015
 20
197.989
  0
VERTEX
  8
LAYER_1
 10
-271.3053
 20
198.0036
  0
VERTEX
  8
LAYER_1
 10
-271.3531
 20
198.0181
  0
VERTEX
  8
LAYER_1
 10
-271.5837
 20
198.0247
  0
VERTEX
  8
LAYER_1
 10
-272.0065
 20
198.0464
  0
VERTEX
  8
LAYER_1
 10
-272.8719
 20
198.049
  0
VERTEX
  8
LAYER_1
 10
-276.9177
 20
201.8982
  0
VERTEX
  8
LAYER_1
 10
-276.9224
 20
202.4439
  0
VERTEX
  8
LAYER_1
 10
-277.4681
 20
202.9777
  0
VERTEX
  8
LAYER_1
 10
-278.1715
 20
202.9826
  0
VERTEX
  8
LAYER_1
 10
-278.712
 20
202.4437
  0
SEQEND
  8
LAYER_1
  0
POLYLINE
  8
LAYER_1
 66
     1
 70
     1
  0
VERTEX
  8
LAYER_1
 10
-257.5925
 20
202.5544
  0
VERTEX
  8
LAYER_1
 10
-257.3753
 20
202.5621
  0
VERTEX
  8
LAYER_1
 10
-257.2038
 20
202.4864
  0
VERTEX
  8
LAYER_1
 10
-257.0827
 20
202.3508
  0
VERTEX
  8
LAYER_1
 10
-257.0166
 20
202.1786
  0
VERTEX
  8
LAYER_1
 10
-257.0101
 20
201.9931
  0
VERTEX
  8
LAYER_1
 10
-257.0676
 20
201.8179
  0
VERTEX
  8
LAYER_1
 10
-257.194
 20
201.6761
  0
VERTEX
  8
LAYER_1
 10
-257.3936
 20
201.5913
  0
VERTEX
  8
LAYER_1
 10
-257.6051
 20
201.5902
  0
VERTEX
  8
LAYER_1
 10
-257.7781
 20
201.6662
  0
VERTEX
  8
LAYER_1
 10
-257.9053
 20
201.798
  0
VERTEX
  8
LAYER_1
 10
-257.9791
 20
201.9645
  0
VERTEX
  8
LAYER_1
 10
-257.9922
 20
202.1445
  0
VERTEX
  8
LAYER_1
 10
-257.937
 20
202.317
  0
VERTEX
  8
LAYER_1
 10
-257.8063
 20
202.4607
  0
VERTEX
  8
LAYER_1
 10
-257.5925
 20
202.5544
  0
SEQEND
  8
LAYER_1
  0
POLYLINE
  8
LAYER_1
 66
     1
 70
     1
  0
VERTEX
  8
LAYER_1
 10
-258.392
 20
202.4437
  0
VERTEX
  8
LAYER_1
 10
-258.3757
 20
201.6865
  0
VERTEX
  8
LAYER_1
 10
-260.2324
 20
200.0296
  0
VERTEX
  8
LAYER_1
 10
-260.4902
 20
199.7901
  0
VERTEX
  8
LAYER_1
 10
-260.8546
 20
199.4722
  0
VERTEX
  8
LAYER_1
 10
-261.2177
 20
199.1555
  0
VERTEX
  8
LAYER_1
 10
-261.472
 20
198.9197
  0
VERTEX
  8
LAYER_1
 10
-262.4056
 20
198.0752
  0
VERTEX
  8
LAYER_1
 10
-262.5512
 20
198.0473
  0
VERTEX
  8
LAYER_1
 10
-262.7993
 20
198.0396
  0
VERTEX
  8
LAYER_1
 10
-263.0655
 20
198.0424
  0
VERTEX
  8
LAYER_1
 10
-263.2653
 20
198.046
  0
VERTEX
  8
LAYER_1
 10
-263.8368
 20
198.0248
  0
VERTEX
  8
LAYER_1
 10
-263.9875
 20
198.0159
  0
VERTEX
  8
LAYER_1
 10
-264.0907
 20
197.9824
  0
VERTEX
  8
LAYER_1
 10
-264.0907
 20
197.4955
  0
VERTEX
  8
LAYER_1
 10
-264.0199
 20
197.4827
  0
VERTEX
  8
LAYER_1
 10
-263.9788
 20
197.4593
  0
VERTEX
  8
LAYER_1
 10
-263.8368
 20
197.4531
  0
VERTEX
  8
LAYER_1
 10
-263.2229
 20
197.432
  0
VERTEX
  8
LAYER_1
 10
-262.7814
 20
197.4194
  0
VERTEX
  8
LAYER_1
 10
-262.45
 20
197.4187
  0
VERTEX
  8
LAYER_1
 10
-262.3098
 20
197.4414
  0
VERTEX
  8
LAYER_1
 10
-262.1782
 20
197.4894
  0
VERTEX
  8
LAYER_1
 10
-262.0489
 20
197.5702
  0
VERTEX
  8
LAYER_1
 10
-261.9156
 20
197.6911
  0
VERTEX
  8
LAYER_1
 10
-261.2602
 20
198.2846
  0
VERTEX
  8
LAYER_1
 10
-259.262
 20
200.0752
  0
VERTEX
  8
LAYER_1
 10
-257.9338
 20
201.261
  0
VERTEX
  8
LAYER_1
 10
-257.8677
 20
201.1785
  0
VERTEX
  8
LAYER_1
 10
-257.132
 20
201.1837
  0
VERTEX
  8
LAYER_1
 10
-256.5977
 20
201.7077
  0
VERTEX
  8
LAYER_1
 10
-256.6028
 20
202.4434
  0
VERTEX
  8
LAYER_1
 10
-257.1269
 20
202.9777
  0
VERTEX
  8
LAYER_1
 10
-257.8515
 20
202.9826
  0
VERTEX
  8
LAYER_1
 10
-258.392
 20
202.4437
  0
SEQEND
  8
LAYER_1
  0
POLYLINE
  8
LAYER_1
 66
     1
 70
     1
  0
VERTEX
  8
LAYER_1
 10
-277.9126
 20
189.8544
  0
VERTEX
  8
LAYER_1
 10
-277.6953
 20
189.8621
  0
VERTEX
  8
LAYER_1
 10
-277.5239
 20
189.7864
  0
VERTEX
  8
LAYER_1
 10
-277.4028
 20
189.6508
  0
VERTEX
  8
LAYER_1
 10
-277.3367
 20
189.4786
  0
VERTEX
  8
LAYER_1
 10
-277.3301
 20
189.2932
  0
VERTEX
  8
LAYER_1
 10
-277.3877
 20
189.1179
  0
VERTEX
  8
LAYER_1
 10
-277.514
 20
188.9762
  0
VERTEX
  8
LAYER_1
 10
-277.7137
 20
188.8913
  0
VERTEX
  8
LAYER_1
 10
-277.9252
 20
188.8902
  0
VERTEX
  8
LAYER_1
 10
-278.0982
 20
188.9662
  0
VERTEX
  8
LAYER_1
 10
-278.2253
 20
189.098
  0
VERTEX
  8
LAYER_1
 10
-278.2992
 20
189.2645
  0
VERTEX
  8
LAYER_1
 10
-278.3122
 20
189.4445
  0
VERTEX
  8
LAYER_1
 10
-278.2571
 20
189.617
  0
VERTEX
  8
LAYER_1
 10
-278.1264
 20
189.7607
  0
VERTEX
  8
LAYER_1
 10
-277.9126
 20
189.8544
  0
SEQEND
  8
LAYER_1
  0
POLYLINE
  8
LAYER_1
 66
     1
 70
     1
  0
VERTEX
  8
LAYER_1
 10
-276.9389
 20
189.7697
  0
VERTEX
  8
LAYER_1
 10
-275.6852
 20
190.8867
  0
VERTEX
  8
LAYER_1
 10
-275.0643
 20
191.4512
  0
VERTEX
  8
LAYER_1
 10
-274.4438
 20
192.016
  0
VERTEX
  8
LAYER_1
 10
-273.1984
 20
193.1412
  0
VERTEX
  8
LAYER_1
 10
-273.0735
 20
193.2653
  0
VERTEX
  8
LAYER_1
 10
-272.9742
 20
193.3506
  0
VERTEX
  8
LAYER_1
 10
-272.8897
 20
193.4039
  0
VERTEX
  8
LAYER_1
 10
-272.8089
 20
193.4322
  0
VERTEX
  8
LAYER_1
 10
-272.6146
 20
193.4409
  0
VERTEX
  8
LAYER_1
 10
-272.3034
 20
193.4316
  0
VERTEX
  8
LAYER_1
 10
-271.7321
 20
193.453
  0
VERTEX
  8
LAYER_1
 10
-271.4348
 20
193.4519
  0
VERTEX
  8
LAYER_1
 10
-271.3087
 20
193.4732
  0
VERTEX
  8
LAYER_1
 10
-271.2027
 20
193.4951
  0
VERTEX
  8
LAYER_1
 10
-271.2027
 20
193.9819
  0
VERTEX
  8
LAYER_1
 10
-271.3252
 20
194.0142
  0
VERTEX
  8
LAYER_1
 10
-271.3816
 20
194.0259
  0
VERTEX
  8
LAYER_1
 10
-271.4386
 20
194.0262
  0
VERTEX
  8
LAYER_1
 10
-271.5626
 20
194.0242
  0
VERTEX
  8
LAYER_1
 10
-273.0019
 20
194.0454
  0
VERTEX
  8
LAYER_1
 10
-273.6005
 20
193.6068
  0
VERTEX
  8
LAYER_1
 10
-274.1288
 20
193.1191
  0
VERTEX
  8
LAYER_1
 10
-275.2075
 20
192.1446
  0
VERTEX
  8
LAYER_1
 10
-275.4727
 20
191.9022
  0
VERTEX
  8
LAYER_1
 10
-275.7531
 20
191.6614
  0
VERTEX
  8
LAYER_1
 10
-276.0306
 20
191.4189
  0
VERTEX
  8
LAYER_1
 10
-276.2873
 20
191.1713
  0
VERTEX
  8
LAYER_1
 10
-276.5257
 20
190.9504
  0
VERTEX
  8
LAYER_1
 10
-276.8665
 20
190.6533
  0
VERTEX
  8
LAYER_1
 10
-277.1864
 20
190.3707
  0
VERTEX
  8
LAYER_1
 10
-277.3622
 20
190.1931
  0
VERTEX
  8
LAYER_1
 10
-277.4666
 20
190.2794
  0
VERTEX
  8
LAYER_1
 10
-278.1877
 20
190.2777
  0
VERTEX
  8
LAYER_1
 10
-278.7118
 20
189.7434
  0
VERTEX
  8
LAYER_1
 10
-278.7169
 20
189.0077
  0
VERTEX
  8
LAYER_1
 10
-278.1826
 20
188.4837
  0
VERTEX
  8
LAYER_1
 10
-277.4469
 20
188.4786
  0
VERTEX
  8
LAYER_1
 10
-276.9228
 20
189.0128
  0
VERTEX
  8
LAYER_1
 10
-276.9389
 20
189.7697
  0
SEQEND
  8
LAYER_1
  0
POLYLINE
  8
LAYER_1
 66
     1
 70
     1
  0
VERTEX
  8
LAYER_1
 10
-277.9126
 20
200.0144
  0
VERTEX
  8
LAYER_1
 10
-277.6953
 20
200.0221
  0
VERTEX
  8
LAYER_1
 10
-277.5239
 20
199.9464
  0
VERTEX
  8
LAYER_1
 10
-277.4028
 20
199.8108
  0
VERTEX
  8
LAYER_1
 10
-277.3367
 20
199.6386
  0
VERTEX
  8
LAYER_1
 10
-277.3301
 20
199.4531
  0
VERTEX
  8
LAYER_1
 10
-277.3877
 20
199.2779
  0
VERTEX
  8
LAYER_1
 10
-277.514
 20
199.1361
  0
VERTEX
  8
LAYER_1
 10
-277.7137
 20
199.0513
  0
VERTEX
  8
LAYER_1
 10
-277.9252
 20
199.0502
  0
VERTEX
  8
LAYER_1
 10
-278.0982
 20
199.1262
  0
VERTEX
  8
LAYER_1
 10
-278.2253
 20
199.258
  0
VERTEX
  8
LAYER_1
 10
-278.2992
 20
199.4245
  0
VERTEX
  8
LAYER_1
 10
-278.3122
 20
199.6045
  0
VERTEX
  8
LAYER_1
 10
-278.2571
 20
199.777
  0
VERTEX
  8
LAYER_1
 10
-278.1264
 20
199.9207
  0
VERTEX
  8
LAYER_1
 10
-277.9126
 20
200.0144
  0
SEQEND
  8
LAYER_1
  0
POLYLINE
  8
LAYER_1
 66
     1
 70
     1
  0
VERTEX
  8
LAYER_1
 10
-278.712
 20
199.9037
  0
VERTEX
  8
LAYER_1
 10
-278.7118
 20
199.1728
  0
VERTEX
  8
LAYER_1
 10
-278.1877
 20
198.6385
  0
VERTEX
  8
LAYER_1
 10
-277.5516
 20
198.6375
  0
VERTEX
  8
LAYER_1
 10
-277.3924
 20
198.693
  0
VERTEX
  8
LAYER_1
 10
-277.0461
 20
198.3881
  0
VERTEX
  8
LAYER_1
 10
-276.3709
 20
197.7661
  0
VERTEX
  8
LAYER_1
 10
-275.6659
 20
197.1109
  0
VERTEX
  8
LAYER_1
 10
-275.2304
 20
196.7064
  0
VERTEX
  8
LAYER_1
 10
-275.156
 20
196.6645
  0
VERTEX
  8
LAYER_1
 10
-275.0492
 20
196.6375
  0
VERTEX
  8
LAYER_1
 10
-274.9196
 20
196.6225
  0
VERTEX
  8
LAYER_1
 10
-274.777
 20
196.6167
  0
VERTEX
  8
LAYER_1
 10
-274.4919
 20
196.6211
  0
VERTEX
  8
LAYER_1
 10
-274.2719
 20
196.6277
  0
VERTEX
  8
LAYER_1
 10
-272.1976
 20
196.6277
  0
VERTEX
  8
LAYER_1
 10
-271.3216
 20
196.6619
  0
VERTEX
  8
LAYER_1
 10
-271.3049
 20
196.6758
  0
VERTEX
  8
LAYER_1
 10
-271.2027
 20
196.6912
  0
VERTEX
  8
LAYER_1
 10
-271.2027
 20
197.178
  0
VERTEX
  8
LAYER_1
 10
-271.2881
 20
197.1846
  0
VERTEX
  8
LAYER_1
 10
-271.3106
 20
197.1992
  0
VERTEX
  8
LAYER_1
 10
-271.3851
 20
197.2138
  0
VERTEX
  8
LAYER_1
 10
-271.6261
 20
197.2204
  0
VERTEX
  8
LAYER_1
 10
-272.0917
 20
197.2416
  0
VERTEX
  8
LAYER_1
 10
-274.5047
 20
197.2415
  0
VERTEX
  8
LAYER_1
 10
-274.6574
 20
197.2392
  0
VERTEX
  8
LAYER_1
 10
-274.7699
 20
197.2381
  0
VERTEX
  8
LAYER_1
 10
-274.857
 20
197.2468
  0
VERTEX
  8
LAYER_1
 10
-274.9339
 20
197.2742
  0
VERTEX
  8
LAYER_1
 10
-275.1175
 20
197.4198
  0
VERTEX
  8
LAYER_1
 10
-275.4411
 20
197.7445
  0
VERTEX
  8
LAYER_1
 10
-275.7485
 20
198.0364
  0
VERTEX
  8
LAYER_1
 10
-276.1763
 20
198.4249
  0
VERTEX
  8
LAYER_1
 10
-276.6163
 20
198.8184
  0
VERTEX
  8
LAYER_1
 10
-276.9601
 20
199.1254
  0
VERTEX
  8
LAYER_1
 10
-276.9224
 20
199.9039
  0
VERTEX
  8
LAYER_1
 10
-277.4681
 20
200.4377
  0
VERTEX
  8
LAYER_1
 10
-278.1715
 20
200.4426
  0
VERTEX
  8
LAYER_1
 10
-278.712
 20
199.9037
  0
SEQEND
  8
LAYER_1
  0
POLYLINE
  8
LAYER_1
 66
     1
 70
     1
  0
VERTEX
  8
LAYER_1
 10
-277.9126
 20
192.3944
  0
VERTEX
  8
LAYER_1
 10
-277.6953
 20
192.4021
  0
VERTEX
  8
LAYER_1
 10
-277.5239
 20
192.3264
  0
VERTEX
  8
LAYER_1
 10
-277.4028
 20
192.1908
  0
VERTEX
  8
LAYER_1
 10
-277.3367
 20
192.0186
  0
VERTEX
  8
LAYER_1
 10
-277.3301
 20
191.8332
  0
VERTEX
  8
LAYER_1
 10
-277.3877
 20
191.6579
  0
VERTEX
  8
LAYER_1
 10
-277.514
 20
191.5162
  0
VERTEX
  8
LAYER_1
 10
-277.7137
 20
191.4313
  0
VERTEX
  8
LAYER_1
 10
-277.9252
 20
191.4302
  0
VERTEX
  8
LAYER_1
 10
-278.0982
 20
191.5062
  0
VERTEX
  8
LAYER_1
 10
-278.2253
 20
191.638
  0
VERTEX
  8
LAYER_1
 10
-278.2992
 20
191.8045
  0
VERTEX
  8
LAYER_1
 10
-278.3122
 20
191.9845
  0
VERTEX
  8
LAYER_1
 10
-278.2571
 20
192.157
  0
VERTEX
  8
LAYER_1
 10
-278.1264
 20
192.3007
  0
VERTEX
  8
LAYER_1
 10
-277.9126
 20
192.3944
  0
SEQEND
  8
LAYER_1
  0
POLYLINE
  8
LAYER_1
 66
     1
 70
     1
  0
VERTEX
  8
LAYER_1
 10
-277.3622
 20
192.7119
  0
VERTEX
  8
LAYER_1
 10
-277.4681
 20
192.8177
  0
VERTEX
  8
LAYER_1
 10
-278.1826
 20
192.8126
  0
VERTEX
  8
LAYER_1
 10
-278.7169
 20
192.2886
  0
VERTEX
  8
LAYER_1
 10
-278.7118
 20
191.5528
  0
VERTEX
  8
LAYER_1
 10
-278.1877
 20
191.0186
  0
VERTEX
  8
LAYER_1
 10
-277.452
 20
191.0237
  0
VERTEX
  8
LAYER_1
 10
-276.9177
 20
191.5477
  0
VERTEX
  8
LAYER_1
 10
-276.9177
 20
192.2886
  0
VERTEX
  8
LAYER_1
 10
-276.4707
 20
192.6568
  0
VERTEX
  8
LAYER_1
 10
-275.7133
 20
193.3103
  0
VERTEX
  8
LAYER_1
 10
-274.9973
 20
193.9344
  0
VERTEX
  8
LAYER_1
 10
-274.6741
 20
194.2147
  0
VERTEX
  8
LAYER_1
 10
-274.2696
 20
194.2218
  0
VERTEX
  8
LAYER_1
 10
-273.4167
 20
194.2136
  0
VERTEX
  8
LAYER_1
 10
-272.4831
 20
194.2109
  0
VERTEX
  8
LAYER_1
 10
-271.8362
 20
194.2343
  0
VERTEX
  8
LAYER_1
 10
-271.6796
 20
194.241
  0
VERTEX
  8
LAYER_1
 10
-271.5684
 20
194.2329
  0
VERTEX
  8
LAYER_1
 10
-271.4327
 20
194.2364
  0
VERTEX
  8
LAYER_1
 10
-271.2027
 20
194.2782
  0
VERTEX
  8
LAYER_1
 10
-271.2027
 20
194.7651
  0
VERTEX
  8
LAYER_1
 10
-271.3083
 20
194.7858
  0
VERTEX
  8
LAYER_1
 10
-271.413
 20
194.8087
  0
VERTEX
  8
LAYER_1
 10
-274.2507
 20
194.8286
  0
VERTEX
  8
LAYER_1
 10
-274.5747
 20
194.8357
  0
VERTEX
  8
LAYER_1
 10
-274.7732
 20
194.8311
  0
VERTEX
  8
LAYER_1
 10
-274.8503
 20
194.8123
  0
VERTEX
  8
LAYER_1
 10
-274.9259
 20
194.7761
  0
VERTEX
  8
LAYER_1
 10
-275.0099
 20
194.7176
  0
VERTEX
  8
LAYER_1
 10
-275.1124
 20
194.632
  0
VERTEX
  8
LAYER_1
 10
-277.3622
 20
192.7119
  0
SEQEND
  8
LAYER_1
  0
POLYLINE
  8
LAYER_1
 66
     1
 70
     1
  0
VERTEX
  8
LAYER_1
 10
-257.5925
 20
200.0144
  0
VERTEX
  8
LAYER_1
 10
-257.3753
 20
200.0221
  0
VERTEX
  8
LAYER_1
 10
-257.2038
 20
199.9464
  0
VERTEX
  8
LAYER_1
 10
-257.0827
 20
199.8108
  0
VERTEX
  8
LAYER_1
 10
-257.0166
 20
199.6386
  0
VERTEX
  8
LAYER_1
 10
-257.0101
 20
199.4531
  0
VERTEX
  8
LAYER_1
 10
-257.0676
 20
199.2779
  0
VERTEX
  8
LAYER_1
 10
-257.194
 20
199.1361
  0
VERTEX
  8
LAYER_1
 10
-257.3936
 20
199.0513
  0
VERTEX
  8
LAYER_1
 10
-257.6051
 20
199.0502
  0
VERTEX
  8
LAYER_1
 10
-257.7781
 20
199.1262
  0
VERTEX
  8
LAYER_1
 10
-257.9053
 20
199.258
  0
VERTEX
  8
LAYER_1
 10
-257.9791
 20
199.4245
  0
VERTEX
  8
LAYER_1
 10
-257.9922
 20
199.6045
  0
VERTEX
  8
LAYER_1
 10
-257.937
 20
199.777
  0
VERTEX
  8
LAYER_1
 10
-257.8063
 20
199.9207
  0
VERTEX
  8
LAYER_1
 10
-257.5925
 20
200.0144
  0
SEQEND
  8
LAYER_1
  0
POLYLINE
  8
LAYER_1
 66
     1
 70
     1
  0
VERTEX
  8
LAYER_1
 10
-258.392
 20
199.9037
  0
VERTEX
  8
LAYER_1
 10
-258.3969
 20
199.1677
  0
VERTEX
  8
LAYER_1
 10
-258.8409
 20
198.8018
  0
VERTEX
  8
LAYER_1
 10
-259.6002
 20
198.1475
  0
VERTEX
  8
LAYER_1
 10
-260.3187
 20
197.5218
  0
VERTEX
  8
LAYER_1
 10
-260.6405
 20
197.2415
  0
VERTEX
  8
LAYER_1
 10
-263.9016
 20
197.2217
  0
VERTEX
  8
LAYER_1
 10
-264.0907
 20
197.178
  0
VERTEX
  8
LAYER_1
 10
-264.0907
 20
196.6912
  0
VERTEX
  8
LAYER_1
 10
-264.0019
 20
196.668
  0
VERTEX
  8
LAYER_1
 10
-263.8798
 20
196.6481
  0
VERTEX
  8
LAYER_1
 10
-263.625
 20
196.6489
  0
VERTEX
  8
LAYER_1
 10
-263.117
 20
196.6277
  0
VERTEX
  8
LAYER_1
 10
-261.0427
 20
196.6277
  0
VERTEX
  8
LAYER_1
 10
-260.7878
 20
196.6193
  0
VERTEX
  8
LAYER_1
 10
-260.5843
 20
196.6216
  0
VERTEX
  8
LAYER_1
 10
-260.4916
 20
196.6396
  0
VERTEX
  8
LAYER_1
 10
-260.3995
 20
196.6758
  0
VERTEX
  8
LAYER_1
 10
-260.304
 20
196.7352
  0
VERTEX
  8
LAYER_1
 10
-260.2009
 20
196.823
  0
VERTEX
  8
LAYER_1
 10
-259.0828
 20
197.7794
  0
VERTEX
  8
LAYER_1
 10
-257.9691
 20
198.7489
  0
VERTEX
  8
LAYER_1
 10
-257.8677
 20
198.6385
  0
VERTEX
  8
LAYER_1
 10
-257.132
 20
198.6437
  0
VERTEX
  8
LAYER_1
 10
-256.5977
 20
199.1677
  0
VERTEX
  8
LAYER_1
 10
-256.6028
 20
199.9034
  0
VERTEX
  8
LAYER_1
 10
-257.1269
 20
200.4377
  0
VERTEX
  8
LAYER_1
 10
-257.8515
 20
200.4426
  0
VERTEX
  8
LAYER_1
 10
-258.392
 20
199.9037
  0
SEQEND
  8
LAYER_1
  0
POLYLINE
  8
LAYER_1
 66
     1
 70
     1
  0
VERTEX
  8
LAYER_1
 10
-257.5925
 20
192.3944
  0
VERTEX
  8
LAYER_1
 10
-257.3753
 20
192.4021
  0
VERTEX
  8
LAYER_1
 10
-257.2038
 20
192.3264
  0
VERTEX
  8
LAYER_1
 10
-257.0827
 20
192.1908
  0
VERTEX
  8
LAYER_1
 10
-257.0166
 20
192.0186
  0
VERTEX
  8
LAYER_1
 10
-257.0101
 20
191.8332
  0
VERTEX
  8
LAYER_1
 10
-257.0676
 20
191.6579
  0
VERTEX
  8
LAYER_1
 10
-257.194
 20
191.5162
  0
VERTEX
  8
LAYER_1
 10
-257.3936
 20
191.4313
  0
VERTEX
  8
LAYER_1
 10
-257.6051
 20
191.4302
  0
VERTEX
  8
LAYER_1
 10
-257.7781
 20
191.5062
  0
VERTEX
  8
LAYER_1
 10
-257.9053
 20
191.638
  0
VERTEX
  8
LAYER_1
 10
-257.9791
 20
191.8045
  0
VERTEX
  8
LAYER_1
 10
-257.9922
 20
191.9845
  0
VERTEX
  8
LAYER_1
 10
-257.937
 20
192.157
  0
VERTEX
  8
LAYER_1
 10
-257.8063
 20
192.3007
  0
VERTEX
  8
LAYER_1
 10
-257.5925
 20
192.3944
  0
SEQEND
  8
LAYER_1
  0
POLYLINE
  8
LAYER_1
 66
     1
 70
     1
  0
VERTEX
  8
LAYER_1
 10
-264.0907
 20
194.7651
  0
VERTEX
  8
LAYER_1
 10
-264.0907
 20
194.2782
  0
VERTEX
  8
LAYER_1
 10
-264.0093
 20
194.2695
  0
VERTEX
  8
LAYER_1
 10
-264.0068
 20
194.2552
  0
VERTEX
  8
LAYER_1
 10
-263.9509
 20
194.2418
  0
VERTEX
  8
LAYER_1
 10
-263.7097
 20
194.2359
  0
VERTEX
  8
LAYER_1
 10
-263.2867
 20
194.2144
  0
VERTEX
  8
LAYER_1
 10
-260.6405
 20
194.2147
  0
VERTEX
  8
LAYER_1
 10
-260.3796
 20
193.9688
  0
VERTEX
  8
LAYER_1
 10
-260.0902
 20
193.7279
  0
VERTEX
  8
LAYER_1
 10
-258.9721
 20
192.7717
  0
VERTEX
  8
LAYER_1
 10
-258.3969
 20
192.2886
  0
VERTEX
  8
LAYER_1
 10
-258.3918
 20
191.5528
  0
VERTEX
  8
LAYER_1
 10
-257.8677
 20
191.0186
  0
VERTEX
  8
LAYER_1
 10
-257.132
 20
191.0237
  0
VERTEX
  8
LAYER_1
 10
-256.5977
 20
191.5477
  0
VERTEX
  8
LAYER_1
 10
-256.6028
 20
192.2834
  0
VERTEX
  8
LAYER_1
 10
-257.1269
 20
192.8177
  0
VERTEX
  8
LAYER_1
 10
-257.8632
 20
192.8132
  0
VERTEX
  8
LAYER_1
 10
-257.9735
 20
192.7119
  0
VERTEX
  8
LAYER_1
 10
-258.2274
 20
192.9444
  0
VERTEX
  8
LAYER_1
 10
-258.7433
 20
193.3883
  0
VERTEX
  8
LAYER_1
 10
-259.291
 20
193.8551
  0
VERTEX
  8
LAYER_1
 10
-259.6401
 20
194.1568
  0
VERTEX
  8
LAYER_1
 10
-260.2009
 20
194.6332
  0
VERTEX
  8
LAYER_1
 10
-260.3038
 20
194.7209
  0
VERTEX
  8
LAYER_1
 10
-260.3994
 20
194.7802
  0
VERTEX
  8
LAYER_1
 10
-260.4916
 20
194.8164
  0
VERTEX
  8
LAYER_1
 10
-260.5844
 20
194.8344
  0
VERTEX
  8
LAYER_1
 10
-260.7881
 20
194.8369
  0
VERTEX
  8
LAYER_1
 10
-261.0427
 20
194.8286
  0
VERTEX
  8
LAYER_1
 10
-263.9788
 20
194.8013
  0
VERTEX
  8
LAYER_1
 10
-264.0218
 20
194.7766
  0
VERTEX
  8
LAYER_1
 10
-264.0907
 20
194.7651
  0
SEQEND
  8
LAYER_1
  0
POLYLINE
  8
LAYER_1
 66
     1
 70
     1
  0
VERTEX
  8
LAYER_1
 10
-277.9126
 20
197.4744
  0
VERTEX
  8
LAYER_1
 10
-277.6953
 20
197.4821
  0
VERTEX
  8
LAYER_1
 10
-277.5239
 20
197.4064
  0
VERTEX
  8
LAYER_1
 10
-277.4028
 20
197.2708
  0
VERTEX
  8
LAYER_1
 10
-277.3367
 20
197.0986
  0
VERTEX
  8
LAYER_1
 10
-277.3301
 20
196.9131
  0
VERTEX
  8
LAYER_1
 10
-277.3877
 20
196.7379
  0
VERTEX
  8
LAYER_1
 10
-277.514
 20
196.5961
  0
VERTEX
  8
LAYER_1
 10
-277.7137
 20
196.5113
  0
VERTEX
  8
LAYER_1
 10
-277.9252
 20
196.5102
  0
VERTEX
  8
LAYER_1
 10
-278.0982
 20
196.5862
  0
VERTEX
  8
LAYER_1
 10
-278.2253
 20
196.718
  0
VERTEX
  8
LAYER_1
 10
-278.2992
 20
196.8845
  0
VERTEX
  8
LAYER_1
 10
-278.3122
 20
197.0645
  0
VERTEX
  8
LAYER_1
 10
-278.2571
 20
197.237
  0
VERTEX
  8
LAYER_1
 10
-278.1264
 20
197.3807
  0
VERTEX
  8
LAYER_1
 10
-277.9126
 20
197.4744
  0
SEQEND
  8
LAYER_1
  0
POLYLINE
  8
LAYER_1
 66
     1
 70
     1
  0
VERTEX
  8
LAYER_1
 10
-278.712
 20
197.3637
  0
VERTEX
  8
LAYER_1
 10
-278.7118
 20
196.6328
  0
VERTEX
  8
LAYER_1
 10
-278.1877
 20
196.0985
  0
VERTEX
  8
LAYER_1
 10
-277.4514
 20
196.103
  0
VERTEX
  8
LAYER_1
 10
-277.3411
 20
196.2044
  0
VERTEX
  8
LAYER_1
 10
-277.2641
 20
196.1223
  0
VERTEX
  8
LAYER_1
 10
-277.1329
 20
196.0063
  0
VERTEX
  8
LAYER_1
 10
-276.9956
 20
195.8983
  0
VERTEX
  8
LAYER_1
 10
-276.9005
 20
195.8406
  0
VERTEX
  8
LAYER_1
 10
-276.7013
 20
195.8271
  0
VERTEX
  8
LAYER_1
 10
-276.2591
 20
195.8192
  0
VERTEX
  8
LAYER_1
 10
-275.6503
 20
195.8156
  0
VERTEX
  8
LAYER_1
 10
-274.9517
 20
195.8154
  0
VERTEX
  8
LAYER_1
 10
-274.2397
 20
195.8171
  0
VERTEX
  8
LAYER_1
 10
-273.5911
 20
195.8198
  0
VERTEX
  8
LAYER_1
 10
-273.0824
 20
195.8223
  0
VERTEX
  8
LAYER_1
 10
-272.7902
 20
195.8234
  0
VERTEX
  8
LAYER_1
 10
-271.9641
 20
195.8227
  0
VERTEX
  8
LAYER_1
 10
-271.5837
 20
195.8445
  0
VERTEX
  8
LAYER_1
 10
-271.451
 20
195.8422
  0
VERTEX
  8
LAYER_1
 10
-271.3897
 20
195.842
  0
VERTEX
  8
LAYER_1
 10
-271.3302
 20
195.8536
  0
VERTEX
  8
LAYER_1
 10
-271.2027
 20
195.8869
  0
VERTEX
  8
LAYER_1
 10
-271.2027
 20
196.3737
  0
VERTEX
  8
LAYER_1
 10
-271.2856
 20
196.3806
  0
VERTEX
  8
LAYER_1
 10
-271.3079
 20
196.3956
  0
VERTEX
  8
LAYER_1
 10
-271.3516
 20
196.4102
  0
VERTEX
  8
LAYER_1
 10
-271.499
 20
196.4161
  0
VERTEX
  8
LAYER_1
 10
-272.5151
 20
196.4372
  0
VERTEX
  8
LAYER_1
 10
-276.6993
 20
196.4451
  0
VERTEX
  8
LAYER_1
 10
-276.9177
 20
196.6277
  0
VERTEX
  8
LAYER_1
 10
-276.9224
 20
197.3639
  0
VERTEX
  8
LAYER_1
 10
-277.4681
 20
197.8977
  0
VERTEX
  8
LAYER_1
 10
-278.1715
 20
197.9027
  0
VERTEX
  8
LAYER_1
 10
-278.712
 20
197.3637
  0
SEQEND
  8
LAYER_1
  0
POLYLINE
  8
LAYER_1
 66
     1
 70
     1
  0
VERTEX
  8
LAYER_1
 10
-277.9126
 20
194.9344
  0
VERTEX
  8
LAYER_1
 10
-277.6953
 20
194.9421
  0
VERTEX
  8
LAYER_1
 10
-277.5239
 20
194.8664
  0
VERTEX
  8
LAYER_1
 10
-277.4028
 20
194.7308
  0
VERTEX
  8
LAYER_1
 10
-277.3367
 20
194.5586
  0
VERTEX
  8
LAYER_1
 10
-277.3301
 20
194.3731
  0
VERTEX
  8
LAYER_1
 10
-277.3877
 20
194.1979
  0
VERTEX
  8
LAYER_1
 10
-277.514
 20
194.0561
  0
VERTEX
  8
LAYER_1
 10
-277.7137
 20
193.9713
  0
VERTEX
  8
LAYER_1
 10
-277.9252
 20
193.9702
  0
VERTEX
  8
LAYER_1
 10
-278.0982
 20
194.0462
  0
VERTEX
  8
LAYER_1
 10
-278.2253
 20
194.178
  0
VERTEX
  8
LAYER_1
 10
-278.2992
 20
194.3445
  0
VERTEX
  8
LAYER_1
 10
-278.3122
 20
194.5245
  0
VERTEX
  8
LAYER_1
 10
-278.2571
 20
194.697
  0
VERTEX
  8
LAYER_1
 10
-278.1264
 20
194.8407
  0
VERTEX
  8
LAYER_1
 10
-277.9126
 20
194.9344
  0
SEQEND
  8
LAYER_1
  0
POLYLINE
  8
LAYER_1
 66
     1
 70
     1
  0
VERTEX
  8
LAYER_1
 10
-277.3411
 20
195.2519
  0
VERTEX
  8
LAYER_1
 10
-277.4681
 20
195.3577
  0
VERTEX
  8
LAYER_1
 10
-278.1826
 20
195.3526
  0
VERTEX
  8
LAYER_1
 10
-278.7169
 20
194.8286
  0
VERTEX
  8
LAYER_1
 10
-278.7118
 20
194.0928
  0
VERTEX
  8
LAYER_1
 10
-278.1877
 20
193.5586
  0
VERTEX
  8
LAYER_1
 10
-277.452
 20
193.5637
  0
VERTEX
  8
LAYER_1
 10
-276.9177
 20
194.0877
  0
VERTEX
  8
LAYER_1
 10
-276.9151
 20
194.8255
  0
VERTEX
  8
LAYER_1
 10
-276.7061
 20
195.0191
  0
VERTEX
  8
LAYER_1
 10
-276.4876
 20
195.0283
  0
VERTEX
  8
LAYER_1
 10
-275.9706
 20
195.0285
  0
VERTEX
  8
LAYER_1
 10
-275.249
 20
195.0232
  0
VERTEX
  8
LAYER_1
 10
-274.4166
 20
195.0158
  0
VERTEX
  8
LAYER_1
 10
-273.5671
 20
195.0099
  0
VERTEX
  8
LAYER_1
 10
-272.7944
 20
195.0089
  0
VERTEX
  8
LAYER_1
 10
-272.1923
 20
195.0164
  0
VERTEX
  8
LAYER_1
 10
-271.8545
 20
195.0358
  0
VERTEX
  8
LAYER_1
 10
-271.6876
 20
195.047
  0
VERTEX
  8
LAYER_1
 10
-271.5586
 20
195.0387
  0
VERTEX
  8
LAYER_1
 10
-271.4147
 20
195.0406
  0
VERTEX
  8
LAYER_1
 10
-271.2027
 20
195.0826
  0
VERTEX
  8
LAYER_1
 10
-271.2027
 20
195.5694
  0
VERTEX
  8
LAYER_1
 10
-271.3013
 20
195.576
  0
VERTEX
  8
LAYER_1
 10
-271.3049
 20
195.5906
  0
VERTEX
  8
LAYER_1
 10
-271.3474
 20
195.6052
  0
VERTEX
  8
LAYER_1
 10
-271.5626
 20
195.6117
  0
VERTEX
  8
LAYER_1
 10
-271.9437
 20
195.6327
  0
VERTEX
  8
LAYER_1
 10
-272.3989
 20
195.6424
  0
VERTEX
  8
LAYER_1
 10
-273.1464
 20
195.6414
  0
VERTEX
  8
LAYER_1
 10
-273.9117
 20
195.6361
  0
VERTEX
  8
LAYER_1
 10
-274.4201
 20
195.6329
  0
VERTEX
  8
LAYER_1
 10
-274.8847
 20
195.6354
  0
VERTEX
  8
LAYER_1
 10
-275.6919
 20
195.6385
  0
VERTEX
  8
LAYER_1
 10
-276.4795
 20
195.6354
  0
VERTEX
  8
LAYER_1
 10
-276.8848
 20
195.6194
  0
VERTEX
  8
LAYER_1
 10
-276.9867
 20
195.5632
  0
VERTEX
  8
LAYER_1
 10
-277.1258
 20
195.457
  0
VERTEX
  8
LAYER_1
 10
-277.2585
 20
195.3401
  0
VERTEX
  8
LAYER_1
 10
-277.3411
 20
195.2519
  0
SEQEND
  8
LAYER_1
  0
POLYLINE
  8
LAYER_1
 66
     1
 70
     1
  0
VERTEX
  8
LAYER_1
 10
-257.5925
 20
194.9344
  0
VERTEX
  8
LAYER_1
 10
-257.3753
 20
194.9421
  0
VERTEX
  8
LAYER_1
 10
-257.2038
 20
194.8664
  0
VERTEX
  8
LAYER_1
 10
-257.0827
 20
194.7308
  0
VERTEX
  8
LAYER_1
 10
-257.0166
 20
194.5586
  0
VERTEX
  8
LAYER_1
 10
-257.0101
 20
194.3731
  0
VERTEX
  8
LAYER_1
 10
-257.0676
 20
194.1979
  0
VERTEX
  8
LAYER_1
 10
-257.194
 20
194.0561
  0
VERTEX
  8
LAYER_1
 10
-257.3936
 20
193.9713
  0
VERTEX
  8
LAYER_1
 10
-257.6051
 20
193.9702
  0
VERTEX
  8
LAYER_1
 10
-257.7781
 20
194.0462
  0
VERTEX
  8
LAYER_1
 10
-257.9053
 20
194.178
  0
VERTEX
  8
LAYER_1
 10
-257.9791
 20
194.3445
  0
VERTEX
  8
LAYER_1
 10
-257.9922
 20
194.5245
  0
VERTEX
  8
LAYER_1
 10
-257.937
 20
194.697
  0
VERTEX
  8
LAYER_1
 10
-257.8063
 20
194.8407
  0
VERTEX
  8
LAYER_1
 10
-257.5925
 20
194.9344
  0
SEQEND
  8
LAYER_1
  0
POLYLINE
  8
LAYER_1
 66
     1
 70
     1
  0
VERTEX
  8
LAYER_1
 10
-264.0907
 20
195.5694
  0
VERTEX
  8
LAYER_1
 10
-264.0907
 20
195.0826
  0
VERTEX
  8
LAYER_1
 10
-264.0052
 20
195.0738
  0
VERTEX
  8
LAYER_1
 10
-264.0094
 20
195.0594
  0
VERTEX
  8
LAYER_1
 10
-263.9696
 20
195.046
  0
VERTEX
  8
LAYER_1
 10
-263.752
 20
195.0402
  0
VERTEX
  8
LAYER_1
 10
-263.3903
 20
195.021
  0
VERTEX
  8
LAYER_1
 10
-259.5399
 20
195.0191
  0
VERTEX
  8
LAYER_1
 10
-259.2981
 20
195.0242
  0
VERTEX
  8
LAYER_1
 10
-259.164
 20
195.0227
  0
VERTEX
  8
LAYER_1
 10
-259.0569
 20
194.9899
  0
VERTEX
  8
LAYER_1
 10
-258.8964
 20
194.9006
  0
VERTEX
  8
LAYER_1
 10
-258.3969
 20
194.6169
  0
VERTEX
  8
LAYER_1
 10
-258.3918
 20
194.0928
  0
VERTEX
  8
LAYER_1
 10
-257.8677
 20
193.5586
  0
VERTEX
  8
LAYER_1
 10
-257.132
 20
193.5637
  0
VERTEX
  8
LAYER_1
 10
-256.5977
 20
194.0877
  0
VERTEX
  8
LAYER_1
 10
-256.6028
 20
194.8234
  0
VERTEX
  8
LAYER_1
 10
-257.1269
 20
195.3577
  0
VERTEX
  8
LAYER_1
 10
-257.8628
 20
195.3529
  0
VERTEX
  8
LAYER_1
 10
-258.0794
 20
195.1461
  0
VERTEX
  8
LAYER_1
 10
-258.5945
 20
195.4352
  0
VERTEX
  8
LAYER_1
 10
-258.765
 20
195.5349
  0
VERTEX
  8
LAYER_1
 10
-258.8785
 20
195.5953
  0
VERTEX
  8
LAYER_1
 10
-259.0069
 20
195.625
  0
VERTEX
  8
LAYER_1
 10
-259.2224
 20
195.6329
  0
VERTEX
  8
LAYER_1
 10
-262.5032
 20
195.6329
  0
VERTEX
  8
LAYER_1
 10
-263.3305
 20
195.6342
  0
VERTEX
  8
LAYER_1
 10
-263.7097
 20
195.6117
  0
VERTEX
  8
LAYER_1
 10
-263.9508
 20
195.6055
  0
VERTEX
  8
LAYER_1
 10
-264.0068
 20
195.5922
  0
VERTEX
  8
LAYER_1
 10
-264.0095
 20
195.578
  0
VERTEX
  8
LAYER_1
 10
-264.0907
 20
195.5694
  0
SEQEND
  8
LAYER_1
  0
POLYLINE
  8
LAYER_1
 66
     1
 70
     1
  0
VERTEX
  8
LAYER_1
 10
-257.5925
 20
197.4744
  0
VERTEX
  8
LAYER_1
 10
-257.3753
 20
197.4821
  0
VERTEX
  8
LAYER_1
 10
-257.2038
 20
197.4064
  0
VERTEX
  8
LAYER_1
 10
-257.0827
 20
197.2708
  0
VERTEX
  8
LAYER_1
 10
-257.0166
 20
197.0986
  0
VERTEX
  8
LAYER_1
 10
-257.0101
 20
196.9131
  0
VERTEX
  8
LAYER_1
 10
-257.0676
 20
196.7379
  0
VERTEX
  8
LAYER_1
 10
-257.194
 20
196.5961
  0
VERTEX
  8
LAYER_1
 10
-257.3936
 20
196.5113
  0
VERTEX
  8
LAYER_1
 10
-257.6051
 20
196.5102
  0
VERTEX
  8
LAYER_1
 10
-257.7781
 20
196.5862
  0
VERTEX
  8
LAYER_1
 10
-257.9053
 20
196.718
  0
VERTEX
  8
LAYER_1
 10
-257.9791
 20
196.8845
  0
VERTEX
  8
LAYER_1
 10
-257.9922
 20
197.0645
  0
VERTEX
  8
LAYER_1
 10
-257.937
 20
197.237
  0
VERTEX
  8
LAYER_1
 10
-257.8063
 20
197.3807
  0
VERTEX
  8
LAYER_1
 10
-257.5925
 20
197.4744
  0
SEQEND
  8
LAYER_1
  0
POLYLINE
  8
LAYER_1
 66
     1
 70
     1
  0
VERTEX
  8
LAYER_1
 10
-258.392
 20
197.3637
  0
VERTEX
  8
LAYER_1
 10
-258.3969
 20
197.051
  0
VERTEX
  8
LAYER_1
 10
-259.1165
 20
196.4372
  0
VERTEX
  8
LAYER_1
 10
-263.2017
 20
196.4372
  0
VERTEX
  8
LAYER_1
 10
-263.8156
 20
196.4161
  0
VERTEX
  8
LAYER_1
 10
-263.9089
 20
196.4173
  0
VERTEX
  8
LAYER_1
 10
-263.9567
 20
196.415
  0
VERTEX
  8
LAYER_1
 10
-264.0027
 20
196.4027
  0
VERTEX
  8
LAYER_1
 10
-264.0907
 20
196.3737
  0
VERTEX
  8
LAYER_1
 10
-264.0907
 20
195.8869
  0
VERTEX
  8
LAYER_1
 10
-264.0052
 20
195.878
  0
VERTEX
  8
LAYER_1
 10
-264.0095
 20
195.8637
  0
VERTEX
  8
LAYER_1
 10
-263.9645
 20
195.8504
  0
VERTEX
  8
LAYER_1
 10
-263.7309
 20
195.8445
  0
VERTEX
  8
LAYER_1
 10
-263.3505
 20
195.8227
  0
VERTEX
  8
LAYER_1
 10
-262.5244
 20
195.8234
  0
VERTEX
  8
LAYER_1
 10
-259.2224
 20
195.8234
  0
VERTEX
  8
LAYER_1
 10
-259.0095
 20
195.8285
  0
VERTEX
  8
LAYER_1
 10
-258.884
 20
195.8569
  0
VERTEX
  8
LAYER_1
 10
-258.7809
 20
195.9281
  0
VERTEX
  8
LAYER_1
 10
-258.6353
 20
196.0618
  0
VERTEX
  8
LAYER_1
 10
-258.1897
 20
196.4327
  0
VERTEX
  8
LAYER_1
 10
-257.8677
 20
196.0985
  0
VERTEX
  8
LAYER_1
 10
-257.132
 20
196.1037
  0
VERTEX
  8
LAYER_1
 10
-256.5977
 20
196.6277
  0
VERTEX
  8
LAYER_1
 10
-256.6023
 20
197.3639
  0
VERTEX
  8
LAYER_1
 10
-257.148
 20
197.8977
  0
VERTEX
  8
LAYER_1
 10
-257.8515
 20
197.9027
  0
VERTEX
  8
LAYER_1
 10
-258.392
 20
197.3637
  0
SEQEND
  8
LAYER_1
  0
POLYLINE
  8
LAYER_1
 66
     1
 70
     1
  0
VERTEX
  8
LAYER_1
 10
-277.9126
 20
207.6344
  0
VERTEX
  8
LAYER_1
 10
-278.1264
 20
207.5407
  0
VERTEX
  8
LAYER_1
 10
-278.2571
 20
207.397
  0
VERTEX
  8
LAYER_1
 10
-278.3122
 20
207.2245
  0
VERTEX
  8
LAYER_1
 10
-278.2992
 20
207.0445
  0
VERTEX
  8
LAYER_1
 10
-278.2253
 20
206.878
  0
VERTEX
  8
LAYER_1
 10
-278.0982
 20
206.7462
  0
VERTEX
  8
LAYER_1
 10
-277.9252
 20
206.6702
  0
VERTEX
  8
LAYER_1
 10
-277.7137
 20
206.6713
  0
VERTEX
  8
LAYER_1
 10
-277.514
 20
206.7561
  0
VERTEX
  8
LAYER_1
 10
-277.3877
 20
206.8979
  0
VERTEX
  8
LAYER_1
 10
-277.3301
 20
207.0731
  0
VERTEX
  8
LAYER_1
 10
-277.3367
 20
207.2586
  0
VERTEX
  8
LAYER_1
 10
-277.4028
 20
207.4308
  0
VERTEX
  8
LAYER_1
 10
-277.5239
 20
207.5664
  0
VERTEX
  8
LAYER_1
 10
-277.6953
 20
207.6421
  0
VERTEX
  8
LAYER_1
 10
-277.9126
 20
207.6344
  0
SEQEND
  8
LAYER_1
  0
POLYLINE
  8
LAYER_1
 66
     1
 70
     1
  0
VERTEX
  8
LAYER_1
 10
-277.9126
 20
212.7144
  0
VERTEX
  8
LAYER_1
 10
-278.1264
 20
212.6207
  0
VERTEX
  8
LAYER_1
 10
-278.2571
 20
212.477
  0
VERTEX
  8
LAYER_1
 10
-278.3122
 20
212.3045
  0
VERTEX
  8
LAYER_1
 10
-278.2992
 20
212.1245
  0
VERTEX
  8
LAYER_1
 10
-278.2253
 20
211.958
  0
VERTEX
  8
LAYER_1
 10
-278.0982
 20
211.8262
  0
VERTEX
  8
LAYER_1
 10
-277.9252
 20
211.7502
  0
VERTEX
  8
LAYER_1
 10
-277.7137
 20
211.7513
  0
VERTEX
  8
LAYER_1
 10
-277.514
 20
211.8361
  0
VERTEX
  8
LAYER_1
 10
-277.3877
 20
211.9779
  0
VERTEX
  8
LAYER_1
 10
-277.3301
 20
212.1531
  0
VERTEX
  8
LAYER_1
 10
-277.3367
 20
212.3386
  0
VERTEX
  8
LAYER_1
 10
-277.4028
 20
212.5108
  0
VERTEX
  8
LAYER_1
 10
-277.5239
 20
212.6464
  0
VERTEX
  8
LAYER_1
 10
-277.6953
 20
212.7221
  0
VERTEX
  8
LAYER_1
 10
-277.9126
 20
212.7144
  0
SEQEND
  8
LAYER_1
  0
POLYLINE
  8
LAYER_1
 66
     1
 70
     1
  0
VERTEX
  8
LAYER_1
 10
-277.9126
 20
197.4744
  0
VERTEX
  8
LAYER_1
 10
-278.1264
 20
197.3807
  0
VERTEX
  8
LAYER_1
 10
-278.2571
 20
197.237
  0
VERTEX
  8
LAYER_1
 10
-278.3122
 20
197.0645
  0
VERTEX
  8
LAYER_1
 10
-278.2992
 20
196.8845
  0
VERTEX
  8
LAYER_1
 10
-278.2253
 20
196.718
  0
VERTEX
  8
LAYER_1
 10
-278.0982
 20
196.5862
  0
VERTEX
  8
LAYER_1
 10
-277.9252
 20
196.5102
  0
VERTEX
  8
LAYER_1
 10
-277.7137
 20
196.5113
  0
VERTEX
  8
LAYER_1
 10
-277.514
 20
196.5961
  0
VERTEX
  8
LAYER_1
 10
-277.3877
 20
196.7379
  0
VERTEX
  8
LAYER_1
 10
-277.3301
 20
196.9131
  0
VERTEX
  8
LAYER_1
 10
-277.3367
 20
197.0986
  0
VERTEX
  8
LAYER_1
 10
-277.4028
 20
197.2708
  0
VERTEX
  8
LAYER_1
 10
-277.5239
 20
197.4064
  0
VERTEX
  8
LAYER_1
 10
-277.6953
 20
197.4821
  0
VERTEX
  8
LAYER_1
 10
-277.9126
 20
197.4744
  0
SEQEND
  8
LAYER_1
  0
POLYLINE
  8
LAYER_1
 66
     1
 70
     1
  0
VERTEX
  8
LAYER_1
 10
-277.9126
 20
210.1744
  0
VERTEX
  8
LAYER_1
 10
-278.1264
 20
210.0807
  0
VERTEX
  8
LAYER_1
 10
-278.2571
 20
209.937
  0
VERTEX
  8
LAYER_1
 10
-278.3122
 20
209.7645
  0
VERTEX
  8
LAYER_1
 10
-278.2992
 20
209.5845
  0
VERTEX
  8
LAYER_1
 10
-278.2253
 20
209.418
  0
VERTEX
  8
LAYER_1
 10
-278.0982
 20
209.2862
  0
VERTEX
  8
LAYER_1
 10
-277.9252
 20
209.2102
  0
VERTEX
  8
LAYER_1
 10
-277.7137
 20
209.2113
  0
VERTEX
  8
LAYER_1
 10
-277.514
 20
209.2961
  0
VERTEX
  8
LAYER_1
 10
-277.3877
 20
209.4379
  0
VERTEX
  8
LAYER_1
 10
-277.3301
 20
209.6131
  0
VERTEX
  8
LAYER_1
 10
-277.3367
 20
209.7986
  0
VERTEX
  8
LAYER_1
 10
-277.4028
 20
209.9708
  0
VERTEX
  8
LAYER_1
 10
-277.5239
 20
210.1064
  0
VERTEX
  8
LAYER_1
 10
-277.6953
 20
210.1821
  0
VERTEX
  8
LAYER_1
 10
-277.9126
 20
210.1744
  0
SEQEND
  8
LAYER_1
  0
POLYLINE
  8
LAYER_1
 66
     1
 70
     1
  0
VERTEX
  8
LAYER_1
 10
-277.9126
 20
194.9344
  0
VERTEX
  8
LAYER_1
 10
-278.1264
 20
194.8407
  0
VERTEX
  8
LAYER_1
 10
-278.2571
 20
194.697
  0
VERTEX
  8
LAYER_1
 10
-278.3122
 20
194.5245
  0
VERTEX
  8
LAYER_1
 10
-278.2992
 20
194.3445
  0
VERTEX
  8
LAYER_1
 10
-278.2253
 20
194.178
  0
VERTEX
  8
LAYER_1
 10
-278.0982
 20
194.0462
  0
VERTEX
  8
LAYER_1
 10
-277.9252
 20
193.9702
  0
VERTEX
  8
LAYER_1
 10
-277.7137
 20
193.9713
  0
VERTEX
  8
LAYER_1
 10
-277.514
 20
194.0561
  0
VERTEX
  8
LAYER_1
 10
-277.3877
 20
194.1979
  0
VERTEX
  8
LAYER_1
 10
-277.3301
 20
194.3731
  0
VERTEX
  8
LAYER_1
 10
-277.3367
 20
194.5586
  0
VERTEX
  8
LAYER_1
 10
-277.4028
 20
194.7308
  0
VERTEX
  8
LAYER_1
 10
-277.5239
 20
194.8664
  0
VERTEX
  8
LAYER_1
 10
-277.6953
 20
194.9421
  0
VERTEX
  8
LAYER_1
 10
-277.9126
 20
194.9344
  0
SEQEND
  8
LAYER_1
  0
POLYLINE
  8
LAYER_1
 66
     1
 70
     1
  0
VERTEX
  8
LAYER_1
 10
-277.9126
 20
200.0144
  0
VERTEX
  8
LAYER_1
 10
-278.1264
 20
199.9207
  0
VERTEX
  8
LAYER_1
 10
-278.2571
 20
199.777
  0
VERTEX
  8
LAYER_1
 10
-278.3122
 20
199.6045
  0
VERTEX
  8
LAYER_1
 10
-278.2992
 20
199.4245
  0
VERTEX
  8
LAYER_1
 10
-278.2253
 20
199.258
  0
VERTEX
  8
LAYER_1
 10
-278.0982
 20
199.1262
  0
VERTEX
  8
LAYER_1
 10
-277.9252
 20
199.0502
  0
VERTEX
  8
LAYER_1
 10
-277.7137
 20
199.0513
  0
VERTEX
  8
LAYER_1
 10
-277.514
 20
199.1361
  0
VERTEX
  8
LAYER_1
 10
-277.3877
 20
199.2779
  0
VERTEX
  8
LAYER_1
 10
-277.3301
 20
199.4531
  0
VERTEX
  8
LAYER_1
 10
-277.3367
 20
199.6386
  0
VERTEX
  8
LAYER_1
 10
-277.4028
 20
199.8108
  0
VERTEX
  8
LAYER_1
 10
-277.5239
 20
199.9464
  0
VERTEX
  8
LAYER_1
 10
-277.6953
 20
200.0221
  0
VERTEX
  8
LAYER_1
 10
-277.9126
 20
200.0144
  0
SEQEND
  8
LAYER_1
  0
POLYLINE
  8
LAYER_1
 66
     1
 70
     1
  0
VERTEX
  8
LAYER_1
 10
-277.9126
 20
202.5544
  0
VERTEX
  8
LAYER_1
 10
-278.1264
 20
202.4607
  0
VERTEX
  8
LAYER_1
 10
-278.2571
 20
202.317
  0
VERTEX
  8
LAYER_1
 10
-278.3122
 20
202.1445
  0
VERTEX
  8
LAYER_1
 10
-278.2992
 20
201.9645
  0
VERTEX
  8
LAYER_1
 10
-278.2253
 20
201.798
  0
VERTEX
  8
LAYER_1
 10
-278.0982
 20
201.6662
  0
VERTEX
  8
LAYER_1
 10
-277.9252
 20
201.5902
  0
VERTEX
  8
LAYER_1
 10
-277.7137
 20
201.5913
  0
VERTEX
  8
LAYER_1
 10
-277.514
 20
201.6761
  0
VERTEX
  8
LAYER_1
 10
-277.3877
 20
201.8179
  0
VERTEX
  8
LAYER_1
 10
-277.3301
 20
201.9931
  0
VERTEX
  8
LAYER_1
 10
-277.3367
 20
202.1786
  0
VERTEX
  8
LAYER_1
 10
-277.4028
 20
202.3508
  0
VERTEX
  8
LAYER_1
 10
-277.5239
 20
202.4864
  0
VERTEX
  8
LAYER_1
 10
-277.6953
 20
202.5621
  0
VERTEX
  8
LAYER_1
 10
-277.9126
 20
202.5544
  0
SEQEND
  8
LAYER_1
  0
POLYLINE
  8
LAYER_1
 66
     1
 70
     1
  0
VERTEX
  8
LAYER_1
 10
-277.9126
 20
215.2544
  0
VERTEX
  8
LAYER_1
 10
-278.1264
 20
215.1607
  0
VERTEX
  8
LAYER_1
 10
-278.2571
 20
215.017
  0
VERTEX
  8
LAYER_1
 10
-278.3122
 20
214.8445
  0
VERTEX
  8
LAYER_1
 10
-278.2992
 20
214.6645
  0
VERTEX
  8
LAYER_1
 10
-278.2253
 20
214.498
  0
VERTEX
  8
LAYER_1
 10
-278.0982
 20
214.3662
  0
VERTEX
  8
LAYER_1
 10
-277.9252
 20
214.2902
  0
VERTEX
  8
LAYER_1
 10
-277.7137
 20
214.2913
  0
VERTEX
  8
LAYER_1
 10
-277.514
 20
214.3761
  0
VERTEX
  8
LAYER_1
 10
-277.3877
 20
214.5179
  0
VERTEX
  8
LAYER_1
 10
-277.3301
 20
214.6931
  0
VERTEX
  8
LAYER_1
 10
-277.3367
 20
214.8786
  0
VERTEX
  8
LAYER_1
 10
-277.4028
 20
215.0508
  0
VERTEX
  8
LAYER_1
 10
-277.5239
 20
215.1864
  0
VERTEX
  8
LAYER_1
 10
-277.6953
 20
215.2621
  0
VERTEX
  8
LAYER_1
 10
-277.9126
 20
215.2544
  0
SEQEND
  8
LAYER_1
  0
POLYLINE
  8
LAYER_1
 66
     1
 70
     1
  0
VERTEX
  8
LAYER_1
 10
-277.9126
 20
205.0944
  0
VERTEX
  8
LAYER_1
 10
-278.1264
 20
205.0007
  0
VERTEX
  8
LAYER_1
 10
-278.2571
 20
204.857
  0
VERTEX
  8
LAYER_1
 10
-278.3122
 20
204.6845
  0
VERTEX
  8
LAYER_1
 10
-278.2992
 20
204.5045
  0
VERTEX
  8
LAYER_1
 10
-278.2253
 20
204.338
  0
VERTEX
  8
LAYER_1
 10
-278.0982
 20
204.2062
  0
VERTEX
  8
LAYER_1
 10
-277.9252
 20
204.1302
  0
VERTEX
  8
LAYER_1
 10
-277.7137
 20
204.1313
  0
VERTEX
  8
LAYER_1
 10
-277.514
 20
204.2161
  0
VERTEX
  8
LAYER_1
 10
-277.3877
 20
204.3579
  0
VERTEX
  8
LAYER_1
 10
-277.3301
 20
204.5331
  0
VERTEX
  8
LAYER_1
 10
-277.3367
 20
204.7186
  0
VERTEX
  8
LAYER_1
 10
-277.4028
 20
204.8908
  0
VERTEX
  8
LAYER_1
 10
-277.5239
 20
205.0264
  0
VERTEX
  8
LAYER_1
 10
-277.6953
 20
205.1021
  0
VERTEX
  8
LAYER_1
 10
-277.9126
 20
205.0944
  0
SEQEND
  8
LAYER_1
  0
POLYLINE
  8
LAYER_1
 66
     1
 70
     1
  0
VERTEX
  8
LAYER_1
 10
-277.9126
 20
187.3144
  0
VERTEX
  8
LAYER_1
 10
-278.1264
 20
187.2207
  0
VERTEX
  8
LAYER_1
 10
-278.2571
 20
187.077
  0
VERTEX
  8
LAYER_1
 10
-278.3122
 20
186.9045
  0
VERTEX
  8
LAYER_1
 10
-278.2992
 20
186.7245
  0
VERTEX
  8
LAYER_1
 10
-278.2253
 20
186.558
  0
VERTEX
  8
LAYER_1
 10
-278.0982
 20
186.4262
  0
VERTEX
  8
LAYER_1
 10
-277.9252
 20
186.3502
  0
VERTEX
  8
LAYER_1
 10
-277.7137
 20
186.3513
  0
VERTEX
  8
LAYER_1
 10
-277.514
 20
186.4362
  0
VERTEX
  8
LAYER_1
 10
-277.3877
 20
186.5779
  0
VERTEX
  8
LAYER_1
 10
-277.3301
 20
186.7532
  0
VERTEX
  8
LAYER_1
 10
-277.3367
 20
186.9386
  0
VERTEX
  8
LAYER_1
 10
-277.4028
 20
187.1108
  0
VERTEX
  8
LAYER_1
 10
-277.5239
 20
187.2464
  0
VERTEX
  8
LAYER_1
 10
-277.6953
 20
187.3221
  0
VERTEX
  8
LAYER_1
 10
-277.9126
 20
187.3144
  0
SEQEND
  8
LAYER_1
  0
POLYLINE
  8
LAYER_1
 66
     1
 70
     1
  0
VERTEX
  8
LAYER_1
 10
-277.9126
 20
192.3944
  0
VERTEX
  8
LAYER_1
 10
-278.1264
 20
192.3007
  0
VERTEX
  8
LAYER_1
 10
-278.2571
 20
192.157
  0
VERTEX
  8
LAYER_1
 10
-278.3122
 20
191.9845
  0
VERTEX
  8
LAYER_1
 10
-278.2992
 20
191.8045
  0
VERTEX
  8
LAYER_1
 10
-278.2253
 20
191.638
  0
VERTEX
  8
LAYER_1
 10
-278.0982
 20
191.5062
  0
VERTEX
  8
LAYER_1
 10
-277.9252
 20
191.4302
  0
VERTEX
  8
LAYER_1
 10
-277.7137
 20
191.4313
  0
VERTEX
  8
LAYER_1
 10
-277.514
 20
191.5162
  0
VERTEX
  8
LAYER_1
 10
-277.3877
 20
191.6579
  0
VERTEX
  8
LAYER_1
 10
-277.3301
 20
191.8332
  0
VERTEX
  8
LAYER_1
 10
-277.3367
 20
192.0186
  0
VERTEX
  8
LAYER_1
 10
-277.4028
 20
192.1908
  0
VERTEX
  8
LAYER_1
 10
-277.5239
 20
192.3264
  0
VERTEX
  8
LAYER_1
 10
-277.6953
 20
192.4021
  0
VERTEX
  8
LAYER_1
 10
-277.9126
 20
192.3944
  0
SEQEND
  8
LAYER_1
  0
POLYLINE
  8
LAYER_1
 66
     1
 70
     1
  0
VERTEX
  8
LAYER_1
 10
-277.9126
 20
184.7744
  0
VERTEX
  8
LAYER_1
 10
-278.1264
 20
184.6807
  0
VERTEX
  8
LAYER_1
 10
-278.2571
 20
184.537
  0
VERTEX
  8
LAYER_1
 10
-278.3122
 20
184.3645
  0
VERTEX
  8
LAYER_1
 10
-278.2992
 20
184.1845
  0
VERTEX
  8
LAYER_1
 10
-278.2253
 20
184.018
  0
VERTEX
  8
LAYER_1
 10
-278.0982
 20
183.8862
  0
VERTEX
  8
LAYER_1
 10
-277.9252
 20
183.8102
  0
VERTEX
  8
LAYER_1
 10
-277.7137
 20
183.8113
  0
VERTEX
  8
LAYER_1
 10
-277.514
 20
183.8962
  0
VERTEX
  8
LAYER_1
 10
-277.3877
 20
184.0379
  0
VERTEX
  8
LAYER_1
 10
-277.3301
 20
184.2132
  0
VERTEX
  8
LAYER_1
 10
-277.3367
 20
184.3986
  0
VERTEX
  8
LAYER_1
 10
-277.4028
 20
184.5708
  0
VERTEX
  8
LAYER_1
 10
-277.5239
 20
184.7064
  0
VERTEX
  8
LAYER_1
 10
-277.6953
 20
184.7821
  0
VERTEX
  8
LAYER_1
 10
-277.9126
 20
184.7744
  0
SEQEND
  8
LAYER_1
  0
POLYLINE
  8
LAYER_1
 66
     1
 70
     1
  0
VERTEX
  8
LAYER_1
 10
-277.9126
 20
189.8544
  0
VERTEX
  8
LAYER_1
 10
-278.1264
 20
189.7607
  0
VERTEX
  8
LAYER_1
 10
-278.2571
 20
189.617
  0
VERTEX
  8
LAYER_1
 10
-278.3122
 20
189.4445
  0
VERTEX
  8
LAYER_1
 10
-278.2992
 20
189.2645
  0
VERTEX
  8
LAYER_1
 10
-278.2253
 20
189.098
  0
VERTEX
  8
LAYER_1
 10
-278.0982
 20
188.9662
  0
VERTEX
  8
LAYER_1
 10
-277.9252
 20
188.8902
  0
VERTEX
  8
LAYER_1
 10
-277.7137
 20
188.8913
  0
VERTEX
  8
LAYER_1
 10
-277.514
 20
188.9762
  0
VERTEX
  8
LAYER_1
 10
-277.3877
 20
189.1179
  0
VERTEX
  8
LAYER_1
 10
-277.3301
 20
189.2932
  0
VERTEX
  8
LAYER_1
 10
-277.3367
 20
189.4786
  0
VERTEX
  8
LAYER_1
 10
-277.4028
 20
189.6508
  0
VERTEX
  8
LAYER_1
 10
-277.5239
 20
189.7864
  0
VERTEX
  8
LAYER_1
 10
-277.6953
 20
189.8621
  0
VERTEX
  8
LAYER_1
 10
-277.9126
 20
189.8544
  0
SEQEND
  8
LAYER_1
  0
POLYLINE
  8
LAYER_1
 66
     1
 70
     1
  0
VERTEX
  8
LAYER_1
 10
-277.9126
 20
182.2344
  0
VERTEX
  8
LAYER_1
 10
-278.1264
 20
182.1407
  0
VERTEX
  8
LAYER_1
 10
-278.2571
 20
181.997
  0
VERTEX
  8
LAYER_1
 10
-278.3122
 20
181.8245
  0
VERTEX
  8
LAYER_1
 10
-278.2992
 20
181.6445
  0
VERTEX
  8
LAYER_1
 10
-278.2253
 20
181.478
  0
VERTEX
  8
LAYER_1
 10
-278.0982
 20
181.3462
  0
VERTEX
  8
LAYER_1
 10
-277.9252
 20
181.2702
  0
VERTEX
  8
LAYER_1
 10
-277.7137
 20
181.2713
  0
VERTEX
  8
LAYER_1
 10
-277.514
 20
181.3562
  0
VERTEX
  8
LAYER_1
 10
-277.3877
 20
181.4979
  0
VERTEX
  8
LAYER_1
 10
-277.3301
 20
181.6732
  0
VERTEX
  8
LAYER_1
 10
-277.3367
 20
181.8586
  0
VERTEX
  8
LAYER_1
 10
-277.4028
 20
182.0308
  0
VERTEX
  8
LAYER_1
 10
-277.5239
 20
182.1664
  0
VERTEX
  8
LAYER_1
 10
-277.6953
 20
182.2421
  0
VERTEX
  8
LAYER_1
 10
-277.9126
 20
182.2344
  0
SEQEND
  8
LAYER_1
  0
POLYLINE
  8
LAYER_1
 66
     1
 70
     1
  0
VERTEX
  8
LAYER_1
 10
-277.9126
 20
179.6944
  0
VERTEX
  8
LAYER_1
 10
-278.1264
 20
179.6007
  0
VERTEX
  8
LAYER_1
 10
-278.2571
 20
179.457
  0
VERTEX
  8
LAYER_1
 10
-278.3122
 20
179.2845
  0
VERTEX
  8
LAYER_1
 10
-278.2992
 20
179.1045
  0
VERTEX
  8
LAYER_1
 10
-278.2253
 20
178.938
  0
VERTEX
  8
LAYER_1
 10
-278.0982
 20
178.8062
  0
VERTEX
  8
LAYER_1
 10
-277.9252
 20
178.7302
  0
VERTEX
  8
LAYER_1
 10
-277.7137
 20
178.7313
  0
VERTEX
  8
LAYER_1
 10
-277.514
 20
178.8162
  0
VERTEX
  8
LAYER_1
 10
-277.3877
 20
178.9579
  0
VERTEX
  8
LAYER_1
 10
-277.3301
 20
179.1332
  0
VERTEX
  8
LAYER_1
 10
-277.3367
 20
179.3186
  0
VERTEX
  8
LAYER_1
 10
-277.4028
 20
179.4908
  0
VERTEX
  8
LAYER_1
 10
-277.5239
 20
179.6264
  0
VERTEX
  8
LAYER_1
 10
-277.6953
 20
179.7021
  0
VERTEX
  8
LAYER_1
 10
-277.9126
 20
179.6944
  0
SEQEND
  8
LAYER_1
  0
POLYLINE
  8
LAYER_1
 66
     1
 70
     1
  0
VERTEX
  8
LAYER_1
 10
-277.9126
 20
177.1544
  0
VERTEX
  8
LAYER_1
 10
-278.1264
 20
177.0607
  0
VERTEX
  8
LAYER_1
 10
-278.2571
 20
176.917
  0
VERTEX
  8
LAYER_1
 10
-278.3122
 20
176.7445
  0
VERTEX
  8
LAYER_1
 10
-278.2992
 20
176.5645
  0
VERTEX
  8
LAYER_1
 10
-278.2253
 20
176.398
  0
VERTEX
  8
LAYER_1
 10
-278.0982
 20
176.2662
  0
VERTEX
  8
LAYER_1
 10
-277.9252
 20
176.1902
  0
VERTEX
  8
LAYER_1
 10
-277.7137
 20
176.1913
  0
VERTEX
  8
LAYER_1
 10
-277.514
 20
176.2762
  0
VERTEX
  8
LAYER_1
 10
-277.3877
 20
176.4179
  0
VERTEX
  8
LAYER_1
 10
-277.3301
 20
176.5932
  0
VERTEX
  8
LAYER_1
 10
-277.3367
 20
176.7786
  0
VERTEX
  8
LAYER_1
 10
-277.4028
 20
176.9508
  0
VERTEX
  8
LAYER_1
 10
-277.5239
 20
177.0864
  0
VERTEX
  8
LAYER_1
 10
-277.6953
 20
177.1621
  0
VERTEX
  8
LAYER_1
 10
-277.9126
 20
177.1544
  0
SEQEND
  8
LAYER_1
  0
POLYLINE
  8
LAYER_1
 66
     1
 70
     1
  0
VERTEX
  8
LAYER_1
 10
-257.5925
 20
202.5544
  0
VERTEX
  8
LAYER_1
 10
-257.8063
 20
202.4607
  0
VERTEX
  8
LAYER_1
 10
-257.937
 20
202.317
  0
VERTEX
  8
LAYER_1
 10
-257.9922
 20
202.1445
  0
VERTEX
  8
LAYER_1
 10
-257.9791
 20
201.9645
  0
VERTEX
  8
LAYER_1
 10
-257.9053
 20
201.798
  0
VERTEX
  8
LAYER_1
 10
-257.7781
 20
201.6662
  0
VERTEX
  8
LAYER_1
 10
-257.6051
 20
201.5902
  0
VERTEX
  8
LAYER_1
 10
-257.3936
 20
201.5913
  0
VERTEX
  8
LAYER_1
 10
-257.194
 20
201.6761
  0
VERTEX
  8
LAYER_1
 10
-257.0676
 20
201.8179
  0
VERTEX
  8
LAYER_1
 10
-257.0101
 20
201.9931
  0
VERTEX
  8
LAYER_1
 10
-257.0166
 20
202.1786
  0
VERTEX
  8
LAYER_1
 10
-257.0827
 20
202.3508
  0
VERTEX
  8
LAYER_1
 10
-257.2038
 20
202.4864
  0
VERTEX
  8
LAYER_1
 10
-257.3753
 20
202.5621
  0
VERTEX
  8
LAYER_1
 10
-257.5925
 20
202.5544
  0
SEQEND
  8
LAYER_1
  0
POLYLINE
  8
LAYER_1
 66
     1
 70
     1
  0
VERTEX
  8
LAYER_1
 10
-257.5925
 20
210.1744
  0
VERTEX
  8
LAYER_1
 10
-257.8063
 20
210.0807
  0
VERTEX
  8
LAYER_1
 10
-257.937
 20
209.937
  0
VERTEX
  8
LAYER_1
 10
-257.9922
 20
209.7645
  0
VERTEX
  8
LAYER_1
 10
-257.9791
 20
209.5845
  0
VERTEX
  8
LAYER_1
 10
-257.9053
 20
209.418
  0
VERTEX
  8
LAYER_1
 10
-257.7781
 20
209.2862
  0
VERTEX
  8
LAYER_1
 10
-257.6051
 20
209.2102
  0
VERTEX
  8
LAYER_1
 10
-257.3936
 20
209.2113
  0
VERTEX
  8
LAYER_1
 10
-257.194
 20
209.2961
  0
VERTEX
  8
LAYER_1
 10
-257.0676
 20
209.4379
  0
VERTEX
  8
LAYER_1
 10
-257.0101
 20
209.6131
  0
VERTEX
  8
LAYER_1
 10
-257.0166
 20
209.7986
  0
VERTEX
  8
LAYER_1
 10
-257.0827
 20
209.9708
  0
VERTEX
  8
LAYER_1
 10
-257.2038
 20
210.1064
  0
VERTEX
  8
LAYER_1
 10
-257.3753
 20
210.1821
  0
VERTEX
  8
LAYER_1
 10
-257.5925
 20
210.1744
  0
SEQEND
  8
LAYER_1
  0
POLYLINE
  8
LAYER_1
 66
     1
 70
     1
  0
VERTEX
  8
LAYER_1
 10
-257.5925
 20
194.9344
  0
VERTEX
  8
LAYER_1
 10
-257.8063
 20
194.8407
  0
VERTEX
  8
LAYER_1
 10
-257.937
 20
194.697
  0
VERTEX
  8
LAYER_1
 10
-257.9922
 20
194.5245
  0
VERTEX
  8
LAYER_1
 10
-257.9791
 20
194.3445
  0
VERTEX
  8
LAYER_1
 10
-257.9053
 20
194.178
  0
VERTEX
  8
LAYER_1
 10
-257.7781
 20
194.0462
  0
VERTEX
  8
LAYER_1
 10
-257.6051
 20
193.9702
  0
VERTEX
  8
LAYER_1
 10
-257.3936
 20
193.9713
  0
VERTEX
  8
LAYER_1
 10
-257.194
 20
194.0561
  0
VERTEX
  8
LAYER_1
 10
-257.0676
 20
194.1979
  0
VERTEX
  8
LAYER_1
 10
-257.0101
 20
194.3731
  0
VERTEX
  8
LAYER_1
 10
-257.0166
 20
194.5586
  0
VERTEX
  8
LAYER_1
 10
-257.0827
 20
194.7308
  0
VERTEX
  8
LAYER_1
 10
-257.2038
 20
194.8664
  0
VERTEX
  8
LAYER_1
 10
-257.3753
 20
194.9421
  0
VERTEX
  8
LAYER_1
 10
-257.5925
 20
194.9344
  0
SEQEND
  8
LAYER_1
  0
POLYLINE
  8
LAYER_1
 66
     1
 70
     1
  0
VERTEX
  8
LAYER_1
 10
-257.5925
 20
197.4744
  0
VERTEX
  8
LAYER_1
 10
-257.8063
 20
197.3807
  0
VERTEX
  8
LAYER_1
 10
-257.937
 20
197.237
  0
VERTEX
  8
LAYER_1
 10
-257.9922
 20
197.0645
  0
VERTEX
  8
LAYER_1
 10
-257.9791
 20
196.8845
  0
VERTEX
  8
LAYER_1
 10
-257.9053
 20
196.718
  0
VERTEX
  8
LAYER_1
 10
-257.7781
 20
196.5862
  0
VERTEX
  8
LAYER_1
 10
-257.6051
 20
196.5102
  0
VERTEX
  8
LAYER_1
 10
-257.3936
 20
196.5113
  0
VERTEX
  8
LAYER_1
 10
-257.194
 20
196.5961
  0
VERTEX
  8
LAYER_1
 10
-257.0676
 20
196.7379
  0
VERTEX
  8
LAYER_1
 10
-257.0101
 20
196.9131
  0
VERTEX
  8
LAYER_1
 10
-257.0166
 20
197.0986
  0
VERTEX
  8
LAYER_1
 10
-257.0827
 20
197.2708
  0
VERTEX
  8
LAYER_1
 10
-257.2038
 20
197.4064
  0
VERTEX
  8
LAYER_1
 10
-257.3753
 20
197.4821
  0
VERTEX
  8
LAYER_1
 10
-257.5925
 20
197.4744
  0
SEQEND
  8
LAYER_1
  0
POLYLINE
  8
LAYER_1
 66
     1
 70
     1
  0
VERTEX
  8
LAYER_1
 10
-257.5925
 20
215.2544
  0
VERTEX
  8
LAYER_1
 10
-257.8063
 20
215.1607
  0
VERTEX
  8
LAYER_1
 10
-257.937
 20
215.017
  0
VERTEX
  8
LAYER_1
 10
-257.9922
 20
214.8445
  0
VERTEX
  8
LAYER_1
 10
-257.9791
 20
214.6645
  0
VERTEX
  8
LAYER_1
 10
-257.9053
 20
214.498
  0
VERTEX
  8
LAYER_1
 10
-257.7781
 20
214.3662
  0
VERTEX
  8
LAYER_1
 10
-257.6051
 20
214.2902
  0
VERTEX
  8
LAYER_1
 10
-257.3936
 20
214.2913
  0
VERTEX
  8
LAYER_1
 10
-257.194
 20
214.3761
  0
VERTEX
  8
LAYER_1
 10
-257.0676
 20
214.5179
  0
VERTEX
  8
LAYER_1
 10
-257.0101
 20
214.6931
  0
VERTEX
  8
LAYER_1
 10
-257.0166
 20
214.8786
  0
VERTEX
  8
LAYER_1
 10
-257.0827
 20
215.0508
  0
VERTEX
  8
LAYER_1
 10
-257.2038
 20
215.1864
  0
VERTEX
  8
LAYER_1
 10
-257.3753
 20
215.2621
  0
VERTEX
  8
LAYER_1
 10
-257.5925
 20
215.2544
  0
SEQEND
  8
LAYER_1
  0
POLYLINE
  8
LAYER_1
 66
     1
 70
     1
  0
VERTEX
  8
LAYER_1
 10
-257.5925
 20
205.0944
  0
VERTEX
  8
LAYER_1
 10
-257.8063
 20
205.0007
  0
VERTEX
  8
LAYER_1
 10
-257.937
 20
204.857
  0
VERTEX
  8
LAYER_1
 10
-257.9922
 20
204.6845
  0
VERTEX
  8
LAYER_1
 10
-257.9791
 20
204.5045
  0
VERTEX
  8
LAYER_1
 10
-257.9053
 20
204.338
  0
VERTEX
  8
LAYER_1
 10
-257.7781
 20
204.2062
  0
VERTEX
  8
LAYER_1
 10
-257.6051
 20
204.1302
  0
VERTEX
  8
LAYER_1
 10
-257.3936
 20
204.1313
  0
VERTEX
  8
LAYER_1
 10
-257.194
 20
204.2161
  0
VERTEX
  8
LAYER_1
 10
-257.0676
 20
204.3579
  0
VERTEX
  8
LAYER_1
 10
-257.0101
 20
204.5331
  0
VERTEX
  8
LAYER_1
 10
-257.0166
 20
204.7186
  0
VERTEX
  8
LAYER_1
 10
-257.0827
 20
204.8908
  0
VERTEX
  8
LAYER_1
 10
-257.2038
 20
205.0264
  0
VERTEX
  8
LAYER_1
 10
-257.3753
 20
205.1021
  0
VERTEX
  8
LAYER_1
 10
-257.5925
 20
205.0944
  0
SEQEND
  8
LAYER_1
  0
POLYLINE
  8
LAYER_1
 66
     1
 70
     1
  0
VERTEX
  8
LAYER_1
 10
-257.5925
 20
200.0144
  0
VERTEX
  8
LAYER_1
 10
-257.8063
 20
199.9207
  0
VERTEX
  8
LAYER_1
 10
-257.937
 20
199.777
  0
VERTEX
  8
LAYER_1
 10
-257.9922
 20
199.6045
  0
VERTEX
  8
LAYER_1
 10
-257.9791
 20
199.4245
  0
VERTEX
  8
LAYER_1
 10
-257.9053
 20
199.258
  0
VERTEX
  8
LAYER_1
 10
-257.7781
 20
199.1262
  0
VERTEX
  8
LAYER_1
 10
-257.6051
 20
199.0502
  0
VERTEX
  8
LAYER_1
 10
-257.3936
 20
199.0513
  0
VERTEX
  8
LAYER_1
 10
-257.194
 20
199.1361
  0
VERTEX
  8
LAYER_1
 10
-257.0676
 20
199.2779
  0
VERTEX
  8
LAYER_1
 10
-257.0101
 20
199.4531
  0
VERTEX
  8
LAYER_1
 10
-257.0166
 20
199.6386
  0
VERTEX
  8
LAYER_1
 10
-257.0827
 20
199.8108
  0
VERTEX
  8
LAYER_1
 10
-257.2038
 20
199.9464
  0
VERTEX
  8
LAYER_1
 10
-257.3753
 20
200.0221
  0
VERTEX
  8
LAYER_1
 10
-257.5925
 20
200.0144
  0
SEQEND
  8
LAYER_1
  0
POLYLINE
  8
LAYER_1
 66
     1
 70
     1
  0
VERTEX
  8
LAYER_1
 10
-257.5925
 20
212.7144
  0
VERTEX
  8
LAYER_1
 10
-257.8063
 20
212.6207
  0
VERTEX
  8
LAYER_1
 10
-257.937
 20
212.477
  0
VERTEX
  8
LAYER_1
 10
-257.9922
 20
212.3045
  0
VERTEX
  8
LAYER_1
 10
-257.9791
 20
212.1245
  0
VERTEX
  8
LAYER_1
 10
-257.9053
 20
211.958
  0
VERTEX
  8
LAYER_1
 10
-257.7781
 20
211.8262
  0
VERTEX
  8
LAYER_1
 10
-257.6051
 20
211.7502
  0
VERTEX
  8
LAYER_1
 10
-257.3936
 20
211.7513
  0
VERTEX
  8
LAYER_1
 10
-257.194
 20
211.8361
  0
VERTEX
  8
LAYER_1
 10
-257.0676
 20
211.9779
  0
VERTEX
  8
LAYER_1
 10
-257.0101
 20
212.1531
  0
VERTEX
  8
LAYER_1
 10
-257.0166
 20
212.3386
  0
VERTEX
  8
LAYER_1
 10
-257.0827
 20
212.5108
  0
VERTEX
  8
LAYER_1
 10
-257.2038
 20
212.6464
  0
VERTEX
  8
LAYER_1
 10
-257.3753
 20
212.7221
  0
VERTEX
  8
LAYER_1
 10
-257.5925
 20
212.7144
  0
SEQEND
  8
LAYER_1
  0
POLYLINE
  8
LAYER_1
 66
     1
 70
     1
  0
VERTEX
  8
LAYER_1
 10
-257.5925
 20
207.6344
  0
VERTEX
  8
LAYER_1
 10
-257.8063
 20
207.5407
  0
VERTEX
  8
LAYER_1
 10
-257.937
 20
207.397
  0
VERTEX
  8
LAYER_1
 10
-257.9922
 20
207.2245
  0
VERTEX
  8
LAYER_1
 10
-257.9791
 20
207.0445
  0
VERTEX
  8
LAYER_1
 10
-257.9053
 20
206.878
  0
VERTEX
  8
LAYER_1
 10
-257.7781
 20
206.7462
  0
VERTEX
  8
LAYER_1
 10
-257.6051
 20
206.6702
  0
VERTEX
  8
LAYER_1
 10
-257.3936
 20
206.6713
  0
VERTEX
  8
LAYER_1
 10
-257.194
 20
206.7561
  0
VERTEX
  8
LAYER_1
 10
-257.0676
 20
206.8979
  0
VERTEX
  8
LAYER_1
 10
-257.0101
 20
207.0731
  0
VERTEX
  8
LAYER_1
 10
-257.0166
 20
207.2586
  0
VERTEX
  8
LAYER_1
 10
-257.0827
 20
207.4308
  0
VERTEX
  8
LAYER_1
 10
-257.2038
 20
207.5664
  0
VERTEX
  8
LAYER_1
 10
-257.3753
 20
207.6421
  0
VERTEX
  8
LAYER_1
 10
-257.5925
 20
207.6344
  0
SEQEND
  8
LAYER_1
  0
POLYLINE
  8
LAYER_1
 66
     1
 70
     1
  0
VERTEX
  8
LAYER_1
 10
-257.5925
 20
179.6944
  0
VERTEX
  8
LAYER_1
 10
-257.8063
 20
179.6007
  0
VERTEX
  8
LAYER_1
 10
-257.937
 20
179.457
  0
VERTEX
  8
LAYER_1
 10
-257.9922
 20
179.2845
  0
VERTEX
  8
LAYER_1
 10
-257.9791
 20
179.1045
  0
VERTEX
  8
LAYER_1
 10
-257.9053
 20
178.938
  0
VERTEX
  8
LAYER_1
 10
-257.7781
 20
178.8062
  0
VERTEX
  8
LAYER_1
 10
-257.6051
 20
178.7302
  0
VERTEX
  8
LAYER_1
 10
-257.3936
 20
178.7313
  0
VERTEX
  8
LAYER_1
 10
-257.194
 20
178.8162
  0
VERTEX
  8
LAYER_1
 10
-257.0676
 20
178.9579
  0
VERTEX
  8
LAYER_1
 10
-257.0101
 20
179.1332
  0
VERTEX
  8
LAYER_1
 10
-257.0166
 20
179.3186
  0
VERTEX
  8
LAYER_1
 10
-257.0827
 20
179.4908
  0
VERTEX
  8
LAYER_1
 10
-257.2038
 20
179.6264
  0
VERTEX
  8
LAYER_1
 10
-257.3753
 20
179.7021
  0
VERTEX
  8
LAYER_1
 10
-257.5925
 20
179.6944
  0
SEQEND
  8
LAYER_1
  0
POLYLINE
  8
LAYER_1
 66
     1
 70
     1
  0
VERTEX
  8
LAYER_1
 10
-257.5925
 20
182.2344
  0
VERTEX
  8
LAYER_1
 10
-257.8063
 20
182.1407
  0
VERTEX
  8
LAYER_1
 10
-257.937
 20
181.997
  0
VERTEX
  8
LAYER_1
 10
-257.9922
 20
181.8245
  0
VERTEX
  8
LAYER_1
 10
-257.9791
 20
181.6445
  0
VERTEX
  8
LAYER_1
 10
-257.9053
 20
181.478
  0
VERTEX
  8
LAYER_1
 10
-257.7781
 20
181.3462
  0
VERTEX
  8
LAYER_1
 10
-257.6051
 20
181.2702
  0
VERTEX
  8
LAYER_1
 10
-257.3936
 20
181.2713
  0
VERTEX
  8
LAYER_1
 10
-257.194
 20
181.3562
  0
VERTEX
  8
LAYER_1
 10
-257.0676
 20
181.4979
  0
VERTEX
  8
LAYER_1
 10
-257.0101
 20
181.6732
  0
VERTEX
  8
LAYER_1
 10
-257.0166
 20
181.8586
  0
VERTEX
  8
LAYER_1
 10
-257.0827
 20
182.0308
  0
VERTEX
  8
LAYER_1
 10
-257.2038
 20
182.1664
  0
VERTEX
  8
LAYER_1
 10
-257.3753
 20
182.2421
  0
VERTEX
  8
LAYER_1
 10
-257.5925
 20
182.2344
  0
SEQEND
  8
LAYER_1
  0
POLYLINE
  8
LAYER_1
 66
     1
 70
     1
  0
VERTEX
  8
LAYER_1
 10
-257.5925
 20
189.8544
  0
VERTEX
  8
LAYER_1
 10
-257.8063
 20
189.7607
  0
VERTEX
  8
LAYER_1
 10
-257.937
 20
189.617
  0
VERTEX
  8
LAYER_1
 10
-257.9922
 20
189.4445
  0
VERTEX
  8
LAYER_1
 10
-257.9791
 20
189.2645
  0
VERTEX
  8
LAYER_1
 10
-257.9053
 20
189.098
  0
VERTEX
  8
LAYER_1
 10
-257.7781
 20
188.9662
  0
VERTEX
  8
LAYER_1
 10
-257.6051
 20
188.8902
  0
VERTEX
  8
LAYER_1
 10
-257.3936
 20
188.8913
  0
VERTEX
  8
LAYER_1
 10
-257.194
 20
188.9762
  0
VERTEX
  8
LAYER_1
 10
-257.0676
 20
189.1179
  0
VERTEX
  8
LAYER_1
 10
-257.0101
 20
189.2932
  0
VERTEX
  8
LAYER_1
 10
-257.0166
 20
189.4786
  0
VERTEX
  8
LAYER_1
 10
-257.0827
 20
189.6508
  0
VERTEX
  8
LAYER_1
 10
-257.2038
 20
189.7864
  0
VERTEX
  8
LAYER_1
 10
-257.3753
 20
189.8621
  0
VERTEX
  8
LAYER_1
 10
-257.5925
 20
189.8544
  0
SEQEND
  8
LAYER_1
  0
POLYLINE
  8
LAYER_1
 66
     1
 70
     1
  0
VERTEX
  8
LAYER_1
 10
-257.5925
 20
192.3944
  0
VERTEX
  8
LAYER_1
 10
-257.8063
 20
192.3007
  0
VERTEX
  8
LAYER_1
 10
-257.937
 20
192.157
  0
VERTEX
  8
LAYER_1
 10
-257.9922
 20
191.9845
  0
VERTEX
  8
LAYER_1
 10
-257.9791
 20
191.8045
  0
VERTEX
  8
LAYER_1
 10
-257.9053
 20
191.638
  0
VERTEX
  8
LAYER_1
 10
-257.7781
 20
191.5062
  0
VERTEX
  8
LAYER_1
 10
-257.6051
 20
191.4302
  0
VERTEX
  8
LAYER_1
 10
-257.3936
 20
191.4313
  0
VERTEX
  8
LAYER_1
 10
-257.194
 20
191.5162
  0
VERTEX
  8
LAYER_1
 10
-257.0676
 20
191.6579
  0
VERTEX
  8
LAYER_1
 10
-257.0101
 20
191.8332
  0
VERTEX
  8
LAYER_1
 10
-257.0166
 20
192.0186
  0
VERTEX
  8
LAYER_1
 10
-257.0827
 20
192.1908
  0
VERTEX
  8
LAYER_1
 10
-257.2038
 20
192.3264
  0
VERTEX
  8
LAYER_1
 10
-257.3753
 20
192.4021
  0
VERTEX
  8
LAYER_1
 10
-257.5925
 20
192.3944
  0
SEQEND
  8
LAYER_1
  0
POLYLINE
  8
LAYER_1
 66
     1
 70
     1
  0
VERTEX
  8
LAYER_1
 10
-257.5925
 20
177.1544
  0
VERTEX
  8
LAYER_1
 10
-257.8063
 20
177.0607
  0
VERTEX
  8
LAYER_1
 10
-257.937
 20
176.917
  0
VERTEX
  8
LAYER_1
 10
-257.9922
 20
176.7445
  0
VERTEX
  8
LAYER_1
 10
-257.9791
 20
176.5645
  0
VERTEX
  8
LAYER_1
 10
-257.9053
 20
176.398
  0
VERTEX
  8
LAYER_1
 10
-257.7781
 20
176.2662
  0
VERTEX
  8
LAYER_1
 10
-257.6051
 20
176.1902
  0
VERTEX
  8
LAYER_1
 10
-257.3936
 20
176.1913
  0
VERTEX
  8
LAYER_1
 10
-257.194
 20
176.2762
  0
VERTEX
  8
LAYER_1
 10
-257.0676
 20
176.4179
  0
VERTEX
  8
LAYER_1
 10
-257.0101
 20
176.5932
  0
VERTEX
  8
LAYER_1
 10
-257.0166
 20
176.7786
  0
VERTEX
  8
LAYER_1
 10
-257.0827
 20
176.9508
  0
VERTEX
  8
LAYER_1
 10
-257.2038
 20
177.0864
  0
VERTEX
  8
LAYER_1
 10
-257.3753
 20
177.1621
  0
VERTEX
  8
LAYER_1
 10
-257.5925
 20
177.1544
  0
SEQEND
  8
LAYER_1
  0
POLYLINE
  8
LAYER_1
 66
     1
 70
     1
  0
VERTEX
  8
LAYER_1
 10
-257.5925
 20
184.7744
  0
VERTEX
  8
LAYER_1
 10
-257.8063
 20
184.6807
  0
VERTEX
  8
LAYER_1
 10
-257.937
 20
184.537
  0
VERTEX
  8
LAYER_1
 10
-257.9922
 20
184.3645
  0
VERTEX
  8
LAYER_1
 10
-257.9791
 20
184.1845
  0
VERTEX
  8
LAYER_1
 10
-257.9053
 20
184.018
  0
VERTEX
  8
LAYER_1
 10
-257.7781
 20
183.8862
  0
VERTEX
  8
LAYER_1
 10
-257.6051
 20
183.8102
  0
VERTEX
  8
LAYER_1
 10
-257.3936
 20
183.8113
  0
VERTEX
  8
LAYER_1
 10
-257.194
 20
183.8962
  0
VERTEX
  8
LAYER_1
 10
-257.0676
 20
184.0379
  0
VERTEX
  8
LAYER_1
 10
-257.0101
 20
184.2132
  0
VERTEX
  8
LAYER_1
 10
-257.0166
 20
184.3986
  0
VERTEX
  8
LAYER_1
 10
-257.0827
 20
184.5708
  0
VERTEX
  8
LAYER_1
 10
-257.2038
 20
184.7064
  0
VERTEX
  8
LAYER_1
 10
-257.3753
 20
184.7821
  0
VERTEX
  8
LAYER_1
 10
-257.5925
 20
184.7744
  0
SEQEND
  8
LAYER_1
  0
POLYLINE
  8
LAYER_1
 66
     1
 70
     1
  0
VERTEX
  8
LAYER_1
 10
-257.5925
 20
187.3144
  0
VERTEX
  8
LAYER_1
 10
-257.8063
 20
187.2207
  0
VERTEX
  8
LAYER_1
 10
-257.937
 20
187.077
  0
VERTEX
  8
LAYER_1
 10
-257.9922
 20
186.9045
  0
VERTEX
  8
LAYER_1
 10
-257.9791
 20
186.7245
  0
VERTEX
  8
LAYER_1
 10
-257.9053
 20
186.558
  0
VERTEX
  8
LAYER_1
 10
-257.7781
 20
186.4262
  0
VERTEX
  8
LAYER_1
 10
-257.6051
 20
186.3502
  0
VERTEX
  8
LAYER_1
 10
-257.3936
 20
186.3513
  0
VERTEX
  8
LAYER_1
 10
-257.194
 20
186.4362
  0
VERTEX
  8
LAYER_1
 10
-257.0676
 20
186.5779
  0
VERTEX
  8
LAYER_1
 10
-257.0101
 20
186.7532
  0
VERTEX
  8
LAYER_1
 10
-257.0166
 20
186.9386
  0
VERTEX
  8
LAYER_1
 10
-257.0827
 20
187.1108
  0
VERTEX
  8
LAYER_1
 10
-257.2038
 20
187.2464
  0
VERTEX
  8
LAYER_1
 10
-257.3753
 20
187.3221
  0
VERTEX
  8
LAYER_1
 10
-257.5925
 20
187.3144
  0
SEQEND
  8
LAYER_1
  0
ENDSEC
  0
EOF
