  0
SECTION
  2
HEADER
  9
$ACADVER
  1
AC1009
  9
$INSBASE
 10
0.0
 20
0.0
 30
0.0
  9
$EXTMIN
 10
-72.8425939906382212
 20
-174.1452961207351962
 30
0.0
  9
$EXTMAX
 10
581.9301600951923774
 20
152.8958854785522874
 30
0.0
  9
$LIMMIN
 10
0.0
 20
0.0
  9
$LIMMAX
 10
12.0
 20
9.0
  9
$ORTHOMODE
 70
     1
  9
$REGENMODE
 70
     1
  9
$FILLMODE
 70
     1
  9
$QTEXTMODE
 70
     0
  9
$MIRRTEXT
 70
     0
  9
$DRAGMODE
 70
     2
  9
$LTSCALE
 40
1.0
  9
$OSMODE
 70
   167
  9
$ATTMODE
 70
     1
  9
$TEXTSIZE
 40
0.2
  9
$TRACEWID
 40
0.05
  9
$TEXTSTYLE
  7
STANDARD
  9
$CLAYER
  8
0
  9
$CELTYPE
  6
BYLAYER
  9
$CECOLOR
 62
   256
  9
$DIMSCALE
 40
1.0
  9
$DIMASZ
 40
0.18
  9
$DIMEXO
 40
0.0625
  9
$DIMDLI
 40
0.38
  9
$DIMRND
 40
0.0
  9
$DIMDLE
 40
0.0
  9
$DIMEXE
 40
0.18
  9
$DIMTP
 40
0.0
  9
$DIMTM
 40
0.0
  9
$DIMTXT
 40
0.18
  9
$DIMCEN
 40
0.09
  9
$DIMTSZ
 40
0.0
  9
$DIMTOL
 70
     0
  9
$DIMLIM
 70
     0
  9
$DIMTIH
 70
     1
  9
$DIMTOH
 70
     1
  9
$DIMSE1
 70
     0
  9
$DIMSE2
 70
     0
  9
$DIMTAD
 70
     0
  9
$DIMZIN
 70
     0
  9
$DIMBLK
  1

  9
$DIMASO
 70
     1
  9
$DIMSHO
 70
     1
  9
$DIMPOST
  1

  9
$DIMAPOST
  1

  9
$DIMALT
 70
     0
  9
$DIMALTD
 70
     2
  9
$DIMALTF
 40
25.3999999999999986
  9
$DIMLFAC
 40
1.0
  9
$DIMTOFL
 70
     0
  9
$DIMTVP
 40
0.0
  9
$DIMTIX
 70
     0
  9
$DIMSOXD
 70
     0
  9
$DIMSAH
 70
     0
  9
$DIMBLK1
  1

  9
$DIMBLK2
  1

  9
$DIMSTYLE
  2
STANDARD
  9
$DIMCLRD
 70
     0
  9
$DIMCLRE
 70
     0
  9
$DIMCLRT
 70
     0
  9
$DIMTFAC
 40
1.0
  9
$DIMGAP
 40
0.09
  9
$LUNITS
 70
     2
  9
$LUPREC
 70
     4
  9
$SKETCHINC
 40
0.1
  9
$FILLETRAD
 40
0.0
  9
$AUNITS
 70
     0
  9
$AUPREC
 70
     0
  9
$MENU
  1
.
  9
$ELEVATION
 40
0.0
  9
$PELEVATION
 40
0.0
  9
$THICKNESS
 40
0.0
  9
$LIMCHECK
 70
     0
  9
$BLIPMODE
 70
     0
  9
$CHAMFERA
 40
0.0
  9
$CHAMFERB
 40
0.0
  9
$SKPOLY
 70
     0
  9
$TDCREATE
 40
2456431.6069932519458234
  9
$TDUPDATE
 40
2456433.6697197570465505
  9
$TDINDWG
 40
0.1755114583
  9
$TDUSRTIMER
 40
0.1753309606
  9
$USRTIMER
 70
     1
  9
$ANGBASE
 50
0.0
  9
$ANGDIR
 70
     0
  9
$PDMODE
 70
     0
  9
$PDSIZE
 40
0.0
  9
$PLINEWID
 40
0.0
  9
$COORDS
 70
     1
  9
$SPLFRAME
 70
     0
  9
$SPLINETYPE
 70
     6
  9
$SPLINESEGS
 70
     8
  9
$ATTDIA
 70
     1
  9
$ATTREQ
 70
     1
  9
$HANDLING
 70
     1
  9
$HANDSEED
  5
74A
  9
$SURFTAB1
 70
     6
  9
$SURFTAB2
 70
     6
  9
$SURFTYPE
 70
     6
  9
$SURFU
 70
     6
  9
$SURFV
 70
     6
  9
$UCSNAME
  2

  9
$UCSORG
 10
0.0
 20
0.0
 30
0.0
  9
$UCSXDIR
 10
1.0
 20
0.0
 30
0.0
  9
$UCSYDIR
 10
0.0
 20
1.0
 30
0.0
  9
$PUCSNAME
  2

  9
$PUCSORG
 10
0.0
 20
0.0
 30
0.0
  9
$PUCSXDIR
 10
1.0
 20
0.0
 30
0.0
  9
$PUCSYDIR
 10
0.0
 20
1.0
 30
0.0
  9
$USERI1
 70
     0
  9
$USERI2
 70
     0
  9
$USERI3
 70
     0
  9
$USERI4
 70
     0
  9
$USERI5
 70
     0
  9
$USERR1
 40
0.0
  9
$USERR2
 40
0.0
  9
$USERR3
 40
0.0
  9
$USERR4
 40
0.0
  9
$USERR5
 40
0.0
  9
$WORLDVIEW
 70
     1
  9
$SHADEDGE
 70
     3
  9
$SHADEDIF
 70
    70
  9
$TILEMODE
 70
     1
  9
$MAXACTVP
 70
    64
  9
$PLIMCHECK
 70
     0
  9
$PEXTMIN
 10
0.0
 20
0.0
 30
0.0
  9
$PEXTMAX
 10
0.0
 20
0.0
 30
0.0
  9
$PLIMMIN
 10
0.0
 20
0.0
  9
$PLIMMAX
 10
12.0
 20
9.0
  9
$UNITMODE
 70
     0
  9
$VISRETAIN
 70
     1
  9
$PLINEGEN
 70
     0
  9
$PSLTSCALE
 70
     1
  0
ENDSEC
  0
SECTION
  2
TABLES
  0
TABLE
  2
VPORT
 70
     1
  0
VPORT
  2
*ACTIVE
 70
     0
 10
0.0
 20
0.0
 11
1.0
 21
1.0
 12
59.2825080479182134
 22
-7.8810086054085096
 13
0.0
 23
0.0
 14
0.5
 24
0.5
 15
0.5
 25
0.5
 16
0.0
 26
0.0
 36
142.4658988990636033
 17
196.7337938960610018
 27
30.7234600542473117
 37
0.0
 40
449.8261487613360146
 41
1.406633906633906
 42
50.0
 43
0.0
 44
0.0
 50
0.0
 51
0.0
 71
     0
 72
  1000
 73
     1
 74
     3
 75
     0
 76
     1
 77
     0
 78
     0
  0
ENDTAB
  0
TABLE
  2
LTYPE
 70
     2
  0
LTYPE
  2
CONTINUOUS
 70
     0
  3
Solid line
 72
    65
 73
     0
 40
0.0
  0
ENDTAB
  0
TABLE
  2
LAYER
 70
     1
  0
LAYER
  2
0
 70
     0
 62
     7
  6
CONTINUOUS
  0
ENDTAB
  0
TABLE
  2
STYLE
 70
     2
  0
STYLE
  2
STANDARD
 70
     0
 40
0.0
 41
1.0
 50
0.0
 71
     0
 42
0.2
  3
txt
  4

  0
STYLE
  2
ANNOTATIVE
 70
     0
 40
0.0
 41
1.0
 50
0.0
 71
     0
 42
0.2
  3
txt
  4

  0
ENDTAB
  0
TABLE
  2
VIEW
 70
     1
  0
ENDTAB
  0
TABLE
  2
UCS
 70
     0
  0
ENDTAB
  0
TABLE
  2
APPID
 70
     8
  0
APPID
  2
ACAD
 70
     0
  0
APPID
  2
ACADANNOPO
 70
     0
  0
APPID
  2
ACADANNOTATIVE
 70
     0
  0
APPID
  2
ACAD_DSTYLE_DIMJAG
 70
     0
  0
APPID
  2
ACAD_DSTYLE_DIMTALN
 70
     0
  0
APPID
  2
ACAD_MLEADERVER
 70
     0
  0
APPID
  2
ACAD_EXEMPT_FROM_CAD_STANDARDS
 70
     0
  0
APPID
  2
ACAD_NAV_VCDISPLAY
 70
     0
  0
ENDTAB
  0
TABLE
  2
DIMSTYLE
 70
     3
  0
DIMSTYLE
  2
STANDARD
 70
     0
  3

  4

  5

  6

  7

 40
1.0
 41
0.18
 42
0.0625
 43
0.38
 44
0.18
 45
0.0
 46
0.0
 47
0.0
 48
0.0
140
0.18
141
0.09
142
0.0
143
25.3999999999999986
144
1.0
145
0.0
146
1.0
147
0.09
 71
     0
 72
     0
 73
     1
 74
     1
 75
     0
 76
     0
 77
     0
 78
     0
170
     0
171
     2
172
     0
173
     0
174
     0
175
     0
176
     0
177
     0
178
     0
  0
DIMSTYLE
  2
ANNOTATIVE
 70
     0
  3

  4

  5

  6

  7

 40
0.0
 41
0.18
 42
0.0625
 43
0.38
 44
0.18
 45
0.0
 46
0.0
 47
0.0
 48
0.0
140
0.18
141
0.09
142
0.0
143
25.3999999999999986
144
1.0
145
0.0
146
1.0
147
0.09
 71
     0
 72
     0
 73
     1
 74
     1
 75
     0
 76
     0
 77
     0
 78
     0
170
     0
171
     2
172
     0
173
     0
174
     0
175
     0
176
     0
177
     0
178
     0
  0
ENDTAB
  0
ENDSEC
  0
SECTION
  2
BLOCKS
  0
BLOCK
  8
0
  2
$MODEL_SPACE
 70
     0
 10
0.0
 20
0.0
 30
0.0
  3
$MODEL_SPACE
  1

  0
ENDBLK
  5
21
  8
0
  0
BLOCK
 67
     1
  8
0
  2
$PAPER_SPACE
 70
     0
 10
0.0
 20
0.0
 30
0.0
  3
$PAPER_SPACE
  1

  0
ENDBLK
  5
5B
 67
     1
  8
0
  0
ENDSEC
  0
SECTION
  2
ENTITIES
  0
LINE
  5
1CA
  8
0
 10
82.5601741370763165
 20
30.1394268258049891
 30
0.0
 11
82.5601741370763165
 21
13.1394268258049909
 31
0.0
  0
LINE
  5
1CB
  8
0
 10
2.560174137076316
 20
30.1394268258049891
 30
0.0
 11
2.560174137076316
 21
13.1394268258049909
 31
0.0
  0
LINE
  5
1CC
  8
0
 10
2.560174137076316
 20
30.1394268258049891
 30
0.0
 11
19.56017413707632
 21
30.1394268258049891
 31
0.0
  0
LINE
  5
1CD
  8
0
 10
2.560174137076316
 20
-49.8605731741950109
 30
0.0
 11
19.56017413707632
 21
-49.8605731741950109
 31
0.0
  0
LINE
  5
1D0
  8
0
 10
45.5601741370763094
 20
30.1394268258049891
 30
0.0
 11
45.5601741370763094
 21
24.1394268258049891
 31
0.0
  0
LINE
  5
1D1
  8
0
 10
39.5601741370763165
 20
30.1394268258049891
 30
0.0
 11
39.5601741370763165
 21
24.1394268258049891
 31
0.0
  0
LINE
  5
1D2
  8
0
 10
2.560174137076316
 20
-6.86057317419501
 30
0.0
 11
8.5601741370763165
 21
-6.8605731741950109
 31
0.0
  0
LINE
  5
1D3
  8
0
 10
2.560174137076316
 20
-12.8605731741950091
 30
0.0
 11
8.5601741370763165
 21
-12.8605731741950091
 31
0.0
  0
LINE
  5
1D8
  8
0
 10
2.560174137076316
 20
-26.8605731741950109
 30
0.0
 11
8.5601741370763165
 21
-26.8605731741950109
 31
0.0
  0
LINE
  5
1D9
  8
0
 10
2.560174137076316
 20
-32.8605731741950109
 30
0.0
 11
8.5601741370763165
 21
-32.8605731741950109
 31
0.0
  0
LINE
  5
1DA
  8
0
 10
2.560174137076316
 20
13.1394268258049909
 30
0.0
 11
8.5601741370763165
 21
13.1394268258049909
 31
0.0
  0
LINE
  5
1DB
  8
0
 10
2.560174137076316
 20
7.1394268258049891
 30
0.0
 11
8.5601741370763165
 21
7.1394268258049882
 31
0.0
  0
LINE
  5
1DC
  8
0
 10
25.56017413707632
 20
30.1394268258049891
 30
0.0
 11
25.5601741370763094
 21
24.1394268258049891
 31
0.0
  0
LINE
  5
1DD
  8
0
 10
19.56017413707632
 20
30.1394268258049891
 30
0.0
 11
19.56017413707632
 21
24.1394268258049891
 31
0.0
  0
LINE
  5
1DE
  8
0
 10
65.5601741370763165
 20
30.1394268258049891
 30
0.0
 11
65.5601741370763165
 21
24.1394268258049891
 31
0.0
  0
LINE
  5
1DF
  8
0
 10
59.5601741370763094
 20
30.1394268258049891
 30
0.0
 11
59.5601741370763094
 21
24.1394268258049891
 31
0.0
  0
LINE
  5
1E0
  8
0
 10
19.56017413707632
 20
24.1394268258049891
 30
0.0
 11
25.5601741370763094
 21
24.1394268258049891
 31
0.0
  0
LINE
  5
1E1
  8
0
 10
76.5601741370763165
 20
13.1394268258049909
 30
0.0
 11
76.5601741370763023
 21
7.1394268258049891
 31
0.0
  0
LINE
  5
1E2
  8
0
 10
8.5601741370763165
 20
13.1394268258049909
 30
0.0
 11
8.5601741370763165
 21
7.1394268258049882
 31
0.0
  0
LINE
  5
1E3
  8
0
 10
19.5601741370763094
 20
-43.8605731741950109
 30
0.0
 11
25.56017413707632
 21
-43.8605731741950109
 31
0.0
  0
LINE
  5
1E4
  8
0
 10
82.5601741370763165
 20
-12.8605731741950091
 30
0.0
 11
82.5601741370763165
 21
-26.8605731741950109
 31
0.0
  0
LINE
  5
1E5
  8
0
 10
2.560174137076316
 20
-12.8605731741950091
 30
0.0
 11
2.560174137076316
 21
-26.8605731741950109
 31
0.0
  0
LINE
  5
1E6
  8
0
 10
2.560174137076316
 20
-32.8605731741950109
 30
0.0
 11
2.560174137076316
 21
-49.8605731741950109
 31
0.0
  0
LINE
  5
1E7
  8
0
 10
25.56017413707632
 20
-49.8605731741950109
 30
0.0
 11
39.5601741370763165
 21
-49.8605731741950109
 31
0.0
  0
LINE
  5
1E8
  8
0
 10
45.5601741370763094
 20
-49.8605731741950109
 30
0.0
 11
59.5601741370763094
 21
-49.8605731741950109
 31
0.0
  0
LINE
  5
1E9
  8
0
 10
65.5601741370763165
 20
-49.8605731741950109
 30
0.0
 11
82.5601741370763165
 21
-49.8605731741950109
 31
0.0
  0
LINE
  5
1EA
  8
0
 10
82.5601741370763165
 20
-32.8605731741950109
 30
0.0
 11
82.5601741370763165
 21
-49.8605731741950109
 31
0.0
  0
LINE
  5
1EB
  8
0
 10
82.5601741370763165
 20
7.1394268258049882
 30
0.0
 11
82.5601741370763165
 21
-6.86057317419501
 31
0.0
  0
LINE
  5
1EC
  8
0
 10
65.5601741370763165
 20
30.1394268258049891
 30
0.0
 11
82.5601741370763165
 21
30.1394268258049891
 31
0.0
  0
LINE
  5
1ED
  8
0
 10
45.5601741370763094
 20
30.1394268258049891
 30
0.0
 11
59.5601741370763094
 21
30.1394268258049891
 31
0.0
  0
LINE
  5
1EE
  8
0
 10
25.5601741370763094
 20
30.1394268258049891
 30
0.0
 11
39.5601741370763165
 21
30.1394268258049891
 31
0.0
  0
LINE
  5
1EF
  8
0
 10
2.560174137076316
 20
7.1394268258049882
 30
0.0
 11
2.560174137076316
 21
-6.86057317419501
 31
0.0
  0
LINE
  5
1F5
  8
0
 10
76.5601741370763165
 20
7.1394268258049882
 30
0.0
 11
82.5601741370763165
 21
7.1394268258049891
 31
0.0
  0
LINE
  5
1F6
  8
0
 10
76.5601741370763165
 20
13.1394268258049909
 30
0.0
 11
82.5601741370763165
 21
13.1394268258049909
 31
0.0
  0
LINE
  5
1F7
  8
0
 10
19.56017413707632
 20
-43.8605731741950109
 30
0.0
 11
19.56017413707632
 21
-49.8605731741950109
 31
0.0
  0
LINE
  5
1F8
  8
0
 10
25.5601741370763094
 20
-43.8605731741950109
 30
0.0
 11
25.56017413707632
 21
-49.8605731741950109
 31
0.0
  0
LINE
  5
1F9
  8
0
 10
39.5601741370763165
 20
-43.8605731741950109
 30
0.0
 11
39.5601741370763165
 21
-49.8605731741950109
 31
0.0
  0
LINE
  5
1FA
  8
0
 10
45.5601741370763094
 20
-43.8605731741950109
 30
0.0
 11
45.5601741370763094
 21
-49.8605731741950109
 31
0.0
  0
LINE
  5
1FB
  8
0
 10
59.5601741370763094
 20
-43.8605731741950109
 30
0.0
 11
59.5601741370763094
 21
-49.8605731741950109
 31
0.0
  0
LINE
  5
1FC
  8
0
 10
65.5601741370763165
 20
-43.8605731741950109
 30
0.0
 11
65.5601741370763165
 21
-49.8605731741950109
 31
0.0
  0
LINE
  5
1FD
  8
0
 10
76.5601741370763165
 20
-32.8605731741950109
 30
0.0
 11
82.5601741370763165
 21
-32.8605731741950109
 31
0.0
  0
LINE
  5
1FE
  8
0
 10
76.5601741370763165
 20
-26.8605731741950109
 30
0.0
 11
82.5601741370763165
 21
-26.8605731741950109
 31
0.0
  0
LINE
  5
1FF
  8
0
 10
76.5601741370763165
 20
-6.8605731741950109
 30
0.0
 11
82.5601741370763165
 21
-6.86057317419501
 31
0.0
  0
LINE
  5
200
  8
0
 10
76.5601741370763165
 20
-12.8605731741950091
 30
0.0
 11
82.5601741370763165
 21
-12.8605731741950091
 31
0.0
  0
LINE
  5
20D
  8
0
 10
115.9629422647907973
 20
-49.8605731741950109
 30
0.0
 11
127.9629422647907973
 21
-49.8605731741950109
 31
0.0
  0
LINE
  5
259
  8
0
 10
82.5601741370763165
 20
67.8992709932703065
 30
0.0
 11
82.5601741370763165
 21
73.8992709932703065
 31
0.0
  0
LINE
  5
25B
  8
0
 10
76.5601741370763165
 20
61.8992709932702994
 30
0.0
 11
76.5601741370763165
 21
67.8992709932703065
 31
0.0
  0
LINE
  5
25E
  8
0
 10
19.56017413707632
 20
55.8992709932702923
 30
0.0
 11
25.56017413707632
 21
55.8992709932702923
 31
0.0
  0
LINE
  5
25F
  8
0
 10
19.56017413707632
 20
55.8992709932702923
 30
0.0
 11
19.56017413707632
 21
61.8992709932702994
 31
0.0
  0
LINE
  5
260
  8
0
 10
25.5601741370763094
 20
55.8992709932702923
 30
0.0
 11
25.56017413707632
 21
61.8992709932702994
 31
0.0
  0
LINE
  5
261
  8
0
 10
39.5601741370763094
 20
55.8992709932702923
 30
0.0
 11
39.5601741370763165
 21
61.8992709932702994
 31
0.0
  0
LINE
  5
262
  8
0
 10
45.5601741370763165
 20
55.8992709932702923
 30
0.0
 11
45.5601741370763094
 21
61.8992709932702994
 31
0.0
  0
LINE
  5
263
  8
0
 10
59.5601741370763023
 20
55.8992709932702923
 30
0.0
 11
59.5601741370763094
 21
61.8992709932702994
 31
0.0
  0
LINE
  5
264
  8
0
 10
65.5601741370763165
 20
55.8992709932702923
 30
0.0
 11
65.5601741370763165
 21
61.8992709932702994
 31
0.0
  0
LINE
  5
265
  8
0
 10
39.5601741370763094
 20
55.8992709932702923
 30
0.0
 11
45.5601741370763307
 21
55.8992709932702923
 31
0.0
  0
LINE
  5
266
  8
0
 10
25.56017413707632
 20
61.8992709932702923
 30
0.0
 11
39.5601741370763165
 21
61.8992709932702994
 31
0.0
  0
LINE
  5
267
  8
0
 10
45.5601741370763094
 20
61.8992709932703065
 30
0.0
 11
59.5601741370763094
 21
61.8992709932703065
 31
0.0
  0
LINE
  5
268
  8
0
 10
59.5601741370763023
 20
55.8992709932702923
 30
0.0
 11
65.5601741370763307
 21
55.8992709932702994
 31
0.0
  0
LINE
  5
269
  8
0
 10
65.5601741370763165
 20
61.8992709932703065
 30
0.0
 11
76.5601741370763165
 21
61.8992709932702994
 31
0.0
  0
LINE
  5
2A2
  8
0
 10
82.5601741370763165
 20
85.8992709932703065
 30
0.0
 11
76.5601741370763307
 21
85.8992709932703065
 31
0.0
  0
LINE
  5
2A3
  8
0
 10
82.560174137076288
 20
79.8992709932703065
 30
0.0
 11
76.5601741370763307
 21
79.8992709932703065
 31
0.0
  0
LINE
  5
2A4
  8
0
 10
82.5601741370763165
 20
73.8992709932703065
 30
0.0
 11
76.5601741370763165
 21
73.8992709932703065
 31
0.0
  0
LINE
  5
2A5
  8
0
 10
82.5601741370763165
 20
67.8992709932703065
 30
0.0
 11
76.5601741370763165
 21
67.8992709932703065
 31
0.0
  0
LINE
  5
2A6
  8
0
 10
76.5601741370763165
 20
73.8992709932703065
 30
0.0
 11
76.5601741370763165
 21
79.8992709932703065
 31
0.0
  0
LINE
  5
2A7
  8
0
 10
82.5601741370763165
 20
79.8992709932703065
 30
0.0
 11
82.5601741370763165
 21
85.8992709932703065
 31
0.0
  0
LINE
  5
2A8
  8
0
 10
82.5601741370763307
 20
103.8992709932703065
 30
0.0
 11
65.5601741370763165
 21
103.8992709932703065
 31
0.0
  0
LINE
  5
2A9
  8
0
 10
76.5601741370763307
 20
85.8992709932703065
 30
0.0
 11
76.5601741370763307
 21
97.8992709932703207
 31
0.0
  0
LINE
  5
2B5
  8
0
 10
65.5601741370763165
 20
97.8992709932703207
 30
0.0
 11
59.5601741370763307
 21
97.8992709932703065
 31
0.0
  0
LINE
  5
2B6
  8
0
 10
65.5601741370763165
 20
97.8992709932703207
 30
0.0
 11
65.5601741370763165
 21
103.8992709932703065
 31
0.0
  0
LINE
  5
2B7
  8
0
 10
59.5601741370763165
 20
97.8992709932703207
 30
0.0
 11
59.5601741370763378
 21
103.8992709932703065
 31
0.0
  0
LINE
  5
2B8
  8
0
 10
45.5601741370763094
 20
97.8992709932703065
 30
0.0
 11
45.5601741370763094
 21
103.8992709932703065
 31
0.0
  0
LINE
  5
2B9
  8
0
 10
39.5601741370763165
 20
97.8992709932703207
 30
0.0
 11
39.5601741370763307
 21
103.8992709932703065
 31
0.0
  0
LINE
  5
2BA
  8
0
 10
25.56017413707632
 20
97.8992709932703207
 30
0.0
 11
25.56017413707632
 21
103.8992709932703065
 31
0.0
  0
LINE
  5
2BB
  8
0
 10
19.56017413707632
 20
97.8992709932703207
 30
0.0
 11
19.56017413707632
 21
103.8992709932703065
 31
0.0
  0
LINE
  5
2BD
  8
0
 10
39.5601741370763307
 20
103.8992709932703065
 30
0.0
 11
25.56017413707632
 21
103.8992709932703065
 31
0.0
  0
LINE
  5
2BE
  8
0
 10
59.5601741370763165
 20
103.8992709932703065
 30
0.0
 11
45.5601741370763165
 21
103.8992709932703065
 31
0.0
  0
LINE
  5
2BF
  8
0
 10
45.5601741370763094
 20
97.8992709932703065
 30
0.0
 11
39.5601741370763165
 21
97.8992709932703065
 31
0.0
  0
LINE
  5
2C0
  8
0
 10
25.56017413707632
 20
97.8992709932703065
 30
0.0
 11
19.56017413707632
 21
97.8992709932703065
 31
0.0
  0
LINE
  5
2C1
  8
0
 10
82.5601741370763307
 20
97.8992709932703207
 30
0.0
 11
82.5601741370763307
 21
103.8992709932703065
 31
0.0
  0
LINE
  5
2C4
  8
0
 10
82.5601741370763307
 20
97.8992709932703207
 30
0.0
 11
76.5601741370763307
 21
97.8992709932703207
 31
0.0
  0
LINE
  5
2C6
  8
0
 10
76.5601741370763307
 20
134.8958854785522021
 30
0.0
 11
76.5601741370763307
 21
146.8958854785522021
 31
0.0
  0
LINE
  5
2C9
  8
0
 10
76.5601741370763307
 20
134.8958854785522021
 30
0.0
 11
82.5601741370763307
 21
134.8958854785522021
 31
0.0
  0
LINE
  5
2CA
  8
0
 10
82.5601741370763307
 20
134.8958854785522021
 30
0.0
 11
82.5601741370763307
 21
128.8958854785522021
 31
0.0
  0
LINE
  5
2CB
  8
0
 10
82.5601741370763307
 20
128.8958854785522021
 30
0.0
 11
2.5601741370763018
 21
128.8958854785522021
 31
0.0
  0
LINE
  5
2CC
  8
0
 10
65.5601741370763023
 20
146.8958854785522021
 30
0.0
 11
65.5601741370763023
 21
152.8958854785522021
 31
0.0
  0
LINE
  5
2CD
  8
0
 10
59.5601741370763307
 20
146.8958854785522021
 30
0.0
 11
59.5601741370763094
 21
152.8958854785522021
 31
0.0
  0
LINE
  5
2CE
  8
0
 10
45.5601741370763094
 20
146.8958854785522021
 30
0.0
 11
45.5601741370763094
 21
152.8958854785522021
 31
0.0
  0
LINE
  5
2CF
  8
0
 10
39.5601741370763307
 20
146.8958854785522021
 30
0.0
 11
39.5601741370763165
 21
152.8958854785522021
 31
0.0
  0
LINE
  5
2D0
  8
0
 10
25.56017413707632
 20
146.8958854785522021
 30
0.0
 11
25.56017413707632
 21
152.8958854785522021
 31
0.0
  0
LINE
  5
2D1
  8
0
 10
19.56017413707632
 20
146.8958854785522021
 30
0.0
 11
19.56017413707632
 21
152.8958854785522021
 31
0.0
  0
LINE
  5
2D2
  8
0
 10
76.5601741370763307
 20
146.8958854785522021
 30
0.0
 11
65.5601741370762738
 21
146.8958854785522021
 31
0.0
  0
LINE
  5
2D3
  8
0
 10
65.5601741370762738
 20
152.8958854785522021
 30
0.0
 11
59.5601741370763307
 21
152.8958854785522874
 31
0.0
  0
LINE
  5
2D5
  8
0
 10
39.5601741370763165
 20
146.8958854785522021
 30
0.0
 11
25.56017413707632
 21
146.8958854785522021
 31
0.0
  0
LINE
  5
2D6
  8
0
 10
59.5601741370763094
 20
146.8958854785522021
 30
0.0
 11
45.5601741370763094
 21
146.8958854785522021
 31
0.0
  0
LINE
  5
2D7
  8
0
 10
45.5601741370763094
 20
152.8958854785522021
 30
0.0
 11
39.5601741370763165
 21
152.8958854785522021
 31
0.0
  0
LINE
  5
2D8
  8
0
 10
25.56017413707632
 20
152.8958854785522021
 30
0.0
 11
19.56017413707632
 21
152.8958854785522021
 31
0.0
  0
LINE
  5
2DA
  8
0
 10
8.5601741370763023
 20
134.8958854785522021
 30
0.0
 11
8.5601741370763023
 21
146.8958854785522021
 31
0.0
  0
LINE
  5
2DB
  8
0
 10
8.5601741370763023
 20
134.8958854785522021
 30
0.0
 11
2.5601741370763018
 21
134.8958854785522021
 31
0.0
  0
LINE
  5
2DC
  8
0
 10
2.5601741370763018
 20
134.8958854785522021
 30
0.0
 11
2.5601741370763018
 21
128.8958854785522021
 31
0.0
  0
LINE
  5
2DD
  8
0
 10
8.5601741370763023
 20
146.8958854785522021
 30
0.0
 11
19.5601741370763413
 21
146.8958854785522021
 31
0.0
  0
LINE
  5
2DE
  8
0
 10
2.560174137076316
 20
67.8992709932703065
 30
0.0
 11
2.560174137076316
 21
73.8992709932703065
 31
0.0
  0
LINE
  5
2DF
  8
0
 10
2.560174137076316
 20
79.8992709932703065
 30
0.0
 11
2.560174137076316
 21
85.8992709932703065
 31
0.0
  0
LINE
  5
2E0
  8
0
 10
8.5601741370763165
 20
73.8992709932703065
 30
0.0
 11
8.5601741370763165
 21
79.8992709932703065
 31
0.0
  0
LINE
  5
2E1
  8
0
 10
8.5601741370763165
 20
61.8992709932702994
 30
0.0
 11
8.5601741370763165
 21
67.8992709932703065
 31
0.0
  0
LINE
  5
2E2
  8
0
 10
19.56017413707632
 20
61.8992709932703065
 30
0.0
 11
8.5601741370763165
 21
61.8992709932702994
 31
0.0
  0
LINE
  5
2E3
  8
0
 10
2.560174137076316
 20
85.8992709932703065
 30
0.0
 11
8.5601741370763023
 21
85.8992709932703065
 31
0.0
  0
LINE
  5
2E4
  8
0
 10
2.5601741370763298
 20
79.8992709932703065
 30
0.0
 11
8.5601741370763023
 21
79.8992709932703065
 31
0.0
  0
LINE
  5
2E5
  8
0
 10
2.560174137076316
 20
73.8992709932703065
 30
0.0
 11
8.5601741370763165
 21
73.8992709932703065
 31
0.0
  0
LINE
  5
2E6
  8
0
 10
2.560174137076316
 20
67.8992709932703065
 30
0.0
 11
8.5601741370763165
 21
67.8992709932703065
 31
0.0
  0
LINE
  5
2E7
  8
0
 10
2.5601741370763018
 20
103.8992709932703065
 30
0.0
 11
19.56017413707632
 21
103.8992709932703065
 31
0.0
  0
LINE
  5
2E8
  8
0
 10
2.5601741370763018
 20
97.8992709932703207
 30
0.0
 11
8.5601741370763023
 21
97.8992709932703207
 31
0.0
  0
LINE
  5
2E9
  8
0
 10
8.5601741370763023
 20
85.8992709932703065
 30
0.0
 11
8.5601741370763023
 21
97.8992709932703207
 31
0.0
  0
LINE
  5
2EA
  8
0
 10
2.5601741370763018
 20
97.8992709932703207
 30
0.0
 11
2.5601741370763018
 21
103.8992709932703065
 31
0.0
  0
LINE
  5
2EB
  8
0
 10
115.9629422647907973
 20
30.1394268258049891
 30
0.0
 11
121.9629422647907973
 21
30.1394268258049891
 31
0.0
  0
LINE
  5
2EC
  8
0
 10
127.9629422647907973
 20
30.1394268258049891
 30
0.0
 11
133.9629422647907973
 21
30.1394268258049891
 31
0.0
  0
LINE
  5
2ED
  8
0
 10
139.9629422647907973
 20
30.1394268258049891
 30
0.0
 11
151.9629422647907973
 21
30.1394268258049891
 31
0.0
  0
LINE
  5
2EE
  8
0
 10
151.9629422647907973
 20
24.1394268258049891
 30
0.0
 11
157.9629422647907973
 21
24.1394268258049891
 31
0.0
  0
LINE
  5
2EF
  8
0
 10
145.9629422647907973
 20
18.1394268258049891
 30
0.0
 11
151.9629422647907973
 21
18.1394268258049891
 31
0.0
  0
LINE
  5
2F0
  8
0
 10
151.9629422647907973
 20
12.1394268258049909
 30
0.0
 11
157.9629422647907973
 21
12.1394268258049909
 31
0.0
  0
LINE
  5
2F1
  8
0
 10
121.9629422647907973
 20
24.1394268258049891
 30
0.0
 11
127.9629422647907973
 21
24.1394268258049891
 31
0.0
  0
LINE
  5
2F2
  8
0
 10
133.9629422647907973
 20
24.1394268258049891
 30
0.0
 11
139.9629422647907973
 21
24.1394268258049891
 31
0.0
  0
LINE
  5
2F4
  8
0
 10
115.9629422647907973
 20
30.1394268258049891
 30
0.0
 11
115.9629422647907973
 21
13.1394268258049909
 31
0.0
  0
LINE
  5
2F5
  8
0
 10
145.9629422647907973
 20
18.1394268258049891
 30
0.0
 11
145.9629422647907973
 21
-13.8605731741950091
 31
0.0
  0
LINE
  5
2F6
  8
0
 10
151.9629422647907973
 20
18.1394268258049891
 30
0.0
 11
151.9629422647907973
 21
12.1394268258049909
 31
0.0
  0
LINE
  5
2F7
  8
0
 10
157.9629422647907973
 20
24.1394268258049891
 30
0.0
 11
157.9629422647907973
 21
12.1394268258049909
 31
0.0
  0
LINE
  5
2F8
  8
0
 10
151.9629422647907973
 20
30.1394268258049891
 30
0.0
 11
151.9629422647907973
 21
24.1394268258049891
 31
0.0
  0
LINE
  5
2F9
  8
0
 10
115.9629422647907973
 20
7.1394268258049891
 30
0.0
 11
115.9629422647907973
 21
-6.86057317419501
 31
0.0
  0
LINE
  5
2FA
  8
0
 10
115.9629422647907973
 20
-12.8605731741950091
 30
0.0
 11
115.9629422647907973
 21
-26.8605731741950109
 31
0.0
  0
LINE
  5
2FB
  8
0
 10
115.9629422647907973
 20
-32.8605731741950109
 30
0.0
 11
115.9629422647907973
 21
-49.8605731741950109
 31
0.0
  0
LINE
  5
2FC
  8
0
 10
109.9629422647907973
 20
13.1394268258049909
 30
0.0
 11
109.9629422647907973
 21
7.1394268258049891
 31
0.0
  0
LINE
  5
2FD
  8
0
 10
109.9629422647907973
 20
-6.86057317419501
 30
0.0
 11
109.9629422647907973
 21
-12.8605731741950091
 31
0.0
  0
LINE
  5
2FE
  8
0
 10
109.9629422647907973
 20
-26.8605731741950109
 30
0.0
 11
109.9629422647907973
 21
-32.8605731741950109
 31
0.0
  0
LINE
  5
2FF
  8
0
 10
115.9629422647907973
 20
13.1394268258049909
 30
0.0
 11
109.9629422647907973
 21
13.1394268258049909
 31
0.0
  0
LINE
  5
300
  8
0
 10
115.9629422647907973
 20
7.1394268258049891
 30
0.0
 11
109.9629422647907973
 21
7.1394268258049891
 31
0.0
  0
LINE
  5
301
  8
0
 10
115.9629422647907973
 20
-6.86057317419501
 30
0.0
 11
109.9629422647907973
 21
-6.86057317419501
 31
0.0
  0
LINE
  5
302
  8
0
 10
115.9629422647907973
 20
-12.8605731741950091
 30
0.0
 11
109.9629422647907973
 21
-12.8605731741950091
 31
0.0
  0
LINE
  5
303
  8
0
 10
115.9629422647907973
 20
-32.8605731741950109
 30
0.0
 11
109.9629422647907973
 21
-32.8605731741950109
 31
0.0
  0
LINE
  5
304
  8
0
 10
115.9629422647907973
 20
-26.8605731741950109
 30
0.0
 11
109.9629422647907973
 21
-26.8605731741950109
 31
0.0
  0
LINE
  5
305
  8
0
 10
127.9629422647907973
 20
24.1394268258049891
 30
0.0
 11
127.9629422647907973
 21
30.1394268258049891
 31
0.0
  0
LINE
  5
306
  8
0
 10
133.9629422647907973
 20
24.1394268258049891
 30
0.0
 11
133.9629422647907973
 21
30.1394268258049891
 31
0.0
  0
LINE
  5
307
  8
0
 10
139.9629422647907973
 20
24.1394268258049891
 30
0.0
 11
139.9629422647907973
 21
30.1394268258049891
 31
0.0
  0
LINE
  5
308
  8
0
 10
121.9629422647907973
 20
24.1394268258049891
 30
0.0
 11
121.9629422647907973
 21
30.1394268258049891
 31
0.0
  0
LINE
  5
335
  8
0
 10
145.9629422647907973
 20
-43.8605731741950109
 30
0.0
 11
145.9629422647907973
 21
-43.8605731741950109
 31
0.0
  0
LINE
  5
336
  8
0
 10
139.9629422647907973
 20
-43.8605731741950109
 30
0.0
 11
139.9629422647907973
 21
-49.8605731741950109
 31
0.0
  0
LINE
  5
33C
  8
0
 10
139.9629422647907973
 20
-19.8605731741950109
 30
0.0
 11
145.9629422647907973
 21
-19.8605731741950109
 31
0.0
  0
LINE
  5
33D
  8
0
 10
139.9629422647907973
 20
-13.8605731741950091
 30
0.0
 11
145.9629422647907973
 21
-13.8605731741950091
 31
0.0
  0
LINE
  5
33E
  8
0
 10
139.9629422647907973
 20
-43.8605731741950109
 30
0.0
 11
145.9629422647907973
 21
-43.8605731741950109
 31
0.0
  0
LINE
  5
33F
  8
0
 10
145.9629422647907973
 20
-19.8605731741950109
 30
0.0
 11
145.9629422647907973
 21
-43.8605731741950109
 31
0.0
  0
LINE
  5
340
  8
0
 10
139.9629422647907973
 20
-13.8605731741950091
 30
0.0
 11
139.9629422647907973
 21
-19.8605731741950109
 31
0.0
  0
LINE
  5
341
  8
0
 10
2.5601741370763298
 20
-138.1452961207351962
 30
0.0
 11
8.5601741370763307
 21
-138.1452961207351962
 31
0.0
  0
LINE
  5
342
  8
0
 10
2.560174137076344
 20
-174.1452961207351962
 30
0.0
 11
8.5601741370763431
 21
-174.1452961207351962
 31
0.0
  0
LINE
  5
344
  8
0
 10
2.5601741370763298
 20
-138.1452961207351962
 30
0.0
 11
2.5601741370763298
 21
-144.1452961207351962
 31
0.0
  0
LINE
  5
347
  8
0
 10
82.5601741370763165
 20
-138.1452961207351962
 30
0.0
 11
82.5601741370763307
 21
-144.1452961207351962
 31
0.0
  0
LINE
  5
348
  8
0
 10
2.5601741370763298
 20
-138.1452961207351962
 30
0.0
 11
19.56017413707632
 21
-138.1452961207351962
 31
0.0
  0
LINE
  5
349
  8
0
 10
2.560174137076344
 20
-174.1452961207351962
 30
0.0
 11
82.5601741370763307
 21
-174.1452961207351962
 31
0.0
  0
LINE
  5
34A
  8
0
 10
76.5601741370763449
 20
-144.1452961207351962
 30
0.0
 11
76.5601741370763449
 21
-168.1452961207351962
 31
0.0
  0
LINE
  5
34B
  8
0
 10
8.5601741370763431
 20
-144.1452961207351962
 30
0.0
 11
8.5601741370763431
 21
-168.1452961207351962
 31
0.0
  0
LINE
  5
34C
  8
0
 10
2.5601741370763298
 20
-144.1452961207351962
 30
0.0
 11
8.5601741370763307
 21
-144.1452961207351962
 31
0.0
  0
LINE
  5
34D
  8
0
 10
2.5601741370763449
 20
-168.1452961207351962
 30
0.0
 11
8.5601741370763431
 21
-168.1452961207351962
 31
0.0
  0
LINE
  5
34E
  8
0
 10
2.560174137076344
 20
-168.1452961207351962
 30
0.0
 11
2.560174137076344
 21
-174.1452961207351962
 31
0.0
  0
LINE
  5
34F
  8
0
 10
82.5601741370763449
 20
-168.1452961207351962
 30
0.0
 11
82.5601741370763307
 21
-174.1452961207351962
 31
0.0
  0
LINE
  5
350
  8
0
 10
82.5601741370763307
 20
-144.1452961207351962
 30
0.0
 11
76.5601741370763307
 21
-144.1452961207351962
 31
0.0
  0
LINE
  5
351
  8
0
 10
82.5601741370763449
 20
-168.1452961207351962
 30
0.0
 11
76.5601741370763449
 21
-168.1452961207351962
 31
0.0
  0
LINE
  5
385
  8
0
 10
440.7745383200738161
 20
18.1394268258049891
 30
0.0
 11
446.7745383200738161
 21
18.1394268258049891
 31
0.0
  0
LINE
  5
386
  8
0
 10
440.7745383200738161
 20
18.1394268258049891
 30
0.0
 11
440.7745383200738161
 21
-0.8605731741950163
 31
0.0
  0
LINE
  5
387
  8
0
 10
446.7745383200738161
 20
-49.8605731741950109
 30
0.0
 11
464.7745383200737024
 21
-49.8605731741950109
 31
0.0
  0
LINE
  5
389
  8
0
 10
446.7745383200738161
 20
6.1394268258049891
 30
0.0
 11
453.7745383200737024
 21
6.1394268258049891
 31
0.0
  0
LINE
  5
392
  8
0
 10
440.7745383200738161
 20
-33.8605731741949967
 30
0.0
 11
440.7745383200738161
 21
-43.8605731741950109
 31
0.0
  0
LINE
  5
393
  8
0
 10
446.7745383200738161
 20
-43.8605731741950109
 30
0.0
 11
446.7745383200738161
 21
-49.8605731741950109
 31
0.0
  0
LINE
  5
394
  8
0
 10
440.7745383200738161
 20
-43.8605731741950109
 30
0.0
 11
446.7745383200738161
 21
-43.8605731741950109
 31
0.0
  0
LINE
  5
395
  8
0
 10
446.7745383200738161
 20
-13.8605731741950091
 30
0.0
 11
446.7745383200738161
 21
-19.8605731741950109
 31
0.0
  0
LINE
  5
396
  8
0
 10
440.7745383200738161
 20
-13.8605731741950091
 30
0.0
 11
446.7745383200738161
 21
-13.8605731741950091
 31
0.0
  0
LINE
  5
397
  8
0
 10
440.7745383200738161
 20
-19.8605731741950109
 30
0.0
 11
446.7745383200738161
 21
-19.8605731741950109
 31
0.0
  0
LINE
  5
398
  8
0
 10
440.7745383200738161
 20
-19.8605731741950109
 30
0.0
 11
440.7745383200738161
 21
-33.8605731741949967
 31
0.0
  0
LINE
  5
399
  8
0
 10
446.7745383200738161
 20
-0.8605731741950108
 30
0.0
 11
446.7745383200738161
 21
-6.8605731741950136
 31
0.0
  0
LINE
  5
39A
  8
0
 10
440.7745383200738161
 20
-0.8605731741950162
 30
0.0
 11
446.7745383200738161
 21
-0.8605731741950144
 31
0.0
  0
LINE
  5
39B
  8
0
 10
440.7745383200738161
 20
-6.8605731741950136
 30
0.0
 11
446.7745383200738161
 21
-6.8605731741950136
 31
0.0
  0
LINE
  5
39C
  8
0
 10
440.7745383200738161
 20
-6.8605731741950136
 30
0.0
 11
440.7745383200738161
 21
-13.8605731741950091
 31
0.0
  0
LINE
  5
39D
  8
0
 10
458.7745383200737024
 20
-43.8605731741950109
 30
0.0
 11
464.7745383200737024
 21
-43.8605731741950109
 31
0.0
  0
LINE
  5
39E
  8
0
 10
458.7745383200737024
 20
-37.8605731741950109
 30
0.0
 11
464.7745383200737024
 21
-37.8605731741950109
 31
0.0
  0
LINE
  5
39F
  8
0
 10
458.7745383200737024
 20
-37.8605731741950109
 30
0.0
 11
458.7745383200737024
 21
-43.8605731741950109
 31
0.0
  0
LINE
  5
3A0
  8
0
 10
458.7745383200737024
 20
-7.8605731741950073
 30
0.0
 11
458.7745383200737024
 21
-13.8605731741950091
 31
0.0
  0
LINE
  5
3A1
  8
0
 10
458.7745383200737024
 20
-13.8605731741950091
 30
0.0
 11
464.7745383200737024
 21
-13.8605731741950091
 31
0.0
  0
LINE
  5
3A2
  8
0
 10
458.7745383200737024
 20
-7.8605731741950073
 30
0.0
 11
464.7745383200737024
 21
-7.8605731741950082
 31
0.0
  0
LINE
  5
3A7
  8
0
 10
458.7745383200737024
 20
24.1394268258049891
 30
0.0
 11
464.7745383200737024
 21
24.1394268258049891
 31
0.0
  0
LINE
  5
3AA
  8
0
 10
464.7745383200738161
 20
24.1394268258049891
 30
0.0
 11
464.7745383200737024
 21
-7.8605731741950091
 31
0.0
  0
LINE
  5
3AB
  8
0
 10
464.7745383200737024
 20
-13.8605731741950091
 30
0.0
 11
464.7745383200737024
 21
-37.8605731741950109
 31
0.0
  0
LINE
  5
3AC
  8
0
 10
464.7745383200737024
 20
-43.8605731741950109
 30
0.0
 11
464.7745383200737024
 21
-49.8605731741950109
 31
0.0
  0
LINE
  5
3AD
  8
0
 10
342.2759679502277095
 20
18.1394268258049891
 30
0.0
 11
410.2759679502277095
 21
18.1394268258049891
 31
0.0
  0
LINE
  5
3AE
  8
0
 10
336.2759679502275958
 20
-49.8605731741950109
 30
0.0
 11
416.2759679502275958
 21
-49.8605731741950109
 31
0.0
  0
LINE
  5
3AF
  8
0
 10
336.2759679502274821
 20
-0.8605731741950144
 30
0.0
 11
336.2759679502274821
 21
-6.8605731741950136
 31
0.0
  0
LINE
  5
3B0
  8
0
 10
416.2759679502274821
 20
-0.8605731741950144
 30
0.0
 11
416.2759679502275958
 21
-6.8605731741950136
 31
0.0
  0
LINE
  5
3B3
  8
0
 10
342.2759679502277095
 20
-6.8605731741950127
 30
0.0
 11
342.2759679502275958
 21
-13.8605731741950091
 31
0.0
  0
LINE
  5
3B4
  8
0
 10
410.2759679502277095
 20
-6.8605731741950127
 30
0.0
 11
410.2759679502274821
 21
-13.8605731741950091
 31
0.0
  0
LINE
  5
3B5
  8
0
 10
336.2759679502274821
 20
-0.8605731741950144
 30
0.0
 11
342.2759679502277095
 21
-0.8605731741950142
 31
0.0
  0
LINE
  5
3B6
  8
0
 10
336.2759679502275958
 20
-6.8605731741950136
 30
0.0
 11
342.2759679502277095
 21
-6.8605731741950136
 31
0.0
  0
LINE
  5
3B7
  8
0
 10
336.2759679502274821
 20
-13.8605731741950091
 30
0.0
 11
342.2759679502274821
 21
-13.8605731741950091
 31
0.0
  0
LINE
  5
3B8
  8
0
 10
336.2759679502277095
 20
-19.8605731741950109
 30
0.0
 11
342.2759679502275958
 21
-19.8605731741950109
 31
0.0
  0
LINE
  5
3BB
  8
0
 10
336.2759679502275958
 20
-43.8605731741950109
 30
0.0
 11
342.2759679502275958
 21
-43.8605731741950109
 31
0.0
  0
LINE
  5
3BC
  8
0
 10
336.2759679502275958
 20
-43.8605731741950109
 30
0.0
 11
336.2759679502275958
 21
-49.8605731741950109
 31
0.0
  0
LINE
  5
3BD
  8
0
 10
416.2759679502275958
 20
-43.8605731741950109
 30
0.0
 11
416.2759679502275958
 21
-49.8605731741950109
 31
0.0
  0
LINE
  5
3BE
  8
0
 10
416.2759679502275958
 20
-13.8605731741950091
 30
0.0
 11
416.2759679502275958
 21
-19.8605731741950109
 31
0.0
  0
LINE
  5
3BF
  8
0
 10
336.2759679502274821
 20
-13.8605731741950091
 30
0.0
 11
336.2759679502275958
 21
-19.8605731741950109
 31
0.0
  0
LINE
  5
3C5
  8
0
 10
410.2759679502275958
 20
-19.8605731741950109
 30
0.0
 11
410.2759679502275958
 21
-19.8605731741950109
 31
0.0
  0
LINE
  5
3C6
  8
0
 10
410.2759679502275958
 20
-13.8605731741950091
 30
0.0
 11
416.2759679502275958
 21
-13.8605731741950091
 31
0.0
  0
LINE
  5
3C7
  8
0
 10
410.2759679502277095
 20
-19.8605731741950109
 30
0.0
 11
416.2759679502275958
 21
-19.8605731741950109
 31
0.0
  0
LINE
  5
3C8
  8
0
 10
410.2759679502277095
 20
-6.8605731741950136
 30
0.0
 11
416.2759679502275958
 21
-6.8605731741950136
 31
0.0
  0
LINE
  5
3C9
  8
0
 10
342.2759679502277095
 20
-0.8605731741950144
 30
0.0
 11
342.2759679502277095
 21
18.1394268258049891
 31
0.0
  0
LINE
  5
3CA
  8
0
 10
410.2759679502277095
 20
-0.8605731741950144
 30
0.0
 11
410.2759679502277095
 21
18.1394268258049891
 31
0.0
  0
LINE
  5
3CB
  8
0
 10
410.2759679502277095
 20
-0.8605731741950142
 30
0.0
 11
416.2759679502274821
 21
-0.8605731741950142
 31
0.0
  0
LINE
  5
3CC
  8
0
 10
410.2759679502275958
 20
-43.8605731741950109
 30
0.0
 11
416.2759679502275958
 21
-43.8605731741950109
 31
0.0
  0
LINE
  5
3EF
  8
0
 10
8.5601741370763165
 20
-26.8605731741950002
 30
0.0
 11
8.5601741370763165
 21
-32.8605731741950109
 31
0.0
  0
LINE
  5
3F0
  8
0
 10
8.5601741370763165
 20
-6.8605731741950109
 30
0.0
 11
8.5601741370763165
 21
-12.8605731741950091
 31
0.0
  0
LINE
  5
3F1
  8
0
 10
39.5601741370763165
 20
24.1394268258049891
 30
0.0
 11
45.5601741370763094
 21
24.1394268258049784
 31
0.0
  0
LINE
  5
3F2
  8
0
 10
59.5601741370763023
 20
24.1394268258049784
 30
0.0
 11
65.5601741370763165
 21
24.1394268258049891
 31
0.0
  0
LINE
  5
3F3
  8
0
 10
76.5601741370763023
 20
-6.86057317419501
 30
0.0
 11
76.5601741370763023
 21
-12.8605731741950091
 31
0.0
  0
LINE
  5
3F4
  8
0
 10
76.5601741370763165
 20
-26.8605731741950002
 30
0.0
 11
76.5601741370763307
 21
-32.8605731741950109
 31
0.0
  0
LINE
  5
3F5
  8
0
 10
59.5601741370763165
 20
-43.8605731741950109
 30
0.0
 11
65.5601741370763165
 21
-43.8605731741950109
 31
0.0
  0
LINE
  5
3F6
  8
0
 10
39.5601741370763165
 20
-43.8605731741950109
 30
0.0
 11
45.5601741370763165
 21
-43.8605731741950109
 31
0.0
  0
LINE
  5
3F7
  8
0
 10
501.9301600951923774
 20
24.1394268258049891
 30
0.0
 11
507.9301600951923774
 21
24.1394268258049891
 31
0.0
  0
LINE
  5
3F8
  8
0
 10
501.9301600951923774
 20
30.1394268258049891
 30
0.0
 11
581.9301600951923774
 21
30.1394268258049891
 31
0.0
  0
LINE
  5
3FA
  8
0
 10
507.9301600951923206
 20
-49.8605731741950109
 30
0.0
 11
575.9301600951922637
 21
-49.8605731741950109
 31
0.0
  0
LINE
  5
3FF
  8
0
 10
507.9301600951923774
 20
-13.8605731741950091
 30
0.0
 11
507.9301600951923774
 21
-37.8605731741950109
 31
0.0
  0
LINE
  5
411
  8
0
 10
501.9301600951923774
 20
24.1394268258049891
 30
0.0
 11
501.9301600951923774
 21
30.1394268258049891
 31
0.0
  0
LINE
  5
412
  8
0
 10
501.9301600951923774
 20
-7.8605731741950082
 30
0.0
 11
507.9301600951923206
 21
-7.8605731741950082
 31
0.0
  0
LINE
  5
413
  8
0
 10
501.9301600951923774
 20
-13.8605731741950091
 30
0.0
 11
507.9301600951923774
 21
-13.8605731741950091
 31
0.0
  0
LINE
  5
414
  8
0
 10
501.9301600951923774
 20
-7.8605731741950082
 30
0.0
 11
501.9301600951923774
 21
-13.8605731741950091
 31
0.0
  0
LINE
  5
415
  8
0
 10
501.9301600951923206
 20
-37.8605731741950109
 30
0.0
 11
507.9301600951923774
 21
-37.8605731741950109
 31
0.0
  0
LINE
  5
416
  8
0
 10
501.9301600951922069
 20
-43.8605731741949967
 30
0.0
 11
507.9301600951923206
 21
-43.8605731741949967
 31
0.0
  0
LINE
  5
417
  8
0
 10
507.9301600951923206
 20
-43.8605731741949967
 30
0.0
 11
507.9301600951923206
 21
-49.8605731741950109
 31
0.0
  0
LINE
  5
418
  8
0
 10
507.9301600951923206
 20
-7.8605731741950082
 30
0.0
 11
507.9301600951923774
 21
24.1394268258049891
 31
0.0
  0
LINE
  5
419
  8
0
 10
501.9301600951923206
 20
-37.8605731741950109
 30
0.0
 11
501.9301600951923206
 21
-43.8605731741949967
 31
0.0
  0
LINE
  5
41D
  8
0
 10
581.9301600951923774
 20
24.1394268258049891
 30
0.0
 11
575.9301600951922637
 21
24.1394268258049891
 31
0.0
  0
LINE
  5
41E
  8
0
 10
575.9301600951922637
 20
-13.8605731741950091
 30
0.0
 11
575.9301600951922637
 21
-37.8605731741950109
 31
0.0
  0
LINE
  5
41F
  8
0
 10
575.9301600951922637
 20
-43.8605731741949967
 30
0.0
 11
575.9301600951922637
 21
-49.8605731741950109
 31
0.0
  0
LINE
  5
420
  8
0
 10
575.9301600951922637
 20
-7.8605731741950082
 30
0.0
 11
575.9301600951922637
 21
24.1394268258049891
 31
0.0
  0
LINE
  5
421
  8
0
 10
581.9301600951923774
 20
24.1394268258049891
 30
0.0
 11
581.9301600951923774
 21
30.1394268258049891
 31
0.0
  0
LINE
  5
422
  8
0
 10
581.9301600951923774
 20
-7.8605731741950082
 30
0.0
 11
575.9301600951922637
 21
-7.8605731741950082
 31
0.0
  0
LINE
  5
423
  8
0
 10
581.9301600951923774
 20
-13.8605731741950091
 30
0.0
 11
575.9301600951922637
 21
-13.8605731741950091
 31
0.0
  0
LINE
  5
424
  8
0
 10
581.9301600951923774
 20
-7.8605731741950082
 30
0.0
 11
581.9301600951923774
 21
-13.8605731741950091
 31
0.0
  0
LINE
  5
425
  8
0
 10
581.9301600951923774
 20
-37.8605731741950109
 30
0.0
 11
575.9301600951922637
 21
-37.8605731741950109
 31
0.0
  0
LINE
  5
426
  8
0
 10
581.9301600951923774
 20
-43.8605731741949967
 30
0.0
 11
575.9301600951922637
 21
-43.8605731741949967
 31
0.0
  0
LINE
  5
427
  8
0
 10
581.9301600951923774
 20
-37.8605731741950109
 30
0.0
 11
581.9301600951923774
 21
-43.8605731741949967
 31
0.0
  0
LINE
  5
42E
  8
0
 10
453.7745383200737024
 20
30.1394268258049891
 30
0.0
 11
458.7745383200737024
 21
30.1394268258049891
 31
0.0
  0
LINE
  5
42F
  8
0
 10
458.7745383200737024
 20
30.1394268258049891
 30
0.0
 11
458.7745383200737024
 21
24.1394268258049891
 31
0.0
  0
LINE
  5
446
  8
0
 10
398.2759679502277095
 20
6.1394268258049891
 30
0.0
 11
392.2759679502277095
 21
6.1394268258049891
 31
0.0
  0
LINE
  5
447
  8
0
 10
398.2759679502277095
 20
0.1394268258049891
 30
0.0
 11
392.2759679502277095
 21
0.1394268258049891
 31
0.0
  0
LINE
  5
448
  8
0
 10
410.2759679502277095
 20
55.1088631746473894
 30
0.0
 11
398.2759679502278232
 21
55.1088631746473965
 31
0.0
  0
LINE
  5
449
  8
0
 10
410.2759679502277095
 20
43.1129151652028213
 30
0.0
 11
398.2759679502277095
 21
43.1129151652028213
 31
0.0
  0
LINE
  5
44A
  8
0
 10
398.0259679502278232
 20
37.1129151652028213
 30
0.0
 11
392.5259679502278232
 21
37.1129151652028568
 31
0.0
  0
LINE
  5
44B
  8
0
 10
398.0259679502278232
 20
61.1088631746473894
 30
0.0
 11
392.5259679502278232
 21
61.1088631746473823
 31
0.0
  0
LINE
  5
456
  8
0
 10
342.2759679502277095
 20
55.1088631746473894
 30
0.0
 11
342.2759679502277095
 21
43.1129151652028213
 31
0.0
  0
LINE
  5
457
  8
0
 10
410.2759679502277095
 20
55.1088631746473894
 30
0.0
 11
410.2759679502277095
 21
43.1129151652028213
 31
0.0
  0
LINE
  5
458
  8
0
 10
354.5259679502277095
 20
61.1088631746473894
 30
0.0
 11
354.2759679502275958
 21
55.1088631746473965
 31
0.0
  0
LINE
  5
459
  8
0
 10
398.0259679502278232
 20
61.1088631746473894
 30
0.0
 11
398.2759679502278232
 21
55.1088631746473965
 31
0.0
  0
LINE
  5
45A
  8
0
 10
360.0259679502277095
 20
61.1088631746473894
 30
0.0
 11
360.2759679502277095
 21
55.1088631746473894
 31
0.0
  0
LINE
  5
45B
  8
0
 10
392.5259679502278232
 20
61.1088631746473823
 30
0.0
 11
392.2759679502278232
 21
55.1088631746473823
 31
0.0
  0
LINE
  5
45C
  8
0
 10
360.0259679502277095
 20
37.1129151652028213
 30
0.0
 11
354.5259679502277095
 21
37.1129151652028213
 31
0.0
  0
LINE
  5
45D
  8
0
 10
360.0259679502277095
 20
61.1088631746473894
 30
0.0
 11
354.5259679502277095
 21
61.1088631746473894
 31
0.0
  0
LINE
  5
45E
  8
0
 10
354.2759679502277095
 20
55.1088631746473965
 30
0.0
 11
342.2759679502277095
 21
55.1088631746473894
 31
0.0
  0
LINE
  5
45F
  8
0
 10
354.2759679502275958
 20
43.1129151652028284
 30
0.0
 11
342.2759679502277095
 21
43.1129151652028213
 31
0.0
  0
LINE
  5
460
  8
0
 10
392.2759679502277095
 20
43.1129151652028213
 30
0.0
 11
360.2759679502275958
 21
43.1129151652028284
 31
0.0
  0
LINE
  5
461
  8
0
 10
392.2759679502278232
 20
55.1088631746473894
 30
0.0
 11
360.2759679502278232
 21
55.1088631746473965
 31
0.0
  0
LINE
  5
462
  8
0
 10
398.2759679502277095
 20
43.1129151652028213
 30
0.0
 11
398.0259679502278232
 21
37.1129151652028213
 31
0.0
  0
LINE
  5
463
  8
0
 10
392.2759679502277095
 20
43.1129151652028071
 30
0.0
 11
392.5259679502278232
 21
37.1129151652028284
 31
0.0
  0
LINE
  5
464
  8
0
 10
360.2759679502275958
 20
43.1129151652028284
 30
0.0
 11
360.0259679502277095
 21
37.1129151652028213
 31
0.0
  0
LINE
  5
465
  8
0
 10
354.2759679502275958
 20
43.1129151652028284
 30
0.0
 11
354.5259679502277095
 21
37.1129151652028213
 31
0.0
  0
LINE
  5
489
  8
0
 10
398.2759679502277095
 20
0.1394268258049891
 30
0.0
 11
392.2759679502277095
 21
0.1394268258049891
 31
0.0
  0
LINE
  5
48A
  8
0
 10
354.2759679502277095
 20
6.1394268258049882
 30
0.0
 11
354.2759679502278232
 21
0.1394268258049891
 31
0.0
  0
LINE
  5
48B
  8
0
 10
360.2759679502277095
 20
6.1394268258049891
 30
0.0
 11
360.2759679502277095
 21
0.1394268258049891
 31
0.0
  0
LINE
  5
48C
  8
0
 10
392.2759679502275958
 20
6.1394268258049891
 30
0.0
 11
392.2759679502277095
 21
0.1394268258049891
 31
0.0
  0
LINE
  5
48D
  8
0
 10
398.2759679502277095
 20
6.1394268258049891
 30
0.0
 11
398.2759679502277095
 21
0.1394268258049891
 31
0.0
  0
LINE
  5
48E
  8
0
 10
360.2759679502277095
 20
6.1394268258049891
 30
0.0
 11
354.2759679502275958
 21
6.1394268258049882
 31
0.0
  0
LINE
  5
48F
  8
0
 10
360.2759679502277095
 20
0.1394268258049891
 30
0.0
 11
354.2759679502277095
 21
0.1394268258049891
 31
0.0
  0
LINE
  5
490
  8
0
 10
360.2759679502277095
 20
0.1394268258049891
 30
0.0
 11
354.2759679502275958
 21
0.1394268258049891
 31
0.0
  0
LINE
  5
49B
  8
0
 10
342.2759679502275958
 20
-19.8605731741950109
 30
0.0
 11
342.2759679502275958
 21
-43.8605731741950109
 31
0.0
  0
LINE
  5
49D
  8
0
 10
410.2759679502275958
 20
-19.8605731741950109
 30
0.0
 11
410.2759679502274821
 21
-43.8605731741950109
 31
0.0
  0
LINE
  5
4A0
  8
0
 10
398.2759679502277095
 20
-27.8605731741950109
 30
0.0
 11
392.2759679502277095
 21
-27.8605731741950109
 31
0.0
  0
LINE
  5
4A1
  8
0
 10
360.2759679502277095
 20
-27.8605731741950109
 30
0.0
 11
354.2759679502275958
 21
-27.8605731741950109
 31
0.0
  0
LINE
  5
4A2
  8
0
 10
398.2759679502277095
 20
-21.8605731741950109
 30
0.0
 11
392.2759679502277095
 21
-21.8605731741950109
 31
0.0
  0
LINE
  5
4A3
  8
0
 10
360.2759679502277095
 20
-21.8605731741950109
 30
0.0
 11
354.2759679502275958
 21
-21.8605731741950109
 31
0.0
  0
LINE
  5
4A4
  8
0
 10
398.2759679502277095
 20
-21.8605731741950109
 30
0.0
 11
392.2759679502277095
 21
-21.8605731741950109
 31
0.0
  0
LINE
  5
4A5
  8
0
 10
360.2759679502277095
 20
-21.8605731741950109
 30
0.0
 11
354.2759679502277095
 21
-21.8605731741950109
 31
0.0
  0
LINE
  5
4A6
  8
0
 10
354.2759679502277095
 20
-27.8605731741950109
 30
0.0
 11
354.2759679502278232
 21
-21.8605731741950109
 31
0.0
  0
LINE
  5
4A7
  8
0
 10
360.2759679502277095
 20
-27.8605731741950109
 30
0.0
 11
360.2759679502277095
 21
-21.8605731741950109
 31
0.0
  0
LINE
  5
4A8
  8
0
 10
392.2759679502275958
 20
-27.8605731741950109
 30
0.0
 11
392.2759679502277095
 21
-21.8605731741950109
 31
0.0
  0
LINE
  5
4A9
  8
0
 10
398.2759679502277095
 20
-27.8605731741950109
 30
0.0
 11
398.2759679502277095
 21
-21.8605731741950109
 31
0.0
  0
CIRCLE
  5
4AE
  8
0
 10
547.9301600951924911
 20
-10.8605731741950091
 30
0.0
 40
3.0
  0
CIRCLE
  5
4AF
  8
0
 10
535.9301600951923774
 20
-10.8605731741950091
 30
0.0
 40
3.0
  0
LINE
  5
4B0
  8
0
 10
563.9301600951924911
 20
6.1394268258049891
 30
0.0
 11
557.9301600951922637
 21
6.1394268258049891
 31
0.0
  0
LINE
  5
4B1
  8
0
 10
525.9301600951924911
 20
6.1394268258049891
 30
0.0
 11
519.9301600951922637
 21
6.1394268258049882
 31
0.0
  0
LINE
  5
4B2
  8
0
 10
563.9301600951924911
 20
0.1394268258049891
 30
0.0
 11
557.9301600951922637
 21
0.1394268258049891
 31
0.0
  0
LINE
  5
4B3
  8
0
 10
525.9301600951924911
 20
0.1394268258049891
 30
0.0
 11
519.9301600951922637
 21
0.1394268258049891
 31
0.0
  0
LINE
  5
4B4
  8
0
 10
563.9301600951922637
 20
0.1394268258049891
 30
0.0
 11
557.9301600951922637
 21
0.1394268258049891
 31
0.0
  0
LINE
  5
4B5
  8
0
 10
525.9301600951924911
 20
0.1394268258049891
 30
0.0
 11
519.9301600951923774
 21
0.1394268258049891
 31
0.0
  0
LINE
  5
4B6
  8
0
 10
519.9301600951923774
 20
6.1394268258049882
 30
0.0
 11
519.9301600951924911
 21
0.1394268258049891
 31
0.0
  0
LINE
  5
4B7
  8
0
 10
525.9301600951924911
 20
6.1394268258049891
 30
0.0
 11
525.9301600951924911
 21
0.1394268258049891
 31
0.0
  0
LINE
  5
4B8
  8
0
 10
557.9301600951922637
 20
6.1394268258049891
 30
0.0
 11
557.9301600951922637
 21
0.1394268258049891
 31
0.0
  0
LINE
  5
4B9
  8
0
 10
563.9301600951922637
 20
6.1394268258049891
 30
0.0
 11
563.9301600951922637
 21
0.1394268258049891
 31
0.0
  0
CIRCLE
  5
4BA
  8
0
 10
541.9301600951923774
 20
-10.8605731741950091
 30
0.0
 40
11.0000000000001492
  0
LINE
  5
4BB
  8
0
 10
563.9301600951924911
 20
-27.8605731741950109
 30
0.0
 11
557.9301600951922637
 21
-27.8605731741950109
 31
0.0
  0
LINE
  5
4BC
  8
0
 10
525.9301600951924911
 20
-27.8605731741950109
 30
0.0
 11
519.9301600951922637
 21
-27.8605731741950109
 31
0.0
  0
LINE
  5
4BD
  8
0
 10
563.9301600951924911
 20
-21.8605731741950109
 30
0.0
 11
557.9301600951922637
 21
-21.8605731741950109
 31
0.0
  0
LINE
  5
4BE
  8
0
 10
525.9301600951924911
 20
-21.8605731741950109
 30
0.0
 11
519.9301600951922637
 21
-21.8605731741950109
 31
0.0
  0
LINE
  5
4BF
  8
0
 10
563.9301600951922637
 20
-21.8605731741950109
 30
0.0
 11
557.9301600951922637
 21
-21.8605731741950109
 31
0.0
  0
LINE
  5
4C0
  8
0
 10
525.9301600951924911
 20
-21.8605731741950109
 30
0.0
 11
519.9301600951923774
 21
-21.8605731741950109
 31
0.0
  0
LINE
  5
4C1
  8
0
 10
519.9301600951923774
 20
-27.8605731741950109
 30
0.0
 11
519.9301600951924911
 21
-21.8605731741950109
 31
0.0
  0
LINE
  5
4C2
  8
0
 10
525.9301600951924911
 20
-27.8605731741950109
 30
0.0
 11
525.9301600951924911
 21
-21.8605731741950109
 31
0.0
  0
LINE
  5
4C3
  8
0
 10
557.9301600951922637
 20
-27.8605731741950109
 30
0.0
 11
557.9301600951922637
 21
-21.8605731741950109
 31
0.0
  0
LINE
  5
4C4
  8
0
 10
563.9301600951922637
 20
-27.8605731741950109
 30
0.0
 11
563.9301600951922637
 21
-21.8605731741950109
 31
0.0
  0
LINE
  5
4CC
  8
0
 10
410.2759679502277095
 20
-72.3157307742359592
 30
0.0
 11
398.2759679502278232
 21
-72.3157307742359592
 31
0.0
  0
LINE
  5
4CD
  8
0
 10
392.2759679502278232
 20
-72.3157307742359592
 30
0.0
 11
360.2759679502278232
 21
-72.3157307742359592
 31
0.0
  0
LINE
  5
4CE
  8
0
 10
354.2759679502277095
 20
-72.3157307742359592
 30
0.0
 11
342.2759679502277095
 21
-72.3157307742359592
 31
0.0
  0
LINE
  5
4CF
  8
0
 10
398.0259679502278232
 20
-66.315730774235945
 30
0.0
 11
392.5259679502278232
 21
-66.3157307742359734
 31
0.0
  0
LINE
  5
4D0
  8
0
 10
360.0259679502277095
 20
-66.315730774235945
 30
0.0
 11
354.5259679502277095
 21
-66.315730774235945
 31
0.0
  0
LINE
  5
4D1
  8
0
 10
410.2759679502277095
 20
-84.3116787836805344
 30
0.0
 11
398.2759679502277095
 21
-84.3116787836805344
 31
0.0
  0
LINE
  5
4D2
  8
0
 10
392.2759679502277095
 20
-84.3116787836805344
 30
0.0
 11
360.2759679502275958
 21
-84.3116787836805202
 31
0.0
  0
LINE
  5
4D3
  8
0
 10
354.2759679502275958
 20
-84.3116787836805202
 30
0.0
 11
342.2759679502277095
 21
-84.3116787836805344
 31
0.0
  0
LINE
  5
4D4
  8
0
 10
398.0259679502278232
 20
-90.3116787836805344
 30
0.0
 11
392.5259679502278232
 21
-90.3116787836805059
 31
0.0
  0
LINE
  5
4D5
  8
0
 10
360.0259679502277095
 20
-90.3116787836805344
 30
0.0
 11
354.5259679502277095
 21
-90.3116787836805344
 31
0.0
  0
LINE
  5
4D6
  8
0
 10
342.2759679502277095
 20
-72.3157307742359592
 30
0.0
 11
342.2759679502277095
 21
-84.3116787836805344
 31
0.0
  0
LINE
  5
4D7
  8
0
 10
354.5259679502277095
 20
-66.315730774235945
 30
0.0
 11
354.2759679502275958
 21
-72.3157307742359592
 31
0.0
  0
LINE
  5
4D8
  8
0
 10
354.2759679502275958
 20
-84.3116787836805202
 30
0.0
 11
354.5259679502277095
 21
-90.3116787836805344
 31
0.0
  0
LINE
  5
4D9
  8
0
 10
360.0259679502277095
 20
-66.315730774235945
 30
0.0
 11
360.2759679502277095
 21
-72.3157307742359592
 31
0.0
  0
LINE
  5
4DA
  8
0
 10
360.2759679502275958
 20
-84.3116787836805202
 30
0.0
 11
360.0259679502277095
 21
-90.3116787836805344
 31
0.0
  0
LINE
  5
4DB
  8
0
 10
410.2759679502277095
 20
-72.3157307742359592
 30
0.0
 11
410.2759679502277095
 21
-84.3116787836805344
 31
0.0
  0
LINE
  5
4DC
  8
0
 10
398.0259679502278232
 20
-66.315730774235945
 30
0.0
 11
398.2759679502278232
 21
-72.3157307742359592
 31
0.0
  0
LINE
  5
4DD
  8
0
 10
398.2759679502277095
 20
-84.3116787836805344
 30
0.0
 11
398.0259679502278232
 21
-90.3116787836805344
 31
0.0
  0
LINE
  5
4DE
  8
0
 10
392.5259679502278232
 20
-66.3157307742359734
 30
0.0
 11
392.2759679502278232
 21
-72.3157307742359876
 31
0.0
  0
LINE
  5
4DF
  8
0
 10
392.2759679502277095
 20
-84.3116787836805486
 30
0.0
 11
392.5259679502278232
 21
-90.3116787836805202
 31
0.0
  0
CIRCLE
  5
501
  8
0
 10
370.2759679502277095
 20
-10.8605731741950091
 30
0.0
 40
1.5
  0
CIRCLE
  5
502
  8
0
 10
382.2759679502277095
 20
-10.8605731741950091
 30
0.0
 40
1.5
  0
LINE
  5
50E
  8
0
 10
446.7745383200738161
 20
18.1394268258049891
 30
0.0
 11
446.7745383200738161
 21
6.1394268258049891
 31
0.0
  0
LINE
  5
610
  8
0
 10
453.7745383200737024
 20
30.1394268258049891
 30
0.0
 11
453.7745383200737024
 21
6.1394268258049891
 31
0.0
  0
LINE
  5
611
  8
0
 10
311.7773975803816029
 20
18.1394268258049891
 30
0.0
 11
305.7773975803816029
 21
18.1394268258049891
 31
0.0
  0
LINE
  5
612
  8
0
 10
305.7773975803816029
 20
6.1394268258049891
 30
0.0
 11
298.7773975803817166
 21
6.1394268258049891
 31
0.0
  0
LINE
  5
613
  8
0
 10
311.7773975803816029
 20
18.1394268258049891
 30
0.0
 11
311.7773975803816029
 21
-0.8605731741950163
 31
0.0
  0
LINE
  5
614
  8
0
 10
311.7773975803816029
 20
-6.8605731741950136
 30
0.0
 11
311.7773975803816029
 21
-13.8605731741950091
 31
0.0
  0
LINE
  5
615
  8
0
 10
311.7773975803816029
 20
-19.8605731741950109
 30
0.0
 11
311.7773975803816029
 21
-33.8605731741949967
 31
0.0
  0
LINE
  5
616
  8
0
 10
305.7773975803816029
 20
-13.8605731741950091
 30
0.0
 11
305.7773975803816029
 21
-19.8605731741950109
 31
0.0
  0
LINE
  5
617
  8
0
 10
311.7773975803816029
 20
-33.8605731741949967
 30
0.0
 11
311.7773975803816029
 21
-43.8605731741950109
 31
0.0
  0
LINE
  5
618
  8
0
 10
305.7773975803816029
 20
-43.8605731741950109
 30
0.0
 11
305.7773975803816029
 21
-49.8605731741950109
 31
0.0
  0
LINE
  5
619
  8
0
 10
298.7773975803817166
 20
30.1394268258049891
 30
0.0
 11
298.7773975803817166
 21
6.1394268258049891
 31
0.0
  0
LINE
  5
61A
  8
0
 10
293.7773975803817166
 20
30.1394268258049891
 30
0.0
 11
293.7773975803817166
 21
24.1394268258049891
 31
0.0
  0
LINE
  5
61B
  8
0
 10
287.7773975803816029
 20
24.1394268258049891
 30
0.0
 11
287.7773975803817166
 21
-7.8605731741950091
 31
0.0
  0
LINE
  5
61C
  8
0
 10
287.7773975803817166
 20
-13.8605731741950091
 30
0.0
 11
287.7773975803817166
 21
-37.8605731741950109
 31
0.0
  0
LINE
  5
61D
  8
0
 10
287.7773975803817166
 20
-43.8605731741950109
 30
0.0
 11
287.7773975803817166
 21
-49.8605731741950109
 31
0.0
  0
LINE
  5
61E
  8
0
 10
293.7773975803817166
 20
-37.8605731741950109
 30
0.0
 11
293.7773975803817166
 21
-43.8605731741950109
 31
0.0
  0
LINE
  5
61F
  8
0
 10
305.7773975803816029
 20
-49.8605731741950109
 30
0.0
 11
287.7773975803817166
 21
-49.8605731741950109
 31
0.0
  0
LINE
  5
620
  8
0
 10
311.7773975803816029
 20
-43.8605731741950109
 30
0.0
 11
305.7773975803816029
 21
-43.8605731741950109
 31
0.0
  0
LINE
  5
621
  8
0
 10
311.7773975803816029
 20
-13.8605731741950091
 30
0.0
 11
305.7773975803816029
 21
-13.8605731741950091
 31
0.0
  0
LINE
  5
622
  8
0
 10
311.7773975803816029
 20
-19.8605731741950109
 30
0.0
 11
305.7773975803816029
 21
-19.8605731741950109
 31
0.0
  0
LINE
  5
623
  8
0
 10
305.7773975803816029
 20
-0.8605731741950108
 30
0.0
 11
305.7773975803816029
 21
-6.8605731741950136
 31
0.0
  0
LINE
  5
624
  8
0
 10
311.7773975803816029
 20
-0.8605731741950162
 30
0.0
 11
305.7773975803816029
 21
-0.8605731741950144
 31
0.0
  0
LINE
  5
625
  8
0
 10
311.7773975803816029
 20
-6.8605731741950136
 30
0.0
 11
305.7773975803816029
 21
-6.8605731741950136
 31
0.0
  0
LINE
  5
626
  8
0
 10
293.7773975803817166
 20
-43.8605731741950109
 30
0.0
 11
287.7773975803817166
 21
-43.8605731741950109
 31
0.0
  0
LINE
  5
627
  8
0
 10
293.7773975803817166
 20
-37.8605731741950109
 30
0.0
 11
287.7773975803817166
 21
-37.8605731741950109
 31
0.0
  0
LINE
  5
628
  8
0
 10
293.7773975803817166
 20
-7.8605731741950073
 30
0.0
 11
293.7773975803817166
 21
-13.8605731741950091
 31
0.0
  0
LINE
  5
629
  8
0
 10
293.7773975803817166
 20
-13.8605731741950091
 30
0.0
 11
287.7773975803817166
 21
-13.8605731741950091
 31
0.0
  0
LINE
  5
62A
  8
0
 10
293.7773975803817166
 20
-7.8605731741950073
 30
0.0
 11
287.7773975803817166
 21
-7.8605731741950082
 31
0.0
  0
LINE
  5
62B
  8
0
 10
293.7773975803817166
 20
24.1394268258049891
 30
0.0
 11
287.7773975803817166
 21
24.1394268258049891
 31
0.0
  0
LINE
  5
62C
  8
0
 10
298.7773975803817166
 20
30.1394268258049891
 30
0.0
 11
293.7773975803817166
 21
30.1394268258049891
 31
0.0
  0
LINE
  5
62D
  8
0
 10
305.7773975803816029
 20
18.1394268258049891
 30
0.0
 11
305.7773975803816029
 21
6.1394268258049891
 31
0.0
  0
LINE
  5
62E
  8
0
 10
-30.8425939906382212
 20
-49.8605731741950109
 30
0.0
 11
-42.8425939906382212
 21
-49.8605731741950109
 31
0.0
  0
LINE
  5
62F
  8
0
 10
-54.8425939906382212
 20
-43.8605731741950109
 30
0.0
 11
-60.8425939906382212
 21
-43.8605731741950109
 31
0.0
  0
LINE
  5
630
  8
0
 10
-54.8425939906382212
 20
-19.8605731741950109
 30
0.0
 11
-60.8425939906382212
 21
-19.8605731741950109
 31
0.0
  0
LINE
  5
631
  8
0
 10
-54.8425939906382212
 20
-13.8605731741950091
 30
0.0
 11
-60.8425939906382212
 21
-13.8605731741950091
 31
0.0
  0
LINE
  5
632
  8
0
 10
-30.8425939906382212
 20
30.1394268258049891
 30
0.0
 11
-36.8425939906382212
 21
30.1394268258049891
 31
0.0
  0
LINE
  5
633
  8
0
 10
-42.8425939906382212
 20
30.1394268258049891
 30
0.0
 11
-48.8425939906382212
 21
30.1394268258049891
 31
0.0
  0
LINE
  5
634
  8
0
 10
-54.8425939906382212
 20
30.1394268258049891
 30
0.0
 11
-66.8425939906382212
 21
30.1394268258049891
 31
0.0
  0
LINE
  5
635
  8
0
 10
-66.8425939906382212
 20
24.1394268258049891
 30
0.0
 11
-72.8425939906382212
 21
24.1394268258049891
 31
0.0
  0
LINE
  5
636
  8
0
 10
-60.8425939906382212
 20
18.1394268258049891
 30
0.0
 11
-66.8425939906382212
 21
18.1394268258049891
 31
0.0
  0
LINE
  5
637
  8
0
 10
-66.8425939906382212
 20
12.1394268258049909
 30
0.0
 11
-72.8425939906382212
 21
12.1394268258049909
 31
0.0
  0
LINE
  5
638
  8
0
 10
-36.8425939906382212
 20
24.1394268258049891
 30
0.0
 11
-42.8425939906382212
 21
24.1394268258049891
 31
0.0
  0
LINE
  5
639
  8
0
 10
-48.8425939906382212
 20
24.1394268258049891
 30
0.0
 11
-54.8425939906382212
 21
24.1394268258049891
 31
0.0
  0
LINE
  5
63A
  8
0
 10
-30.8425939906382212
 20
30.1394268258049891
 30
0.0
 11
-30.8425939906382212
 21
13.1394268258049909
 31
0.0
  0
LINE
  5
63B
  8
0
 10
-60.8425939906382212
 20
18.1394268258049891
 30
0.0
 11
-60.8425939906382212
 21
-13.8605731741950091
 31
0.0
  0
LINE
  5
63C
  8
0
 10
-60.8425939906382212
 20
-19.8605731741950109
 30
0.0
 11
-60.8425939906382212
 21
-43.8605731741950109
 31
0.0
  0
LINE
  5
63D
  8
0
 10
-60.8425939906382212
 20
-43.8605731741950109
 30
0.0
 11
-60.8425939906382212
 21
-43.8605731741950109
 31
0.0
  0
LINE
  5
63E
  8
0
 10
-54.8425939906382212
 20
-43.8605731741950109
 30
0.0
 11
-54.8425939906382212
 21
-49.8605731741950109
 31
0.0
  0
LINE
  5
63F
  8
0
 10
-66.8425939906382212
 20
18.1394268258049891
 30
0.0
 11
-66.8425939906382212
 21
12.1394268258049909
 31
0.0
  0
LINE
  5
640
  8
0
 10
-72.8425939906382212
 20
24.1394268258049891
 30
0.0
 11
-72.8425939906382212
 21
12.1394268258049909
 31
0.0
  0
LINE
  5
641
  8
0
 10
-66.8425939906382212
 20
30.1394268258049891
 30
0.0
 11
-66.8425939906382212
 21
24.1394268258049891
 31
0.0
  0
LINE
  5
642
  8
0
 10
-30.8425939906382212
 20
7.1394268258049891
 30
0.0
 11
-30.8425939906382212
 21
-6.86057317419501
 31
0.0
  0
LINE
  5
643
  8
0
 10
-30.8425939906382212
 20
-12.8605731741950091
 30
0.0
 11
-30.8425939906382212
 21
-26.8605731741950109
 31
0.0
  0
LINE
  5
644
  8
0
 10
-30.8425939906382212
 20
-32.8605731741950109
 30
0.0
 11
-30.8425939906382212
 21
-49.8605731741950109
 31
0.0
  0
LINE
  5
645
  8
0
 10
-24.8425939906382212
 20
13.1394268258049909
 30
0.0
 11
-24.8425939906382212
 21
7.1394268258049891
 31
0.0
  0
LINE
  5
646
  8
0
 10
-24.8425939906382212
 20
-6.86057317419501
 30
0.0
 11
-24.8425939906381608
 21
-12.8605731741950091
 31
0.0
  0
LINE
  5
647
  8
0
 10
-24.8425939906381608
 20
-26.8605731741950109
 30
0.0
 11
-24.8425939906381608
 21
-32.8605731741950109
 31
0.0
  0
LINE
  5
648
  8
0
 10
-30.8425939906382212
 20
13.1394268258049909
 30
0.0
 11
-24.8425939906382212
 21
13.1394268258049909
 31
0.0
  0
LINE
  5
649
  8
0
 10
-30.8425939906382212
 20
7.1394268258049891
 30
0.0
 11
-24.8425939906382212
 21
7.1394268258049891
 31
0.0
  0
LINE
  5
64A
  8
0
 10
-30.8425939906382212
 20
-6.86057317419501
 30
0.0
 11
-24.8425939906381608
 21
-6.86057317419501
 31
0.0
  0
LINE
  5
64B
  8
0
 10
-30.8425939906382212
 20
-12.8605731741950091
 30
0.0
 11
-24.8425939906381608
 21
-12.8605731741950091
 31
0.0
  0
LINE
  5
64C
  8
0
 10
-30.8425939906382212
 20
-32.8605731741950109
 30
0.0
 11
-24.8425939906381608
 21
-32.8605731741950109
 31
0.0
  0
LINE
  5
64D
  8
0
 10
-30.8425939906382212
 20
-26.8605731741950109
 30
0.0
 11
-24.8425939906381608
 21
-26.8605731741950109
 31
0.0
  0
LINE
  5
64E
  8
0
 10
-42.8425939906382212
 20
24.1394268258049891
 30
0.0
 11
-42.8425939906382212
 21
30.1394268258049891
 31
0.0
  0
LINE
  5
64F
  8
0
 10
-48.8425939906382212
 20
24.1394268258049891
 30
0.0
 11
-48.8425939906382212
 21
30.1394268258049891
 31
0.0
  0
LINE
  5
650
  8
0
 10
-54.8425939906382212
 20
24.1394268258049891
 30
0.0
 11
-54.8425939906382212
 21
30.1394268258049891
 31
0.0
  0
LINE
  5
651
  8
0
 10
-36.8425939906382212
 20
24.1394268258049891
 30
0.0
 11
-36.8425939906382212
 21
30.1394268258049891
 31
0.0
  0
LINE
  5
652
  8
0
 10
-54.8425939906382212
 20
-13.8605731741950091
 30
0.0
 11
-54.8425939906382212
 21
-19.8605731741950109
 31
0.0
  0
LINE
  5
655
  8
0
 10
76.5601741370763307
 20
-105.6204173416602998
 30
0.0
 11
76.5601741370763165
 21
-99.6204173416603282
 31
0.0
  0
LINE
  5
656
  8
0
 10
76.5601741370763165
 20
-81.6204173416603282
 30
0.0
 11
76.5601741370763165
 21
-93.620417341660314
 31
0.0
  0
LINE
  5
657
  8
0
 10
25.56017413707632
 20
-81.620417341660314
 30
0.0
 11
39.5601741370763165
 21
-81.6204173416603282
 31
0.0
  0
LINE
  5
658
  8
0
 10
45.5601741370763094
 20
-81.6204173416603282
 30
0.0
 11
59.5601741370763094
 21
-81.6204173416603282
 31
0.0
  0
LINE
  5
659
  8
0
 10
65.5601741370763165
 20
-81.6204173416603282
 30
0.0
 11
76.5601741370763165
 21
-81.6204173416603282
 31
0.0
  0
LINE
  5
65A
  8
0
 10
19.56017413707632
 20
-75.620417341660314
 30
0.0
 11
25.56017413707632
 21
-75.620417341660314
 31
0.0
  0
LINE
  5
65B
  8
0
 10
39.5601741370763094
 20
-75.620417341660314
 30
0.0
 11
45.5601741370763307
 21
-75.620417341660314
 31
0.0
  0
LINE
  5
65C
  8
0
 10
59.5601741370763023
 20
-75.620417341660314
 30
0.0
 11
65.5601741370763307
 21
-75.6204173416603282
 31
0.0
  0
LINE
  5
65D
  8
0
 10
19.56017413707632
 20
-75.620417341660314
 30
0.0
 11
19.56017413707632
 21
-81.6204173416603282
 31
0.0
  0
LINE
  5
65E
  8
0
 10
25.5601741370763094
 20
-75.620417341660314
 30
0.0
 11
25.56017413707632
 21
-81.6204173416603282
 31
0.0
  0
LINE
  5
65F
  8
0
 10
39.5601741370763094
 20
-75.620417341660314
 30
0.0
 11
39.5601741370763165
 21
-81.6204173416603282
 31
0.0
  0
LINE
  5
660
  8
0
 10
45.5601741370763165
 20
-75.620417341660314
 30
0.0
 11
45.5601741370763094
 21
-81.6204173416603282
 31
0.0
  0
LINE
  5
661
  8
0
 10
59.5601741370763023
 20
-75.620417341660314
 30
0.0
 11
59.5601741370763094
 21
-81.6204173416603282
 31
0.0
  0
LINE
  5
662
  8
0
 10
65.5601741370763165
 20
-75.620417341660314
 30
0.0
 11
65.5601741370763165
 21
-81.6204173416603282
 31
0.0
  0
LINE
  5
664
  8
0
 10
82.560174137076288
 20
-99.6204173416603282
 30
0.0
 11
76.5601741370763307
 21
-99.6204173416603282
 31
0.0
  0
LINE
  5
665
  8
0
 10
82.5601741370763165
 20
-93.620417341660314
 30
0.0
 11
76.5601741370763165
 21
-93.620417341660314
 31
0.0
  0
LINE
  5
679
  8
0
 10
8.5601741370763165
 20
-81.6204173416603282
 30
0.0
 11
8.5601741370763165
 21
-93.620417341660314
 31
0.0
  0
LINE
  5
67A
  8
0
 10
19.56017413707632
 20
-81.6204173416603282
 30
0.0
 11
8.5601741370763165
 21
-81.6204173416603282
 31
0.0
  0
LINE
  5
681
  8
0
 10
8.5601741370763023
 20
-99.6204173416603282
 30
0.0
 11
8.5601741370763023
 21
-105.6204173416602998
 31
0.0
  0
LINE
  5
683
  8
0
 10
19.56017413707632
 20
-111.6204173416602998
 30
0.0
 11
25.56017413707632
 21
-111.6204173416602998
 31
0.0
  0
LINE
  5
684
  8
0
 10
82.5601741370763165
 20
-93.620417341660314
 30
0.0
 11
82.5601741370763165
 21
-99.6204173416603282
 31
0.0
  0
LINE
  5
685
  8
0
 10
2.5601741370763298
 20
-99.6204173416603282
 30
0.0
 11
8.5601741370763023
 21
-99.6204173416603282
 31
0.0
  0
LINE
  5
686
  8
0
 10
2.560174137076316
 20
-93.620417341660314
 30
0.0
 11
8.5601741370763165
 21
-93.620417341660314
 31
0.0
  0
LINE
  5
687
  8
0
 10
2.560174137076316
 20
-93.620417341660314
 30
0.0
 11
2.560174137076316
 21
-99.6204173416603282
 31
0.0
  0
LINE
  5
688
  8
0
 10
127.9629422647907973
 20
-43.8605731741950109
 30
0.0
 11
127.9629422647907973
 21
-49.8605731741950109
 31
0.0
  0
LINE
  5
689
  8
0
 10
133.9629422647907973
 20
-43.8605731741950109
 30
0.0
 11
133.9629422647907973
 21
-49.8605731741950109
 31
0.0
  0
LINE
  5
68A
  8
0
 10
133.9629422647907973
 20
-43.8605731741950109
 30
0.0
 11
127.9629422647907973
 21
-43.8605731741950109
 31
0.0
  0
LINE
  5
68B
  8
0
 10
133.9629422647907973
 20
-49.8605731741950109
 30
0.0
 11
139.9629422647907973
 21
-49.8605731741950109
 31
0.0
  0
LINE
  5
68C
  8
0
 10
76.5601741370763449
 20
-105.6204173416602998
 30
0.0
 11
65.5601741370763165
 21
-105.6204173416602998
 31
0.0
  0
LINE
  5
691
  8
0
 10
19.56017413707632
 20
-105.6204173416602998
 30
0.0
 11
19.56017413707632
 21
-111.6204173416602998
 31
0.0
  0
LINE
  5
692
  8
0
 10
25.56017413707632
 20
-105.6204173416602998
 30
0.0
 11
25.56017413707632
 21
-111.6204173416602998
 31
0.0
  0
LINE
  5
693
  8
0
 10
39.5601741370763165
 20
-105.6204173416602998
 30
0.0
 11
39.5601741370763165
 21
-111.6204173416602998
 31
0.0
  0
LINE
  5
694
  8
0
 10
45.5601741370763094
 20
-105.6204173416602998
 30
0.0
 11
45.5601741370763094
 21
-111.6204173416602998
 31
0.0
  0
LINE
  5
695
  8
0
 10
59.5601741370763094
 20
-105.6204173416602998
 30
0.0
 11
59.5601741370763094
 21
-111.6204173416602998
 31
0.0
  0
LINE
  5
696
  8
0
 10
65.5601741370763165
 20
-105.6204173416602998
 30
0.0
 11
65.5601741370763165
 21
-111.6204173416602998
 31
0.0
  0
LINE
  5
697
  8
0
 10
59.5601741370763023
 20
-105.6204173416602998
 30
0.0
 11
45.5601741370763094
 21
-105.6204173416602998
 31
0.0
  0
LINE
  5
698
  8
0
 10
39.5601741370763094
 20
-105.6204173416602998
 30
0.0
 11
25.56017413707632
 21
-105.6204173416602998
 31
0.0
  0
LINE
  5
699
  8
0
 10
19.56017413707632
 20
-105.6204173416602998
 30
0.0
 11
8.5601741370763023
 21
-105.6204173416602998
 31
0.0
  0
LINE
  5
69A
  8
0
 10
19.56017413707632
 20
-144.1452961207351962
 30
0.0
 11
25.56017413707632
 21
-144.1452961207351962
 31
0.0
  0
LINE
  5
69B
  8
0
 10
39.5601741370763094
 20
-144.1452961207351962
 30
0.0
 11
45.5601741370763094
 21
-144.1452961207351962
 31
0.0
  0
LINE
  5
69C
  8
0
 10
59.5601741370763023
 20
-144.1452961207351962
 30
0.0
 11
65.5601741370763023
 21
-144.1452961207351109
 31
0.0
  0
LINE
  5
69D
  8
0
 10
65.5601741370763023
 20
-138.1452961207351962
 30
0.0
 11
82.5601741370763165
 21
-138.1452961207351962
 31
0.0
  0
LINE
  5
69E
  8
0
 10
45.5601741370763094
 20
-138.1452961207351962
 30
0.0
 11
59.5601741370763094
 21
-138.1452961207351962
 31
0.0
  0
LINE
  5
69F
  8
0
 10
25.56017413707632
 20
-138.1452961207351962
 30
0.0
 11
39.5601741370763094
 21
-138.1452961207351962
 31
0.0
  0
LINE
  5
6A0
  8
0
 10
65.5601741370763165
 20
-138.1452961207351962
 30
0.0
 11
65.5601741370763023
 21
-144.1452961207351109
 31
0.0
  0
LINE
  5
6A1
  8
0
 10
59.5601741370763023
 20
-138.1452961207351962
 30
0.0
 11
59.5601741370763094
 21
-144.1452961207351962
 31
0.0
  0
LINE
  5
6A2
  8
0
 10
45.5601741370763094
 20
-138.1452961207351962
 30
0.0
 11
45.5601741370763094
 21
-144.1452961207351962
 31
0.0
  0
LINE
  5
6A3
  8
0
 10
39.5601741370763165
 20
-138.1452961207351962
 30
0.0
 11
39.5601741370763165
 21
-144.1452961207351962
 31
0.0
  0
LINE
  5
6A4
  8
0
 10
25.56017413707632
 20
-138.1452961207351962
 30
0.0
 11
25.56017413707632
 21
-144.1452961207351962
 31
0.0
  0
LINE
  5
6A5
  8
0
 10
19.56017413707632
 20
-138.1452961207351962
 30
0.0
 11
19.56017413707632
 21
-144.1452961207351962
 31
0.0
  0
LINE
  5
6A6
  8
0
 10
59.5601741370763094
 20
-111.6204173416602998
 30
0.0
 11
65.5601741370763165
 21
-111.6204173416602998
 31
0.0
  0
LINE
  5
6A7
  8
0
 10
39.5601741370763094
 20
-111.6204173416602998
 30
0.0
 11
45.5601741370763094
 21
-111.6204173416602998
 31
0.0
  0
LINE
  5
6EC
  8
0
 10
-48.8425939906382212
 20
-49.8605731741950109
 30
0.0
 11
-54.8425939906382212
 21
-49.8605731741950109
 31
0.0
  0
LINE
  5
6ED
  8
0
 10
-42.8425939906382212
 20
-43.8605731741950109
 30
0.0
 11
-42.8425939906382212
 21
-49.8605731741950109
 31
0.0
  0
LINE
  5
6EE
  8
0
 10
-48.8425939906382212
 20
-43.8605731741950109
 30
0.0
 11
-48.8425939906382212
 21
-49.8605731741950109
 31
0.0
  0
LINE
  5
6EF
  8
0
 10
-48.8425939906382212
 20
-43.8605731741950109
 30
0.0
 11
-42.8425939906382212
 21
-43.8605731741950109
 31
0.0
  0
LINE
  5
6F0
  8
0
 10
-48.8425939906382212
 20
-49.8605731741950109
 30
0.0
 11
-54.8425939906382212
 21
-49.8605731741950109
 31
0.0
  0
ENDSEC
  0
EOF
