  0
SECTION
  2
HEADER
  9
$ACADVER
  1
AC1018
  9
$ACADMAINTVER
 70
     0
  9
$DWGCODEPAGE
  3
ANSI_1252
  9
$INSBASE
 10
0.0
 20
0.0
 30
0.0
  9
$EXTMIN
 10
1.000000000000000E+20
 20
1.000000000000000E+20
 30
1.000000000000000E+20
  9
$EXTMAX
 10
-1.000000000000000E+20
 20
-1.000000000000000E+20
 30
-1.000000000000000E+20
  9
$LIMMIN
 10
0.0
 20
0.0
  9
$LIMMAX
 10
12.0
 20
9.0
  9
$ORTHOMODE
 70
     0
  9
$REGENMODE
 70
     1
  9
$FILLMODE
 70
     1
  9
$QTEXTMODE
 70
     0
  9
$MIRRTEXT
 70
     1
  9
$LTSCALE
 40
1.0
  9
$ATTMODE
 70
     1
  9
$TEXTSIZE
 40
0.2
  9
$TRACEWID
 40
0.05
  9
$TEXTSTYLE
  7
Standard
  9
$CLAYER
  8
0
  9
$CELTYPE
  6
ByLayer
  9
$CECOLOR
 62
   256
  9
$CELTSCALE
 40
1.0
  9
$DISPSILH
 70
     0
  9
$DIMSCALE
 40
1.0
  9
$DIMASZ
 40
0.18
  9
$DIMEXO
 40
0.0625
  9
$DIMDLI
 40
0.38
  9
$DIMRND
 40
0.0
  9
$DIMDLE
 40
0.0
  9
$DIMEXE
 40
0.18
  9
$DIMTP
 40
0.0
  9
$DIMTM
 40
0.0
  9
$DIMTXT
 40
0.18
  9
$DIMCEN
 40
0.09
  9
$DIMTSZ
 40
0.0
  9
$DIMTOL
 70
     0
  9
$DIMLIM
 70
     0
  9
$DIMTIH
 70
     1
  9
$DIMTOH
 70
     1
  9
$DIMSE1
 70
     0
  9
$DIMSE2
 70
     0
  9
$DIMTAD
 70
     0
  9
$DIMZIN
 70
     0
  9
$DIMBLK
  1

  9
$DIMASO
 70
     1
  9
$DIMSHO
 70
     1
  9
$DIMPOST
  1

  9
$DIMAPOST
  1

  9
$DIMALT
 70
     0
  9
$DIMALTD
 70
     2
  9
$DIMALTF
 40
25.4
  9
$DIMLFAC
 40
1.0
  9
$DIMTOFL
 70
     0
  9
$DIMTVP
 40
0.0
  9
$DIMTIX
 70
     0
  9
$DIMSOXD
 70
     0
  9
$DIMSAH
 70
     0
  9
$DIMBLK1
  1

  9
$DIMBLK2
  1

  9
$DIMSTYLE
  2
Standard
  9
$DIMCLRD
 70
     0
  9
$DIMCLRE
 70
     0
  9
$DIMCLRT
 70
     0
  9
$DIMTFAC
 40
1.0
  9
$DIMGAP
 40
0.09
  9
$DIMJUST
 70
     0
  9
$DIMSD1
 70
     0
  9
$DIMSD2
 70
     0
  9
$DIMTOLJ
 70
     1
  9
$DIMTZIN
 70
     0
  9
$DIMALTZ
 70
     0
  9
$DIMALTTZ
 70
     0
  9
$DIMUPT
 70
     0
  9
$DIMDEC
 70
     4
  9
$DIMTDEC
 70
     4
  9
$DIMALTU
 70
     2
  9
$DIMALTTD
 70
     2
  9
$DIMTXSTY
  7
Standard
  9
$DIMAUNIT
 70
     0
  9
$DIMADEC
 70
     0
  9
$DIMALTRND
 40
0.0
  9
$DIMAZIN
 70
     0
  9
$DIMDSEP
 70
    46
  9
$DIMATFIT
 70
     3
  9
$DIMFRAC
 70
     0
  9
$DIMLDRBLK
  1

  9
$DIMLUNIT
 70
     2
  9
$DIMLWD
 70
    -2
  9
$DIMLWE
 70
    -2
  9
$DIMTMOVE
 70
     0
  9
$LUNITS
 70
     2
  9
$LUPREC
 70
     4
  9
$SKETCHINC
 40
0.1
  9
$FILLETRAD
 40
0.5
  9
$AUNITS
 70
     0
  9
$AUPREC
 70
     0
  9
$MENU
  1
.
  9
$ELEVATION
 40
0.0
  9
$PELEVATION
 40
0.0
  9
$THICKNESS
 40
0.0
  9
$LIMCHECK
 70
     0
  9
$CHAMFERA
 40
0.5
  9
$CHAMFERB
 40
0.5
  9
$CHAMFERC
 40
1.0
  9
$CHAMFERD
 40
0.0
  9
$SKPOLY
 70
     0
  9
$TDCREATE
 40
2457105.783415764
  9
$TDUCREATE
 40
2457106.033415764
  9
$TDUPDATE
 40
2457105.783415775
  9
$TDUUPDATE
 40
2457106.033415775
  9
$TDINDWG
 40
0.0000000116
  9
$TDUSRTIMER
 40
0.0000000116
  9
$USRTIMER
 70
     1
  9
$ANGBASE
 50
0.0
  9
$ANGDIR
 70
     0
  9
$PDMODE
 70
     0
  9
$PDSIZE
 40
0.0
  9
$PLINEWID
 40
0.0
  9
$SPLFRAME
 70
     0
  9
$SPLINETYPE
 70
     6
  9
$SPLINESEGS
 70
     8
  9
$HANDSEED
  5
153
  9
$SURFTAB1
 70
     6
  9
$SURFTAB2
 70
     6
  9
$SURFTYPE
 70
     6
  9
$SURFU
 70
     6
  9
$SURFV
 70
     6
  9
$UCSBASE
  2

  9
$UCSNAME
  2

  9
$UCSORG
 10
0.0
 20
0.0
 30
0.0
  9
$UCSXDIR
 10
1.0
 20
0.0
 30
0.0
  9
$UCSYDIR
 10
0.0
 20
1.0
 30
0.0
  9
$UCSORTHOREF
  2

  9
$UCSORTHOVIEW
 70
     0
  9
$UCSORGTOP
 10
0.0
 20
0.0
 30
0.0
  9
$UCSORGBOTTOM
 10
0.0
 20
0.0
 30
0.0
  9
$UCSORGLEFT
 10
0.0
 20
0.0
 30
0.0
  9
$UCSORGRIGHT
 10
0.0
 20
0.0
 30
0.0
  9
$UCSORGFRONT
 10
0.0
 20
0.0
 30
0.0
  9
$UCSORGBACK
 10
0.0
 20
0.0
 30
0.0
  9
$PUCSBASE
  2

  9
$PUCSNAME
  2

  9
$PUCSORG
 10
0.0
 20
0.0
 30
0.0
  9
$PUCSXDIR
 10
1.0
 20
0.0
 30
0.0
  9
$PUCSYDIR
 10
0.0
 20
1.0
 30
0.0
  9
$PUCSORTHOREF
  2

  9
$PUCSORTHOVIEW
 70
     0
  9
$PUCSORGTOP
 10
0.0
 20
0.0
 30
0.0
  9
$PUCSORGBOTTOM
 10
0.0
 20
0.0
 30
0.0
  9
$PUCSORGLEFT
 10
0.0
 20
0.0
 30
0.0
  9
$PUCSORGRIGHT
 10
0.0
 20
0.0
 30
0.0
  9
$PUCSORGFRONT
 10
0.0
 20
0.0
 30
0.0
  9
$PUCSORGBACK
 10
0.0
 20
0.0
 30
0.0
  9
$USERI1
 70
     0
  9
$USERI2
 70
     0
  9
$USERI3
 70
     0
  9
$USERI4
 70
     0
  9
$USERI5
 70
     0
  9
$USERR1
 40
0.0
  9
$USERR2
 40
0.0
  9
$USERR3
 40
0.0
  9
$USERR4
 40
0.0
  9
$USERR5
 40
0.0
  9
$WORLDVIEW
 70
     1
  9
$SHADEDGE
 70
     3
  9
$SHADEDIF
 70
    70
  9
$TILEMODE
 70
     1
  9
$MAXACTVP
 70
    64
  9
$PINSBASE
 10
0.0
 20
0.0
 30
0.0
  9
$PLIMCHECK
 70
     0
  9
$PEXTMIN
 10
1.000000000000000E+20
 20
1.000000000000000E+20
 30
1.000000000000000E+20
  9
$PEXTMAX
 10
-1.000000000000000E+20
 20
-1.000000000000000E+20
 30
-1.000000000000000E+20
  9
$PLIMMIN
 10
0.0
 20
0.0
  9
$PLIMMAX
 10
12.0
 20
9.0
  9
$UNITMODE
 70
     0
  9
$VISRETAIN
 70
     1
  9
$PLINEGEN
 70
     0
  9
$PSLTSCALE
 70
     1
  9
$TREEDEPTH
 70
  3020
  9
$CMLSTYLE
  2
Standard
  9
$CMLJUST
 70
     0
  9
$CMLSCALE
 40
1.0
  9
$PROXYGRAPHICS
 70
     1
  9
$MEASUREMENT
 70
     0
  9
$CELWEIGHT
370
    -1
  9
$ENDCAPS
280
     0
  9
$JOINSTYLE
280
     0
  9
$LWDISPLAY
290
     1
  9
$INSUNITS
 70
     1
  9
$HYPERLINKBASE
  1

  9
$STYLESHEET
  1

  9
$XEDIT
290
     1
  9
$CEPSNTYPE
380
     0
  9
$PSTYLEMODE
290
     1
  9
$FINGERPRINTGUID
  2
{5DF1BB1E-95EE-4F18-94C1-ED89314DCAB7}
  9
$VERSIONGUID
  2
{FAEB1C32-E019-11D5-929B-00C0DF256EC4}
  9
$EXTNAMES
290
     1
  9
$PSVPSCALE
 40
0.0
  9
$OLESTARTUP
290
     0
  9
$SORTENTS
280
   127
  9
$INDEXCTL
280
     0
  9
$HIDETEXT
280
     1
  9
$XCLIPFRAME
290
     0
  9
$HALOGAP
280
     0
  9
$OBSCOLOR
 70
   257
  9
$OBSLTYPE
280
     0
  9
$INTERSECTIONDISPLAY
280
     0
  9
$INTERSECTIONCOLOR
 70
   257
  9
$DIMASSOC
280
     2
  9
$PROJECTNAME
  1

  0
ENDSEC
  0
SECTION
  2
CLASSES
  0
CLASS
  1
ACDBDICTIONARYWDFLT
  2
AcDbDictionaryWithDefault
  3
ObjectDBX Classes
 90
        0
 91
        3
280
     0
281
     0
  0
CLASS
  1
VISUALSTYLE
  2
AcDbVisualStyle
  3
ObjectDBX Classes
 90
     4095
 91
        3
280
     0
281
     0
  0
ENDSEC
  0
SECTION
  2
TABLES
  0
TABLE
  2
VPORT
  5
8
330
0
100
AcDbSymbolTable
 70
     1
  0
VPORT
  5
29
330
8
100
AcDbSymbolTableRecord
100
AcDbViewportTableRecord
  2
*Active
 70
     0
 10
0.0
 20
0.0
 11
1.0
 21
1.0
 12
0.0
 22
0.0
 13
0.0
 23
0.0
 14
0.5
 24
0.5
 15
0.5
 25
0.5
 16
0.0
 26
0.0
 36
1.0
 17
610.000319942986
 27
-1220.000812140746
 37
0.0
 40
2440.001624281493
 41
0.499999929403828
 42
50.0
 43
0.0
 44
0.0
 50
0.0
 51
0.0
 71
     0
 72
   100
 73
     1
 74
     3
 75
     0
 76
     0
 77
     0
 78
     0
281
     0
 65
     1
110
0.0
120
0.0
130
0.0
111
1.0
121
0.0
131
0.0
112
0.0
122
1.0
132
0.0
 79
     0
146
0.0
  0
ENDTAB
  0
TABLE
  2
LTYPE
  5
5
330
0
100
AcDbSymbolTable
 70
     1
  0
LTYPE
  5
14
330
5
100
AcDbSymbolTableRecord
100
AcDbLinetypeTableRecord
  2
ByBlock
 70
     0
  3

 72
    65
 73
     0
 40
0.0
  0
LTYPE
  5
15
330
5
100
AcDbSymbolTableRecord
100
AcDbLinetypeTableRecord
  2
ByLayer
 70
     0
  3

 72
    65
 73
     0
 40
0.0
  0
LTYPE
  5
16
330
5
100
AcDbSymbolTableRecord
100
AcDbLinetypeTableRecord
  2
Continuous
 70
     0
  3
Solid line
 72
    65
 73
     0
 40
0.0
  0
ENDTAB
  0
TABLE
  2
LAYER
  5
2
330
0
100
AcDbSymbolTable
 70
     2
  0
LAYER
  5
10
330
2
100
AcDbSymbolTableRecord
100
AcDbLayerTableRecord
  2
0
 70
     0
 62
     7
  6
Continuous
370
    -3
390
F
  0
LAYER
  5
3B
330
2
100
AcDbSymbolTableRecord
100
AcDbLayerTableRecord
  2
Capa 1
 70
     0
 62
     7
  6
Continuous
370
    -3
390
F
  0
ENDTAB
  0
TABLE
  2
STYLE
  5
3
330
0
100
AcDbSymbolTable
 70
     1
  0
STYLE
  5
11
330
3
100
AcDbSymbolTableRecord
100
AcDbTextStyleTableRecord
  2
Standard
 70
     0
 40
0.0
 41
1.0
 50
0.0
 71
     0
 42
0.2
  3
txt
  4

  0
ENDTAB
  0
TABLE
  2
VIEW
  5
6
330
0
100
AcDbSymbolTable
 70
     0
  0
ENDTAB
  0
TABLE
  2
UCS
  5
7
330
0
100
AcDbSymbolTable
 70
     0
  0
ENDTAB
  0
TABLE
  2
APPID
  5
9
330
0
100
AcDbSymbolTable
 70
     1
  0
APPID
  5
12
330
9
100
AcDbSymbolTableRecord
100
AcDbRegAppTableRecord
  2
ACAD
 70
     0
  0
ENDTAB
  0
TABLE
  2
DIMSTYLE
  5
A
330
0
100
AcDbSymbolTable
 70
     1
100
AcDbDimStyleTable
  0
DIMSTYLE
105
27
330
A
100
AcDbSymbolTableRecord
100
AcDbDimStyleTableRecord
  2
Standard
 70
     0
340
11
  0
ENDTAB
  0
TABLE
  2
BLOCK_RECORD
  5
1
330
0
100
AcDbSymbolTable
 70
     3
  0
BLOCK_RECORD
  5
1F
330
1
100
AcDbSymbolTableRecord
100
AcDbBlockTableRecord
  2
*Model_Space
340
22
  0
BLOCK_RECORD
  5
1B
330
1
100
AcDbSymbolTableRecord
100
AcDbBlockTableRecord
  2
*Paper_Space
340
1E
  0
BLOCK_RECORD
  5
23
330
1
100
AcDbSymbolTableRecord
100
AcDbBlockTableRecord
  2
*Paper_Space0
340
26
  0
BLOCK_RECORD
  5
3C
330
1
100
AcDbSymbolTableRecord
100
AcDbBlockTableRecord
  2
block 2
340
0
102
{BLKREFS
331
3D
102
}
  0
BLOCK_RECORD
  5
B6
330
1
100
AcDbSymbolTableRecord
100
AcDbBlockTableRecord
  2
block 3
340
0
102
{BLKREFS
331
B7
102
}
  0
ENDTAB
  0
ENDSEC
  0
SECTION
  2
BLOCKS
  0
BLOCK
  5
20
330
1F
100
AcDbEntity
  8
0
100
AcDbBlockBegin
  2
*Model_Space
 70
     0
 71
     0
 10
0.0
 20
0.0
 30
0.0
  3
*Model_Space
  1

  0
ENDBLK
  5
21
330
1F
100
AcDbEntity
  8
0
100
AcDbBlockEnd
  0
BLOCK
  5
1C
330
1B
100
AcDbEntity
 67
     1
  8
0
100
AcDbBlockBegin
  2
*Paper_Space
 70
     0
 71
     0
 10
0.0
 20
0.0
 30
0.0
  3
*Paper_Space
  1

  0
ENDBLK
  5
1D
330
1B
100
AcDbEntity
 67
     1
  8
0
100
AcDbBlockEnd
  0
BLOCK
  5
24
330
23
100
AcDbEntity
  8
0
100
AcDbBlockBegin
  2
*Paper_Space0
 70
     0
 71
     0
 10
0.0
 20
0.0
 30
0.0
  3
*Paper_Space0
  1

  0
ENDBLK
  5
25
330
23
100
AcDbEntity
  8
0
100
AcDbBlockEnd
  0
BLOCK
  5
3E
330
3C
100
AcDbEntity
  8
0
100
AcDbBlockBegin
  2
block 2
 70
     0
 71
     0
 10
0.0
 20
0.0
 30
0.0
  3
block 2
  1

  0
SPLINE
  5
40
330
3C
100
AcDbEntity
  8
Capa 1
 62
     7
420
 16777215
370
    35
100
AcDbSpline
210
0.0
220
0.0
230
1.0
 70
    11
 71
     3
 72
    23
 73
    19
 74
     0
 42
0.0000000001
 43
0.0000000001
 40
0.0
 40
0.0
 40
0.0
 40
0.0
 40
1.0
 40
1.0
 40
1.0
 40
2.0
 40
2.0
 40
2.0
 40
3.0
 40
3.0
 40
3.0
 40
4.0
 40
4.0
 40
4.0
 40
5.0
 40
5.0
 40
5.0
 40
6.0
 40
6.0
 40
6.0
 40
6.0
 10
451.970517193865
 20
-2377.424565377866
 30
0.0
 10
451.983608556709
 20
-2372.372677358296
 30
0.0
 10
451.4024209483474
 20
-2367.222948626944
 30
0.0
 10
454.8116874405505
 20
-2357.739978794246
 30
0.0
 10
460.8454276734171
 20
-2343.659184526933
 30
0.0
 10
470.8172565554728
 20
-2333.418293687479
 30
0.0
 10
485.0265528843858
 20
-2327.381108359127
 30
0.0
 10
489.5919934214388
 20
-2325.442897639125
 30
0.0
 10
494.3083291407459
 20
-2324.707714262573
 30
0.0
 10
499.1893404242478
 20
-2324.589202977881
 30
0.0
 10
500.102290727839
 20
-2324.4679356168
 30
0.0
 10
504.0572603449058
 20
-2324.326686701905
 30
0.0
 10
505.1180052448143
 20
-2324.326686701905
 30
0.0
 10
504.1854178969571
 20
-2346.260920637393
 30
0.0
 10
494.2035982379942
 20
-2362.519015251384
 30
0.0
 10
474.5155665588885
 20
-2372.4650059173
 30
0.0
 10
467.4965290172404
 20
-2376.009320152526
 30
0.0
 10
459.919386006982
 20
-2377.73669102883
 30
0.0
 10
451.970517193865
 20
-2377.424565377866
 30
0.0
  0
SPLINE
  5
41
330
3C
100
AcDbEntity
  8
Capa 1
 62
     7
420
 16777215
370
    35
100
AcDbSpline
210
0.0
220
0.0
230
1.0
 70
    11
 71
     3
 72
    23
 73
    19
 74
     0
 42
0.0000000001
 43
0.0000000001
 40
0.0
 40
0.0
 40
0.0
 40
0.0
 40
1.0
 40
1.0
 40
1.0
 40
2.0
 40
2.0
 40
2.0
 40
3.0
 40
3.0
 40
3.0
 40
4.0
 40
4.0
 40
4.0
 40
5.0
 40
5.0
 40
5.0
 40
6.0
 40
6.0
 40
6.0
 40
6.0
 10
110.8275159770674
 20
-2377.424565377866
 30
0.0
 10
110.8406073399114
 20
-2372.372677358296
 30
0.0
 10
110.2590752220012
 20
-2367.222948626944
 30
0.0
 10
113.6683417142044
 20
-2357.739978794246
 30
0.0
 10
119.702081947071
 20
-2343.659184526933
 30
0.0
 10
129.6742553386752
 20
-2333.418293687479
 30
0.0
 10
143.8832071580396
 20
-2327.381108359127
 30
0.0
 10
148.4452025996075
 20
-2325.442897639125
 30
0.0
 10
153.1649834143997
 20
-2324.707714262573
 30
0.0
 10
158.0459946979017
 20
-2324.589202977881
 30
0.0
 10
158.9554999060077
 20
-2324.4679356168
 30
0.0
 10
162.9104695230745
 20
-2324.326686701905
 30
0.0
 10
163.9743150089196
 20
-2324.326686701905
 30
0.0
 10
163.0417276610625
 20
-2346.260920637393
 30
0.0
 10
153.0568074161629
 20
-2362.519015251384
 30
0.0
 10
133.3725653420909
 20
-2372.4650059173
 30
0.0
 10
126.3531832908943
 20
-2376.009320152526
 30
0.0
 10
118.7725951851506
 20
-2377.73669102883
 30
0.0
 10
110.8275159770674
 20
-2377.424565377866
 30
0.0
  0
SPLINE
  5
42
330
3C
100
AcDbEntity
  8
Capa 1
 62
     7
420
 16777215
370
    35
100
AcDbSpline
210
0.0
220
0.0
230
1.0
 70
    11
 71
     3
 72
    23
 73
    19
 74
     0
 42
0.0000000001
 43
0.0000000001
 40
0.0
 40
0.0
 40
0.0
 40
0.0
 40
1.0
 40
1.0
 40
1.0
 40
2.0
 40
2.0
 40
2.0
 40
3.0
 40
3.0
 40
3.0
 40
4.0
 40
4.0
 40
4.0
 40
5.0
 40
5.0
 40
5.0
 40
6.0
 40
6.0
 40
6.0
 40
6.0
 10
107.7496676705452
 20
-2377.424565377866
 30
0.0
 10
107.7365763077013
 20
-2372.372677358296
 30
0.0
 10
108.3212090115482
 20
-2367.222948626944
 30
0.0
 10
104.9115980097964
 20
-2357.739978794246
 30
0.0
 10
98.87475719099312
 20
-2343.659184526933
 30
0.0
 10
88.90292830893746
 20
-2333.418293687479
 30
0.0
 10
74.69397648957303
 20
-2327.381108359127
 30
0.0
 10
70.12853595251995
 20
-2325.442897639125
 30
0.0
 10
65.4118557236644
 20
-2324.707714262573
 30
0.0
 10
60.5310166949367
 20
-2324.589202977881
 30
0.0
 10
59.61789413657122
 20
-2324.4679356168
 30
0.0
 10
55.66326902905293
 20
-2324.326686701905
 30
0.0
 10
54.60235187437025
 20
-2324.326686701905
 30
0.0
 10
55.53511147700164
 20
-2346.260920637393
 30
0.0
 10
65.51693113596453
 20
-2362.519015251384
 30
0.0
 10
85.20461830552176
 20
-2372.4650059173
 30
0.0
 10
92.22675643310652
 20
-2376.009320152526
 30
0.0
 10
99.8011433669768
 20
-2377.73669102883
 30
0.0
 10
107.7496676705452
 20
-2377.424565377866
 30
0.0
  0
SPLINE
  5
43
330
3C
100
AcDbEntity
  8
Capa 1
 62
     7
420
 16777215
370
    35
100
AcDbSpline
210
0.0
220
0.0
230
1.0
 70
    11
 71
     3
 72
    23
 73
    19
 74
     0
 42
0.0000000001
 43
0.0000000001
 40
0.0
 40
0.0
 40
0.0
 40
0.0
 40
1.0
 40
1.0
 40
1.0
 40
2.0
 40
2.0
 40
2.0
 40
3.0
 40
3.0
 40
3.0
 40
4.0
 40
4.0
 40
4.0
 40
5.0
 40
5.0
 40
5.0
 40
6.0
 40
6.0
 40
6.0
 40
6.0
 10
110.8275159770674
 20
-2268.009021785429
 30
0.0
 10
110.8406073399114
 20
-2273.060909804999
 30
0.0
 10
110.2590752220012
 20
-2278.211327555447
 30
0.0
 10
113.6683417142044
 20
-2287.693608369049
 30
0.0
 10
119.702081947071
 20
-2301.774402636362
 30
0.0
 10
129.6742553386752
 20
-2312.012537399427
 30
0.0
 10
143.8832071580396
 20
-2318.049722727779
 30
0.0
 10
148.4452025996075
 20
-2319.987244428684
 30
0.0
 10
153.1649834143997
 20
-2320.726561919818
 30
0.0
 10
158.0459946979017
 20
-2320.841628109026
 30
0.0
 10
158.9554999060077
 20
-2320.962895470107
 30
0.0
 10
162.9104695230745
 20
-2321.107589480487
 30
0.0
 10
163.9743150089196
 20
-2321.107589480487
 30
0.0
 10
163.0417276610625
 20
-2299.169910449513
 30
0.0
 10
153.0568074161629
 20
-2282.914571911911
 30
0.0
 10
133.3725653420909
 20
-2272.968581245994
 30
0.0
 10
126.3531832908943
 20
-2269.421510934381
 30
0.0
 10
118.7725951851506
 20
-2267.69345103898
 30
0.0
 10
110.8275159770674
 20
-2268.009021785429
 30
0.0
  0
SPLINE
  5
44
330
3C
100
AcDbEntity
  8
Capa 1
 62
     7
420
 16777215
370
    35
100
AcDbSpline
210
0.0
220
0.0
230
1.0
 70
    11
 71
     3
 72
    23
 73
    19
 74
     0
 42
0.0000000001
 43
0.0000000001
 40
0.0
 40
0.0
 40
0.0
 40
0.0
 40
1.0
 40
1.0
 40
1.0
 40
2.0
 40
2.0
 40
2.0
 40
3.0
 40
3.0
 40
3.0
 40
4.0
 40
4.0
 40
4.0
 40
5.0
 40
5.0
 40
5.0
 40
6.0
 40
6.0
 40
6.0
 40
6.0
 10
107.7496676705452
 20
-2268.009021785429
 30
0.0
 10
107.7365763077013
 20
-2273.060909804999
 30
0.0
 10
108.3212090115482
 20
-2278.211327555447
 30
0.0
 10
104.9115980097964
 20
-2287.693608369049
 30
0.0
 10
98.87475719099312
 20
-2301.774402636362
 30
0.0
 10
88.90292830893746
 20
-2312.012537399427
 30
0.0
 10
74.69397648957303
 20
-2318.049722727779
 30
0.0
 10
70.12853595251995
 20
-2319.987244428684
 30
0.0
 10
65.4118557236644
 20
-2320.726561919818
 30
0.0
 10
60.5310166949367
 20
-2320.841628109026
 30
0.0
 10
59.61789413657122
 20
-2320.962895470107
 30
0.0
 10
55.66326902905293
 20
-2321.107589480487
 30
0.0
 10
54.60235187437025
 20
-2321.107589480487
 30
0.0
 10
55.53511147700164
 20
-2299.169910449513
 30
0.0
 10
65.51693113596453
 20
-2282.914571911911
 30
0.0
 10
85.20461830552176
 20
-2272.968581245994
 30
0.0
 10
92.22675643310652
 20
-2269.421510934381
 30
0.0
 10
99.8011433669768
 20
-2267.69345103898
 30
0.0
 10
107.7496676705452
 20
-2268.009021785429
 30
0.0
  0
SPLINE
  5
45
330
3C
100
AcDbEntity
  8
Capa 1
 62
     7
420
 16777215
370
    35
100
AcDbSpline
210
0.0
220
0.0
230
1.0
 70
    11
 71
     3
 72
    23
 73
    19
 74
     0
 42
0.0000000001
 43
0.0000000001
 40
0.0
 40
0.0
 40
0.0
 40
0.0
 40
1.0
 40
1.0
 40
1.0
 40
2.0
 40
2.0
 40
2.0
 40
3.0
 40
3.0
 40
3.0
 40
4.0
 40
4.0
 40
4.0
 40
5.0
 40
5.0
 40
5.0
 40
6.0
 40
6.0
 40
6.0
 40
6.0
 10
224.541849716
 20
-2377.424565377866
 30
0.0
 10
224.5549410788439
 20
-2372.372677358296
 30
0.0
 10
223.970308374997
 20
-2367.222948626944
 30
0.0
 10
227.3795748672003
 20
-2357.739978794246
 30
0.0
 10
233.4167601955521
 20
-2343.659184526933
 30
0.0
 10
243.3882445680592
 20
-2333.418293687479
 30
0.0
 10
257.5971963874237
 20
-2327.381108359127
 30
0.0
 10
262.1629814340253
 20
-2325.442897639125
 30
0.0
 10
266.8796616628808
 20
-2324.707714262573
 30
0.0
 10
271.7606729463828
 20
-2324.589202977881
 30
0.0
 10
272.6701781544887
 20
-2324.4679356168
 30
0.0
 10
276.624803262007
 20
-2324.326686701905
 30
0.0
 10
277.6858926714639
 20
-2324.326686701905
 30
0.0
 10
276.7529608140583
 20
-2346.260920637393
 30
0.0
 10
266.7745862505807
 20
-2362.519015251384
 30
0.0
 10
247.0868990810234
 20
-2372.4650059173
 30
0.0
 10
240.0644164438902
 20
-2376.009320152526
 30
0.0
 10
232.4903740195684
 20
-2377.73669102883
 30
0.0
 10
224.541849716
 20
-2377.424565377866
 30
0.0
  0
SPLINE
  5
46
330
3C
100
AcDbEntity
  8
Capa 1
 62
     7
420
 16777215
370
    35
100
AcDbSpline
210
0.0
220
0.0
230
1.0
 70
    11
 71
     3
 72
    23
 73
    19
 74
     0
 42
0.0000000001
 43
0.0000000001
 40
0.0
 40
0.0
 40
0.0
 40
0.0
 40
1.0
 40
1.0
 40
1.0
 40
2.0
 40
2.0
 40
2.0
 40
3.0
 40
3.0
 40
3.0
 40
4.0
 40
4.0
 40
4.0
 40
5.0
 40
5.0
 40
5.0
 40
6.0
 40
6.0
 40
6.0
 40
6.0
 10
221.4643459190263
 20
-2377.424565377866
 30
0.0
 10
221.4512545561823
 20
-2372.372677358296
 30
0.0
 10
222.032442164544
 20
-2367.222948626944
 30
0.0
 10
218.6228311627922
 20
-2357.739978794246
 30
0.0
 10
212.5890909299256
 20
-2343.659184526933
 30
0.0
 10
202.6176065574185
 20
-2333.418293687479
 30
0.0
 10
188.4052096425688
 20
-2327.381108359127
 30
0.0
 10
183.8463147869377
 20
-2325.442897639125
 30
0.0
 10
179.1261894625969
 20
-2324.707714262573
 30
0.0
 10
174.2455226886435
 20
-2324.589202977881
 30
0.0
 10
173.3353284614405
 20
-2324.4679356168
 30
0.0
 10
169.3810478634707
 20
-2324.326686701905
 30
0.0
 10
168.3165133585285
 20
-2324.326686701905
 30
0.0
 10
169.2494452159342
 20
-2346.260920637393
 30
0.0
 10
179.2312648748971
 20
-2362.519015251384
 30
0.0
 10
198.9189520444543
 20
-2372.4650059173
 30
0.0
 10
205.9379895861023
 20
-2376.009320152526
 30
0.0
 10
213.5154771059093
 20
-2377.73669102883
 30
0.0
 10
221.4643459190263
 20
-2377.424565377866
 30
0.0
  0
SPLINE
  5
47
330
3C
100
AcDbEntity
  8
Capa 1
 62
     7
420
 16777215
370
    35
100
AcDbSpline
210
0.0
220
0.0
230
1.0
 70
    11
 71
     3
 72
    23
 73
    19
 74
     0
 42
0.0000000001
 43
0.0000000001
 40
0.0
 40
0.0
 40
0.0
 40
0.0
 40
1.0
 40
1.0
 40
1.0
 40
2.0
 40
2.0
 40
2.0
 40
3.0
 40
3.0
 40
3.0
 40
4.0
 40
4.0
 40
4.0
 40
5.0
 40
5.0
 40
5.0
 40
6.0
 40
6.0
 40
6.0
 40
6.0
 10
224.541849716
 20
-2268.009021785429
 30
0.0
 10
224.5549410788439
 20
-2273.060909804999
 30
0.0
 10
223.970308374997
 20
-2278.211327555447
 30
0.0
 10
227.3795748672003
 20
-2287.693608369049
 30
0.0
 10
233.4167601955521
 20
-2301.774402636362
 30
0.0
 10
243.3882445680592
 20
-2312.012537399427
 30
0.0
 10
257.5971963874237
 20
-2318.049722727779
 30
0.0
 10
262.1629814340253
 20
-2319.987244428684
 30
0.0
 10
266.8796616628808
 20
-2320.726561919818
 30
0.0
 10
271.7606729463828
 20
-2320.841628109026
 30
0.0
 10
272.6701781544887
 20
-2320.962895470107
 30
0.0
 10
276.624803262007
 20
-2321.107589480487
 30
0.0
 10
277.6858926714639
 20
-2321.107589480487
 30
0.0
 10
276.7529608140583
 20
-2299.169910449513
 30
0.0
 10
266.7745862505807
 20
-2282.914571911911
 30
0.0
 10
247.0868990810234
 20
-2272.968581245994
 30
0.0
 10
240.0644164438902
 20
-2269.421510934381
 30
0.0
 10
232.4903740195684
 20
-2267.69345103898
 30
0.0
 10
224.541849716
 20
-2268.009021785429
 30
0.0
  0
SPLINE
  5
48
330
3C
100
AcDbEntity
  8
Capa 1
 62
     7
420
 16777215
370
    35
100
AcDbSpline
210
0.0
220
0.0
230
1.0
 70
    11
 71
     3
 72
    23
 73
    19
 74
     0
 42
0.0000000001
 43
0.0000000001
 40
0.0
 40
0.0
 40
0.0
 40
0.0
 40
1.0
 40
1.0
 40
1.0
 40
2.0
 40
2.0
 40
2.0
 40
3.0
 40
3.0
 40
3.0
 40
4.0
 40
4.0
 40
4.0
 40
5.0
 40
5.0
 40
5.0
 40
6.0
 40
6.0
 40
6.0
 40
6.0
 10
221.4643459190263
 20
-2268.009021785429
 30
0.0
 10
221.4512545561823
 20
-2273.060909804999
 30
0.0
 10
222.032442164544
 20
-2278.211327555447
 30
0.0
 10
218.6228311627922
 20
-2287.693608369049
 30
0.0
 10
212.5890909299256
 20
-2301.774402636362
 30
0.0
 10
202.6176065574185
 20
-2312.012537399427
 30
0.0
 10
188.4052096425688
 20
-2318.049722727779
 30
0.0
 10
183.8463147869377
 20
-2319.987244428684
 30
0.0
 10
179.1261894625969
 20
-2320.726561919818
 30
0.0
 10
174.2455226886435
 20
-2320.841628109026
 30
0.0
 10
173.3353284614405
 20
-2320.962895470107
 30
0.0
 10
169.3810478634707
 20
-2321.107589480487
 30
0.0
 10
168.3165133585285
 20
-2321.107589480487
 30
0.0
 10
169.2494452159342
 20
-2299.169910449513
 30
0.0
 10
179.2312648748971
 20
-2282.914571911911
 30
0.0
 10
198.9189520444543
 20
-2272.968581245994
 30
0.0
 10
205.9379895861023
 20
-2269.421510934381
 30
0.0
 10
213.5154771059093
 20
-2267.69345103898
 30
0.0
 10
221.4643459190263
 20
-2268.009021785429
 30
0.0
  0
SPLINE
  5
49
330
3C
100
AcDbEntity
  8
Capa 1
 62
     7
420
 16777215
370
    35
100
AcDbSpline
210
0.0
220
0.0
230
1.0
 70
    11
 71
     3
 72
    23
 73
    19
 74
     0
 42
0.0000000001
 43
0.0000000001
 40
0.0
 40
0.0
 40
0.0
 40
0.0
 40
1.0
 40
1.0
 40
1.0
 40
2.0
 40
2.0
 40
2.0
 40
3.0
 40
3.0
 40
3.0
 40
4.0
 40
4.0
 40
4.0
 40
5.0
 40
5.0
 40
5.0
 40
6.0
 40
6.0
 40
6.0
 40
6.0
 10
338.2561834549325
 20
-2377.424565377866
 30
0.0
 10
338.2692748177764
 20
-2372.372677358296
 30
0.0
 10
337.6880872094148
 20
-2367.222948626944
 30
0.0
 10
341.097353701618
 20
-2357.739978794246
 30
0.0
 10
347.1310939344846
 20
-2343.659184526933
 30
0.0
 10
357.1029228165403
 20
-2333.418293687479
 30
0.0
 10
371.3122191454532
 20
-2327.381108359127
 30
0.0
 10
375.8742145870211
 20
-2325.442897639125
 30
0.0
 10
380.5939954018133
 20
-2324.707714262573
 30
0.0
 10
385.4750066853153
 20
-2324.589202977881
 30
0.0
 10
386.3845118934212
 20
-2324.4679356168
 30
0.0
 10
390.339481510488
 20
-2324.326686701905
 30
0.0
 10
391.4033269963332
 20
-2324.326686701905
 30
0.0
 10
390.4707396484761
 20
-2346.260920637393
 30
0.0
 10
380.4858194035765
 20
-2362.519015251384
 30
0.0
 10
360.8012328199559
 20
-2372.4650059173
 30
0.0
 10
353.7821952783079
 20
-2376.009320152526
 30
0.0
 10
346.2050522680494
 20
-2377.73669102883
 30
0.0
 10
338.2561834549325
 20
-2377.424565377866
 30
0.0
  0
SPLINE
  5
4A
330
3C
100
AcDbEntity
  8
Capa 1
 62
     7
420
 16777215
370
    35
100
AcDbSpline
210
0.0
220
0.0
230
1.0
 70
    11
 71
     3
 72
    23
 73
    19
 74
     0
 42
0.0000000001
 43
0.0000000001
 40
0.0
 40
0.0
 40
0.0
 40
0.0
 40
1.0
 40
1.0
 40
1.0
 40
2.0
 40
2.0
 40
2.0
 40
3.0
 40
3.0
 40
3.0
 40
4.0
 40
4.0
 40
4.0
 40
5.0
 40
5.0
 40
5.0
 40
6.0
 40
6.0
 40
6.0
 40
6.0
 10
335.1786796579588
 20
-2377.424565377866
 30
0.0
 10
335.1655882951148
 20
-2372.372677358296
 30
0.0
 10
335.7498764894132
 20
-2367.222948626944
 30
0.0
 10
332.34060999721
 20
-2357.739978794246
 30
0.0
 10
326.3037691784067
 20
-2343.659184526933
 30
0.0
 10
316.331940296351
 20
-2333.418293687479
 30
0.0
 10
302.1229884769866
 20
-2327.381108359127
 30
0.0
 10
297.5575479399336
 20
-2325.442897639125
 30
0.0
 10
292.8405232015295
 20
-2324.707714262573
 30
0.0
 10
287.959856427576
 20
-2324.589202977881
 30
0.0
 10
287.0500067099215
 20
-2324.4679356168
 30
0.0
 10
283.0953816024033
 20
-2324.326686701905
 30
0.0
 10
282.0346367024948
 20
-2324.326686701905
 30
0.0
 10
282.9675685599005
 20
-2346.260920637393
 30
0.0
 10
292.9459431233781
 20
-2362.519015251384
 30
0.0
 10
312.6332857833868
 20
-2372.4650059173
 30
0.0
 10
319.6557684205201
 20
-2376.009320152526
 30
0.0
 10
327.2301553543904
 20
-2377.73669102883
 30
0.0
 10
335.1786796579588
 20
-2377.424565377866
 30
0.0
  0
SPLINE
  5
4B
330
3C
100
AcDbEntity
  8
Capa 1
 62
     7
420
 16777215
370
    35
100
AcDbSpline
210
0.0
220
0.0
230
1.0
 70
    11
 71
     3
 72
    23
 73
    19
 74
     0
 42
0.0000000001
 43
0.0000000001
 40
0.0
 40
0.0
 40
0.0
 40
0.0
 40
1.0
 40
1.0
 40
1.0
 40
2.0
 40
2.0
 40
2.0
 40
3.0
 40
3.0
 40
3.0
 40
4.0
 40
4.0
 40
4.0
 40
5.0
 40
5.0
 40
5.0
 40
6.0
 40
6.0
 40
6.0
 40
6.0
 10
338.2561834549325
 20
-2268.009021785429
 30
0.0
 10
338.2692748177764
 20
-2273.060909804999
 30
0.0
 10
337.6880872094148
 20
-2278.211327555447
 30
0.0
 10
341.097353701618
 20
-2287.693608369049
 30
0.0
 10
347.1310939344846
 20
-2301.774402636362
 30
0.0
 10
357.1029228165403
 20
-2312.012537399427
 30
0.0
 10
371.3122191454532
 20
-2318.049722727779
 30
0.0
 10
375.8742145870211
 20
-2319.987244428684
 30
0.0
 10
380.5939954018133
 20
-2320.726561919818
 30
0.0
 10
385.4750066853153
 20
-2320.841628109026
 30
0.0
 10
386.3845118934212
 20
-2320.962895470107
 30
0.0
 10
390.339481510488
 20
-2321.107589480487
 30
0.0
 10
391.4033269963332
 20
-2321.107589480487
 30
0.0
 10
390.4707396484761
 20
-2299.169910449513
 30
0.0
 10
380.4858194035765
 20
-2282.914571911911
 30
0.0
 10
360.8012328199559
 20
-2272.968581245994
 30
0.0
 10
353.7821952783079
 20
-2269.421510934381
 30
0.0
 10
346.2050522680494
 20
-2267.69345103898
 30
0.0
 10
338.2561834549325
 20
-2268.009021785429
 30
0.0
  0
SPLINE
  5
4C
330
3C
100
AcDbEntity
  8
Capa 1
 62
     7
420
 16777215
370
    35
100
AcDbSpline
210
0.0
220
0.0
230
1.0
 70
    11
 71
     3
 72
    23
 73
    19
 74
     0
 42
0.0000000001
 43
0.0000000001
 40
0.0
 40
0.0
 40
0.0
 40
0.0
 40
1.0
 40
1.0
 40
1.0
 40
2.0
 40
2.0
 40
2.0
 40
3.0
 40
3.0
 40
3.0
 40
4.0
 40
4.0
 40
4.0
 40
5.0
 40
5.0
 40
5.0
 40
6.0
 40
6.0
 40
6.0
 40
6.0
 10
335.1786796579588
 20
-2268.009021785429
 30
0.0
 10
335.1655882951148
 20
-2273.060909804999
 30
0.0
 10
335.7498764894132
 20
-2278.211327555447
 30
0.0
 10
332.34060999721
 20
-2287.693608369049
 30
0.0
 10
326.3037691784067
 20
-2301.774402636362
 30
0.0
 10
316.331940296351
 20
-2312.012537399427
 30
0.0
 10
302.1229884769866
 20
-2318.049722727779
 30
0.0
 10
297.5575479399336
 20
-2319.987244428684
 30
0.0
 10
292.8405232015295
 20
-2320.726561919818
 30
0.0
 10
287.959856427576
 20
-2320.841628109026
 30
0.0
 10
287.0500067099215
 20
-2320.962895470107
 30
0.0
 10
283.0953816024033
 20
-2321.107589480487
 30
0.0
 10
282.0346367024948
 20
-2321.107589480487
 30
0.0
 10
282.9675685599005
 20
-2299.169910449513
 30
0.0
 10
292.9459431233781
 20
-2282.914571911911
 30
0.0
 10
312.6332857833868
 20
-2272.968581245994
 30
0.0
 10
319.6557684205201
 20
-2269.421510934381
 30
0.0
 10
327.2301553543904
 20
-2267.69345103898
 30
0.0
 10
335.1786796579588
 20
-2268.009021785429
 30
0.0
  0
SPLINE
  5
4D
330
3C
100
AcDbEntity
  8
Capa 1
 62
     7
420
 16777215
370
    35
100
AcDbSpline
210
0.0
220
0.0
230
1.0
 70
    11
 71
     3
 72
    23
 73
    19
 74
     0
 42
0.0000000001
 43
0.0000000001
 40
0.0
 40
0.0
 40
0.0
 40
0.0
 40
1.0
 40
1.0
 40
1.0
 40
2.0
 40
2.0
 40
2.0
 40
3.0
 40
3.0
 40
3.0
 40
4.0
 40
4.0
 40
4.0
 40
5.0
 40
5.0
 40
5.0
 40
6.0
 40
6.0
 40
6.0
 40
6.0
 10
448.8930133968914
 20
-2377.424565377866
 30
0.0
 10
448.8799220340474
 20
-2372.372677358296
 30
0.0
 10
449.461109642409
 20
-2367.222948626944
 30
0.0
 10
446.0518431502058
 20
-2357.739978794246
 30
0.0
 10
440.0181029173393
 20
-2343.659184526933
 30
0.0
 10
430.0462740352836
 20
-2333.418293687479
 30
0.0
 10
415.8373222159192
 20
-2327.381108359127
 30
0.0
 10
411.2749822648028
 20
-2325.442897639125
 30
0.0
 10
406.5552014500105
 20
-2324.707714262573
 30
0.0
 10
401.6741901665085
 20
-2324.589202977881
 30
0.0
 10
400.7643404488541
 20
-2324.4679356168
 30
0.0
 10
396.8100598508843
 20
-2324.326686701905
 30
0.0
 10
395.7455253459421
 20
-2324.326686701905
 30
0.0
 10
396.6784572033478
 20
-2346.260920637393
 30
0.0
 10
406.6637219577959
 20
-2362.519015251384
 30
0.0
 10
426.3479640318679
 20
-2372.4650059173
 30
0.0
 10
433.3670015735159
 20
-2376.009320152526
 30
0.0
 10
440.9475896792596
 20
-2377.73669102883
 30
0.0
 10
448.8930133968914
 20
-2377.424565377866
 30
0.0
  0
SPLINE
  5
4E
330
3C
100
AcDbEntity
  8
Capa 1
 62
     7
420
 16777215
370
    35
100
AcDbSpline
210
0.0
220
0.0
230
1.0
 70
    11
 71
     3
 72
    23
 73
    19
 74
     0
 42
0.0000000001
 43
0.0000000001
 40
0.0
 40
0.0
 40
0.0
 40
0.0
 40
1.0
 40
1.0
 40
1.0
 40
2.0
 40
2.0
 40
2.0
 40
3.0
 40
3.0
 40
3.0
 40
4.0
 40
4.0
 40
4.0
 40
5.0
 40
5.0
 40
5.0
 40
6.0
 40
6.0
 40
6.0
 40
6.0
 10
451.970517193865
 20
-2268.009021785429
 30
0.0
 10
451.983608556709
 20
-2273.060909804999
 30
0.0
 10
451.4024209483474
 20
-2278.211327555447
 30
0.0
 10
454.8116874405505
 20
-2287.693608369049
 30
0.0
 10
460.8454276734171
 20
-2301.774402636362
 30
0.0
 10
470.8172565554728
 20
-2312.012537399427
 30
0.0
 10
485.0265528843858
 20
-2318.049722727779
 30
0.0
 10
489.5919934214388
 20
-2319.987244428684
 30
0.0
 10
494.3083291407459
 20
-2320.726561919818
 30
0.0
 10
499.1893404242478
 20
-2320.841628109026
 30
0.0
 10
500.102290727839
 20
-2320.962895470107
 30
0.0
 10
504.0572603449058
 20
-2321.107589480487
 30
0.0
 10
505.1180052448143
 20
-2321.107589480487
 30
0.0
 10
504.1854178969571
 20
-2299.169910449513
 30
0.0
 10
494.2035982379942
 20
-2282.914571911911
 30
0.0
 10
474.5155665588885
 20
-2272.968581245994
 30
0.0
 10
467.4965290172404
 20
-2269.421510934381
 30
0.0
 10
459.919386006982
 20
-2267.69345103898
 30
0.0
 10
451.970517193865
 20
-2268.009021785429
 30
0.0
  0
SPLINE
  5
4F
330
3C
100
AcDbEntity
  8
Capa 1
 62
     7
420
 16777215
370
    35
100
AcDbSpline
210
0.0
220
0.0
230
1.0
 70
    11
 71
     3
 72
    23
 73
    19
 74
     0
 42
0.0000000001
 43
0.0000000001
 40
0.0
 40
0.0
 40
0.0
 40
0.0
 40
1.0
 40
1.0
 40
1.0
 40
2.0
 40
2.0
 40
2.0
 40
3.0
 40
3.0
 40
3.0
 40
4.0
 40
4.0
 40
4.0
 40
5.0
 40
5.0
 40
5.0
 40
6.0
 40
6.0
 40
6.0
 40
6.0
 10
448.8930133968914
 20
-2268.009021785429
 30
0.0
 10
448.8799220340474
 20
-2273.060909804999
 30
0.0
 10
449.461109642409
 20
-2278.211327555447
 30
0.0
 10
446.0518431502058
 20
-2287.693608369049
 30
0.0
 10
440.0181029173393
 20
-2301.774402636362
 30
0.0
 10
430.0462740352836
 20
-2312.012537399427
 30
0.0
 10
415.8373222159192
 20
-2318.049722727779
 30
0.0
 10
411.2749822648028
 20
-2319.987244428684
 30
0.0
 10
406.5552014500105
 20
-2320.726561919818
 30
0.0
 10
401.6741901665085
 20
-2320.841628109026
 30
0.0
 10
400.7643404488541
 20
-2320.962895470107
 30
0.0
 10
396.8100598508843
 20
-2321.107589480487
 30
0.0
 10
395.7455253459421
 20
-2321.107589480487
 30
0.0
 10
396.6784572033478
 20
-2299.169910449513
 30
0.0
 10
406.6637219577959
 20
-2282.914571911911
 30
0.0
 10
426.3479640318679
 20
-2272.968581245994
 30
0.0
 10
433.3670015735159
 20
-2269.421510934381
 30
0.0
 10
440.9475896792596
 20
-2267.69345103898
 30
0.0
 10
448.8930133968914
 20
-2268.009021785429
 30
0.0
  0
SPLINE
  5
50
330
3C
100
AcDbEntity
  8
Capa 1
 62
     7
420
 16777215
370
    35
100
AcDbSpline
210
0.0
220
0.0
230
1.0
 70
    11
 71
     3
 72
    23
 73
    19
 74
     0
 42
0.0000000001
 43
0.0000000001
 40
0.0
 40
0.0
 40
0.0
 40
0.0
 40
1.0
 40
1.0
 40
1.0
 40
2.0
 40
2.0
 40
2.0
 40
3.0
 40
3.0
 40
3.0
 40
4.0
 40
4.0
 40
4.0
 40
5.0
 40
5.0
 40
5.0
 40
6.0
 40
6.0
 40
6.0
 40
6.0
 10
109.9896687550547
 20
-2263.607567793473
 30
0.0
 10
110.0027601178986
 20
-2258.556368793
 30
0.0
 10
109.4181274140517
 20
-2253.405951042551
 30
0.0
 10
112.8277384158035
 20
-2243.926426305338
 30
0.0
 10
118.8645792346068
 20
-2229.84218694254
 30
0.0
 10
128.8364081166624
 20
-2219.607497274959
 30
0.0
 10
143.0453599360269
 20
-2213.567555870219
 30
0.0
 10
147.6108004730799
 20
-2211.629345150218
 30
0.0
 10
152.327825211484
 20
-2210.894161773665
 30
0.0
 10
157.2084919854375
 20
-2210.779095584458
 30
0.0
 10
158.1183417030919
 20
-2210.654383127892
 30
0.0
 10
162.0726223010617
 20
-2210.509689117512
 30
0.0
 10
163.1337117105187
 20
-2210.509689117512
 30
0.0
 10
162.200779853113
 20
-2232.447368148486
 30
0.0
 10
152.2224052896354
 20
-2248.705462762477
 30
0.0
 10
132.5350626296267
 20
-2258.648008332907
 30
0.0
 10
125.5125799924934
 20
-2262.195078644521
 30
0.0
 10
117.9381930586231
 20
-2263.923138539922
 30
0.0
 10
109.9896687550547
 20
-2263.607567793473
 30
0.0
  0
SPLINE
  5
51
330
3C
100
AcDbEntity
  8
Capa 1
 62
     7
420
 16777215
370
    35
100
AcDbSpline
210
0.0
220
0.0
230
1.0
 70
    11
 71
     3
 72
    23
 73
    19
 74
     0
 42
0.0000000001
 43
0.0000000001
 40
0.0
 40
0.0
 40
0.0
 40
0.0
 40
1.0
 40
1.0
 40
1.0
 40
2.0
 40
2.0
 40
2.0
 40
3.0
 40
3.0
 40
3.0
 40
4.0
 40
4.0
 40
4.0
 40
5.0
 40
5.0
 40
5.0
 40
6.0
 40
6.0
 40
6.0
 40
6.0
 10
106.912164958081
 20
-2263.607567793473
 30
0.0
 10
106.8987290856885
 20
-2258.556368793
 30
0.0
 10
107.4802612035987
 20
-2253.405951042551
 30
0.0
 10
104.0709947113955
 20
-2243.926426305338
 30
0.0
 10
98.03725447852888
 20
-2229.84218694254
 30
0.0
 10
88.06542559647323
 20
-2219.607497274959
 30
0.0
 10
73.85337319117208
 20
-2213.567555870219
 30
0.0
 10
69.29413382599245
 20
-2211.629345150218
 30
0.0
 10
64.57435301120016
 20
-2210.894161773665
 30
0.0
 10
59.6933417276982
 20
-2210.779095584458
 30
0.0
 10
58.78366426481798
 20
-2210.654383127892
 30
0.0
 10
54.82903915729969
 20
-2210.509689117512
 30
0.0
 10
53.76484916190601
 20
-2210.509689117512
 30
0.0
 10
54.69760876453741
 20
-2232.447368148486
 30
0.0
 10
64.67942842350028
 20
-2248.705462762477
 30
0.0
 10
84.36711559305753
 20
-2258.648008332907
 30
0.0
 10
91.38615313470555
 20
-2262.195078644521
 30
0.0
 10
98.96329614496405
 20
-2263.923138539922
 30
0.0
 10
106.912164958081
 20
-2263.607567793473
 30
0.0
  0
SPLINE
  5
52
330
3C
100
AcDbEntity
  8
Capa 1
 62
     7
420
 16777215
370
    35
100
AcDbSpline
210
0.0
220
0.0
230
1.0
 70
    11
 71
     3
 72
    23
 73
    19
 74
     0
 42
0.0000000001
 43
0.0000000001
 40
0.0
 40
0.0
 40
0.0
 40
0.0
 40
1.0
 40
1.0
 40
1.0
 40
2.0
 40
2.0
 40
2.0
 40
3.0
 40
3.0
 40
3.0
 40
4.0
 40
4.0
 40
4.0
 40
5.0
 40
5.0
 40
5.0
 40
6.0
 40
6.0
 40
6.0
 40
6.0
 10
109.9896687550547
 20
-2154.192713220133
 30
0.0
 10
110.0027601178986
 20
-2159.243912220606
 30
0.0
 10
109.4181274140517
 20
-2164.394329971055
 30
0.0
 10
112.8277384158035
 20
-2173.880055880141
 30
0.0
 10
118.8645792346068
 20
-2187.958094071066
 30
0.0
 10
128.8364081166624
 20
-2198.19898491052
 30
0.0
 10
143.0453599360269
 20
-2204.236170238872
 30
0.0
 10
147.6108004730799
 20
-2206.173691939776
 30
0.0
 10
152.327825211484
 20
-2206.909564335425
 30
0.0
 10
157.2084919854375
 20
-2207.028075620118
 30
0.0
 10
158.1183417030919
 20
-2207.149342981199
 30
0.0
 10
162.0726223010617
 20
-2207.290591896094
 30
0.0
 10
163.1337117105187
 20
-2207.290591896094
 30
0.0
 10
162.200779853113
 20
-2185.356357960605
 30
0.0
 10
152.2224052896354
 20
-2169.097574327518
 30
0.0
 10
132.5350626296267
 20
-2159.155717776183
 30
0.0
 10
125.5125799924934
 20
-2155.607958445473
 30
0.0
 10
117.9381930586231
 20
-2153.880587569169
 30
0.0
 10
109.9896687550547
 20
-2154.192713220133
 30
0.0
  0
SPLINE
  5
53
330
3C
100
AcDbEntity
  8
Capa 1
 62
     7
420
 16777215
370
    35
100
AcDbSpline
210
0.0
220
0.0
230
1.0
 70
    11
 71
     3
 72
    23
 73
    19
 74
     0
 42
0.0000000001
 43
0.0000000001
 40
0.0
 40
0.0
 40
0.0
 40
0.0
 40
1.0
 40
1.0
 40
1.0
 40
2.0
 40
2.0
 40
2.0
 40
3.0
 40
3.0
 40
3.0
 40
4.0
 40
4.0
 40
4.0
 40
5.0
 40
5.0
 40
5.0
 40
6.0
 40
6.0
 40
6.0
 40
6.0
 10
106.912164958081
 20
-2154.192713220133
 30
0.0
 10
106.8987290856885
 20
-2159.243912220606
 30
0.0
 10
107.4802612035987
 20
-2164.394329971055
 30
0.0
 10
104.0709947113955
 20
-2173.880055880141
 30
0.0
 10
98.03725447852888
 20
-2187.958094071066
 30
0.0
 10
88.06542559647323
 20
-2198.19898491052
 30
0.0
 10
73.85337319117208
 20
-2204.236170238872
 30
0.0
 10
69.29413382599245
 20
-2206.173691939776
 30
0.0
 10
64.57435301120016
 20
-2206.909564335425
 30
0.0
 10
59.6933417276982
 20
-2207.028075620118
 30
0.0
 10
58.78366426481798
 20
-2207.149342981199
 30
0.0
 10
54.82903915729969
 20
-2207.290591896094
 30
0.0
 10
53.76484916190601
 20
-2207.290591896094
 30
0.0
 10
54.69760876453741
 20
-2185.356357960605
 30
0.0
 10
64.67942842350028
 20
-2169.097574327518
 30
0.0
 10
84.36711559305753
 20
-2159.155717776183
 30
0.0
 10
91.38615313470555
 20
-2155.607958445473
 30
0.0
 10
98.96329614496405
 20
-2153.880587569169
 30
0.0
 10
106.912164958081
 20
-2154.192713220133
 30
0.0
  0
SPLINE
  5
54
330
3C
100
AcDbEntity
  8
Capa 1
 62
     7
420
 16777215
370
    35
100
AcDbSpline
210
0.0
220
0.0
230
1.0
 70
    11
 71
     3
 72
    23
 73
    19
 74
     0
 42
0.0000000001
 43
0.0000000001
 40
0.0
 40
0.0
 40
0.0
 40
0.0
 40
1.0
 40
1.0
 40
1.0
 40
2.0
 40
2.0
 40
2.0
 40
3.0
 40
3.0
 40
3.0
 40
4.0
 40
4.0
 40
4.0
 40
5.0
 40
5.0
 40
5.0
 40
6.0
 40
6.0
 40
6.0
 40
6.0
 10
223.7043470035357
 20
-2263.607567793473
 30
0.0
 10
223.7174383663797
 20
-2258.556368793
 30
0.0
 10
223.1359062484695
 20
-2253.405951042551
 30
0.0
 10
226.5451727406727
 20
-2243.926426305338
 30
0.0
 10
232.5789129735393
 20
-2229.84218694254
 30
0.0
 10
242.5510863651435
 20
-2219.607497274959
 30
0.0
 10
256.7600381845079
 20
-2213.567555870219
 30
0.0
 10
261.3220336260758
 20
-2211.629345150218
 30
0.0
 10
266.0418144408681
 20
-2210.894161773665
 30
0.0
 10
270.92282572437
 20
-2210.779095584458
 30
0.0
 10
271.8326754420245
 20
-2210.654383127892
 30
0.0
 10
275.7873005495427
 20
-2210.509689117512
 30
0.0
 10
276.8514905449364
 20
-2210.509689117512
 30
0.0
 10
275.9189031970793
 20
-2232.447368148486
 30
0.0
 10
265.9336384426312
 20
-2248.705462762477
 30
0.0
 10
246.2490518590107
 20
-2258.648008332907
 30
0.0
 10
239.2300143173626
 20
-2262.195078644521
 30
0.0
 10
231.6528713071042
 20
-2263.923138539922
 30
0.0
 10
223.7043470035357
 20
-2263.607567793473
 30
0.0
  0
SPLINE
  5
55
330
3C
100
AcDbEntity
  8
Capa 1
 62
     7
420
 16777215
370
    35
100
AcDbSpline
210
0.0
220
0.0
230
1.0
 70
    11
 71
     3
 72
    23
 73
    19
 74
     0
 42
0.0000000001
 43
0.0000000001
 40
0.0
 40
0.0
 40
0.0
 40
0.0
 40
1.0
 40
1.0
 40
1.0
 40
2.0
 40
2.0
 40
2.0
 40
3.0
 40
3.0
 40
3.0
 40
4.0
 40
4.0
 40
4.0
 40
5.0
 40
5.0
 40
5.0
 40
6.0
 40
6.0
 40
6.0
 40
6.0
 10
220.6264986970135
 20
-2263.607567793473
 30
0.0
 10
220.6134073341696
 20
-2258.556368793
 30
0.0
 10
221.1980400380165
 20
-2253.405951042551
 30
0.0
 10
217.7887735458132
 20
-2243.926426305338
 30
0.0
 10
211.7519327270099
 20
-2229.84218694254
 30
0.0
 10
201.7797593354058
 20
-2219.607497274959
 30
0.0
 10
187.5708075160413
 20
-2213.567555870219
 30
0.0
 10
183.0053669789883
 20
-2211.629345150218
 30
0.0
 10
178.2886867501327
 20
-2210.894161773665
 30
0.0
 10
173.4076754666307
 20
-2210.779095584458
 30
0.0
 10
172.4981702585248
 20
-2210.654383127892
 30
0.0
 10
168.543200641458
 20
-2210.509689117512
 30
0.0
 10
167.4824557415495
 20
-2210.509689117512
 30
0.0
 10
168.4150430894067
 20
-2232.447368148486
 30
0.0
 10
178.3937621624328
 20
-2248.705462762477
 30
0.0
 10
198.0814493319901
 20
-2258.648008332907
 30
0.0
 10
205.1035874595748
 20
-2262.195078644521
 30
0.0
 10
212.6779743934451
 20
-2263.923138539922
 30
0.0
 10
220.6264986970135
 20
-2263.607567793473
 30
0.0
  0
SPLINE
  5
56
330
3C
100
AcDbEntity
  8
Capa 1
 62
     7
420
 16777215
370
    35
100
AcDbSpline
210
0.0
220
0.0
230
1.0
 70
    11
 71
     3
 72
    23
 73
    19
 74
     0
 42
0.0000000001
 43
0.0000000001
 40
0.0
 40
0.0
 40
0.0
 40
0.0
 40
1.0
 40
1.0
 40
1.0
 40
2.0
 40
2.0
 40
2.0
 40
3.0
 40
3.0
 40
3.0
 40
4.0
 40
4.0
 40
4.0
 40
5.0
 40
5.0
 40
5.0
 40
6.0
 40
6.0
 40
6.0
 40
6.0
 10
223.7043470035357
 20
-2154.192713220133
 30
0.0
 10
223.7174383663797
 20
-2159.243912220606
 30
0.0
 10
223.1359062484695
 20
-2164.394329971055
 30
0.0
 10
226.5451727406727
 20
-2173.880055880141
 30
0.0
 10
232.5789129735393
 20
-2187.958094071066
 30
0.0
 10
242.5510863651435
 20
-2198.19898491052
 30
0.0
 10
256.7600381845079
 20
-2204.236170238872
 30
0.0
 10
261.3220336260758
 20
-2206.173691939776
 30
0.0
 10
266.0418144408681
 20
-2206.909564335425
 30
0.0
 10
270.92282572437
 20
-2207.028075620118
 30
0.0
 10
271.8326754420245
 20
-2207.149342981199
 30
0.0
 10
275.7873005495427
 20
-2207.290591896094
 30
0.0
 10
276.8514905449364
 20
-2207.290591896094
 30
0.0
 10
275.9189031970793
 20
-2185.356357960605
 30
0.0
 10
265.9336384426312
 20
-2169.097574327518
 30
0.0
 10
246.2490518590107
 20
-2159.155717776183
 30
0.0
 10
239.2300143173626
 20
-2155.607958445473
 30
0.0
 10
231.6528713071042
 20
-2153.880587569169
 30
0.0
 10
223.7043470035357
 20
-2154.192713220133
 30
0.0
  0
SPLINE
  5
57
330
3C
100
AcDbEntity
  8
Capa 1
 62
     7
420
 16777215
370
    35
100
AcDbSpline
210
0.0
220
0.0
230
1.0
 70
    11
 71
     3
 72
    23
 73
    19
 74
     0
 42
0.0000000001
 43
0.0000000001
 40
0.0
 40
0.0
 40
0.0
 40
0.0
 40
1.0
 40
1.0
 40
1.0
 40
2.0
 40
2.0
 40
2.0
 40
3.0
 40
3.0
 40
3.0
 40
4.0
 40
4.0
 40
4.0
 40
5.0
 40
5.0
 40
5.0
 40
6.0
 40
6.0
 40
6.0
 40
6.0
 10
220.6264986970135
 20
-2154.192713220133
 30
0.0
 10
220.6134073341696
 20
-2159.243912220606
 30
0.0
 10
221.1980400380165
 20
-2164.394329971055
 30
0.0
 10
217.7887735458132
 20
-2173.880055880141
 30
0.0
 10
211.7519327270099
 20
-2187.958094071066
 30
0.0
 10
201.7797593354058
 20
-2198.19898491052
 30
0.0
 10
187.5708075160413
 20
-2204.236170238872
 30
0.0
 10
183.0053669789883
 20
-2206.173691939776
 30
0.0
 10
178.2886867501327
 20
-2206.909564335425
 30
0.0
 10
173.4076754666307
 20
-2207.028075620118
 30
0.0
 10
172.4981702585248
 20
-2207.149342981199
 30
0.0
 10
168.543200641458
 20
-2207.290591896094
 30
0.0
 10
167.4824557415495
 20
-2207.290591896094
 30
0.0
 10
168.4150430894067
 20
-2185.356357960605
 30
0.0
 10
178.3937621624328
 20
-2169.097574327518
 30
0.0
 10
198.0814493319901
 20
-2159.155717776183
 30
0.0
 10
205.1035874595748
 20
-2155.607958445473
 30
0.0
 10
212.6779743934451
 20
-2153.880587569169
 30
0.0
 10
220.6264986970135
 20
-2154.192713220133
 30
0.0
  0
SPLINE
  5
58
330
3C
100
AcDbEntity
  8
Capa 1
 62
     7
420
 16777215
370
    35
100
AcDbSpline
210
0.0
220
0.0
230
1.0
 70
    11
 71
     3
 72
    23
 73
    19
 74
     0
 42
0.0000000001
 43
0.0000000001
 40
0.0
 40
0.0
 40
0.0
 40
0.0
 40
1.0
 40
1.0
 40
1.0
 40
2.0
 40
2.0
 40
2.0
 40
3.0
 40
3.0
 40
3.0
 40
4.0
 40
4.0
 40
4.0
 40
5.0
 40
5.0
 40
5.0
 40
6.0
 40
6.0
 40
6.0
 40
6.0
 10
337.4186807424683
 20
-2263.607567793473
 30
0.0
 10
337.4317721053122
 20
-2258.556368793
 30
0.0
 10
336.8471394014653
 20
-2253.405951042551
 30
0.0
 10
340.2564058936686
 20
-2243.926426305338
 30
0.0
 10
346.2935912220204
 20
-2229.84218694254
 30
0.0
 10
356.265420104076
 20
-2219.607497274959
 30
0.0
 10
370.4743719234405
 20
-2213.567555870219
 30
0.0
 10
375.0398124604935
 20
-2211.629345150218
 30
0.0
 10
379.7564926893491
 20
-2210.894161773665
 30
0.0
 10
384.6375039728511
 20
-2210.779095584458
 30
0.0
 10
385.547009180957
 20
-2210.654383127892
 30
0.0
 10
389.5050793839605
 20
-2210.509689117512
 30
0.0
 10
390.5627236979323
 20
-2210.509689117512
 30
0.0
 10
389.6297918405266
 20
-2232.447368148486
 30
0.0
 10
379.6514172770489
 20
-2248.705462762477
 30
0.0
 10
359.9637301074917
 20
-2258.648008332907
 30
0.0
 10
352.941591979907
 20
-2262.195078644521
 30
0.0
 10
345.3672050460367
 20
-2263.923138539922
 30
0.0
 10
337.4186807424683
 20
-2263.607567793473
 30
0.0
  0
SPLINE
  5
59
330
3C
100
AcDbEntity
  8
Capa 1
 62
     7
420
 16777215
370
    35
100
AcDbSpline
210
0.0
220
0.0
230
1.0
 70
    11
 71
     3
 72
    23
 73
    19
 74
     0
 42
0.0000000001
 43
0.0000000001
 40
0.0
 40
0.0
 40
0.0
 40
0.0
 40
1.0
 40
1.0
 40
1.0
 40
2.0
 40
2.0
 40
2.0
 40
3.0
 40
3.0
 40
3.0
 40
4.0
 40
4.0
 40
4.0
 40
5.0
 40
5.0
 40
5.0
 40
6.0
 40
6.0
 40
6.0
 40
6.0
 10
334.3408324359461
 20
-2263.607567793473
 30
0.0
 10
334.3277410731021
 20
-2258.556368793
 30
0.0
 10
334.9092731910123
 20
-2253.405951042551
 30
0.0
 10
331.500006698809
 20
-2243.926426305338
 30
0.0
 10
325.4662664659425
 20
-2229.84218694254
 30
0.0
 10
315.4940930743383
 20
-2219.607497274959
 30
0.0
 10
301.2851412549739
 20
-2213.567555870219
 30
0.0
 10
296.723145813406
 20
-2211.629345150218
 30
0.0
 10
292.0033649986137
 20
-2210.894161773665
 30
0.0
 10
287.1223537151118
 20
-2210.779095584458
 30
0.0
 10
286.2125039974573
 20
-2210.654383127892
 30
0.0
 10
282.257878889939
 20
-2210.509689117512
 30
0.0
 10
281.1936888945453
 20
-2210.509689117512
 30
0.0
 10
282.126620751951
 20
-2232.447368148486
 30
0.0
 10
292.1115409968506
 20
-2248.705462762477
 30
0.0
 10
311.7957830709226
 20
-2258.648008332907
 30
0.0
 10
318.8148206125706
 20
-2262.195078644521
 30
0.0
 10
326.3923081323777
 20
-2263.923138539922
 30
0.0
 10
334.3408324359461
 20
-2263.607567793473
 30
0.0
  0
SPLINE
  5
5A
330
3C
100
AcDbEntity
  8
Capa 1
 62
     7
420
 16777215
370
    35
100
AcDbSpline
210
0.0
220
0.0
230
1.0
 70
    11
 71
     3
 72
    23
 73
    19
 74
     0
 42
0.0000000001
 43
0.0000000001
 40
0.0
 40
0.0
 40
0.0
 40
0.0
 40
1.0
 40
1.0
 40
1.0
 40
2.0
 40
2.0
 40
2.0
 40
3.0
 40
3.0
 40
3.0
 40
4.0
 40
4.0
 40
4.0
 40
5.0
 40
5.0
 40
5.0
 40
6.0
 40
6.0
 40
6.0
 40
6.0
 10
337.4186807424683
 20
-2154.192713220133
 30
0.0
 10
337.4317721053122
 20
-2159.243912220606
 30
0.0
 10
336.8471394014653
 20
-2164.394329971055
 30
0.0
 10
340.2564058936686
 20
-2173.880055880141
 30
0.0
 10
346.2935912220204
 20
-2187.958094071066
 30
0.0
 10
356.265420104076
 20
-2198.19898491052
 30
0.0
 10
370.4743719234405
 20
-2204.236170238872
 30
0.0
 10
375.0398124604935
 20
-2206.173691939776
 30
0.0
 10
379.7564926893491
 20
-2206.909564335425
 30
0.0
 10
384.6375039728511
 20
-2207.028075620118
 30
0.0
 10
385.547009180957
 20
-2207.149342981199
 30
0.0
 10
389.5050793839605
 20
-2207.290591896094
 30
0.0
 10
390.5627236979323
 20
-2207.290591896094
 30
0.0
 10
389.6297918405266
 20
-2185.356357960605
 30
0.0
 10
379.6514172770489
 20
-2169.097574327518
 30
0.0
 10
359.9637301074917
 20
-2159.155717776183
 30
0.0
 10
352.941591979907
 20
-2155.607958445473
 30
0.0
 10
345.3672050460367
 20
-2153.880587569169
 30
0.0
 10
337.4186807424683
 20
-2154.192713220133
 30
0.0
  0
SPLINE
  5
5B
330
3C
100
AcDbEntity
  8
Capa 1
 62
     7
420
 16777215
370
    35
100
AcDbSpline
210
0.0
220
0.0
230
1.0
 70
    11
 71
     3
 72
    23
 73
    19
 74
     0
 42
0.0000000001
 43
0.0000000001
 40
0.0
 40
0.0
 40
0.0
 40
0.0
 40
1.0
 40
1.0
 40
1.0
 40
2.0
 40
2.0
 40
2.0
 40
3.0
 40
3.0
 40
3.0
 40
4.0
 40
4.0
 40
4.0
 40
5.0
 40
5.0
 40
5.0
 40
6.0
 40
6.0
 40
6.0
 40
6.0
 10
334.3408324359461
 20
-2154.192713220133
 30
0.0
 10
334.3277410731021
 20
-2159.243912220606
 30
0.0
 10
334.9092731910123
 20
-2164.394329971055
 30
0.0
 10
331.500006698809
 20
-2173.880055880141
 30
0.0
 10
325.4662664659425
 20
-2187.958094071066
 30
0.0
 10
315.4940930743383
 20
-2198.19898491052
 30
0.0
 10
301.2851412549739
 20
-2204.236170238872
 30
0.0
 10
296.723145813406
 20
-2206.173691939776
 30
0.0
 10
292.0033649986137
 20
-2206.909564335425
 30
0.0
 10
287.1223537151118
 20
-2207.028075620118
 30
0.0
 10
286.2125039974573
 20
-2207.149342981199
 30
0.0
 10
282.257878889939
 20
-2207.290591896094
 30
0.0
 10
281.1936888945453
 20
-2207.290591896094
 30
0.0
 10
282.126620751951
 20
-2185.356357960605
 30
0.0
 10
292.1115409968506
 20
-2169.097574327518
 30
0.0
 10
311.7957830709226
 20
-2159.155717776183
 30
0.0
 10
318.8148206125706
 20
-2155.607958445473
 30
0.0
 10
326.3923081323777
 20
-2153.880587569169
 30
0.0
 10
334.3408324359461
 20
-2154.192713220133
 30
0.0
  0
SPLINE
  5
5C
330
3C
100
AcDbEntity
  8
Capa 1
 62
     7
420
 16777215
370
    35
100
AcDbSpline
210
0.0
220
0.0
230
1.0
 70
    11
 71
     3
 72
    23
 73
    19
 74
     0
 42
0.0000000001
 43
0.0000000001
 40
0.0
 40
0.0
 40
0.0
 40
0.0
 40
1.0
 40
1.0
 40
1.0
 40
2.0
 40
2.0
 40
2.0
 40
3.0
 40
3.0
 40
3.0
 40
4.0
 40
4.0
 40
4.0
 40
5.0
 40
5.0
 40
5.0
 40
6.0
 40
6.0
 40
6.0
 40
6.0
 10
451.1330144814008
 20
-2263.607567793473
 30
0.0
 10
451.14955093973
 20
-2258.556368793
 30
0.0
 10
450.5645737263346
 20
-2253.405951042551
 30
0.0
 10
453.9741847280864
 20
-2243.926426305338
 30
0.0
 10
460.0079249609529
 20
-2229.84218694254
 30
0.0
 10
469.9797538430086
 20
-2219.607497274959
 30
0.0
 10
484.1921507578583
 20
-2213.567555870219
 30
0.0
 10
488.7541461994261
 20
-2211.629345150218
 30
0.0
 10
493.4742715237668
 20
-2210.894161773665
 30
0.0
 10
498.3549382977203
 20
-2210.779095584458
 30
0.0
 10
499.2616874294381
 20
-2210.654383127892
 30
0.0
 10
503.2163125369564
 20
-2210.509689117512
 30
0.0
 10
504.2805025323501
 20
-2210.509689117512
 30
0.0
 10
503.3475706749444
 20
-2232.447368148486
 30
0.0
 10
493.3657510159815
 20
-2248.705462762477
 30
0.0
 10
473.6784083559728
 20
-2258.648008332907
 30
0.0
 10
466.6590263047763
 20
-2262.195078644521
 30
0.0
 10
459.0815387849692
 20
-2263.923138539922
 30
0.0
 10
451.1330144814008
 20
-2263.607567793473
 30
0.0
  0
SPLINE
  5
5D
330
3C
100
AcDbEntity
  8
Capa 1
 62
     7
420
 16777215
370
    35
100
AcDbSpline
210
0.0
220
0.0
230
1.0
 70
    11
 71
     3
 72
    23
 73
    19
 74
     0
 42
0.0000000001
 43
0.0000000001
 40
0.0
 40
0.0
 40
0.0
 40
0.0
 40
1.0
 40
1.0
 40
1.0
 40
2.0
 40
2.0
 40
2.0
 40
3.0
 40
3.0
 40
3.0
 40
4.0
 40
4.0
 40
4.0
 40
5.0
 40
5.0
 40
5.0
 40
6.0
 40
6.0
 40
6.0
 40
6.0
 10
448.0551661748786
 20
-2263.607567793473
 30
0.0
 10
448.0420748120346
 20
-2258.556368793
 30
0.0
 10
448.6270520254301
 20
-2253.405951042551
 30
0.0
 10
445.2174410236783
 20
-2243.926426305338
 30
0.0
 10
439.180600204875
 20
-2229.84218694254
 30
0.0
 10
429.2087713228194
 20
-2219.607497274959
 30
0.0
 10
414.9998195034549
 20
-2213.567555870219
 30
0.0
 10
410.4340344568533
 20
-2211.629345150218
 30
0.0
 10
405.7176987375463
 20
-2210.894161773665
 30
0.0
 10
400.8366874540443
 20
-2210.779095584458
 30
0.0
 10
399.9268377363898
 20
-2210.654383127892
 30
0.0
 10
395.9722126288715
 20
-2210.509689117512
 30
0.0
 10
394.9114677289631
 20
-2210.509689117512
 30
0.0
 10
395.8440550768203
 20
-2232.447368148486
 30
0.0
 10
405.8227741498464
 20
-2248.705462762477
 30
0.0
 10
425.5104613194036
 20
-2258.648008332907
 30
0.0
 10
432.5325994469884
 20
-2262.195078644521
 30
0.0
 10
440.1066418713102
 20
-2263.923138539922
 30
0.0
 10
448.0551661748786
 20
-2263.607567793473
 30
0.0
  0
SPLINE
  5
5E
330
3C
100
AcDbEntity
  8
Capa 1
 62
     7
420
 16777215
370
    35
100
AcDbSpline
210
0.0
220
0.0
230
1.0
 70
    11
 71
     3
 72
    23
 73
    19
 74
     0
 42
0.0000000001
 43
0.0000000001
 40
0.0
 40
0.0
 40
0.0
 40
0.0
 40
1.0
 40
1.0
 40
1.0
 40
2.0
 40
2.0
 40
2.0
 40
3.0
 40
3.0
 40
3.0
 40
4.0
 40
4.0
 40
4.0
 40
5.0
 40
5.0
 40
5.0
 40
6.0
 40
6.0
 40
6.0
 40
6.0
 10
451.1330144814008
 20
-2154.192713220133
 30
0.0
 10
451.14955093973
 20
-2159.243912220606
 30
0.0
 10
450.5645737263346
 20
-2164.394329971055
 30
0.0
 10
453.9741847280864
 20
-2173.880055880141
 30
0.0
 10
460.0079249609529
 20
-2187.958094071066
 30
0.0
 10
469.9797538430086
 20
-2198.19898491052
 30
0.0
 10
484.1921507578583
 20
-2204.236170238872
 30
0.0
 10
488.7541461994261
 20
-2206.173691939776
 30
0.0
 10
493.4742715237668
 20
-2206.909564335425
 30
0.0
 10
498.3549382977203
 20
-2207.028075620118
 30
0.0
 10
499.2616874294381
 20
-2207.149342981199
 30
0.0
 10
503.2163125369564
 20
-2207.290591896094
 30
0.0
 10
504.2805025323501
 20
-2207.290591896094
 30
0.0
 10
503.3475706749444
 20
-2185.356357960605
 30
0.0
 10
493.3657510159815
 20
-2169.097574327518
 30
0.0
 10
473.6784083559728
 20
-2159.155717776183
 30
0.0
 10
466.6590263047763
 20
-2155.607958445473
 30
0.0
 10
459.0815387849692
 20
-2153.880587569169
 30
0.0
 10
451.1330144814008
 20
-2154.192713220133
 30
0.0
  0
SPLINE
  5
5F
330
3C
100
AcDbEntity
  8
Capa 1
 62
     7
420
 16777215
370
    35
100
AcDbSpline
210
0.0
220
0.0
230
1.0
 70
    11
 71
     3
 72
    23
 73
    19
 74
     0
 42
0.0000000001
 43
0.0000000001
 40
0.0
 40
0.0
 40
0.0
 40
0.0
 40
1.0
 40
1.0
 40
1.0
 40
2.0
 40
2.0
 40
2.0
 40
3.0
 40
3.0
 40
3.0
 40
4.0
 40
4.0
 40
4.0
 40
5.0
 40
5.0
 40
5.0
 40
6.0
 40
6.0
 40
6.0
 40
6.0
 10
448.0551661748786
 20
-2154.192713220133
 30
0.0
 10
448.0420748120346
 20
-2159.243912220606
 30
0.0
 10
448.6270520254301
 20
-2164.394329971055
 30
0.0
 10
445.2174410236783
 20
-2173.880055880141
 30
0.0
 10
439.180600204875
 20
-2187.958094071066
 30
0.0
 10
429.2087713228194
 20
-2198.19898491052
 30
0.0
 10
414.9998195034549
 20
-2204.236170238872
 30
0.0
 10
410.4340344568533
 20
-2206.173691939776
 30
0.0
 10
405.7176987375463
 20
-2206.909564335425
 30
0.0
 10
400.8366874540443
 20
-2207.028075620118
 30
0.0
 10
399.9268377363898
 20
-2207.149342981199
 30
0.0
 10
395.9722126288715
 20
-2207.290591896094
 30
0.0
 10
394.9114677289631
 20
-2207.290591896094
 30
0.0
 10
395.8440550768203
 20
-2185.356357960605
 30
0.0
 10
405.8227741498464
 20
-2169.097574327518
 30
0.0
 10
425.5104613194036
 20
-2159.155717776183
 30
0.0
 10
432.5325994469884
 20
-2155.607958445473
 30
0.0
 10
440.1066418713102
 20
-2153.880587569169
 30
0.0
 10
448.0551661748786
 20
-2154.192713220133
 30
0.0
  0
SPLINE
  5
60
330
3C
100
AcDbEntity
  8
Capa 1
 62
     7
420
 16777215
370
    35
100
AcDbSpline
210
0.0
220
0.0
230
1.0
 70
    11
 71
     3
 72
    23
 73
    19
 74
     0
 42
0.0000000001
 43
0.0000000001
 40
0.0
 40
0.0
 40
0.0
 40
0.0
 40
1.0
 40
1.0
 40
1.0
 40
2.0
 40
2.0
 40
2.0
 40
3.0
 40
3.0
 40
3.0
 40
4.0
 40
4.0
 40
4.0
 40
5.0
 40
5.0
 40
5.0
 40
6.0
 40
6.0
 40
6.0
 40
6.0
 10
109.1521660425904
 20
-2149.794704323663
 30
0.0
 10
109.1652574054344
 20
-2144.746261399578
 30
0.0
 10
108.5840697970727
 20
-2139.589642477255
 30
0.0
 10
111.993336289276
 20
-2130.110117740042
 30
0.0
 10
118.0270765221425
 20
-2116.02897896318
 30
0.0
 10
127.9989054041982
 20
-2105.791188709663
 30
0.0
 10
142.2078572235626
 20
-2099.754003381312
 30
0.0
 10
146.770197174679
 20
-2097.816137170858
 30
0.0
 10
151.4899779894713
 20
-2097.080609284758
 30
0.0
 10
156.3709892729732
 20
-2096.962098000065
 30
0.0
 10
157.2808389906277
 20
-2096.837385543499
 30
0.0
 10
161.235464098146
 20
-2096.692691533119
 30
0.0
 10
162.2993095839911
 20
-2096.692691533119
 30
0.0
 10
161.3663777265855
 20
-2118.633815659578
 30
0.0
 10
151.3818019912344
 20
-2134.892254783117
 30
0.0
 10
131.6972154076139
 20
-2144.831699767612
 30
0.0
 10
124.6781778659659
 20
-2148.378770079225
 30
0.0
 10
117.1006903461589
 20
-2150.106829974626
 30
0.0
 10
109.1521660425904
 20
-2149.794704323663
 30
0.0
  0
SPLINE
  5
61
330
3C
100
AcDbEntity
  8
Capa 1
 62
     7
420
 16777215
370
    35
100
AcDbSpline
210
0.0
220
0.0
230
1.0
 70
    11
 71
     3
 72
    23
 73
    19
 74
     0
 42
0.0000000001
 43
0.0000000001
 40
0.0
 40
0.0
 40
0.0
 40
0.0
 40
1.0
 40
1.0
 40
1.0
 40
2.0
 40
2.0
 40
2.0
 40
3.0
 40
3.0
 40
3.0
 40
4.0
 40
4.0
 40
4.0
 40
5.0
 40
5.0
 40
5.0
 40
6.0
 40
6.0
 40
6.0
 40
6.0
 10
106.0746622456168
 20
-2149.794704323663
 30
0.0
 10
106.0615708827728
 20
-2144.746261399578
 30
0.0
 10
106.6458590770712
 20
-2139.589642477255
 30
0.0
 10
103.2365925848679
 20
-2130.110117740042
 30
0.0
 10
97.19940725651612
 20
-2116.02897896318
 30
0.0
 10
87.22792288400899
 20
-2105.791188709663
 30
0.0
 10
73.01897106464456
 20
-2099.754003381312
 30
0.0
 10
68.45353052759148
 20
-2097.816137170858
 30
0.0
 10
63.7365057891874
 20
-2097.080609284758
 30
0.0
 10
58.85583901523396
 20
-2096.962098000065
 30
0.0
 10
57.94598929757948
 20
-2096.837385543499
 30
0.0
 10
53.99136419006119
 20
-2096.692691533119
 30
0.0
 10
52.9304470353785
 20
-2096.692691533119
 30
0.0
 10
53.86010605207317
 20
-2118.633815659578
 30
0.0
 10
63.84192571103605
 20
-2134.892254783117
 30
0.0
 10
83.52926837104476
 20
-2144.831699767612
 30
0.0
 10
90.55175100817804
 20
-2148.378770079225
 30
0.0
 10
98.1257934324998
 20
-2150.106829974626
 30
0.0
 10
106.0746622456168
 20
-2149.794704323663
 30
0.0
  0
SPLINE
  5
62
330
3C
100
AcDbEntity
  8
Capa 1
 62
     7
420
 16777215
370
    35
100
AcDbSpline
210
0.0
220
0.0
230
1.0
 70
    11
 71
     3
 72
    23
 73
    19
 74
     0
 42
0.0000000001
 43
0.0000000001
 40
0.0
 40
0.0
 40
0.0
 40
0.0
 40
1.0
 40
1.0
 40
1.0
 40
2.0
 40
2.0
 40
2.0
 40
3.0
 40
3.0
 40
3.0
 40
4.0
 40
4.0
 40
4.0
 40
5.0
 40
5.0
 40
5.0
 40
6.0
 40
6.0
 40
6.0
 40
6.0
 10
109.1521660425904
 20
-2040.379160731225
 30
0.0
 10
109.1652574054344
 20
-2045.42760365531
 30
0.0
 10
108.5840697970727
 20
-2050.584222577632
 30
0.0
 10
111.993336289276
 20
-2060.063402805297
 30
0.0
 10
118.0270765221425
 20
-2074.144541582159
 30
0.0
 10
127.9989054041982
 20
-2084.382331835675
 30
0.0
 10
142.2078572235626
 20
-2090.419172654479
 30
0.0
 10
146.770197174679
 20
-2092.35738337448
 30
0.0
 10
151.4899779894713
 20
-2093.092911260581
 30
0.0
 10
156.3709892729732
 20
-2093.211078035725
 30
0.0
 10
157.2808389906277
 20
-2093.336135001839
 30
0.0
 10
161.235464098146
 20
-2093.480484502672
 30
0.0
 10
162.2993095839911
 20
-2093.480484502672
 30
0.0
 10
161.3663777265855
 20
-2071.539704885761
 30
0.0
 10
151.3818019912344
 20
-2055.281265762222
 30
0.0
 10
131.6972154076139
 20
-2045.342165287276
 30
0.0
 10
124.6781778659659
 20
-2041.794750466114
 30
0.0
 10
117.1006903461589
 20
-2040.067035080261
 30
0.0
 10
109.1521660425904
 20
-2040.379160731225
 30
0.0
  0
SPLINE
  5
63
330
3C
100
AcDbEntity
  8
Capa 1
 62
     7
420
 16777215
370
    35
100
AcDbSpline
210
0.0
220
0.0
230
1.0
 70
    11
 71
     3
 72
    23
 73
    19
 74
     0
 42
0.0000000001
 43
0.0000000001
 40
0.0
 40
0.0
 40
0.0
 40
0.0
 40
1.0
 40
1.0
 40
1.0
 40
2.0
 40
2.0
 40
2.0
 40
3.0
 40
3.0
 40
3.0
 40
4.0
 40
4.0
 40
4.0
 40
5.0
 40
5.0
 40
5.0
 40
6.0
 40
6.0
 40
6.0
 40
6.0
 10
106.0746622456168
 20
-2040.379160731225
 30
0.0
 10
106.0615708827728
 20
-2045.42760365531
 30
0.0
 10
106.6458590770712
 20
-2050.584222577632
 30
0.0
 10
103.2365925848679
 20
-2060.063402805297
 30
0.0
 10
97.19940725651612
 20
-2074.144541582159
 30
0.0
 10
87.22792288400899
 20
-2084.382331835675
 30
0.0
 10
73.01897106464456
 20
-2090.419172654479
 30
0.0
 10
68.45353052759148
 20
-2092.35738337448
 30
0.0
 10
63.7365057891874
 20
-2093.092911260581
 30
0.0
 10
58.85583901523396
 20
-2093.211078035725
 30
0.0
 10
57.94598929757948
 20
-2093.336135001839
 30
0.0
 10
53.99136419006119
 20
-2093.480484502672
 30
0.0
 10
52.9304470353785
 20
-2093.480484502672
 30
0.0
 10
53.86010605207317
 20
-2071.539704885761
 30
0.0
 10
63.84192571103605
 20
-2055.281265762222
 30
0.0
 10
83.52926837104476
 20
-2045.342165287276
 30
0.0
 10
90.55175100817804
 20
-2041.794750466114
 30
0.0
 10
98.1257934324998
 20
-2040.067035080261
 30
0.0
 10
106.0746622456168
 20
-2040.379160731225
 30
0.0
  0
SPLINE
  5
64
330
3C
100
AcDbEntity
  8
Capa 1
 62
     7
420
 16777215
370
    35
100
AcDbSpline
210
0.0
220
0.0
230
1.0
 70
    11
 71
     3
 72
    23
 73
    19
 74
     0
 42
0.0000000001
 43
0.0000000001
 40
0.0
 40
0.0
 40
0.0
 40
0.0
 40
1.0
 40
1.0
 40
1.0
 40
2.0
 40
2.0
 40
2.0
 40
3.0
 40
3.0
 40
3.0
 40
4.0
 40
4.0
 40
4.0
 40
5.0
 40
5.0
 40
5.0
 40
6.0
 40
6.0
 40
6.0
 40
6.0
 10
222.866499781523
 20
-2149.794704323663
 30
0.0
 10
222.8795911443669
 20
-2144.746261399578
 30
0.0
 10
222.2953029500685
 20
-2139.589642477255
 30
0.0
 10
225.7045694422718
 20
-2130.110117740042
 30
0.0
 10
231.7417547706236
 20
-2116.02897896318
 30
0.0
 10
241.7132391431307
 20
-2105.791188709663
 30
0.0
 10
255.9221909624952
 20
-2099.754003381312
 30
0.0
 10
260.4876314995482
 20
-2097.816137170858
 30
0.0
 10
265.2046562379523
 20
-2097.080609284758
 30
0.0
 10
270.0853230119058
 20
-2096.962098000065
 30
0.0
 10
270.9951727295602
 20
-2096.837385543499
 30
0.0
 10
274.9497978370786
 20
-2096.692691533119
 30
0.0
 10
276.010542736987
 20
-2096.692691533119
 30
0.0
 10
275.0810559750665
 20
-2118.633815659578
 30
0.0
 10
265.0992363161037
 20
-2134.892254783117
 30
0.0
 10
245.4118936560949
 20
-2144.831699767612
 30
0.0
 10
238.3928561144469
 20
-2148.378770079225
 30
0.0
 10
230.8153685946399
 20
-2150.106829974626
 30
0.0
 10
222.866499781523
 20
-2149.794704323663
 30
0.0
  0
SPLINE
  5
65
330
3C
100
AcDbEntity
  8
Capa 1
 62
     7
420
 16777215
370
    35
100
AcDbSpline
210
0.0
220
0.0
230
1.0
 70
    11
 71
     3
 72
    23
 73
    19
 74
     0
 42
0.0000000001
 43
0.0000000001
 40
0.0
 40
0.0
 40
0.0
 40
0.0
 40
1.0
 40
1.0
 40
1.0
 40
2.0
 40
2.0
 40
2.0
 40
3.0
 40
3.0
 40
3.0
 40
4.0
 40
4.0
 40
4.0
 40
5.0
 40
5.0
 40
5.0
 40
6.0
 40
6.0
 40
6.0
 40
6.0
 10
219.7889959845493
 20
-2149.794704323663
 30
0.0
 10
219.7759046217053
 20
-2144.746261399578
 30
0.0
 10
220.357092230067
 20
-2139.589642477255
 30
0.0
 10
216.9478257378638
 20
-2130.110117740042
 30
0.0
 10
210.9140855049972
 20
-2116.02897896318
 30
0.0
 10
200.9422566229415
 20
-2105.791188709663
 30
0.0
 10
186.7333048035771
 20
-2099.754003381312
 30
0.0
 10
182.1709648524607
 20
-2097.816137170858
 30
0.0
 10
177.4511840376685
 20
-2097.080609284758
 30
0.0
 10
172.5701727541665
 20
-2096.962098000065
 30
0.0
 10
171.660323036512
 20
-2096.837385543499
 30
0.0
 10
167.7060424385423
 20
-2096.692691533119
 30
0.0
 10
166.6415079336001
 20
-2096.692691533119
 30
0.0
 10
167.5744397910057
 20
-2118.633815659578
 30
0.0
 10
177.5597045454538
 20
-2134.892254783117
 30
0.0
 10
197.2439466195258
 20
-2144.831699767612
 30
0.0
 10
204.2629841611738
 20
-2148.378770079225
 30
0.0
 10
211.8404716809809
 20
-2150.106829974626
 30
0.0
 10
219.7889959845493
 20
-2149.794704323663
 30
0.0
  0
SPLINE
  5
66
330
3C
100
AcDbEntity
  8
Capa 1
 62
     7
420
 16777215
370
    35
100
AcDbSpline
210
0.0
220
0.0
230
1.0
 70
    11
 71
     3
 72
    23
 73
    19
 74
     0
 42
0.0000000001
 43
0.0000000001
 40
0.0
 40
0.0
 40
0.0
 40
0.0
 40
1.0
 40
1.0
 40
1.0
 40
2.0
 40
2.0
 40
2.0
 40
3.0
 40
3.0
 40
3.0
 40
4.0
 40
4.0
 40
4.0
 40
5.0
 40
5.0
 40
5.0
 40
6.0
 40
6.0
 40
6.0
 40
6.0
 10
222.866499781523
 20
-2040.379160731225
 30
0.0
 10
222.8795911443669
 20
-2045.42760365531
 30
0.0
 10
222.2953029500685
 20
-2050.584222577632
 30
0.0
 10
225.7045694422718
 20
-2060.063402805297
 30
0.0
 10
231.7417547706236
 20
-2074.144541582159
 30
0.0
 10
241.7132391431307
 20
-2084.382331835675
 30
0.0
 10
255.9221909624952
 20
-2090.419172654479
 30
0.0
 10
260.4876314995482
 20
-2092.35738337448
 30
0.0
 10
265.2046562379523
 20
-2093.092911260581
 30
0.0
 10
270.0853230119058
 20
-2093.211078035725
 30
0.0
 10
270.9951727295602
 20
-2093.336135001839
 30
0.0
 10
274.9497978370786
 20
-2093.480484502672
 30
0.0
 10
276.010542736987
 20
-2093.480484502672
 30
0.0
 10
275.0810559750665
 20
-2071.539704885761
 30
0.0
 10
265.0992363161037
 20
-2055.281265762222
 30
0.0
 10
245.4118936560949
 20
-2045.342165287276
 30
0.0
 10
238.3928561144469
 20
-2041.794750466114
 30
0.0
 10
230.8153685946399
 20
-2040.067035080261
 30
0.0
 10
222.866499781523
 20
-2040.379160731225
 30
0.0
  0
SPLINE
  5
67
330
3C
100
AcDbEntity
  8
Capa 1
 62
     7
420
 16777215
370
    35
100
AcDbSpline
210
0.0
220
0.0
230
1.0
 70
    11
 71
     3
 72
    23
 73
    19
 74
     0
 42
0.0000000001
 43
0.0000000001
 40
0.0
 40
0.0
 40
0.0
 40
0.0
 40
1.0
 40
1.0
 40
1.0
 40
2.0
 40
2.0
 40
2.0
 40
3.0
 40
3.0
 40
3.0
 40
4.0
 40
4.0
 40
4.0
 40
5.0
 40
5.0
 40
5.0
 40
6.0
 40
6.0
 40
6.0
 40
6.0
 10
219.7889959845493
 20
-2040.379160731225
 30
0.0
 10
219.7759046217053
 20
-2045.42760365531
 30
0.0
 10
220.357092230067
 20
-2050.584222577632
 30
0.0
 10
216.9478257378638
 20
-2060.063402805297
 30
0.0
 10
210.9140855049972
 20
-2074.144541582159
 30
0.0
 10
200.9422566229415
 20
-2084.382331835675
 30
0.0
 10
186.7333048035771
 20
-2090.419172654479
 30
0.0
 10
182.1709648524607
 20
-2092.35738337448
 30
0.0
 10
177.4511840376685
 20
-2093.092911260581
 30
0.0
 10
172.5701727541665
 20
-2093.211078035725
 30
0.0
 10
171.660323036512
 20
-2093.336135001839
 30
0.0
 10
167.7060424385423
 20
-2093.480484502672
 30
0.0
 10
166.6415079336001
 20
-2093.480484502672
 30
0.0
 10
167.5744397910057
 20
-2071.539704885761
 30
0.0
 10
177.5597045454538
 20
-2055.281265762222
 30
0.0
 10
197.2439466195258
 20
-2045.342165287276
 30
0.0
 10
204.2629841611738
 20
-2041.794750466114
 30
0.0
 10
211.8404716809809
 20
-2040.067035080261
 30
0.0
 10
219.7889959845493
 20
-2040.379160731225
 30
0.0
  0
SPLINE
  5
68
330
3C
100
AcDbEntity
  8
Capa 1
 62
     7
420
 16777215
370
    35
100
AcDbSpline
210
0.0
220
0.0
230
1.0
 70
    11
 71
     3
 72
    23
 73
    19
 74
     0
 42
0.0000000001
 43
0.0000000001
 40
0.0
 40
0.0
 40
0.0
 40
0.0
 40
1.0
 40
1.0
 40
1.0
 40
2.0
 40
2.0
 40
2.0
 40
3.0
 40
3.0
 40
3.0
 40
4.0
 40
4.0
 40
4.0
 40
5.0
 40
5.0
 40
5.0
 40
6.0
 40
6.0
 40
6.0
 40
6.0
 10
336.5808335204555
 20
-2149.794704323663
 30
0.0
 10
336.594269392848
 20
-2144.746261399578
 30
0.0
 10
336.0127372749378
 20
-2139.589642477255
 30
0.0
 10
339.4223482766895
 20
-2130.110117740042
 30
0.0
 10
345.4560885095561
 20
-2116.02897896318
 30
0.0
 10
355.4279173916118
 20
-2105.791188709663
 30
0.0
 10
369.639969796913
 20
-2099.754003381312
 30
0.0
 10
374.2023097480293
 20
-2097.816137170858
 30
0.0
 10
378.9189899768849
 20
-2097.080609284758
 30
0.0
 10
383.8000012603868
 20
-2096.962098000065
 30
0.0
 10
384.7095064684928
 20
-2096.837385543499
 30
0.0
 10
388.6641315760111
 20
-2096.692691533119
 30
0.0
 10
389.7283215714048
 20
-2096.692691533119
 30
0.0
 10
388.7953897139991
 20
-2118.633815659578
 30
0.0
 10
378.8139145645847
 20
-2134.892254783117
 30
0.0
 10
359.1262273950275
 20
-2144.831699767612
 30
0.0
 10
352.1071898533795
 20
-2148.378770079225
 30
0.0
 10
344.5297023335725
 20
-2150.106829974626
 30
0.0
 10
336.5808335204555
 20
-2149.794704323663
 30
0.0
  0
SPLINE
  5
69
330
3C
100
AcDbEntity
  8
Capa 1
 62
     7
420
 16777215
370
    35
100
AcDbSpline
210
0.0
220
0.0
230
1.0
 70
    11
 71
     3
 72
    23
 73
    19
 74
     0
 42
0.0000000001
 43
0.0000000001
 40
0.0
 40
0.0
 40
0.0
 40
0.0
 40
1.0
 40
1.0
 40
1.0
 40
2.0
 40
2.0
 40
2.0
 40
3.0
 40
3.0
 40
3.0
 40
4.0
 40
4.0
 40
4.0
 40
5.0
 40
5.0
 40
5.0
 40
6.0
 40
6.0
 40
6.0
 40
6.0
 10
333.5036742330303
 20
-2149.794704323663
 30
0.0
 10
333.4902383606379
 20
-2144.746261399578
 30
0.0
 10
334.0748710644848
 20
-2139.589642477255
 30
0.0
 10
330.6656045722816
 20
-2130.110117740042
 30
0.0
 10
324.6284192439297
 20
-2116.02897896318
 30
0.0
 10
314.6565903618741
 20
-2105.791188709663
 30
0.0
 10
300.4476385425097
 20
-2099.754003381312
 30
0.0
 10
295.8821980054565
 20
-2097.816137170858
 30
0.0
 10
291.165517776601
 20
-2097.080609284758
 30
0.0
 10
286.2848510026475
 20
-2096.962098000065
 30
0.0
 10
285.3750012849931
 20
-2096.837385543499
 30
0.0
 10
281.4203761774748
 20
-2096.692691533119
 30
0.0
 10
280.3596312775663
 20
-2096.692691533119
 30
0.0
 10
281.2922186254235
 20
-2118.633815659578
 30
0.0
 10
291.2709376984496
 20
-2134.892254783117
 30
0.0
 10
310.9582803584584
 20
-2144.831699767612
 30
0.0
 10
317.9807629955916
 20
-2148.378770079225
 30
0.0
 10
325.5548054199134
 20
-2150.106829974626
 30
0.0
 10
333.5036742330303
 20
-2149.794704323663
 30
0.0
  0
SPLINE
  5
6A
330
3C
100
AcDbEntity
  8
Capa 1
 62
     7
420
 16777215
370
    35
100
AcDbSpline
210
0.0
220
0.0
230
1.0
 70
    11
 71
     3
 72
    23
 73
    19
 74
     0
 42
0.0000000001
 43
0.0000000001
 40
0.0
 40
0.0
 40
0.0
 40
0.0
 40
1.0
 40
1.0
 40
1.0
 40
2.0
 40
2.0
 40
2.0
 40
3.0
 40
3.0
 40
3.0
 40
4.0
 40
4.0
 40
4.0
 40
5.0
 40
5.0
 40
5.0
 40
6.0
 40
6.0
 40
6.0
 40
6.0
 10
336.5808335204555
 20
-2040.379160731225
 30
0.0
 10
336.594269392848
 20
-2045.42760365531
 30
0.0
 10
336.0127372749378
 20
-2050.584222577632
 30
0.0
 10
339.4223482766895
 20
-2060.063402805297
 30
0.0
 10
345.4560885095561
 20
-2074.144541582159
 30
0.0
 10
355.4279173916118
 20
-2084.382331835675
 30
0.0
 10
369.639969796913
 20
-2090.419172654479
 30
0.0
 10
374.2023097480293
 20
-2092.35738337448
 30
0.0
 10
378.9189899768849
 20
-2093.092911260581
 30
0.0
 10
383.8000012603868
 20
-2093.211078035725
 30
0.0
 10
384.7095064684928
 20
-2093.336135001839
 30
0.0
 10
388.6641315760111
 20
-2093.480484502672
 30
0.0
 10
389.7283215714048
 20
-2093.480484502672
 30
0.0
 10
388.7953897139991
 20
-2071.539704885761
 30
0.0
 10
378.8139145645847
 20
-2055.281265762222
 30
0.0
 10
359.1262273950275
 20
-2045.342165287276
 30
0.0
 10
352.1071898533795
 20
-2041.794750466114
 30
0.0
 10
344.5297023335725
 20
-2040.067035080261
 30
0.0
 10
336.5808335204555
 20
-2040.379160731225
 30
0.0
  0
SPLINE
  5
6B
330
3C
100
AcDbEntity
  8
Capa 1
 62
     7
420
 16777215
370
    35
100
AcDbSpline
210
0.0
220
0.0
230
1.0
 70
    11
 71
     3
 72
    23
 73
    19
 74
     0
 42
0.0000000001
 43
0.0000000001
 40
0.0
 40
0.0
 40
0.0
 40
0.0
 40
1.0
 40
1.0
 40
1.0
 40
2.0
 40
2.0
 40
2.0
 40
3.0
 40
3.0
 40
3.0
 40
4.0
 40
4.0
 40
4.0
 40
5.0
 40
5.0
 40
5.0
 40
6.0
 40
6.0
 40
6.0
 40
6.0
 10
333.5036742330303
 20
-2040.379160731225
 30
0.0
 10
333.4902383606379
 20
-2045.42760365531
 30
0.0
 10
334.0748710644848
 20
-2050.584222577632
 30
0.0
 10
330.6656045722816
 20
-2060.063402805297
 30
0.0
 10
324.6284192439297
 20
-2074.144541582159
 30
0.0
 10
314.6565903618741
 20
-2084.382331835675
 30
0.0
 10
300.4476385425097
 20
-2090.419172654479
 30
0.0
 10
295.8821980054565
 20
-2092.35738337448
 30
0.0
 10
291.165517776601
 20
-2093.092911260581
 30
0.0
 10
286.2848510026475
 20
-2093.211078035725
 30
0.0
 10
285.3750012849931
 20
-2093.336135001839
 30
0.0
 10
281.4203761774748
 20
-2093.480484502672
 30
0.0
 10
280.3596312775663
 20
-2093.480484502672
 30
0.0
 10
281.2922186254235
 20
-2071.539704885761
 30
0.0
 10
291.2709376984496
 20
-2055.281265762222
 30
0.0
 10
310.9582803584584
 20
-2045.342165287276
 30
0.0
 10
317.9807629955916
 20
-2041.794750466114
 30
0.0
 10
325.5548054199134
 20
-2040.067035080261
 30
0.0
 10
333.5036742330303
 20
-2040.379160731225
 30
0.0
  0
SPLINE
  5
6C
330
3C
100
AcDbEntity
  8
Capa 1
 62
     7
420
 16777215
370
    35
100
AcDbSpline
210
0.0
220
0.0
230
1.0
 70
    11
 71
     3
 72
    23
 73
    19
 74
     0
 42
0.0000000001
 43
0.0000000001
 40
0.0
 40
0.0
 40
0.0
 40
0.0
 40
1.0
 40
1.0
 40
1.0
 40
2.0
 40
2.0
 40
2.0
 40
3.0
 40
3.0
 40
3.0
 40
4.0
 40
4.0
 40
4.0
 40
5.0
 40
5.0
 40
5.0
 40
6.0
 40
6.0
 40
6.0
 40
6.0
 10
450.2955117689365
 20
-2149.794704323663
 30
0.0
 10
450.3086031317805
 20
-2144.746261399578
 30
0.0
 10
449.7274155234189
 20
-2139.589642477255
 30
0.0
 10
453.1366820156221
 20
-2130.110117740042
 30
0.0
 10
459.1704222484886
 20
-2116.02897896318
 30
0.0
 10
469.1422511305443
 20
-2105.791188709663
 30
0.0
 10
483.3512029499087
 20
-2099.754003381312
 30
0.0
 10
487.9169879965104
 20
-2097.816137170858
 30
0.0
 10
492.6333237158174
 20
-2097.080609284758
 30
0.0
 10
497.5143349993194
 20
-2096.962098000065
 30
0.0
 10
498.4272853029105
 20
-2096.837385543499
 30
0.0
 10
502.3819104104289
 20
-2096.692691533119
 30
0.0
 10
503.4426553103373
 20
-2096.692691533119
 30
0.0
 10
502.5100679624802
 20
-2118.633815659578
 30
0.0
 10
492.5282483035173
 20
-2134.892254783117
 30
0.0
 10
472.84056113396
 20
-2144.831699767612
 30
0.0
 10
465.821523592312
 20
-2148.378770079225
 30
0.0
 10
458.244036072505
 20
-2150.106829974626
 30
0.0
 10
450.2955117689365
 20
-2149.794704323663
 30
0.0
  0
SPLINE
  5
6D
330
3C
100
AcDbEntity
  8
Capa 1
 62
     7
420
 16777215
370
    35
100
AcDbSpline
210
0.0
220
0.0
230
1.0
 70
    11
 71
     3
 72
    23
 73
    19
 74
     0
 42
0.0000000001
 43
0.0000000001
 40
0.0
 40
0.0
 40
0.0
 40
0.0
 40
1.0
 40
1.0
 40
1.0
 40
2.0
 40
2.0
 40
2.0
 40
3.0
 40
3.0
 40
3.0
 40
4.0
 40
4.0
 40
4.0
 40
5.0
 40
5.0
 40
5.0
 40
6.0
 40
6.0
 40
6.0
 40
6.0
 10
447.2180079719629
 20
-2149.794704323663
 30
0.0
 10
447.2045720995704
 20
-2144.746261399578
 30
0.0
 10
447.7861042174806
 20
-2139.589642477255
 30
0.0
 10
444.3764932157288
 20
-2130.110117740042
 30
0.0
 10
438.3430974924108
 20
-2116.02897896318
 30
0.0
 10
428.3712686103551
 20
-2105.791188709663
 30
0.0
 10
414.1623167909907
 20
-2099.754003381312
 30
0.0
 10
409.5999768398743
 20
-2097.816137170858
 30
0.0
 10
404.8798515155335
 20
-2097.080609284758
 30
0.0
 10
399.9991847415801
 20
-2096.962098000065
 30
0.0
 10
399.0893350239256
 20
-2096.837385543499
 30
0.0
 10
395.1347099164073
 20
-2096.692691533119
 30
0.0
 10
394.0705199210136
 20
-2096.692691533119
 30
0.0
 10
395.0034517784193
 20
-2118.633815659578
 30
0.0
 10
404.9883720233189
 20
-2134.892254783117
 30
0.0
 10
424.6726140973909
 20
-2144.831699767612
 30
0.0
 10
431.6916516390389
 20
-2148.378770079225
 30
0.0
 10
439.2722397447827
 20
-2150.106829974626
 30
0.0
 10
447.2180079719629
 20
-2149.794704323663
 30
0.0
  0
SPLINE
  5
6E
330
3C
100
AcDbEntity
  8
Capa 1
 62
     7
420
 16777215
370
    35
100
AcDbSpline
210
0.0
220
0.0
230
1.0
 70
    11
 71
     3
 72
    23
 73
    19
 74
     0
 42
0.0000000001
 43
0.0000000001
 40
0.0
 40
0.0
 40
0.0
 40
0.0
 40
1.0
 40
1.0
 40
1.0
 40
2.0
 40
2.0
 40
2.0
 40
3.0
 40
3.0
 40
3.0
 40
4.0
 40
4.0
 40
4.0
 40
5.0
 40
5.0
 40
5.0
 40
6.0
 40
6.0
 40
6.0
 40
6.0
 10
450.2955117689365
 20
-2040.379160731225
 30
0.0
 10
450.3086031317805
 20
-2045.42760365531
 30
0.0
 10
449.7274155234189
 20
-2050.584222577632
 30
0.0
 10
453.1366820156221
 20
-2060.063402805297
 30
0.0
 10
459.1704222484886
 20
-2074.144541582159
 30
0.0
 10
469.1422511305443
 20
-2084.382331835675
 30
0.0
 10
483.3512029499087
 20
-2090.419172654479
 30
0.0
 10
487.9169879965104
 20
-2092.35738337448
 30
0.0
 10
492.6333237158174
 20
-2093.092911260581
 30
0.0
 10
497.5143349993194
 20
-2093.211078035725
 30
0.0
 10
498.4272853029105
 20
-2093.336135001839
 30
0.0
 10
502.3819104104289
 20
-2093.480484502672
 30
0.0
 10
503.4426553103373
 20
-2093.480484502672
 30
0.0
 10
502.5100679624802
 20
-2071.539704885761
 30
0.0
 10
492.5282483035173
 20
-2055.281265762222
 30
0.0
 10
472.84056113396
 20
-2045.342165287276
 30
0.0
 10
465.821523592312
 20
-2041.794750466114
 30
0.0
 10
458.244036072505
 20
-2040.067035080261
 30
0.0
 10
450.2955117689365
 20
-2040.379160731225
 30
0.0
  0
SPLINE
  5
6F
330
3C
100
AcDbEntity
  8
Capa 1
 62
     7
420
 16777215
370
    35
100
AcDbSpline
210
0.0
220
0.0
230
1.0
 70
    11
 71
     3
 72
    23
 73
    19
 74
     0
 42
0.0000000001
 43
0.0000000001
 40
0.0
 40
0.0
 40
0.0
 40
0.0
 40
1.0
 40
1.0
 40
1.0
 40
2.0
 40
2.0
 40
2.0
 40
3.0
 40
3.0
 40
3.0
 40
4.0
 40
4.0
 40
4.0
 40
5.0
 40
5.0
 40
5.0
 40
6.0
 40
6.0
 40
6.0
 40
6.0
 10
447.2180079719629
 20
-2040.379160731225
 30
0.0
 10
447.2045720995704
 20
-2045.42760365531
 30
0.0
 10
447.7861042174806
 20
-2050.584222577632
 30
0.0
 10
444.3764932157288
 20
-2060.063402805297
 30
0.0
 10
438.3430974924108
 20
-2074.144541582159
 30
0.0
 10
428.3712686103551
 20
-2084.382331835675
 30
0.0
 10
414.1623167909907
 20
-2090.419172654479
 30
0.0
 10
409.5999768398743
 20
-2092.35738337448
 30
0.0
 10
404.8798515155335
 20
-2093.092911260581
 30
0.0
 10
399.9991847415801
 20
-2093.211078035725
 30
0.0
 10
399.0893350239256
 20
-2093.336135001839
 30
0.0
 10
395.1347099164073
 20
-2093.480484502672
 30
0.0
 10
394.0705199210136
 20
-2093.480484502672
 30
0.0
 10
395.0034517784193
 20
-2071.539704885761
 30
0.0
 10
404.9883720233189
 20
-2055.281265762222
 30
0.0
 10
424.6726140973909
 20
-2045.342165287276
 30
0.0
 10
431.6916516390389
 20
-2041.794750466114
 30
0.0
 10
439.2722397447827
 20
-2040.067035080261
 30
0.0
 10
447.2180079719629
 20
-2040.379160731225
 30
0.0
  0
SPLINE
  5
70
330
3C
100
AcDbEntity
  8
Capa 1
 62
     7
420
 16777215
370
    35
100
AcDbSpline
210
0.0
220
0.0
230
1.0
 70
    11
 71
     3
 72
    23
 73
    19
 74
     0
 42
0.0000000001
 43
0.0000000001
 40
0.0
 40
0.0
 40
0.0
 40
0.0
 40
1.0
 40
1.0
 40
1.0
 40
2.0
 40
2.0
 40
2.0
 40
3.0
 40
3.0
 40
3.0
 40
4.0
 40
4.0
 40
4.0
 40
5.0
 40
5.0
 40
5.0
 40
6.0
 40
6.0
 40
6.0
 40
6.0
 10
108.3146633301262
 20
-2035.981151834755
 30
0.0
 10
108.3277546929701
 20
-2030.929263815184
 30
0.0
 10
107.7431219891233
 20
-2025.779190574284
 30
0.0
 10
111.1523884813265
 20
-2016.293464665197
 30
0.0
 10
117.1892293001298
 20
-2002.215770983821
 30
0.0
 10
127.161402691734
 20
-1991.974535634819
 30
0.0
 10
141.3703545110984
 20
-1985.937694816016
 30
0.0
 10
145.9357950481515
 20
-1983.999484096014
 30
0.0
 10
150.652475277007
 20
-1983.263956209913
 30
0.0
 10
155.533486560509
 20
-1983.145789434769
 30
0.0
 10
156.4433362781635
 20
-1983.02417756414
 30
0.0
 10
160.3976168761332
 20
-1982.882928649245
 30
0.0
 10
161.4587062855902
 20
-1982.882928649245
 30
0.0
 10
160.5292195236698
 20
-2004.817162584733
 30
0.0
 10
150.5473998647069
 20
-2021.075601708273
 30
0.0
 10
130.8597126951497
 20
-2031.018147278704
 30
0.0
 10
123.8406751535016
 20
-2034.565217590317
 30
0.0
 10
116.2631876336946
 20
-2036.293277485718
 30
0.0
 10
108.3146633301262
 20
-2035.981151834755
 30
0.0
  0
SPLINE
  5
71
330
3C
100
AcDbEntity
  8
Capa 1
 62
     7
420
 16777215
370
    35
100
AcDbSpline
210
0.0
220
0.0
230
1.0
 70
    11
 71
     3
 72
    23
 73
    19
 74
     0
 42
0.0000000001
 43
0.0000000001
 40
0.0
 40
0.0
 40
0.0
 40
0.0
 40
1.0
 40
1.0
 40
1.0
 40
2.0
 40
2.0
 40
2.0
 40
3.0
 40
3.0
 40
3.0
 40
4.0
 40
4.0
 40
4.0
 40
5.0
 40
5.0
 40
5.0
 40
6.0
 40
6.0
 40
6.0
 40
6.0
 10
105.236815023604
 20
-2035.981151834755
 30
0.0
 10
105.22372366076
 20
-2030.929263815184
 30
0.0
 10
105.8052557786702
 20
-2025.779190574284
 30
0.0
 10
102.395989286467
 20
-2016.293464665197
 30
0.0
 10
96.36224905360041
 20
-2002.215770983821
 30
0.0
 10
86.39007566199624
 20
-1991.974535634819
 30
0.0
 10
72.1811238426318
 20
-1985.937694816016
 30
0.0
 10
67.61912840106397
 20
-1983.999484096014
 30
0.0
 10
62.89934758627169
 20
-1983.263956209913
 30
0.0
 10
58.01833630276973
 20
-1983.145789434769
 30
0.0
 10
57.10848658511524
 20
-1983.02417756414
 30
0.0
 10
53.15386147759695
 20
-1982.882928649245
 30
0.0
 10
52.08967148220328
 20
-1982.882928649245
 30
0.0
 10
53.02243108483467
 20
-2004.817162584733
 30
0.0
 10
63.00752358450854
 20
-2021.075601708273
 30
0.0
 10
82.69211016812906
 20
-2031.018147278704
 30
0.0
 10
89.71114770977708
 20
-2034.565217590317
 30
0.0
 10
97.28829072003558
 20
-2036.293277485718
 30
0.0
 10
105.236815023604
 20
-2035.981151834755
 30
0.0
  0
SPLINE
  5
72
330
3C
100
AcDbEntity
  8
Capa 1
 62
     7
420
 16777215
370
    35
100
AcDbSpline
210
0.0
220
0.0
230
1.0
 70
    11
 71
     3
 72
    23
 73
    19
 74
     0
 42
0.0000000001
 43
0.0000000001
 40
0.0
 40
0.0
 40
0.0
 40
0.0
 40
1.0
 40
1.0
 40
1.0
 40
2.0
 40
2.0
 40
2.0
 40
3.0
 40
3.0
 40
3.0
 40
4.0
 40
4.0
 40
4.0
 40
5.0
 40
5.0
 40
5.0
 40
6.0
 40
6.0
 40
6.0
 40
6.0
 10
222.0293415786072
 20
-2035.981151834755
 30
0.0
 10
222.0455335273879
 20
-2030.929263815184
 30
0.0
 10
221.460900823541
 20
-2025.779190574284
 30
0.0
 10
224.8701673157443
 20
-2016.293464665197
 30
0.0
 10
230.9039075486108
 20
-2002.215770983821
 30
0.0
 10
240.8757364306665
 20
-1991.974535634819
 30
0.0
 10
255.0881333455162
 20
-1985.937694816016
 30
0.0
 10
259.6504732966325
 20
-1983.999484096014
 30
0.0
 10
264.3702541114248
 20
-1983.263956209913
 30
0.0
 10
269.2478202994415
 20
-1983.145789434769
 30
0.0
 10
270.157670017096
 20
-1983.02417756414
 30
0.0
 10
274.1122951246143
 20
-1982.882928649245
 30
0.0
 10
275.176485120008
 20
-1982.882928649245
 30
0.0
 10
274.2435532626023
 20
-2004.817162584733
 30
0.0
 10
264.2617336036394
 20
-2021.075601708273
 30
0.0
 10
244.5740464340822
 20
-2031.018147278704
 30
0.0
 10
237.5550088924342
 20
-2034.565217590317
 30
0.0
 10
229.9778658821757
 20
-2036.293277485718
 30
0.0
 10
222.0293415786072
 20
-2035.981151834755
 30
0.0
  0
SPLINE
  5
73
330
3C
100
AcDbEntity
  8
Capa 1
 62
     7
420
 16777215
370
    35
100
AcDbSpline
210
0.0
220
0.0
230
1.0
 70
    11
 71
     3
 72
    23
 73
    19
 74
     0
 42
0.0000000001
 43
0.0000000001
 40
0.0
 40
0.0
 40
0.0
 40
0.0
 40
1.0
 40
1.0
 40
1.0
 40
2.0
 40
2.0
 40
2.0
 40
3.0
 40
3.0
 40
3.0
 40
4.0
 40
4.0
 40
4.0
 40
5.0
 40
5.0
 40
5.0
 40
6.0
 40
6.0
 40
6.0
 40
6.0
 10
218.9514932720851
 20
-2035.981151834755
 30
0.0
 10
218.9384019092411
 20
-2030.929263815184
 30
0.0
 10
219.523034613088
 20
-2025.779190574284
 30
0.0
 10
216.1134236113362
 20
-2016.293464665197
 30
0.0
 10
210.0765827925329
 20
-2002.215770983821
 30
0.0
 10
200.1047539104773
 20
-1991.974535634819
 30
0.0
 10
185.8954575815643
 20
-1985.937694816016
 30
0.0
 10
181.3300170445113
 20
-1983.999484096014
 30
0.0
 10
176.6136813252042
 20
-1983.263956209913
 30
0.0
 10
171.7326700417022
 20
-1983.145789434769
 30
0.0
 10
170.8228203240478
 20
-1983.02417756414
 30
0.0
 10
166.8681952165295
 20
-1982.882928649245
 30
0.0
 10
165.8071058070725
 20
-1982.882928649245
 30
0.0
 10
166.7400376644782
 20
-2004.817162584733
 30
0.0
 10
176.7184122279558
 20
-2021.075601708273
 30
0.0
 10
196.4060993975131
 20
-2031.018147278704
 30
0.0
 10
203.4285820346463
 20
-2034.565217590317
 30
0.0
 10
211.0029689685166
 20
-2036.293277485718
 30
0.0
 10
218.9514932720851
 20
-2035.981151834755
 30
0.0
  0
SPLINE
  5
74
330
3C
100
AcDbEntity
  8
Capa 1
 62
     7
420
 16777215
370
    35
100
AcDbSpline
210
0.0
220
0.0
230
1.0
 70
    11
 71
     3
 72
    23
 73
    19
 74
     0
 42
0.0000000001
 43
0.0000000001
 40
0.0
 40
0.0
 40
0.0
 40
0.0
 40
1.0
 40
1.0
 40
1.0
 40
2.0
 40
2.0
 40
2.0
 40
3.0
 40
3.0
 40
3.0
 40
4.0
 40
4.0
 40
4.0
 40
5.0
 40
5.0
 40
5.0
 40
6.0
 40
6.0
 40
6.0
 40
6.0
 10
335.7436753175398
 20
-2035.981151834755
 30
0.0
 10
335.7567666803837
 20
-2030.929263815184
 30
0.0
 10
335.1752345624736
 20
-2025.779190574284
 30
0.0
 10
338.5814004687401
 20
-2016.293464665197
 30
0.0
 10
344.6182412875434
 20
-2002.215770983821
 30
0.0
 10
354.5904146791476
 20
-1991.974535634819
 30
0.0
 10
368.799366498512
 20
-1985.937694816016
 30
0.0
 10
373.3648070355651
 20
-1983.999484096014
 30
0.0
 10
378.0814872644206
 20
-1983.263956209913
 30
0.0
 10
382.9621540383741
 20
-1983.145789434769
 30
0.0
 10
383.8754488515138
 20
-1983.02417756414
 30
0.0
 10
387.8300739590321
 20
-1982.882928649245
 30
0.0
 10
388.8908188589405
 20
-1982.882928649245
 30
0.0
 10
387.9547864155981
 20
-2004.817162584733
 30
0.0
 10
377.9764118521205
 20
-2021.075601708273
 30
0.0
 10
358.2887246825633
 20
-2031.018147278704
 30
0.0
 10
351.26624204543
 20
-2034.565217590317
 30
0.0
 10
343.6921996211082
 20
-2036.293277485718
 30
0.0
 10
335.7436753175398
 20
-2035.981151834755
 30
0.0
  0
SPLINE
  5
75
330
3C
100
AcDbEntity
  8
Capa 1
 62
     7
420
 16777215
370
    35
100
AcDbSpline
210
0.0
220
0.0
230
1.0
 70
    11
 71
     3
 72
    23
 73
    19
 74
     0
 42
0.0000000001
 43
0.0000000001
 40
0.0
 40
0.0
 40
0.0
 40
0.0
 40
1.0
 40
1.0
 40
1.0
 40
2.0
 40
2.0
 40
2.0
 40
3.0
 40
3.0
 40
3.0
 40
4.0
 40
4.0
 40
4.0
 40
5.0
 40
5.0
 40
5.0
 40
6.0
 40
6.0
 40
6.0
 40
6.0
 10
332.6658270110176
 20
-2035.981151834755
 30
0.0
 10
332.6527356481736
 20
-2030.929263815184
 30
0.0
 10
333.2342677660838
 20
-2025.779190574284
 30
0.0
 10
329.824656764332
 20
-2016.293464665197
 30
0.0
 10
323.7909165314655
 20
-2002.215770983821
 30
0.0
 10
313.8190876494098
 20
-1991.974535634819
 30
0.0
 10
299.6101358300454
 20
-1985.937694816016
 30
0.0
 10
295.0481403884776
 20
-1983.999484096014
 30
0.0
 10
290.3280150641368
 20
-1983.263956209913
 30
0.0
 10
285.4473482901833
 20
-1983.145789434769
 30
0.0
 10
284.5371540629803
 20
-1983.02417756414
 30
0.0
 10
280.5828734650106
 20
-1982.882928649245
 30
0.0
 10
279.5186834696169
 20
-1982.882928649245
 30
0.0
 10
280.451270817474
 20
-2004.817162584733
 30
0.0
 10
290.4365355719221
 20
-2021.075601708273
 30
0.0
 10
310.1204331364456
 20
-2031.018147278704
 30
0.0
 10
317.1398151876422
 20
-2034.565217590317
 30
0.0
 10
324.7173027074492
 20
-2036.293277485718
 30
0.0
 10
332.6658270110176
 20
-2035.981151834755
 30
0.0
  0
SPLINE
  5
76
330
3C
100
AcDbEntity
  8
Capa 1
 62
     7
420
 16777215
370
    35
100
AcDbSpline
210
0.0
220
0.0
230
1.0
 70
    11
 71
     3
 72
    23
 73
    19
 74
     0
 42
0.0000000001
 43
0.0000000001
 40
0.0
 40
0.0
 40
0.0
 40
0.0
 40
1.0
 40
1.0
 40
1.0
 40
2.0
 40
2.0
 40
2.0
 40
3.0
 40
3.0
 40
3.0
 40
4.0
 40
4.0
 40
4.0
 40
5.0
 40
5.0
 40
5.0
 40
6.0
 40
6.0
 40
6.0
 40
6.0
 10
449.4580090564723
 20
-2035.981151834755
 30
0.0
 10
449.474201005253
 20
-2030.929263815184
 30
0.0
 10
448.8895683014061
 20
-2025.779190574284
 30
0.0
 10
452.2988347936093
 20
-2016.293464665197
 30
0.0
 10
458.3325750264759
 20
-2002.215770983821
 30
0.0
 10
468.3047484180801
 20
-1991.974535634819
 30
0.0
 10
482.5171453329298
 20
-1985.937694816016
 30
0.0
 10
487.0756956790124
 20
-1983.999484096014
 30
0.0
 10
491.7989215892899
 20
-1983.263956209913
 30
0.0
 10
496.6764877773066
 20
-1983.145789434769
 30
0.0
 10
497.5866820045096
 20
-1983.02417756414
 30
0.0
 10
501.5409626024793
 20
-1982.882928649245
 30
0.0
 10
502.6054971074216
 20
-1982.882928649245
 30
0.0
 10
501.6725652500159
 20
-2004.817162584733
 30
0.0
 10
491.690745591053
 20
-2021.075601708273
 30
0.0
 10
472.0030584214958
 20
-2031.018147278704
 30
0.0
 10
464.9840208798478
 20
-2034.565217590317
 30
0.0
 10
457.4065333600407
 20
-2036.293277485718
 30
0.0
 10
449.4580090564723
 20
-2035.981151834755
 30
0.0
  0
SPLINE
  5
77
330
3C
100
AcDbEntity
  8
Capa 1
 62
     7
420
 16777215
370
    35
100
AcDbSpline
210
0.0
220
0.0
230
1.0
 70
    11
 71
     3
 72
    23
 73
    19
 74
     0
 42
0.0000000001
 43
0.0000000001
 40
0.0
 40
0.0
 40
0.0
 40
0.0
 40
1.0
 40
1.0
 40
1.0
 40
2.0
 40
2.0
 40
2.0
 40
3.0
 40
3.0
 40
3.0
 40
4.0
 40
4.0
 40
4.0
 40
5.0
 40
5.0
 40
5.0
 40
6.0
 40
6.0
 40
6.0
 40
6.0
 10
446.3801607499501
 20
-2035.981151834755
 30
0.0
 10
446.3670693871061
 20
-2030.929263815184
 30
0.0
 10
446.9517020909531
 20
-2025.779190574284
 30
0.0
 10
443.5424355987498
 20
-2016.293464665197
 30
0.0
 10
437.5055947799465
 20
-2002.215770983821
 30
0.0
 10
427.5334213883423
 20
-1991.974535634819
 30
0.0
 10
413.3244695689779
 20
-1985.937694816016
 30
0.0
 10
408.7590290319249
 20
-1983.999484096014
 30
0.0
 10
404.0423488030693
 20
-1983.263956209913
 30
0.0
 10
399.1616820291159
 20
-1983.145789434769
 30
0.0
 10
398.2518323114614
 20
-1983.02417756414
 30
0.0
 10
394.2972072039431
 20
-1982.882928649245
 30
0.0
 10
393.2361177944861
 20
-1982.882928649245
 30
0.0
 10
394.1690496518918
 20
-2004.817162584733
 30
0.0
 10
404.1474242153694
 20
-2021.075601708273
 30
0.0
 10
423.8351113849267
 20
-2031.018147278704
 30
0.0
 10
430.8575940220599
 20
-2034.565217590317
 30
0.0
 10
438.4316364463817
 20
-2036.293277485718
 30
0.0
 10
446.3801607499501
 20
-2035.981151834755
 30
0.0
  0
ENDBLK
  5
3F
330
3C
100
AcDbEntity
  8
0
100
AcDbBlockEnd
  0
BLOCK
  5
B8
330
B6
100
AcDbEntity
  8
0
100
AcDbBlockBegin
  2
block 3
 70
     0
 71
     0
 10
0.0
 20
0.0
 30
0.0
  3
block 3
  1

  0
POLYLINE
  5
BA
330
B6
100
AcDbEntity
  8
Capa 1
 62
   250
420
  1842203
370
    35
100
AcDb2dPolyline
 66
     1
 10
0.0
 20
0.0
 30
0.0
  0
VERTEX
  5
BB
330
BA
100
AcDbEntity
  8
Capa 1
 62
   250
420
  1842203
370
    35
100
AcDbVertex
100
AcDb2dVertex
 10
161.1860269779327
 20
-2972.580657894008
 30
0.0
  0
VERTEX
  5
BC
330
BA
100
AcDbEntity
  8
Capa 1
 62
   250
420
  1842203
370
    35
100
AcDbVertex
100
AcDb2dVertex
 10
161.1860269779327
 20
-2948.580744705563
 30
0.0
  0
VERTEX
  5
BD
330
BA
100
AcDbEntity
  8
Capa 1
 62
   250
420
  1842203
370
    35
100
AcDbVertex
100
AcDb2dVertex
 10
234.0553086437431
 20
-2948.580744705563
 30
0.0
  0
VERTEX
  5
BE
330
BA
100
AcDbEntity
  8
Capa 1
 62
   250
420
  1842203
370
    35
100
AcDbVertex
100
AcDb2dVertex
 10
234.0553086437431
 20
-2972.580657894008
 30
0.0
  0
VERTEX
  5
BF
330
BA
100
AcDbEntity
  8
Capa 1
 62
   250
420
  1842203
370
    35
100
AcDbVertex
100
AcDb2dVertex
 10
161.1860269779327
 20
-2972.580657894008
 30
0.0
  0
SEQEND
  5
C0
330
BA
100
AcDbEntity
  8
Capa 1
370
    35
  0
POLYLINE
  5
C1
330
B6
100
AcDbEntity
  8
Capa 1
 62
   250
420
  1842203
370
    35
100
AcDb2dPolyline
 66
     1
 10
0.0
 20
0.0
 30
0.0
  0
VERTEX
  5
C2
330
C1
100
AcDbEntity
  8
Capa 1
 62
   250
420
  1842203
370
    35
100
AcDbVertex
100
AcDb2dVertex
 10
37.79373100183629
 20
-2972.580657894008
 30
0.0
  0
VERTEX
  5
C3
330
C1
100
AcDbEntity
  8
Capa 1
 62
   250
420
  1842203
370
    35
100
AcDbVertex
100
AcDb2dVertex
 10
37.79373100183629
 20
-2948.580744705563
 30
0.0
  0
VERTEX
  5
C4
330
C1
100
AcDbEntity
  8
Capa 1
 62
   250
420
  1842203
370
    35
100
AcDbVertex
100
AcDb2dVertex
 10
110.663184922421
 20
-2948.580744705563
 30
0.0
  0
VERTEX
  5
C5
330
C1
100
AcDbEntity
  8
Capa 1
 62
   250
420
  1842203
370
    35
100
AcDbVertex
100
AcDb2dVertex
 10
110.663184922421
 20
-2972.580657894008
 30
0.0
  0
VERTEX
  5
C6
330
C1
100
AcDbEntity
  8
Capa 1
 62
   250
420
  1842203
370
    35
100
AcDbVertex
100
AcDb2dVertex
 10
37.79373100183629
 20
-2972.580657894008
 30
0.0
  0
SEQEND
  5
C7
330
C1
100
AcDbEntity
  8
Capa 1
370
    35
  0
POLYLINE
  5
C8
330
B6
100
AcDbEntity
  8
Capa 1
 62
   250
420
  1842203
370
    35
100
AcDb2dPolyline
 66
     1
 10
0.0
 20
0.0
 30
0.0
  0
VERTEX
  5
C9
330
C8
100
AcDbEntity
  8
Capa 1
 62
   250
420
  1842203
370
    35
100
AcDbVertex
100
AcDb2dVertex
 10
-85.59839271948582
 20
-2972.580657894008
 30
0.0
  0
VERTEX
  5
CA
330
C8
100
AcDbEntity
  8
Capa 1
 62
   250
420
  1842203
370
    35
100
AcDbVertex
100
AcDb2dVertex
 10
-85.59839271948582
 20
-2948.580744705563
 30
0.0
  0
VERTEX
  5
CB
330
C8
100
AcDbEntity
  8
Capa 1
 62
   250
420
  1842203
370
    35
100
AcDbVertex
100
AcDb2dVertex
 10
-12.7289387989011
 20
-2948.580744705563
 30
0.0
  0
VERTEX
  5
CC
330
C8
100
AcDbEntity
  8
Capa 1
 62
   250
420
  1842203
370
    35
100
AcDbVertex
100
AcDb2dVertex
 10
-12.7289387989011
 20
-2972.580657894008
 30
0.0
  0
VERTEX
  5
CD
330
C8
100
AcDbEntity
  8
Capa 1
 62
   250
420
  1842203
370
    35
100
AcDbVertex
100
AcDb2dVertex
 10
-85.59839271948582
 20
-2972.580657894008
 30
0.0
  0
SEQEND
  5
CE
330
C8
100
AcDbEntity
  8
Capa 1
370
    35
  0
ENDBLK
  5
B9
330
B6
100
AcDbEntity
  8
0
100
AcDbBlockEnd
  0
ENDSEC
  0
SECTION
  2
ENTITIES
  0
INSERT
  5
3D
330
1F
100
AcDbEntity
  8
Capa 1
100
AcDbBlockReference
  2
block 2
 10
0.0
 20
0.0
 30
0.0
  0
POLYLINE
  5
78
330
1F
100
AcDbEntity
  8
Capa 1
 62
     7
420
 16777215
370
    35
100
AcDb2dPolyline
 66
     1
 10
0.0
 20
0.0
 30
0.0
  0
VERTEX
  5
79
330
78
100
AcDbEntity
  8
Capa 1
 62
     7
420
 16777215
370
    35
100
AcDbVertex
100
AcDb2dVertex
 10
20.49022216284619
 20
-2405.170675396972
 30
0.0
  0
VERTEX
  5
7A
330
78
100
AcDbEntity
  8
Capa 1
 62
     7
420
 16777215
370
    35
100
AcDbVertex
100
AcDb2dVertex
 10
520.4896767904505
 20
-2405.170675396972
 30
0.0
  0
VERTEX
  5
7B
330
78
100
AcDbEntity
  8
Capa 1
 62
     7
420
 16777215
370
    35
100
AcDbVertex
100
AcDb2dVertex
 10
520.4896767904505
 20
-1955.172303113638
 30
0.0
  0
VERTEX
  5
7C
330
78
100
AcDbEntity
  8
Capa 1
 62
     7
420
 16777215
370
    35
100
AcDbVertex
100
AcDb2dVertex
 10
20.49022216284619
 20
-1955.172303113638
 30
0.0
  0
VERTEX
  5
7D
330
78
100
AcDbEntity
  8
Capa 1
 62
     7
420
 16777215
370
    35
100
AcDbVertex
100
AcDb2dVertex
 10
20.49022216284619
 20
-2405.170675396972
 30
0.0
  0
SEQEND
  5
7E
330
78
100
AcDbEntity
  8
Capa 1
370
    35
  0
POLYLINE
  5
7F
330
1F
100
AcDbEntity
  8
Capa 1
 62
   250
420
  1842203
370
    35
100
AcDb2dPolyline
 66
     1
 10
0.0
 20
0.0
 30
0.0
  0
VERTEX
  5
80
330
7F
100
AcDbEntity
  8
Capa 1
 62
   250
420
  1842203
370
    35
100
AcDbVertex
100
AcDb2dVertex
 10
475.3932046337559
 20
-1603.81321574488
 30
0.0
  0
VERTEX
  5
81
330
7F
100
AcDbEntity
  8
Capa 1
 62
   250
420
  1842203
370
    35
100
AcDbVertex
100
AcDb2dVertex
 10
475.3932046337559
 20
-1513.813196778665
 30
0.0
  0
VERTEX
  5
82
330
7F
100
AcDbEntity
  8
Capa 1
 62
   250
420
  1842203
370
    35
100
AcDbVertex
100
AcDb2dVertex
 10
463.3987601923101
 20
-1513.813196778665
 30
0.0
  0
VERTEX
  5
83
330
7F
100
AcDbEntity
  8
Capa 1
 62
   250
420
  1842203
370
    35
100
AcDbVertex
100
AcDb2dVertex
 10
463.3987601923101
 20
-1480.220759721091
 30
0.0
  0
VERTEX
  5
84
330
7F
100
AcDbEntity
  8
Capa 1
 62
   250
420
  1842203
370
    35
100
AcDbVertex
100
AcDb2dVertex
 10
410.2202662819936
 20
-1480.220759721091
 30
0.0
  0
VERTEX
  5
85
330
7F
100
AcDbEntity
  8
Capa 1
 62
   250
420
  1842203
370
    35
100
AcDbVertex
100
AcDb2dVertex
 10
410.2202662819936
 20
-1492.220716315313
 30
0.0
  0
VERTEX
  5
86
330
7F
100
AcDbEntity
  8
Capa 1
 62
   250
420
  1842203
370
    35
100
AcDbVertex
100
AcDb2dVertex
 10
337.3509846161831
 20
-1492.220716315313
 30
0.0
  0
VERTEX
  5
87
330
7F
100
AcDbEntity
  8
Capa 1
 62
   250
420
  1842203
370
    35
100
AcDbVertex
100
AcDb2dVertex
 10
337.3509846161831
 20
-1480.220759721091
 30
0.0
  0
VERTEX
  5
88
330
7F
100
AcDbEntity
  8
Capa 1
 62
   250
420
  1842203
370
    35
100
AcDbVertex
100
AcDb2dVertex
 10
286.8279703058972
 20
-1480.220759721091
 30
0.0
  0
VERTEX
  5
89
330
7F
100
AcDbEntity
  8
Capa 1
 62
   250
420
  1842203
370
    35
100
AcDbVertex
100
AcDb2dVertex
 10
286.8279703058972
 20
-1492.220716315313
 30
0.0
  0
VERTEX
  5
8A
330
7F
100
AcDbEntity
  8
Capa 1
 62
   250
420
  1842203
370
    35
100
AcDbVertex
100
AcDb2dVertex
 10
213.9586886400867
 20
-1492.220716315313
 30
0.0
  0
VERTEX
  5
8B
330
7F
100
AcDbEntity
  8
Capa 1
 62
   250
420
  1842203
370
    35
100
AcDbVertex
100
AcDb2dVertex
 10
213.9586886400867
 20
-1480.220759721091
 30
0.0
  0
VERTEX
  5
8C
330
7F
100
AcDbEntity
  8
Capa 1
 62
   250
420
  1842203
370
    35
100
AcDbVertex
100
AcDb2dVertex
 10
163.4363633488979
 20
-1480.220759721091
 30
0.0
  0
VERTEX
  5
8D
330
7F
100
AcDbEntity
  8
Capa 1
 62
   250
420
  1842203
370
    35
100
AcDbVertex
100
AcDb2dVertex
 10
163.4363633488979
 20
-1492.220716315313
 30
0.0
  0
VERTEX
  5
8E
330
7F
100
AcDbEntity
  8
Capa 1
 62
   250
420
  1842203
370
    35
100
AcDbVertex
100
AcDb2dVertex
 10
90.56639266399036
 20
-1492.220716315313
 30
0.0
  0
VERTEX
  5
8F
330
7F
100
AcDbEntity
  8
Capa 1
 62
   250
420
  1842203
370
    35
100
AcDbVertex
100
AcDb2dVertex
 10
90.56639266399036
 20
-1480.220759721091
 30
0.0
  0
VERTEX
  5
90
330
7F
100
AcDbEntity
  8
Capa 1
 62
   250
420
  1842203
370
    35
100
AcDbVertex
100
AcDb2dVertex
 10
37.05303547250757
 20
-1480.220759721091
 30
0.0
  0
VERTEX
  5
91
330
7F
100
AcDbEntity
  8
Capa 1
 62
   250
420
  1842203
370
    35
100
AcDbVertex
100
AcDb2dVertex
 10
37.05303547250757
 20
-1513.813196778665
 30
0.0
  0
VERTEX
  5
92
330
7F
100
AcDbEntity
  8
Capa 1
 62
   250
420
  1842203
370
    35
100
AcDbVertex
100
AcDb2dVertex
 10
25.3931098026795
 20
-1513.813196778665
 30
0.0
  0
VERTEX
  5
93
330
7F
100
AcDbEntity
  8
Capa 1
 62
   250
420
  1842203
370
    35
100
AcDbVertex
100
AcDb2dVertex
 10
25.3931098026795
 20
-1603.81321574488
 30
0.0
  0
VERTEX
  5
94
330
7F
100
AcDbEntity
  8
Capa 1
 62
   250
420
  1842203
370
    35
100
AcDbVertex
100
AcDb2dVertex
 10
37.05303547250757
 20
-1603.81321574488
 30
0.0
  0
VERTEX
  5
95
330
7F
100
AcDbEntity
  8
Capa 1
 62
   250
420
  1842203
370
    35
100
AcDbVertex
100
AcDb2dVertex
 10
37.05303547250757
 20
-1666.213196740565
 30
0.0
  0
VERTEX
  5
96
330
7F
100
AcDbEntity
  8
Capa 1
 62
   250
420
  1842203
370
    35
100
AcDbVertex
100
AcDb2dVertex
 10
25.3931098026795
 20
-1666.213196740565
 30
0.0
  0
VERTEX
  5
97
330
7F
100
AcDbEntity
  8
Capa 1
 62
   250
420
  1842203
370
    35
100
AcDbVertex
100
AcDb2dVertex
 10
25.3931098026795
 20
-1756.21321570678
 30
0.0
  0
VERTEX
  5
98
330
7F
100
AcDbEntity
  8
Capa 1
 62
   250
420
  1842203
370
    35
100
AcDbVertex
100
AcDb2dVertex
 10
37.05303547250757
 20
-1756.21321570678
 30
0.0
  0
VERTEX
  5
99
330
7F
100
AcDbEntity
  8
Capa 1
 62
   250
420
  1842203
370
    35
100
AcDbVertex
100
AcDb2dVertex
 10
37.05303547250757
 20
-1818.613196702465
 30
0.0
  0
VERTEX
  5
9A
330
7F
100
AcDbEntity
  8
Capa 1
 62
   250
420
  1842203
370
    35
100
AcDbVertex
100
AcDb2dVertex
 10
25.3931098026795
 20
-1818.613196702465
 30
0.0
  0
VERTEX
  5
9B
330
7F
100
AcDbEntity
  8
Capa 1
 62
   250
420
  1842203
370
    35
100
AcDbVertex
100
AcDb2dVertex
 10
25.3931098026795
 20
-1908.61321566868
 30
0.0
  0
VERTEX
  5
9C
330
7F
100
AcDbEntity
  8
Capa 1
 62
   250
420
  1842203
370
    35
100
AcDbVertex
100
AcDb2dVertex
 10
37.05303547250757
 20
-1908.61321566868
 30
0.0
  0
VERTEX
  5
9D
330
7F
100
AcDbEntity
  8
Capa 1
 62
   250
420
  1842203
370
    35
100
AcDbVertex
100
AcDb2dVertex
 10
37.05303547250757
 20
-1930.220510042619
 30
0.0
  0
VERTEX
  5
9E
330
7F
100
AcDbEntity
  8
Capa 1
 62
   250
420
  1842203
370
    35
100
AcDbVertex
100
AcDb2dVertex
 10
90.56639266399036
 20
-1930.220510042619
 30
0.0
  0
VERTEX
  5
9F
330
7F
100
AcDbEntity
  8
Capa 1
 62
   250
420
  1842203
370
    35
100
AcDbVertex
100
AcDb2dVertex
 10
90.56639266399036
 20
-1918.220553448396
 30
0.0
  0
VERTEX
  5
A0
330
7F
100
AcDbEntity
  8
Capa 1
 62
   250
420
  1842203
370
    35
100
AcDbVertex
100
AcDb2dVertex
 10
163.4360188393493
 20
-1918.220553448396
 30
0.0
  0
VERTEX
  5
A1
330
7F
100
AcDbEntity
  8
Capa 1
 62
   250
420
  1842203
370
    35
100
AcDbVertex
100
AcDb2dVertex
 10
163.4360188393493
 20
-1930.220510042619
 30
0.0
  0
VERTEX
  5
A2
330
7F
100
AcDbEntity
  8
Capa 1
 62
   250
420
  1842203
370
    35
100
AcDbVertex
100
AcDb2dVertex
 10
213.9583441305382
 20
-1930.220510042619
 30
0.0
  0
VERTEX
  5
A3
330
7F
100
AcDbEntity
  8
Capa 1
 62
   250
420
  1842203
370
    35
100
AcDbVertex
100
AcDb2dVertex
 10
213.9583441305382
 20
-1918.220553448396
 30
0.0
  0
VERTEX
  5
A4
330
7F
100
AcDbEntity
  8
Capa 1
 62
   250
420
  1842203
370
    35
100
AcDbVertex
100
AcDb2dVertex
 10
286.8279703058972
 20
-1918.220553448396
 30
0.0
  0
VERTEX
  5
A5
330
7F
100
AcDbEntity
  8
Capa 1
 62
   250
420
  1842203
370
    35
100
AcDbVertex
100
AcDb2dVertex
 10
286.8279703058972
 20
-1930.220510042619
 30
0.0
  0
VERTEX
  5
A6
330
7F
100
AcDbEntity
  8
Capa 1
 62
   250
420
  1842203
370
    35
100
AcDbVertex
100
AcDb2dVertex
 10
337.3506401066346
 20
-1930.220510042619
 30
0.0
  0
VERTEX
  5
A7
330
7F
100
AcDbEntity
  8
Capa 1
 62
   250
420
  1842203
370
    35
100
AcDbVertex
100
AcDb2dVertex
 10
337.3506401066346
 20
-1918.220553448396
 30
0.0
  0
VERTEX
  5
A8
330
7F
100
AcDbEntity
  8
Capa 1
 62
   250
420
  1842203
370
    35
100
AcDbVertex
100
AcDb2dVertex
 10
410.219921772445
 20
-1918.220553448396
 30
0.0
  0
VERTEX
  5
A9
330
7F
100
AcDbEntity
  8
Capa 1
 62
   250
420
  1842203
370
    35
100
AcDbVertex
100
AcDb2dVertex
 10
410.219921772445
 20
-1930.220510042619
 30
0.0
  0
VERTEX
  5
AA
330
7F
100
AcDbEntity
  8
Capa 1
 62
   250
420
  1842203
370
    35
100
AcDbVertex
100
AcDb2dVertex
 10
463.3987601923101
 20
-1930.220510042619
 30
0.0
  0
VERTEX
  5
AB
330
7F
100
AcDbEntity
  8
Capa 1
 62
   250
420
  1842203
370
    35
100
AcDbVertex
100
AcDb2dVertex
 10
463.3987601923101
 20
-1908.61321566868
 30
0.0
  0
VERTEX
  5
AC
330
7F
100
AcDbEntity
  8
Capa 1
 62
   250
420
  1842203
370
    35
100
AcDbVertex
100
AcDb2dVertex
 10
475.3932046337559
 20
-1908.61321566868
 30
0.0
  0
VERTEX
  5
AD
330
7F
100
AcDbEntity
  8
Capa 1
 62
   250
420
  1842203
370
    35
100
AcDbVertex
100
AcDb2dVertex
 10
475.3932046337559
 20
-1818.613196702465
 30
0.0
  0
VERTEX
  5
AE
330
7F
100
AcDbEntity
  8
Capa 1
 62
   250
420
  1842203
370
    35
100
AcDbVertex
100
AcDb2dVertex
 10
463.3987601923101
 20
-1818.613196702465
 30
0.0
  0
VERTEX
  5
AF
330
7F
100
AcDbEntity
  8
Capa 1
 62
   250
420
  1842203
370
    35
100
AcDbVertex
100
AcDb2dVertex
 10
463.3987601923101
 20
-1756.21321570678
 30
0.0
  0
VERTEX
  5
B0
330
7F
100
AcDbEntity
  8
Capa 1
 62
   250
420
  1842203
370
    35
100
AcDbVertex
100
AcDb2dVertex
 10
475.3932046337559
 20
-1756.21321570678
 30
0.0
  0
VERTEX
  5
B1
330
7F
100
AcDbEntity
  8
Capa 1
 62
   250
420
  1842203
370
    35
100
AcDbVertex
100
AcDb2dVertex
 10
475.3932046337559
 20
-1666.213196740565
 30
0.0
  0
VERTEX
  5
B2
330
7F
100
AcDbEntity
  8
Capa 1
 62
   250
420
  1842203
370
    35
100
AcDbVertex
100
AcDb2dVertex
 10
463.3987601923101
 20
-1666.213196740565
 30
0.0
  0
VERTEX
  5
B3
330
7F
100
AcDbEntity
  8
Capa 1
 62
   250
420
  1842203
370
    35
100
AcDbVertex
100
AcDb2dVertex
 10
463.3987601923101
 20
-1603.81321574488
 30
0.0
  0
VERTEX
  5
B4
330
7F
100
AcDbEntity
  8
Capa 1
 62
   250
420
  1842203
370
    35
100
AcDbVertex
100
AcDb2dVertex
 10
475.3932046337559
 20
-1603.81321574488
 30
0.0
  0
SEQEND
  5
B5
330
7F
100
AcDbEntity
  8
Capa 1
370
    35
  0
INSERT
  5
B7
330
1F
100
AcDbEntity
  8
Capa 1
100
AcDbBlockReference
  2
block 3
 10
0.0
 20
0.0
 30
0.0
  0
POLYLINE
  5
CF
330
1F
100
AcDbEntity
  8
Capa 1
 62
   250
420
  1842203
370
    35
100
AcDb2dPolyline
 66
     1
 10
0.0
 20
0.0
 30
0.0
  0
VERTEX
  5
D0
330
CF
100
AcDbEntity
  8
Capa 1
 62
   250
420
  1842203
370
    35
100
AcDbVertex
100
AcDb2dVertex
 10
846.9853377873857
 20
-1988.764051152115
 30
0.0
  0
VERTEX
  5
D1
330
CF
100
AcDbEntity
  8
Capa 1
 62
   250
420
  1842203
370
    35
100
AcDbVertex
100
AcDb2dVertex
 10
846.9853377873857
 20
-1955.17161409454
 30
0.0
  0
VERTEX
  5
D2
330
CF
100
AcDbEntity
  8
Capa 1
 62
   250
420
  1842203
370
    35
100
AcDbVertex
100
AcDb2dVertex
 10
546.9855616579584
 20
-1955.17161409454
 30
0.0
  0
VERTEX
  5
D3
330
CF
100
AcDbEntity
  8
Capa 1
 62
   250
420
  1842203
370
    35
100
AcDbVertex
100
AcDb2dVertex
 10
546.9855616579584
 20
-1988.764051152115
 30
0.0
  0
VERTEX
  5
D4
330
CF
100
AcDbEntity
  8
Capa 1
 62
   250
420
  1842203
370
    35
100
AcDbVertex
100
AcDb2dVertex
 10
558.9855182521808
 20
-1988.764051152115
 30
0.0
  0
VERTEX
  5
D5
330
CF
100
AcDbEntity
  8
Capa 1
 62
   250
420
  1842203
370
    35
100
AcDbVertex
100
AcDb2dVertex
 10
558.9855182521808
 20
-2078.76407011833
 30
0.0
  0
VERTEX
  5
D6
330
CF
100
AcDbEntity
  8
Capa 1
 62
   250
420
  1842203
370
    35
100
AcDbVertex
100
AcDb2dVertex
 10
546.9855616579584
 20
-2078.76407011833
 30
0.0
  0
VERTEX
  5
D7
330
CF
100
AcDbEntity
  8
Capa 1
 62
   250
420
  1842203
370
    35
100
AcDbVertex
100
AcDb2dVertex
 10
546.9855616579584
 20
-2141.164051114014
 30
0.0
  0
VERTEX
  5
D8
330
CF
100
AcDbEntity
  8
Capa 1
 62
   250
420
  1842203
370
    35
100
AcDbVertex
100
AcDb2dVertex
 10
558.9855182521808
 20
-2141.164051114014
 30
0.0
  0
VERTEX
  5
D9
330
CF
100
AcDbEntity
  8
Capa 1
 62
   250
420
  1842203
370
    35
100
AcDbVertex
100
AcDb2dVertex
 10
558.9855182521808
 20
-2231.16407008023
 30
0.0
  0
VERTEX
  5
DA
330
CF
100
AcDbEntity
  8
Capa 1
 62
   250
420
  1842203
370
    35
100
AcDbVertex
100
AcDb2dVertex
 10
546.9855616579584
 20
-2231.16407008023
 30
0.0
  0
VERTEX
  5
DB
330
CF
100
AcDbEntity
  8
Capa 1
 62
   250
420
  1842203
370
    35
100
AcDbVertex
100
AcDb2dVertex
 10
546.9855616579584
 20
-2293.564051075914
 30
0.0
  0
VERTEX
  5
DC
330
CF
100
AcDbEntity
  8
Capa 1
 62
   250
420
  1842203
370
    35
100
AcDbVertex
100
AcDb2dVertex
 10
558.9855182521808
 20
-2293.564051075914
 30
0.0
  0
VERTEX
  5
DD
330
CF
100
AcDbEntity
  8
Capa 1
 62
   250
420
  1842203
370
    35
100
AcDbVertex
100
AcDb2dVertex
 10
558.9855182521808
 20
-2383.56407004213
 30
0.0
  0
VERTEX
  5
DE
330
CF
100
AcDbEntity
  8
Capa 1
 62
   250
420
  1842203
370
    35
100
AcDbVertex
100
AcDb2dVertex
 10
546.9855616579584
 20
-2383.56407004213
 30
0.0
  0
VERTEX
  5
DF
330
CF
100
AcDbEntity
  8
Capa 1
 62
   250
420
  1842203
370
    35
100
AcDbVertex
100
AcDb2dVertex
 10
546.9855616579584
 20
-2405.171364416068
 30
0.0
  0
VERTEX
  5
E0
330
CF
100
AcDbEntity
  8
Capa 1
 62
   250
420
  1842203
370
    35
100
AcDbVertex
100
AcDb2dVertex
 10
846.9853377873857
 20
-2405.171364416068
 30
0.0
  0
VERTEX
  5
E1
330
CF
100
AcDbEntity
  8
Capa 1
 62
   250
420
  1842203
370
    35
100
AcDbVertex
100
AcDb2dVertex
 10
846.9853377873857
 20
-2383.56407004213
 30
0.0
  0
VERTEX
  5
E2
330
CF
100
AcDbEntity
  8
Capa 1
 62
   250
420
  1842203
370
    35
100
AcDbVertex
100
AcDb2dVertex
 10
834.9853811931634
 20
-2383.56407004213
 30
0.0
  0
VERTEX
  5
E3
330
CF
100
AcDbEntity
  8
Capa 1
 62
   250
420
  1842203
370
    35
100
AcDbVertex
100
AcDb2dVertex
 10
834.9853811931634
 20
-2293.564051075914
 30
0.0
  0
VERTEX
  5
E4
330
CF
100
AcDbEntity
  8
Capa 1
 62
   250
420
  1842203
370
    35
100
AcDbVertex
100
AcDb2dVertex
 10
846.9853377873857
 20
-2293.564051075914
 30
0.0
  0
VERTEX
  5
E5
330
CF
100
AcDbEntity
  8
Capa 1
 62
   250
420
  1842203
370
    35
100
AcDbVertex
100
AcDb2dVertex
 10
846.9853377873857
 20
-2231.16407008023
 30
0.0
  0
VERTEX
  5
E6
330
CF
100
AcDbEntity
  8
Capa 1
 62
   250
420
  1842203
370
    35
100
AcDbVertex
100
AcDb2dVertex
 10
834.9853811931634
 20
-2231.16407008023
 30
0.0
  0
VERTEX
  5
E7
330
CF
100
AcDbEntity
  8
Capa 1
 62
   250
420
  1842203
370
    35
100
AcDbVertex
100
AcDb2dVertex
 10
834.9853811931634
 20
-2141.164051114014
 30
0.0
  0
VERTEX
  5
E8
330
CF
100
AcDbEntity
  8
Capa 1
 62
   250
420
  1842203
370
    35
100
AcDbVertex
100
AcDb2dVertex
 10
846.9853377873857
 20
-2141.164051114014
 30
0.0
  0
VERTEX
  5
E9
330
CF
100
AcDbEntity
  8
Capa 1
 62
   250
420
  1842203
370
    35
100
AcDbVertex
100
AcDb2dVertex
 10
846.9853377873857
 20
-2078.76407011833
 30
0.0
  0
VERTEX
  5
EA
330
CF
100
AcDbEntity
  8
Capa 1
 62
   250
420
  1842203
370
    35
100
AcDbVertex
100
AcDb2dVertex
 10
834.9853811931634
 20
-2078.76407011833
 30
0.0
  0
VERTEX
  5
EB
330
CF
100
AcDbEntity
  8
Capa 1
 62
   250
420
  1842203
370
    35
100
AcDbVertex
100
AcDb2dVertex
 10
834.9853811931634
 20
-1988.764051152115
 30
0.0
  0
VERTEX
  5
EC
330
CF
100
AcDbEntity
  8
Capa 1
 62
   250
420
  1842203
370
    35
100
AcDbVertex
100
AcDb2dVertex
 10
846.9853377873857
 20
-1988.764051152115
 30
0.0
  0
SEQEND
  5
ED
330
CF
100
AcDbEntity
  8
Capa 1
370
    35
  0
POLYLINE
  5
EE
330
1F
100
AcDbEntity
  8
Capa 1
 62
   250
420
  1842203
370
    35
100
AcDb2dPolyline
 66
     1
 10
0.0
 20
0.0
 30
0.0
  0
VERTEX
  5
EF
330
EE
100
AcDbEntity
  8
Capa 1
 62
   250
420
  1842203
370
    35
100
AcDbVertex
100
AcDb2dVertex
 10
1200.123127955178
 20
-1988.764051152115
 30
0.0
  0
VERTEX
  5
F0
330
EE
100
AcDbEntity
  8
Capa 1
 62
   250
420
  1842203
370
    35
100
AcDbVertex
100
AcDb2dVertex
 10
1200.123127955178
 20
-1955.17161409454
 30
0.0
  0
VERTEX
  5
F1
330
EE
100
AcDbEntity
  8
Capa 1
 62
   250
420
  1842203
370
    35
100
AcDbVertex
100
AcDb2dVertex
 10
900.1231795709762
 20
-1955.17161409454
 30
0.0
  0
VERTEX
  5
F2
330
EE
100
AcDbEntity
  8
Capa 1
 62
   250
420
  1842203
370
    35
100
AcDbVertex
100
AcDb2dVertex
 10
900.1231795709762
 20
-1988.764051152115
 30
0.0
  0
VERTEX
  5
F3
330
EE
100
AcDbEntity
  8
Capa 1
 62
   250
420
  1842203
370
    35
100
AcDbVertex
100
AcDb2dVertex
 10
912.1231361651984
 20
-1988.764051152115
 30
0.0
  0
VERTEX
  5
F4
330
EE
100
AcDbEntity
  8
Capa 1
 62
   250
420
  1842203
370
    35
100
AcDbVertex
100
AcDb2dVertex
 10
912.1231361651984
 20
-2078.76407011833
 30
0.0
  0
VERTEX
  5
F5
330
EE
100
AcDbEntity
  8
Capa 1
 62
   250
420
  1842203
370
    35
100
AcDbVertex
100
AcDb2dVertex
 10
900.1231795709762
 20
-2078.76407011833
 30
0.0
  0
VERTEX
  5
F6
330
EE
100
AcDbEntity
  8
Capa 1
 62
   250
420
  1842203
370
    35
100
AcDbVertex
100
AcDb2dVertex
 10
900.1231795709762
 20
-2141.164051114014
 30
0.0
  0
VERTEX
  5
F7
330
EE
100
AcDbEntity
  8
Capa 1
 62
   250
420
  1842203
370
    35
100
AcDbVertex
100
AcDb2dVertex
 10
912.1231361651984
 20
-2141.164051114014
 30
0.0
  0
VERTEX
  5
F8
330
EE
100
AcDbEntity
  8
Capa 1
 62
   250
420
  1842203
370
    35
100
AcDbVertex
100
AcDb2dVertex
 10
912.1231361651984
 20
-2231.16407008023
 30
0.0
  0
VERTEX
  5
F9
330
EE
100
AcDbEntity
  8
Capa 1
 62
   250
420
  1842203
370
    35
100
AcDbVertex
100
AcDb2dVertex
 10
900.1231795709762
 20
-2231.16407008023
 30
0.0
  0
VERTEX
  5
FA
330
EE
100
AcDbEntity
  8
Capa 1
 62
   250
420
  1842203
370
    35
100
AcDbVertex
100
AcDb2dVertex
 10
900.1231795709762
 20
-2293.564051075914
 30
0.0
  0
VERTEX
  5
FB
330
EE
100
AcDbEntity
  8
Capa 1
 62
   250
420
  1842203
370
    35
100
AcDbVertex
100
AcDb2dVertex
 10
912.1231361651984
 20
-2293.564051075914
 30
0.0
  0
VERTEX
  5
FC
330
EE
100
AcDbEntity
  8
Capa 1
 62
   250
420
  1842203
370
    35
100
AcDbVertex
100
AcDb2dVertex
 10
912.1231361651984
 20
-2383.56407004213
 30
0.0
  0
VERTEX
  5
FD
330
EE
100
AcDbEntity
  8
Capa 1
 62
   250
420
  1842203
370
    35
100
AcDbVertex
100
AcDb2dVertex
 10
900.1231795709762
 20
-2383.56407004213
 30
0.0
  0
VERTEX
  5
FE
330
EE
100
AcDbEntity
  8
Capa 1
 62
   250
420
  1842203
370
    35
100
AcDbVertex
100
AcDb2dVertex
 10
900.1231795709762
 20
-2405.171364416068
 30
0.0
  0
VERTEX
  5
FF
330
EE
100
AcDbEntity
  8
Capa 1
 62
   250
420
  1842203
370
    35
100
AcDbVertex
100
AcDb2dVertex
 10
1200.123127955178
 20
-2405.171364416068
 30
0.0
  0
VERTEX
  5
100
330
EE
100
AcDbEntity
  8
Capa 1
 62
   250
420
  1842203
370
    35
100
AcDbVertex
100
AcDb2dVertex
 10
1200.123127955178
 20
-2383.56407004213
 30
0.0
  0
VERTEX
  5
101
330
EE
100
AcDbEntity
  8
Capa 1
 62
   250
420
  1842203
370
    35
100
AcDbVertex
100
AcDb2dVertex
 10
1188.123171360955
 20
-2383.56407004213
 30
0.0
  0
VERTEX
  5
102
330
EE
100
AcDbEntity
  8
Capa 1
 62
   250
420
  1842203
370
    35
100
AcDbVertex
100
AcDb2dVertex
 10
1188.123171360955
 20
-2293.564051075914
 30
0.0
  0
VERTEX
  5
103
330
EE
100
AcDbEntity
  8
Capa 1
 62
   250
420
  1842203
370
    35
100
AcDbVertex
100
AcDb2dVertex
 10
1200.123127955178
 20
-2293.564051075914
 30
0.0
  0
VERTEX
  5
104
330
EE
100
AcDbEntity
  8
Capa 1
 62
   250
420
  1842203
370
    35
100
AcDbVertex
100
AcDb2dVertex
 10
1200.123127955178
 20
-2231.16407008023
 30
0.0
  0
VERTEX
  5
105
330
EE
100
AcDbEntity
  8
Capa 1
 62
   250
420
  1842203
370
    35
100
AcDbVertex
100
AcDb2dVertex
 10
1188.123171360955
 20
-2231.16407008023
 30
0.0
  0
VERTEX
  5
106
330
EE
100
AcDbEntity
  8
Capa 1
 62
   250
420
  1842203
370
    35
100
AcDbVertex
100
AcDb2dVertex
 10
1188.123171360955
 20
-2141.164051114014
 30
0.0
  0
VERTEX
  5
107
330
EE
100
AcDbEntity
  8
Capa 1
 62
   250
420
  1842203
370
    35
100
AcDbVertex
100
AcDb2dVertex
 10
1200.123127955178
 20
-2141.164051114014
 30
0.0
  0
VERTEX
  5
108
330
EE
100
AcDbEntity
  8
Capa 1
 62
   250
420
  1842203
370
    35
100
AcDbVertex
100
AcDb2dVertex
 10
1200.123127955178
 20
-2078.76407011833
 30
0.0
  0
VERTEX
  5
109
330
EE
100
AcDbEntity
  8
Capa 1
 62
   250
420
  1842203
370
    35
100
AcDbVertex
100
AcDb2dVertex
 10
1188.123171360955
 20
-2078.76407011833
 30
0.0
  0
VERTEX
  5
10A
330
EE
100
AcDbEntity
  8
Capa 1
 62
   250
420
  1842203
370
    35
100
AcDbVertex
100
AcDb2dVertex
 10
1188.123171360955
 20
-1988.764051152115
 30
0.0
  0
VERTEX
  5
10B
330
EE
100
AcDbEntity
  8
Capa 1
 62
   250
420
  1842203
370
    35
100
AcDbVertex
100
AcDb2dVertex
 10
1200.123127955178
 20
-1988.764051152115
 30
0.0
  0
SEQEND
  5
10C
330
EE
100
AcDbEntity
  8
Capa 1
370
    35
  0
POLYLINE
  5
10D
330
1F
100
AcDbEntity
  8
Capa 1
 62
   250
420
  1842203
370
    35
100
AcDb2dPolyline
 66
     1
 10
0.0
 20
0.0
 30
0.0
  0
VERTEX
  5
10E
330
10D
100
AcDbEntity
  8
Capa 1
 62
   250
420
  1842203
370
    35
100
AcDbVertex
100
AcDb2dVertex
 10
1.998155381444906
 20
0.0
 30
0.0
  0
VERTEX
  5
10F
330
10D
100
AcDbEntity
  8
Capa 1
 62
   250
420
  1842203
370
    35
100
AcDbVertex
100
AcDb2dVertex
 10
1221.998795267417
 20
0.0
 30
0.0
  0
VERTEX
  5
110
330
10D
100
AcDbEntity
  8
Capa 1
 62
   250
420
  1842203
370
    35
100
AcDbVertex
100
AcDb2dVertex
 10
1221.998795267417
 20
-2440.001624281493
 30
0.0
  0
VERTEX
  5
111
330
10D
100
AcDbEntity
  8
Capa 1
 62
   250
420
  1842203
370
    35
100
AcDbVertex
100
AcDb2dVertex
 10
1.998155381444906
 20
-2440.001624281493
 30
0.0
  0
VERTEX
  5
112
330
10D
100
AcDbEntity
  8
Capa 1
 62
   250
420
  1842203
370
    35
100
AcDbVertex
100
AcDb2dVertex
 10
1.998155381444906
 20
0.0
 30
0.0
  0
SEQEND
  5
113
330
10D
100
AcDbEntity
  8
Capa 1
370
    35
  0
POLYLINE
  5
114
330
1F
100
AcDbEntity
  8
Capa 1
 62
   250
420
  1842203
370
    35
100
AcDb2dPolyline
 66
     1
 10
0.0
 20
0.0
 30
0.0
  0
VERTEX
  5
115
330
114
100
AcDbEntity
  8
Capa 1
 62
   250
420
  1842203
370
    35
100
AcDbVertex
100
AcDb2dVertex
 10
806.4189939390203
 20
-1858.94596307693
 30
0.0
  0
VERTEX
  5
116
330
114
100
AcDbEntity
  8
Capa 1
 62
   250
420
  1842203
370
    35
100
AcDbVertex
100
AcDb2dVertex
 10
818.4134383804661
 20
-1858.94596307693
 30
0.0
  0
VERTEX
  5
117
330
114
100
AcDbEntity
  8
Capa 1
 62
   250
420
  1842203
370
    35
100
AcDbVertex
100
AcDb2dVertex
 10
818.4134383804661
 20
-1786.076336901571
 30
0.0
  0
VERTEX
  5
118
330
114
100
AcDbEntity
  8
Capa 1
 62
   250
420
  1842203
370
    35
100
AcDbVertex
100
AcDb2dVertex
 10
806.4189939390203
 20
-1786.076336901571
 30
0.0
  0
VERTEX
  5
119
330
114
100
AcDbEntity
  8
Capa 1
 62
   250
420
  1842203
370
    35
100
AcDbVertex
100
AcDb2dVertex
 10
806.4189939390203
 20
-1735.554011610382
 30
0.0
  0
VERTEX
  5
11A
330
114
100
AcDbEntity
  8
Capa 1
 62
   250
420
  1842203
370
    35
100
AcDbVertex
100
AcDb2dVertex
 10
818.4134383804661
 20
-1735.554011610382
 30
0.0
  0
VERTEX
  5
11B
330
114
100
AcDbEntity
  8
Capa 1
 62
   250
420
  1842203
370
    35
100
AcDbVertex
100
AcDb2dVertex
 10
818.4134383804661
 20
-1662.684729944572
 30
0.0
  0
VERTEX
  5
11C
330
114
100
AcDbEntity
  8
Capa 1
 62
   250
420
  1842203
370
    35
100
AcDbVertex
100
AcDb2dVertex
 10
806.4189939390203
 20
-1662.684729944572
 30
0.0
  0
VERTEX
  5
11D
330
114
100
AcDbEntity
  8
Capa 1
 62
   250
420
  1842203
370
    35
100
AcDbVertex
100
AcDb2dVertex
 10
806.4189939390203
 20
-1612.161715634286
 30
0.0
  0
VERTEX
  5
11E
330
114
100
AcDbEntity
  8
Capa 1
 62
   250
420
  1842203
370
    35
100
AcDbVertex
100
AcDb2dVertex
 10
818.4134383804661
 20
-1612.161715634286
 30
0.0
  0
VERTEX
  5
11F
330
114
100
AcDbEntity
  8
Capa 1
 62
   250
420
  1842203
370
    35
100
AcDbVertex
100
AcDb2dVertex
 10
818.4134383804661
 20
-1539.292433968476
 30
0.0
  0
VERTEX
  5
120
330
114
100
AcDbEntity
  8
Capa 1
 62
   250
420
  1842203
370
    35
100
AcDbVertex
100
AcDb2dVertex
 10
806.4189939390203
 20
-1539.292433968476
 30
0.0
  0
VERTEX
  5
121
330
114
100
AcDbEntity
  8
Capa 1
 62
   250
420
  1842203
370
    35
100
AcDbVertex
100
AcDb2dVertex
 10
806.4189939390203
 20
-1486.113940058159
 30
0.0
  0
VERTEX
  5
122
330
114
100
AcDbEntity
  8
Capa 1
 62
   250
420
  1842203
370
    35
100
AcDbVertex
100
AcDb2dVertex
 10
531.1131454835412
 20
-1486.113940058159
 30
0.0
  0
VERTEX
  5
123
330
114
100
AcDbEntity
  8
Capa 1
 62
   250
420
  1842203
370
    35
100
AcDbVertex
100
AcDb2dVertex
 10
531.1131454835412
 20
-1539.292433968476
 30
0.0
  0
VERTEX
  5
124
330
114
100
AcDbEntity
  8
Capa 1
 62
   250
420
  1842203
370
    35
100
AcDbVertex
100
AcDb2dVertex
 10
519.113188889319
 20
-1539.292433968476
 30
0.0
  0
VERTEX
  5
125
330
114
100
AcDbEntity
  8
Capa 1
 62
   250
420
  1842203
370
    35
100
AcDbVertex
100
AcDb2dVertex
 10
519.113188889319
 20
-1612.161715634286
 30
0.0
  0
VERTEX
  5
126
330
114
100
AcDbEntity
  8
Capa 1
 62
   250
420
  1842203
370
    35
100
AcDbVertex
100
AcDb2dVertex
 10
531.1131454835412
 20
-1612.161715634286
 30
0.0
  0
VERTEX
  5
127
330
114
100
AcDbEntity
  8
Capa 1
 62
   250
420
  1842203
370
    35
100
AcDbVertex
100
AcDb2dVertex
 10
531.1131454835412
 20
-1662.684729944572
 30
0.0
  0
VERTEX
  5
128
330
114
100
AcDbEntity
  8
Capa 1
 62
   250
420
  1842203
370
    35
100
AcDbVertex
100
AcDb2dVertex
 10
519.113188889319
 20
-1662.684729944572
 30
0.0
  0
VERTEX
  5
129
330
114
100
AcDbEntity
  8
Capa 1
 62
   250
420
  1842203
370
    35
100
AcDbVertex
100
AcDb2dVertex
 10
519.113188889319
 20
-1735.554011610382
 30
0.0
  0
VERTEX
  5
12A
330
114
100
AcDbEntity
  8
Capa 1
 62
   250
420
  1842203
370
    35
100
AcDbVertex
100
AcDb2dVertex
 10
531.1131454835412
 20
-1735.554011610382
 30
0.0
  0
VERTEX
  5
12B
330
114
100
AcDbEntity
  8
Capa 1
 62
   250
420
  1842203
370
    35
100
AcDbVertex
100
AcDb2dVertex
 10
531.1131454835412
 20
-1786.076336901571
 30
0.0
  0
VERTEX
  5
12C
330
114
100
AcDbEntity
  8
Capa 1
 62
   250
420
  1842203
370
    35
100
AcDbVertex
100
AcDb2dVertex
 10
519.113188889319
 20
-1786.076336901571
 30
0.0
  0
VERTEX
  5
12D
330
114
100
AcDbEntity
  8
Capa 1
 62
   250
420
  1842203
370
    35
100
AcDbVertex
100
AcDb2dVertex
 10
519.113188889319
 20
-1858.94596307693
 30
0.0
  0
VERTEX
  5
12E
330
114
100
AcDbEntity
  8
Capa 1
 62
   250
420
  1842203
370
    35
100
AcDbVertex
100
AcDb2dVertex
 10
531.1131454835412
 20
-1858.94596307693
 30
0.0
  0
VERTEX
  5
12F
330
114
100
AcDbEntity
  8
Capa 1
 62
   250
420
  1842203
370
    35
100
AcDbVertex
100
AcDb2dVertex
 10
531.1131454835412
 20
-1912.37353739083
 30
0.0
  0
VERTEX
  5
130
330
114
100
AcDbEntity
  8
Capa 1
 62
   250
420
  1842203
370
    35
100
AcDbVertex
100
AcDb2dVertex
 10
806.4189939390203
 20
-1912.37353739083
 30
0.0
  0
VERTEX
  5
131
330
114
100
AcDbEntity
  8
Capa 1
 62
   250
420
  1842203
370
    35
100
AcDbVertex
100
AcDb2dVertex
 10
806.4189939390203
 20
-1858.94596307693
 30
0.0
  0
SEQEND
  5
132
330
114
100
AcDbEntity
  8
Capa 1
370
    35
  0
POLYLINE
  5
133
330
1F
100
AcDbEntity
  8
Capa 1
 62
   250
420
  1842203
370
    35
100
AcDb2dPolyline
 66
     1
 10
0.0
 20
0.0
 30
0.0
  0
VERTEX
  5
134
330
133
100
AcDbEntity
  8
Capa 1
 62
   250
420
  1842203
370
    35
100
AcDbVertex
100
AcDb2dVertex
 10
1187.779006321979
 20
-1858.94596307693
 30
0.0
  0
VERTEX
  5
135
330
133
100
AcDbEntity
  8
Capa 1
 62
   250
420
  1842203
370
    35
100
AcDbVertex
100
AcDb2dVertex
 10
1199.773450763425
 20
-1858.94596307693
 30
0.0
  0
VERTEX
  5
136
330
133
100
AcDbEntity
  8
Capa 1
 62
   250
420
  1842203
370
    35
100
AcDbVertex
100
AcDb2dVertex
 10
1199.773450763425
 20
-1786.076336901571
 30
0.0
  0
VERTEX
  5
137
330
133
100
AcDbEntity
  8
Capa 1
 62
   250
420
  1842203
370
    35
100
AcDbVertex
100
AcDb2dVertex
 10
1187.779006321979
 20
-1786.076336901571
 30
0.0
  0
VERTEX
  5
138
330
133
100
AcDbEntity
  8
Capa 1
 62
   250
420
  1842203
370
    35
100
AcDbVertex
100
AcDb2dVertex
 10
1187.779006321979
 20
-1735.554011610382
 30
0.0
  0
VERTEX
  5
139
330
133
100
AcDbEntity
  8
Capa 1
 62
   250
420
  1842203
370
    35
100
AcDbVertex
100
AcDb2dVertex
 10
1199.773450763425
 20
-1735.554011610382
 30
0.0
  0
VERTEX
  5
13A
330
133
100
AcDbEntity
  8
Capa 1
 62
   250
420
  1842203
370
    35
100
AcDbVertex
100
AcDb2dVertex
 10
1199.773450763425
 20
-1662.684729944572
 30
0.0
  0
VERTEX
  5
13B
330
133
100
AcDbEntity
  8
Capa 1
 62
   250
420
  1842203
370
    35
100
AcDbVertex
100
AcDb2dVertex
 10
1187.779006321979
 20
-1662.684729944572
 30
0.0
  0
VERTEX
  5
13C
330
133
100
AcDbEntity
  8
Capa 1
 62
   250
420
  1842203
370
    35
100
AcDbVertex
100
AcDb2dVertex
 10
1187.779006321979
 20
-1612.161715634286
 30
0.0
  0
VERTEX
  5
13D
330
133
100
AcDbEntity
  8
Capa 1
 62
   250
420
  1842203
370
    35
100
AcDbVertex
100
AcDb2dVertex
 10
1199.773450763425
 20
-1612.161715634286
 30
0.0
  0
VERTEX
  5
13E
330
133
100
AcDbEntity
  8
Capa 1
 62
   250
420
  1842203
370
    35
100
AcDbVertex
100
AcDb2dVertex
 10
1199.773450763425
 20
-1539.292433968476
 30
0.0
  0
VERTEX
  5
13F
330
133
100
AcDbEntity
  8
Capa 1
 62
   250
420
  1842203
370
    35
100
AcDbVertex
100
AcDb2dVertex
 10
1187.779006321979
 20
-1539.292433968476
 30
0.0
  0
VERTEX
  5
140
330
133
100
AcDbEntity
  8
Capa 1
 62
   250
420
  1842203
370
    35
100
AcDbVertex
100
AcDb2dVertex
 10
1187.779006321979
 20
-1486.113940058159
 30
0.0
  0
VERTEX
  5
141
330
133
100
AcDbEntity
  8
Capa 1
 62
   250
420
  1842203
370
    35
100
AcDbVertex
100
AcDb2dVertex
 10
912.4731578664998
 20
-1486.113940058159
 30
0.0
  0
VERTEX
  5
142
330
133
100
AcDbEntity
  8
Capa 1
 62
   250
420
  1842203
370
    35
100
AcDbVertex
100
AcDb2dVertex
 10
912.4731578664998
 20
-1539.292433968476
 30
0.0
  0
VERTEX
  5
143
330
133
100
AcDbEntity
  8
Capa 1
 62
   250
420
  1842203
370
    35
100
AcDbVertex
100
AcDb2dVertex
 10
900.4732012722776
 20
-1539.292433968476
 30
0.0
  0
VERTEX
  5
144
330
133
100
AcDbEntity
  8
Capa 1
 62
   250
420
  1842203
370
    35
100
AcDbVertex
100
AcDb2dVertex
 10
900.4732012722776
 20
-1612.161715634286
 30
0.0
  0
VERTEX
  5
145
330
133
100
AcDbEntity
  8
Capa 1
 62
   250
420
  1842203
370
    35
100
AcDbVertex
100
AcDb2dVertex
 10
912.4731578664998
 20
-1612.161715634286
 30
0.0
  0
VERTEX
  5
146
330
133
100
AcDbEntity
  8
Capa 1
 62
   250
420
  1842203
370
    35
100
AcDbVertex
100
AcDb2dVertex
 10
912.4731578664998
 20
-1662.684729944572
 30
0.0
  0
VERTEX
  5
147
330
133
100
AcDbEntity
  8
Capa 1
 62
   250
420
  1842203
370
    35
100
AcDbVertex
100
AcDb2dVertex
 10
900.4732012722776
 20
-1662.684729944572
 30
0.0
  0
VERTEX
  5
148
330
133
100
AcDbEntity
  8
Capa 1
 62
   250
420
  1842203
370
    35
100
AcDbVertex
100
AcDb2dVertex
 10
900.4732012722776
 20
-1735.554011610382
 30
0.0
  0
VERTEX
  5
149
330
133
100
AcDbEntity
  8
Capa 1
 62
   250
420
  1842203
370
    35
100
AcDbVertex
100
AcDb2dVertex
 10
912.4731578664998
 20
-1735.554011610382
 30
0.0
  0
VERTEX
  5
14A
330
133
100
AcDbEntity
  8
Capa 1
 62
   250
420
  1842203
370
    35
100
AcDbVertex
100
AcDb2dVertex
 10
912.4731578664998
 20
-1786.076336901571
 30
0.0
  0
VERTEX
  5
14B
330
133
100
AcDbEntity
  8
Capa 1
 62
   250
420
  1842203
370
    35
100
AcDbVertex
100
AcDb2dVertex
 10
900.4732012722776
 20
-1786.076336901571
 30
0.0
  0
VERTEX
  5
14C
330
133
100
AcDbEntity
  8
Capa 1
 62
   250
420
  1842203
370
    35
100
AcDbVertex
100
AcDb2dVertex
 10
900.4732012722776
 20
-1858.94596307693
 30
0.0
  0
VERTEX
  5
14D
330
133
100
AcDbEntity
  8
Capa 1
 62
   250
420
  1842203
370
    35
100
AcDbVertex
100
AcDb2dVertex
 10
912.4731578664998
 20
-1858.94596307693
 30
0.0
  0
VERTEX
  5
14E
330
133
100
AcDbEntity
  8
Capa 1
 62
   250
420
  1842203
370
    35
100
AcDbVertex
100
AcDb2dVertex
 10
912.4731578664998
 20
-1912.37353739083
 30
0.0
  0
VERTEX
  5
14F
330
133
100
AcDbEntity
  8
Capa 1
 62
   250
420
  1842203
370
    35
100
AcDbVertex
100
AcDb2dVertex
 10
1187.779006321979
 20
-1912.37353739083
 30
0.0
  0
VERTEX
  5
150
330
133
100
AcDbEntity
  8
Capa 1
 62
   250
420
  1842203
370
    35
100
AcDbVertex
100
AcDb2dVertex
 10
1187.779006321979
 20
-1858.94596307693
 30
0.0
  0
SEQEND
  5
151
330
133
100
AcDbEntity
  8
Capa 1
370
    35
  0
ENDSEC
  0
SECTION
  2
OBJECTS
  0
DICTIONARY
  5
C
330
0
100
AcDbDictionary
281
     1
  3
ACAD_GROUP
350
D
  3
ACAD_LAYOUT
350
1A
  3
ACAD_MLINESTYLE
350
17
  3
ACAD_PLOTSETTINGS
350
19
  3
ACAD_PLOTSTYLENAME
350
E
  3
ACAD_TABLESTYLE
350
152
  3
ACAD_VISUALSTYLE
350
2A
  0
DICTIONARY
  5
D
102
{ACAD_REACTORS
330
C
102
}
330
C
100
AcDbDictionary
281
     1
  0
DICTIONARY
  5
1A
102
{ACAD_REACTORS
330
C
102
}
330
C
100
AcDbDictionary
281
     1
  3
Layout1
350
1E
  3
Layout2
350
26
  3
Model
350
22
  0
DICTIONARY
  5
17
102
{ACAD_REACTORS
330
C
102
}
330
C
100
AcDbDictionary
281
     1
  3
Standard
350
18
  0
DICTIONARY
  5
19
102
{ACAD_REACTORS
330
C
102
}
330
C
100
AcDbDictionary
281
     1
  0
ACDBDICTIONARYWDFLT
  5
E
102
{ACAD_REACTORS
330
C
102
}
330
C
100
AcDbDictionary
281
     1
  3
Normal
350
F
100
AcDbDictionaryWithDefault
340
F
  0
DICTIONARY
  5
152
102
{ACAD_REACTORS
330
C
102
}
330
C
100
AcDbDictionary
281
     1
  0
DICTIONARY
  5
2A
102
{ACAD_REACTORS
330
C
102
}
330
C
100
AcDbDictionary
281
     1
  3
2dWireframe
350
2F
  3
3D Hidden
350
31
  3
3dWireframe
350
30
  3
Basic
350
32
  3
Brighten
350
36
  3
ColorChange
350
3A
  3
Conceptual
350
34
  3
Dim
350
35
  3
Facepattern
350
39
  3
Flat
350
2B
  3
FlatWithEdges
350
2C
  3
Gouraud
350
2D
  3
GouraudWithEdges
350
2E
  3
Linepattern
350
38
  3
Realistic
350
33
  3
Thicken
350
37
  0
LAYOUT
  5
1E
102
{ACAD_REACTORS
330
1A
102
}
330
1A
100
AcDbPlotSettings
  1

  2
none_device
  4

  6

 40
0.0
 41
0.0
 42
0.0
 43
0.0
 44
0.0
 45
0.0
 46
0.0
 47
0.0
 48
0.0
 49
0.0
140
0.0
141
0.0
142
1.0
143
1.0
 70
   688
 72
     0
 73
     0
 74
     5
  7

 75
    16
 76
     0
 77
     2
 78
   300
147
1.0
148
0.0
149
0.0
100
AcDbLayout
  1
Layout1
 70
     1
 71
     1
 10
0.0
 20
0.0
 11
12.0
 21
9.0
 12
0.0
 22
0.0
 32
0.0
 14
1.000000000000000E+20
 24
1.000000000000000E+20
 34
1.000000000000000E+20
 15
-1.000000000000000E+20
 25
-1.000000000000000E+20
 35
-1.000000000000000E+20
146
0.0
 13
0.0
 23
0.0
 33
0.0
 16
1.0
 26
0.0
 36
0.0
 17
0.0
 27
1.0
 37
0.0
 76
     0
330
1B
  0
LAYOUT
  5
26
102
{ACAD_REACTORS
330
1A
102
}
330
1A
100
AcDbPlotSettings
  1

  2
none_device
  4

  6

 40
0.0
 41
0.0
 42
0.0
 43
0.0
 44
0.0
 45
0.0
 46
0.0
 47
0.0
 48
0.0
 49
0.0
140
0.0
141
0.0
142
1.0
143
1.0
 70
   688
 72
     0
 73
     0
 74
     5
  7

 75
    16
 76
     0
 77
     2
 78
   300
147
1.0
148
0.0
149
0.0
100
AcDbLayout
  1
Layout2
 70
     1
 71
     2
 10
0.0
 20
0.0
 11
0.0
 21
0.0
 12
0.0
 22
0.0
 32
0.0
 14
0.0
 24
0.0
 34
0.0
 15
0.0
 25
0.0
 35
0.0
146
0.0
 13
0.0
 23
0.0
 33
0.0
 16
1.0
 26
0.0
 36
0.0
 17
0.0
 27
1.0
 37
0.0
 76
     0
330
23
  0
LAYOUT
  5
22
102
{ACAD_REACTORS
330
1A
102
}
330
1A
100
AcDbPlotSettings
  1

  2
none_device
  4

  6

 40
0.0
 41
0.0
 42
0.0
 43
0.0
 44
0.0
 45
0.0
 46
0.0
 47
0.0
 48
0.0
 49
0.0
140
0.0
141
0.0
142
1.0
143
1.0
 70
  1712
 72
     0
 73
     0
 74
     0
  7

 75
     0
 76
     0
 77
     2
 78
   300
147
1.0
148
0.0
149
0.0
100
AcDbLayout
  1
Model
 70
     1
 71
     0
 10
0.0
 20
0.0
 11
12.0
 21
9.0
 12
0.0
 22
0.0
 32
0.0
 14
1.000000000000000E+20
 24
1.000000000000000E+20
 34
1.000000000000000E+20
 15
-1.000000000000000E+20
 25
-1.000000000000000E+20
 35
-1.000000000000000E+20
146
0.0
 13
0.0
 23
0.0
 33
0.0
 16
1.0
 26
0.0
 36
0.0
 17
0.0
 27
1.0
 37
0.0
 76
     0
330
1F
331
29
  0
MLINESTYLE
  5
18
102
{ACAD_REACTORS
330
17
102
}
330
17
100
AcDbMlineStyle
  2
Standard
 70
     0
  3

 62
   256
 51
90.0
 52
90.0
 71
     2
 49
0.5
 62
   256
  6
BYLAYER
 49
-0.5
 62
   256
  6
BYLAYER
  0
ACDBPLACEHOLDER
  5
F
102
{ACAD_REACTORS
330
E
102
}
330
E
  0
VISUALSTYLE
  5
2F
102
{ACAD_REACTORS
330
2A
102
}
330
2A
100
AcDbVisualStyle
  2
2dWireframe
 70
     4
 71
     0
 72
     2
 73
     0
 90
        0
 40
-0.6
 41
-30.0
 62
     5
 63
     7
421
 16777215
 74
     1
 91
        4
 64
     7
 65
   257
 75
     1
175
     1
 42
1.0
 92
        0
 66
   257
 43
1.0
 76
     1
 77
     6
 78
     2
 67
     7
 79
     5
170
     0
171
     0
290
     0
174
     0
 93
        1
 44
0.0
173
     0
291
     0
 45
0.0
1001
ACAD
1000
AcDbSavedByObjectVersion
1070
     0
  0
VISUALSTYLE
  5
31
102
{ACAD_REACTORS
330
2A
102
}
330
2A
100
AcDbVisualStyle
  2
3D Hidden
 70
     6
 71
     1
 72
     2
 73
     2
 90
        0
 40
-0.6
 41
-30.0
 62
     5
 63
     7
421
 16777215
 74
     2
 91
        2
 64
     7
 65
   257
 75
     2
175
     1
 42
40.0
 92
        0
 66
   257
 43
1.0
 76
     1
 77
     6
 78
     2
 67
     7
 79
     3
170
     0
171
     0
290
     0
174
     0
 93
        1
 44
0.0
173
     0
291
     0
 45
0.0
1001
ACAD
1000
AcDbSavedByObjectVersion
1070
     0
  0
VISUALSTYLE
  5
30
102
{ACAD_REACTORS
330
2A
102
}
330
2A
100
AcDbVisualStyle
  2
3dWireframe
 70
     5
 71
     0
 72
     2
 73
     0
 90
        0
 40
-0.6
 41
-30.0
 62
     5
 63
     7
421
 16777215
 74
     1
 91
        4
 64
     7
 65
   257
 75
     1
175
     1
 42
1.0
 92
        0
 66
   257
 43
1.0
 76
     1
 77
     6
 78
     2
 67
     7
 79
     5
170
     0
171
     0
290
     0
174
     0
 93
        1
 44
0.0
173
     0
291
     0
 45
0.0
1001
ACAD
1000
AcDbSavedByObjectVersion
1070
     0
  0
VISUALSTYLE
  5
32
102
{ACAD_REACTORS
330
2A
102
}
330
2A
100
AcDbVisualStyle
  2
Basic
 70
     7
 71
     1
 72
     0
 73
     1
 90
        0
 40
-0.6
 41
-30.0
 62
     5
 63
     7
421
 16777215
 74
     0
 91
        4
 64
     7
 65
   257
 75
     1
175
     1
 42
1.0
 92
        8
 66
     7
 43
1.0
 76
     1
 77
     6
 78
     2
 67
     7
 79
     5
170
     0
171
     0
290
     0
174
     0
 93
        1
 44
0.0
173
     0
291
     1
 45
0.0
1001
ACAD
1000
AcDbSavedByObjectVersion
1070
     0
  0
VISUALSTYLE
  5
36
102
{ACAD_REACTORS
330
2A
102
}
330
2A
100
AcDbVisualStyle
  2
Brighten
 70
    12
 71
     2
 72
     2
 73
     0
 90
        0
 40
-0.6
 41
-30.0
 62
     5
 63
     7
421
 16777215
 74
     1
 91
        4
 64
     7
 65
   257
 75
     1
175
     1
 42
1.0
 92
        8
 66
     7
 43
1.0
 76
     1
 77
     6
 78
     2
 67
     7
 79
     5
170
     0
171
     0
290
     0
174
     0
 93
        1
 44
50.0
173
     0
291
     1
 45
0.0
1001
ACAD
1000
AcDbSavedByObjectVersion
1070
     0
  0
VISUALSTYLE
  5
3A
102
{ACAD_REACTORS
330
2A
102
}
330
2A
100
AcDbVisualStyle
  2
ColorChange
 70
    16
 71
     2
 72
     2
 73
     3
 90
        0
 40
-0.6
 41
-30.0
 62
     5
 63
     8
421
  8421504
 74
     1
 91
        4
 64
     7
 65
   257
 75
     1
175
     1
 42
1.0
 92
        8
 66
     8
424
  8421504
 43
1.0
 76
     1
 77
     6
 78
     2
 67
     7
 79
     5
170
     0
171
     0
290
     0
174
     0
 93
        1
 44
0.0
173
     0
291
     1
 45
0.0
1001
ACAD
1000
AcDbSavedByObjectVersion
1070
     0
  0
VISUALSTYLE
  5
34
102
{ACAD_REACTORS
330
2A
102
}
330
2A
100
AcDbVisualStyle
  2
Conceptual
 70
     9
 71
     3
 72
     2
 73
     0
 90
        0
 40
-0.6
 41
-30.0
 62
     5
 63
     7
421
 16777215
 74
     2
 91
        2
 64
     7
 65
   257
 75
     1
175
     1
 42
40.0
 92
        8
 66
     7
 43
1.0
 76
     1
 77
     6
 78
     2
 67
     7
 79
     3
170
     0
171
     0
290
     0
174
     0
 93
        1
 44
0.0
173
     0
291
     0
 45
0.0
1001
ACAD
1000
AcDbSavedByObjectVersion
1070
     0
  0
VISUALSTYLE
  5
35
102
{ACAD_REACTORS
330
2A
102
}
330
2A
100
AcDbVisualStyle
  2
Dim
 70
    11
 71
     2
 72
     2
 73
     0
 90
        0
 40
-0.6
 41
-30.0
 62
     5
 63
     7
421
 16777215
 74
     1
 91
        4
 64
     7
 65
   257
 75
     1
175
     1
 42
1.0
 92
        8
 66
     7
 43
1.0
 76
     1
 77
     6
 78
     2
 67
     7
 79
     5
170
     0
171
     0
290
     0
174
     0
 93
        1
 44
-50.0
173
     0
291
     1
 45
0.0
1001
ACAD
1000
AcDbSavedByObjectVersion
1070
     0
  0
VISUALSTYLE
  5
39
102
{ACAD_REACTORS
330
2A
102
}
330
2A
100
AcDbVisualStyle
  2
Facepattern
 70
    15
 71
     2
 72
     2
 73
     0
 90
        0
 40
-0.6
 41
-30.0
 62
     5
 63
     7
421
 16777215
 74
     1
 91
        4
 64
     7
 65
   257
 75
     1
175
     1
 42
1.0
 92
        8
 66
     7
 43
1.0
 76
     1
 77
     6
 78
     2
 67
     7
 79
     5
170
     0
171
     0
290
     0
174
     0
 93
        1
 44
0.0
173
     0
291
     1
 45
0.0
1001
ACAD
1000
AcDbSavedByObjectVersion
1070
     0
  0
VISUALSTYLE
  5
2B
102
{ACAD_REACTORS
330
2A
102
}
330
2A
100
AcDbVisualStyle
  2
Flat
 70
     0
 71
     2
 72
     1
 73
     1
 90
        2
 40
-0.6
 41
30.0
 62
     5
 63
     7
421
 16777215
 74
     0
 91
        4
 64
     7
 65
   257
 75
     1
175
     1
 42
1.0
 92
        8
 66
     7
 43
1.0
 76
     1
 77
     6
 78
     2
 67
     7
 79
     5
170
     0
171
     0
290
     0
174
     0
 93
       13
 44
0.0
173
     0
291
     1
 45
0.0
1001
ACAD
1000
AcDbSavedByObjectVersion
1070
     0
  0
VISUALSTYLE
  5
2C
102
{ACAD_REACTORS
330
2A
102
}
330
2A
100
AcDbVisualStyle
  2
FlatWithEdges
 70
     1
 71
     2
 72
     1
 73
     1
 90
        2
 40
-0.6
 41
30.0
 62
     5
 63
     7
421
 16777215
 74
     1
 91
        4
 64
     7
 65
   257
 75
     1
175
     1
 42
1.0
 92
        0
 66
   257
 43
1.0
 76
     1
 77
     6
 78
     2
 67
     7
 79
     5
170
     0
171
     0
290
     0
174
     0
 93
       13
 44
0.0
173
     0
291
     1
 45
0.0
1001
ACAD
1000
AcDbSavedByObjectVersion
1070
     0
  0
VISUALSTYLE
  5
2D
102
{ACAD_REACTORS
330
2A
102
}
330
2A
100
AcDbVisualStyle
  2
Gouraud
 70
     2
 71
     2
 72
     2
 73
     1
 90
        2
 40
-0.6
 41
30.0
 62
     5
 63
     7
421
 16777215
 74
     0
 91
        4
 64
     7
 65
   257
 75
     1
175
     1
 42
1.0
 92
        0
 66
     7
 43
1.0
 76
     1
 77
     6
 78
     2
 67
     7
 79
     5
170
     0
171
     0
290
     0
174
     0
 93
       13
 44
0.0
173
     0
291
     1
 45
0.0
1001
ACAD
1000
AcDbSavedByObjectVersion
1070
     0
  0
VISUALSTYLE
  5
2E
102
{ACAD_REACTORS
330
2A
102
}
330
2A
100
AcDbVisualStyle
  2
GouraudWithEdges
 70
     3
 71
     2
 72
     2
 73
     1
 90
        2
 40
-0.6
 41
30.0
 62
     5
 63
     7
421
 16777215
 74
     1
 91
        4
 64
     7
 65
   257
 75
     1
175
     1
 42
1.0
 92
        0
 66
   257
 43
1.0
 76
     1
 77
     6
 78
     2
 67
     7
 79
     5
170
     0
171
     0
290
     0
174
     0
 93
       13
 44
0.0
173
     0
291
     1
 45
0.0
1001
ACAD
1000
AcDbSavedByObjectVersion
1070
     0
  0
VISUALSTYLE
  5
38
102
{ACAD_REACTORS
330
2A
102
}
330
2A
100
AcDbVisualStyle
  2
Linepattern
 70
    14
 71
     2
 72
     2
 73
     0
 90
        0
 40
-0.6
 41
-30.0
 62
     5
 63
     7
421
 16777215
 74
     1
 91
        4
 64
     7
 65
   257
 75
     7
175
     7
 42
1.0
 92
        8
 66
     7
 43
1.0
 76
     1
 77
     6
 78
     2
 67
     7
 79
     5
170
     0
171
     0
290
     0
174
     0
 93
        1
 44
0.0
173
     0
291
     1
 45
0.0
1001
ACAD
1000
AcDbSavedByObjectVersion
1070
     0
  0
VISUALSTYLE
  5
33
102
{ACAD_REACTORS
330
2A
102
}
330
2A
100
AcDbVisualStyle
  2
Realistic
 70
     8
 71
     2
 72
     2
 73
     0
 90
        0
 40
-0.6
 41
-30.0
 62
     5
 63
     7
421
 16777215
 74
     1
 91
        0
 64
     7
 65
   257
 75
     1
175
     1
 42
1.0
 92
        8
 66
     8
424
  7895160
 43
1.0
 76
     1
 77
     6
 78
     2
 67
     7
 79
     5
170
     0
171
     0
290
     0
174
     0
 93
       13
 44
0.0
173
     0
291
     0
 45
0.0
1001
ACAD
1000
AcDbSavedByObjectVersion
1070
     0
  0
VISUALSTYLE
  5
37
102
{ACAD_REACTORS
330
2A
102
}
330
2A
100
AcDbVisualStyle
  2
Thicken
 70
    13
 71
     2
 72
     2
 73
     0
 90
        0
 40
-0.6
 41
-30.0
 62
     5
 63
     7
421
 16777215
 74
     1
 91
        4
 64
     7
 65
   257
 75
     1
175
     1
 42
1.0
 92
       12
 66
     7
 43
1.0
 76
     1
 77
     6
 78
     2
 67
     7
 79
     5
170
     0
171
     0
290
     0
174
     0
 93
        1
 44
0.0
173
     0
291
     1
 45
0.0
1001
ACAD
1000
AcDbSavedByObjectVersion
1070
     0
  0
ENDSEC
  0
EOF
