  0
SECTION
  2
HEADER
  9
$ACADVER
  1
AC1021
  9
$ACADMAINTVER
 70
    25
  9
$DWGCODEPAGE
  3
ANSI_1252
  9
$INSBASE
 10
0.0
 20
0.0
 30
0.0
  9
$EXTMIN
 10
-5.939527559055118
 20
0.0431220472440945
 30
0.0
  9
$EXTMAX
 10
1.205594488188976
 20
4.172003937007874
 30
0.0
  9
$LIMMIN
 10
0.0
 20
0.0
  9
$LIMMAX
 10
12.0
 20
9.0
  9
$ORTHOMODE
 70
     0
  9
$REGENMODE
 70
     1
  9
$FILLMODE
 70
     1
  9
$QTEXTMODE
 70
     0
  9
$MIRRTEXT
 70
     1
  9
$LTSCALE
 40
1.0
  9
$ATTMODE
 70
     1
  9
$TEXTSIZE
 40
0.2
  9
$TRACEWID
 40
0.05
  9
$TEXTSTYLE
  7
Standard
  9
$CLAYER
  8
0
  9
$CELTYPE
  6
ByLayer
  9
$CECOLOR
 62
   256
  9
$CELTSCALE
 40
1.0
  9
$DISPSILH
 70
     0
  9
$DIMSCALE
 40
1.0
  9
$DIMASZ
 40
0.18
  9
$DIMEXO
 40
0.0625
  9
$DIMDLI
 40
0.38
  9
$DIMRND
 40
0.0
  9
$DIMDLE
 40
0.0
  9
$DIMEXE
 40
0.18
  9
$DIMTP
 40
0.0
  9
$DIMTM
 40
0.0
  9
$DIMTXT
 40
0.18
  9
$DIMCEN
 40
0.09
  9
$DIMTSZ
 40
0.0
  9
$DIMTOL
 70
     0
  9
$DIMLIM
 70
     0
  9
$DIMTIH
 70
     1
  9
$DIMTOH
 70
     1
  9
$DIMSE1
 70
     0
  9
$DIMSE2
 70
     0
  9
$DIMTAD
 70
     0
  9
$DIMZIN
 70
     0
  9
$DIMBLK
  1

  9
$DIMASO
 70
     1
  9
$DIMSHO
 70
     1
  9
$DIMPOST
  1

  9
$DIMAPOST
  1

  9
$DIMALT
 70
     0
  9
$DIMALTD
 70
     2
  9
$DIMALTF
 40
25.4
  9
$DIMLFAC
 40
1.0
  9
$DIMTOFL
 70
     0
  9
$DIMTVP
 40
0.0
  9
$DIMTIX
 70
     0
  9
$DIMSOXD
 70
     0
  9
$DIMSAH
 70
     0
  9
$DIMBLK1
  1

  9
$DIMBLK2
  1

  9
$DIMSTYLE
  2
Standard
  9
$DIMCLRD
 70
     0
  9
$DIMCLRE
 70
     0
  9
$DIMCLRT
 70
     0
  9
$DIMTFAC
 40
1.0
  9
$DIMGAP
 40
0.09
  9
$DIMJUST
 70
     0
  9
$DIMSD1
 70
     0
  9
$DIMSD2
 70
     0
  9
$DIMTOLJ
 70
     1
  9
$DIMTZIN
 70
     0
  9
$DIMALTZ
 70
     0
  9
$DIMALTTZ
 70
     0
  9
$DIMUPT
 70
     0
  9
$DIMDEC
 70
     4
  9
$DIMTDEC
 70
     4
  9
$DIMALTU
 70
     2
  9
$DIMALTTD
 70
     2
  9
$DIMTXSTY
  7
Standard
  9
$DIMAUNIT
 70
     0
  9
$DIMADEC
 70
     0
  9
$DIMALTRND
 40
0.0
  9
$DIMAZIN
 70
     0
  9
$DIMDSEP
 70
    46
  9
$DIMATFIT
 70
     3
  9
$DIMFRAC
 70
     0
  9
$DIMLDRBLK
  1

  9
$DIMLUNIT
 70
     2
  9
$DIMLWD
 70
    -2
  9
$DIMLWE
 70
    -2
  9
$DIMTMOVE
 70
     0
  9
$DIMFXL
 40
1.0
  9
$DIMFXLON
 70
     0
  9
$DIMJOGANG
 40
0.7853981633974483
  9
$DIMTFILL
 70
     0
  9
$DIMTFILLCLR
 70
     0
  9
$DIMARCSYM
 70
     0
  9
$DIMLTYPE
  6

  9
$DIMLTEX1
  6

  9
$DIMLTEX2
  6

  9
$LUNITS
 70
     2
  9
$LUPREC
 70
     4
  9
$SKETCHINC
 40
0.1
  9
$FILLETRAD
 40
0.5
  9
$AUNITS
 70
     0
  9
$AUPREC
 70
     0
  9
$MENU
  1
.
  9
$ELEVATION
 40
0.0
  9
$PELEVATION
 40
0.0
  9
$THICKNESS
 40
0.0
  9
$LIMCHECK
 70
     0
  9
$CHAMFERA
 40
0.0
  9
$CHAMFERB
 40
0.0
  9
$CHAMFERC
 40
0.0
  9
$CHAMFERD
 40
0.0
  9
$SKPOLY
 70
     0
  9
$TDCREATE
 40
2457070.363308808
  9
$TDUCREATE
 40
2457070.571642141
  9
$TDUPDATE
 40
2457070.363308982
  9
$TDUUPDATE
 40
2457070.571642315
  9
$TDINDWG
 40
0.0000000116
  9
$TDUSRTIMER
 40
0.0000000116
  9
$USRTIMER
 70
     1
  9
$ANGBASE
 50
0.0
  9
$ANGDIR
 70
     0
  9
$PDMODE
 70
     0
  9
$PDSIZE
 40
0.0
  9
$PLINEWID
 40
0.0
  9
$SPLFRAME
 70
     0
  9
$SPLINETYPE
 70
     6
  9
$SPLINESEGS
 70
     8
  9
$HANDSEED
  5
DD
  9
$SURFTAB1
 70
     6
  9
$SURFTAB2
 70
     6
  9
$SURFTYPE
 70
     6
  9
$SURFU
 70
     6
  9
$SURFV
 70
     6
  9
$UCSBASE
  2

  9
$UCSNAME
  2

  9
$UCSORG
 10
0.0
 20
0.0
 30
0.0
  9
$UCSXDIR
 10
1.0
 20
0.0
 30
0.0
  9
$UCSYDIR
 10
0.0
 20
1.0
 30
0.0
  9
$UCSORTHOREF
  2

  9
$UCSORTHOVIEW
 70
     0
  9
$UCSORGTOP
 10
0.0
 20
0.0
 30
0.0
  9
$UCSORGBOTTOM
 10
0.0
 20
0.0
 30
0.0
  9
$UCSORGLEFT
 10
0.0
 20
0.0
 30
0.0
  9
$UCSORGRIGHT
 10
0.0
 20
0.0
 30
0.0
  9
$UCSORGFRONT
 10
0.0
 20
0.0
 30
0.0
  9
$UCSORGBACK
 10
0.0
 20
0.0
 30
0.0
  9
$PUCSBASE
  2

  9
$PUCSNAME
  2

  9
$PUCSORG
 10
0.0
 20
0.0
 30
0.0
  9
$PUCSXDIR
 10
1.0
 20
0.0
 30
0.0
  9
$PUCSYDIR
 10
0.0
 20
1.0
 30
0.0
  9
$PUCSORTHOREF
  2

  9
$PUCSORTHOVIEW
 70
     0
  9
$PUCSORGTOP
 10
0.0
 20
0.0
 30
0.0
  9
$PUCSORGBOTTOM
 10
0.0
 20
0.0
 30
0.0
  9
$PUCSORGLEFT
 10
0.0
 20
0.0
 30
0.0
  9
$PUCSORGRIGHT
 10
0.0
 20
0.0
 30
0.0
  9
$PUCSORGFRONT
 10
0.0
 20
0.0
 30
0.0
  9
$PUCSORGBACK
 10
0.0
 20
0.0
 30
0.0
  9
$USERI1
 70
     0
  9
$USERI2
 70
     0
  9
$USERI3
 70
     0
  9
$USERI4
 70
     0
  9
$USERI5
 70
     0
  9
$USERR1
 40
0.0
  9
$USERR2
 40
0.0
  9
$USERR3
 40
0.0
  9
$USERR4
 40
0.0
  9
$USERR5
 40
0.0
  9
$WORLDVIEW
 70
     1
  9
$SHADEDGE
 70
     3
  9
$SHADEDIF
 70
    70
  9
$TILEMODE
 70
     1
  9
$MAXACTVP
 70
    64
  9
$PINSBASE
 10
0.0
 20
0.0
 30
0.0
  9
$PLIMCHECK
 70
     0
  9
$PEXTMIN
 10
1.000000000000000E+20
 20
1.000000000000000E+20
 30
1.000000000000000E+20
  9
$PEXTMAX
 10
-1.000000000000000E+20
 20
-1.000000000000000E+20
 30
-1.000000000000000E+20
  9
$PLIMMIN
 10
0.0
 20
0.0
  9
$PLIMMAX
 10
12.0
 20
9.0
  9
$UNITMODE
 70
     0
  9
$VISRETAIN
 70
     1
  9
$PLINEGEN
 70
     0
  9
$PSLTSCALE
 70
     1
  9
$TREEDEPTH
 70
  3020
  9
$CMLSTYLE
  2
Standard
  9
$CMLJUST
 70
     0
  9
$CMLSCALE
 40
1.0
  9
$PROXYGRAPHICS
 70
     1
  9
$MEASUREMENT
 70
     0
  9
$CELWEIGHT
370
    -1
  9
$ENDCAPS
280
     0
  9
$JOINSTYLE
280
     0
  9
$LWDISPLAY
290
     0
  9
$INSUNITS
 70
     1
  9
$HYPERLINKBASE
  1

  9
$STYLESHEET
  1

  9
$XEDIT
290
     1
  9
$CEPSNTYPE
380
     0
  9
$PSTYLEMODE
290
     1
  9
$FINGERPRINTGUID
  2
{CBF4AB3B-6094-4F3E-A42F-7ECE21891395}
  9
$VERSIONGUID
  2
{FAEB1C32-E019-11D5-929B-00C0DF256EC4}
  9
$EXTNAMES
290
     1
  9
$PSVPSCALE
 40
0.0
  9
$OLESTARTUP
290
     0
  9
$SORTENTS
280
   127
  9
$INDEXCTL
280
     0
  9
$HIDETEXT
280
     1
  9
$XCLIPFRAME
290
     0
  9
$HALOGAP
280
     0
  9
$OBSCOLOR
 70
   257
  9
$OBSLTYPE
280
     0
  9
$INTERSECTIONDISPLAY
280
     0
  9
$INTERSECTIONCOLOR
 70
   257
  9
$DIMASSOC
280
     2
  9
$PROJECTNAME
  1

  9
$CAMERADISPLAY
290
     0
  9
$LENSLENGTH
 40
50.0
  9
$CAMERAHEIGHT
 40
0.0
  9
$STEPSPERSEC
 40
2.0
  9
$STEPSIZE
 40
6.0
  9
$3DDWFPREC
 40
2.0
  9
$PSOLWIDTH
 40
0.25
  9
$PSOLHEIGHT
 40
4.0
  9
$LOFTANG1
 40
1.570796326794897
  9
$LOFTANG2
 40
1.570796326794897
  9
$LOFTMAG1
 40
0.0
  9
$LOFTMAG2
 40
0.0
  9
$LOFTPARAM
 70
     7
  9
$LOFTNORMALS
280
     1
  9
$LATITUDE
 40
37.795
  9
$LONGITUDE
 40
-122.394
  9
$NORTHDIRECTION
 40
0.0
  9
$TIMEZONE
 70
 -8000
  9
$LIGHTGLYPHDISPLAY
280
     1
  9
$TILEMODELIGHTSYNCH
280
     1
  9
$CMATERIAL
347
44
  9
$SOLIDHIST
280
     0
  9
$SHOWHIST
280
     1
  9
$DWFFRAME
280
     2
  9
$DGNFRAME
280
     2
  9
$REALWORLDSCALE
290
     1
  9
$INTERFERECOLOR
 62
   256
  9
$CSHADOW
280
     0
  9
$SHADOWPLANELOCATION
 40
0.0
  0
ENDSEC
  0
SECTION
  2
CLASSES
  0
CLASS
  1
ACDBDICTIONARYWDFLT
  2
AcDbDictionaryWithDefault
  3
ObjectDBX Classes
 90
        0
 91
        4
280
     0
281
     0
  0
CLASS
  1
VISUALSTYLE
  2
AcDbVisualStyle
  3
ObjectDBX Classes
 90
     4095
 91
        4
280
     0
281
     0
  0
CLASS
  1
MATERIAL
  2
AcDbMaterial
  3
ObjectDBX Classes
 90
     1153
 91
        4
280
     0
281
     0
  0
CLASS
  1
SCALE
  2
AcDbScale
  3
ObjectDBX Classes
 90
     1153
 91
        4
280
     0
281
     0
  0
CLASS
  1
TABLESTYLE
  2
AcDbTableStyle
  3
ObjectDBX Classes
 90
     4095
 91
        4
280
     0
281
     0
  0
CLASS
  1
MLEADERSTYLE
  2
AcDbMLeaderStyle
  3
ACDB_MLEADERSTYLE_CLASS
 90
     4095
 91
        4
280
     0
281
     0
  0
CLASS
  1
SUN
  2
AcDbSun
  3
SCENEOE
 90
     1153
 91
        4
280
     0
281
     0
  0
CLASS
  1
DICTIONARYVAR
  2
AcDbDictionaryVar
  3
ObjectDBX Classes
 90
        0
 91
        4
280
     0
281
     0
  0
CLASS
  1
CELLSTYLEMAP
  2
AcDbCellStyleMap
  3
ObjectDBX Classes
 90
     1152
 91
        4
280
     0
281
     0
  0
ENDSEC
  0
SECTION
  2
TABLES
  0
TABLE
  2
VPORT
  5
8
330
0
100
AcDbSymbolTable
 70
     1
  0
VPORT
  5
29
330
8
100
AcDbSymbolTableRecord
100
AcDbViewportTableRecord
  2
*Active
 70
     0
 10
0.0
 20
0.0
 11
1.0
 21
1.0
 12
10.42990654205607
 22
4.5
 13
0.0
 23
0.0
 14
0.5
 24
0.5
 15
0.5
 25
0.5
 16
0.0
 26
0.0
 36
1.0
 17
0.0
 27
0.0
 37
0.0
 40
9.0
 41
1.972972972850329
 42
50.0
 43
0.0
 44
0.0
 50
0.0
 51
0.0
 71
     0
 72
   100
 73
     1
 74
     3
 75
     0
 76
     0
 77
     0
 78
     0
281
     0
 65
     1
110
0.0
120
0.0
130
0.0
111
1.0
121
0.0
131
0.0
112
0.0
122
1.0
132
0.0
 79
     0
146
0.0
 60
     3
 61
     5
292
     1
282
     1
141
0.0
142
0.0
 63
   250
361
6D
  0
ENDTAB
  0
TABLE
  2
LTYPE
  5
5
330
0
100
AcDbSymbolTable
 70
     1
  0
LTYPE
  5
14
330
5
100
AcDbSymbolTableRecord
100
AcDbLinetypeTableRecord
  2
ByBlock
 70
     0
  3

 72
    65
 73
     0
 40
0.0
  0
LTYPE
  5
15
330
5
100
AcDbSymbolTableRecord
100
AcDbLinetypeTableRecord
  2
ByLayer
 70
     0
  3

 72
    65
 73
     0
 40
0.0
  0
LTYPE
  5
16
330
5
100
AcDbSymbolTableRecord
100
AcDbLinetypeTableRecord
  2
Continuous
 70
     0
  3
Solid line
 72
    65
 73
     0
 40
0.0
  0
ENDTAB
  0
TABLE
  2
LAYER
  5
2
330
0
100
AcDbSymbolTable
 70
     2
  0
LAYER
  5
10
330
2
100
AcDbSymbolTableRecord
100
AcDbLayerTableRecord
  2
0
 70
     0
 62
     7
  6
Continuous
370
    -3
390
F
347
46
  0
LAYER
  5
6F
330
2
100
AcDbSymbolTableRecord
100
AcDbLayerTableRecord
  2
Layer 1
 70
     0
 62
     7
  6
Continuous
370
    -3
390
F
347
46
  0
ENDTAB
  0
TABLE
  2
STYLE
  5
3
330
0
100
AcDbSymbolTable
 70
     1
  0
STYLE
  5
11
330
3
100
AcDbSymbolTableRecord
100
AcDbTextStyleTableRecord
  2
Standard
 70
     0
 40
0.0
 41
1.0
 50
0.0
 71
     0
 42
0.2
  3
txt
  4

  0
ENDTAB
  0
TABLE
  2
VIEW
  5
6
330
0
100
AcDbSymbolTable
 70
     0
  0
ENDTAB
  0
TABLE
  2
UCS
  5
7
330
0
100
AcDbSymbolTable
 70
     0
  0
ENDTAB
  0
TABLE
  2
APPID
  5
9
330
0
100
AcDbSymbolTable
 70
     3
  0
APPID
  5
12
330
9
100
AcDbSymbolTableRecord
100
AcDbRegAppTableRecord
  2
ACAD
 70
     0
  0
APPID
  5
6E
330
9
100
AcDbSymbolTableRecord
100
AcDbRegAppTableRecord
  2
ODA
 70
     0
  0
APPID
  5
D5
330
9
100
AcDbSymbolTableRecord
100
AcDbRegAppTableRecord
  2
ACAD_MLEADERVER
 70
     0
  0
ENDTAB
  0
TABLE
  2
DIMSTYLE
  5
A
330
0
100
AcDbSymbolTable
 70
     1
100
AcDbDimStyleTable
  0
DIMSTYLE
105
27
330
A
100
AcDbSymbolTableRecord
100
AcDbDimStyleTableRecord
  2
Standard
 70
     0
178
     0
340
11
  0
ENDTAB
  0
TABLE
  2
BLOCK_RECORD
  5
1
330
0
100
AcDbSymbolTable
 70
     1
  0
BLOCK_RECORD
  5
1F
330
1
100
AcDbSymbolTableRecord
100
AcDbBlockTableRecord
  2
*Model_Space
340
22
 70
     0
280
     1
281
     0
  0
BLOCK_RECORD
  5
1B
330
1
100
AcDbSymbolTableRecord
100
AcDbBlockTableRecord
  2
*Paper_Space
340
1E
 70
     0
280
     1
281
     0
  0
BLOCK_RECORD
  5
23
330
1
100
AcDbSymbolTableRecord
100
AcDbBlockTableRecord
  2
*Paper_Space0
340
26
 70
     0
280
     1
281
     0
  0
ENDTAB
  0
ENDSEC
  0
SECTION
  2
BLOCKS
  0
BLOCK
  5
20
330
1F
100
AcDbEntity
  8
0
100
AcDbBlockBegin
  2
*Model_Space
 70
     0
 10
0.0
 20
0.0
 30
0.0
  3
*Model_Space
  1
*Model_Space
  0
ENDBLK
  5
21
330
1F
100
AcDbEntity
  8
0
100
AcDbBlockEnd
  0
BLOCK
  5
1C
330
1B
100
AcDbEntity
 67
     1
  8
0
100
AcDbBlockBegin
  2
*Paper_Space
 70
     0
 10
0.0
 20
0.0
 30
0.0
  3
*Paper_Space
  1
*Paper_Space
  0
ENDBLK
  5
1D
330
1B
100
AcDbEntity
 67
     1
  8
0
100
AcDbBlockEnd
  0
BLOCK
  5
24
330
23
100
AcDbEntity
  8
0
100
AcDbBlockBegin
  2
*Paper_Space0
 70
     0
 10
0.0
 20
0.0
 30
0.0
  3
*Paper_Space0
  1
*Paper_Space0
  0
ENDBLK
  5
25
330
23
100
AcDbEntity
  8
0
100
AcDbBlockEnd
  0
ENDSEC
  0
SECTION
  2
ENTITIES
  0
LWPOLYLINE
  5
70
330
1F
100
AcDbEntity
  8
Layer 1
 62
   250
370
    18
100
AcDbPolyline
 90
        5
 70
     1
 43
0.0
 10
-5.936055118110236
 20
0.0465984251968504
 10
1.20211811023622
 20
0.0465984251968504
 10
1.20211811023622
 20
4.165488188976378
 10
-5.936055118110236
 20
4.165488188976378
 10
-5.936055118110236
 20
0.0465984251968504
  0
LWPOLYLINE
  5
71
330
1F
100
AcDbEntity
  8
Layer 1
 62
   250
370
    18
100
AcDbPolyline
 90
        5
 70
     1
 43
0.0
 10
-5.709665354330709
 20
3.643637795275591
 10
-5.544665354330709
 20
3.643637795275591
 10
-5.544665354330709
 20
4.163385826771654
 10
-5.709665354330709
 20
4.163385826771654
 10
-5.709665354330709
 20
3.643637795275591
  0
LWPOLYLINE
  5
72
330
1F
100
AcDbEntity
  8
Layer 1
 62
   250
370
    18
100
AcDbPolyline
 90
        5
 70
     1
 43
0.0
 10
-5.294165354330708
 20
3.645212598425197
 10
-5.130165354330709
 20
3.645212598425197
 10
-5.130165354330709
 20
4.161811023622048
 10
-5.294165354330708
 20
4.161811023622048
 10
-5.294165354330708
 20
3.645212598425197
  0
LWPOLYLINE
  5
73
330
1F
100
AcDbEntity
  8
Layer 1
 62
   250
370
    18
100
AcDbPolyline
 90
        5
 70
     1
 43
0.0
 10
-4.878665354330709
 20
3.65459842519685
 10
-4.715665354330708
 20
3.65459842519685
 10
-4.715665354330708
 20
4.168047244094488
 10
-4.878665354330709
 20
4.168047244094488
 10
-4.878665354330709
 20
3.65459842519685
  0
LWPOLYLINE
  5
74
330
1F
100
AcDbEntity
  8
Layer 1
 62
   250
370
    18
100
AcDbPolyline
 90
        5
 70
     1
 43
0.0
 10
-4.463165354330709
 20
3.656173228346457
 10
-4.301165354330709
 20
3.656173228346457
 10
-4.301165354330709
 20
4.166472440944882
 10
-4.463165354330709
 20
4.166472440944882
 10
-4.463165354330709
 20
3.656173228346457
  0
LWPOLYLINE
  5
75
330
1F
100
AcDbEntity
  8
Layer 1
 62
   250
370
    18
100
AcDbPolyline
 90
        5
 70
     1
 43
0.0
 10
-4.047665354330709
 20
3.660354330708661
 10
-3.886665354330709
 20
3.660354330708661
 10
-3.886665354330709
 20
4.167503937007874
 10
-4.047665354330709
 20
4.167503937007874
 10
-4.047665354330709
 20
3.660354330708661
  0
LWPOLYLINE
  5
76
330
1F
100
AcDbEntity
  8
Layer 1
 62
   250
370
    18
100
AcDbPolyline
 90
        5
 70
     1
 43
0.0
 10
-3.632165354330709
 20
3.664531496062992
 10
-3.472165354330709
 20
3.664531496062992
 10
-3.472165354330709
 20
4.168531496062992
 10
-3.632165354330709
 20
4.168531496062992
 10
-3.632165354330709
 20
3.664531496062992
  0
LWPOLYLINE
  5
77
330
1F
100
AcDbEntity
  8
Layer 1
 62
   250
370
    18
100
AcDbPolyline
 90
        5
 70
     1
 43
0.0
 10
-3.216665354330709
 20
3.663507874015748
 10
-3.057665354330709
 20
3.663507874015748
 10
-3.057665354330709
 20
4.164350393700787
 10
-3.216665354330709
 20
4.164350393700787
 10
-3.216665354330709
 20
3.663507874015748
  0
LWPOLYLINE
  5
78
330
1F
100
AcDbEntity
  8
Layer 1
 62
   250
370
    18
100
AcDbPolyline
 90
        5
 70
     1
 43
0.0
 10
-2.801165354330708
 20
3.670287401574803
 10
-2.643165354330709
 20
3.670287401574803
 10
-2.643165354330709
 20
4.167988188976378
 10
-2.801165354330708
 20
4.167988188976378
 10
-2.801165354330708
 20
3.670287401574803
  0
LWPOLYLINE
  5
79
330
1F
100
AcDbEntity
  8
Layer 1
 62
   250
370
    18
100
AcDbPolyline
 90
        5
 70
     1
 43
0.0
 10
-2.385665354330709
 20
3.671862204724409
 10
-2.228665354330709
 20
3.671862204724409
 10
-2.228665354330709
 20
4.166413385826772
 10
-2.385665354330709
 20
4.166413385826772
 10
-2.385665354330709
 20
3.671862204724409
  0
LWPOLYLINE
  5
7A
330
1F
100
AcDbEntity
  8
Layer 1
 62
   250
370
    18
100
AcDbPolyline
 90
        5
 70
     1
 43
0.0
 10
-1.970165354330709
 20
3.676043307086614
 10
-1.814165354330709
 20
3.676043307086614
 10
-1.814165354330709
 20
4.167437007874016
 10
-1.970165354330709
 20
4.167437007874016
 10
-1.970165354330709
 20
3.676043307086614
  0
LWPOLYLINE
  5
7B
330
1F
100
AcDbEntity
  8
Layer 1
 62
   250
370
    18
100
AcDbPolyline
 90
        5
 70
     1
 43
0.0
 10
-1.554165354330709
 20
3.681799212598425
 10
-1.400165354330709
 20
3.681799212598425
 10
-1.400165354330709
 20
4.166893700787401
 10
-1.554165354330709
 20
4.166893700787401
 10
-1.554165354330709
 20
3.681799212598425
  0
LWPOLYLINE
  5
7C
330
1F
100
AcDbEntity
  8
Layer 1
 62
   250
370
    18
100
AcDbPolyline
 90
        5
 70
     1
 43
0.0
 10
-1.138665354330709
 20
3.683641732283465
 10
-0.9856653543307087
 20
3.683641732283465
 10
-0.9856653543307087
 20
4.165594488188977
 10
-1.138665354330709
 20
4.165594488188977
 10
-1.138665354330709
 20
3.683641732283465
  0
LWPOLYLINE
  5
7D
330
1F
100
AcDbEntity
  8
Layer 1
 62
   250
370
    18
100
AcDbPolyline
 90
        5
 70
     1
 43
0.0
 10
-0.7231653543307086
 20
3.685216535433071
 10
-0.5711653543307087
 20
3.685216535433071
 10
-0.5711653543307087
 20
4.16401968503937
 10
-0.7231653543307086
 20
4.16401968503937
 10
-0.7231653543307086
 20
3.685216535433071
  0
LWPOLYLINE
  5
7E
330
1F
100
AcDbEntity
  8
Layer 1
 62
   250
370
    18
100
AcDbPolyline
 90
        5
 70
     1
 43
0.0
 10
-0.3076653543307087
 20
3.686795275590551
 10
-0.1566653543307087
 20
3.686795275590551
 10
-0.1566653543307087
 20
4.16244094488189
 10
-0.3076653543307087
 20
4.16244094488189
 10
-0.3076653543307087
 20
3.686795275590551
  0
SPLINE
  5
7F
330
1F
100
AcDbEntity
  8
Layer 1
 62
   250
100
AcDbSpline
210
0.0
220
0.0
230
1.0
 70
    11
 71
     3
 72
    20
 73
    16
 74
     0
 42
0.000000001
 43
0.0000000001
 40
0.0
 40
0.0
 40
0.0
 40
0.0
 40
0.2
 40
0.2
 40
0.2
 40
0.2
 40
0.4
 40
0.4
 40
0.4
 40
0.4
 40
0.6
 40
0.6
 40
0.6
 40
0.6
 40
1.0
 40
1.0
 40
1.0
 40
1.0
 10
-5.841291338582677
 20
3.49796062992126
 30
0.0
 10
-5.841291338582677
 20
3.49796062992126
 30
0.0
 10
-5.841291338582677
 20
3.617291338582677
 30
0.0
 10
-5.841291338582677
 20
3.617291338582677
 30
0.0
 10
-5.841291338582677
 20
3.617291338582677
 30
0.0
 10
-5.841291338582677
 20
3.617291338582677
 30
0.0
 10
-5.826622047244094
 20
3.617291338582677
 30
0.0
 10
-5.826622047244094
 20
3.617291338582677
 30
0.0
 10
-5.826622047244094
 20
3.617291338582677
 30
0.0
 10
-5.826622047244094
 20
3.617291338582677
 30
0.0
 10
-5.826622047244094
 20
3.49796062992126
 30
0.0
 10
-5.826622047244094
 20
3.49796062992126
 30
0.0
 10
-5.826622047244094
 20
3.49796062992126
 30
0.0
 10
-5.826622047244094
 20
3.49796062992126
 30
0.0
 10
-5.841291338582677
 20
3.49796062992126
 30
0.0
 10
-5.841291338582677
 20
3.49796062992126
 30
0.0
  0
SPLINE
  5
80
330
1F
100
AcDbEntity
  8
Layer 1
 62
   250
100
AcDbSpline
210
0.0
220
0.0
230
1.0
 70
    11
 71
     3
 72
   112
 73
   108
 74
     0
 42
0.000000001
 43
0.0000000001
 40
0.0
 40
0.0
 40
0.0
 40
0.0
 40
0.0357142857142857
 40
0.0357142857142857
 40
0.0357142857142857
 40
0.0357142857142857
 40
0.0714285714285714
 40
0.0714285714285714
 40
0.0714285714285714
 40
0.0714285714285714
 40
0.1071428571428571
 40
0.1071428571428571
 40
0.1071428571428571
 40
0.1071428571428571
 40
0.1428571428571428
 40
0.1428571428571428
 40
0.1428571428571428
 40
0.1428571428571428
 40
0.1785714285714286
 40
0.1785714285714286
 40
0.1785714285714286
 40
0.1785714285714286
 40
0.2142857142857143
 40
0.2142857142857143
 40
0.2142857142857143
 40
0.2142857142857143
 40
0.25
 40
0.25
 40
0.25
 40
0.25
 40
0.2857142857142857
 40
0.2857142857142857
 40
0.2857142857142857
 40
0.2857142857142857
 40
0.3214285714285715
 40
0.3214285714285715
 40
0.3214285714285715
 40
0.3214285714285715
 40
0.3571428571428572
 40
0.3571428571428572
 40
0.3571428571428572
 40
0.3571428571428572
 40
0.3928571428571428
 40
0.3928571428571428
 40
0.3928571428571428
 40
0.3928571428571428
 40
0.4285714285714285
 40
0.4285714285714285
 40
0.4285714285714285
 40
0.4285714285714285
 40
0.4642857142857143
 40
0.4642857142857143
 40
0.4642857142857143
 40
0.4642857142857143
 40
0.5
 40
0.5
 40
0.5
 40
0.5
 40
0.5357142857142857
 40
0.5357142857142857
 40
0.5357142857142857
 40
0.5357142857142857
 40
0.5714285714285714
 40
0.5714285714285714
 40
0.5714285714285714
 40
0.5714285714285714
 40
0.6071428571428571
 40
0.6071428571428571
 40
0.6071428571428571
 40
0.6071428571428571
 40
0.6428571428571429
 40
0.6428571428571429
 40
0.6428571428571429
 40
0.6428571428571429
 40
0.6785714285714286
 40
0.6785714285714286
 40
0.6785714285714286
 40
0.6785714285714286
 40
0.7142857142857143
 40
0.7142857142857143
 40
0.7142857142857143
 40
0.7142857142857143
 40
0.75
 40
0.75
 40
0.75
 40
0.75
 40
0.7857142857142857
 40
0.7857142857142857
 40
0.7857142857142857
 40
0.7857142857142857
 40
0.8214285714285714
 40
0.8214285714285714
 40
0.8214285714285714
 40
0.8214285714285714
 40
0.8571428571428571
 40
0.8571428571428571
 40
0.8571428571428571
 40
0.8571428571428571
 40
0.8928571428571429
 40
0.8928571428571429
 40
0.8928571428571429
 40
0.8928571428571429
 40
0.9285714285714286
 40
0.9285714285714286
 40
0.9285714285714286
 40
0.9285714285714286
 40
1.0
 40
1.0
 40
1.0
 40
1.0
 10
-5.747429133858268
 20
3.508795275590551
 30
0.0
 10
-5.752874015748032
 20
3.504153543307087
 30
0.0
 10
-5.758125984251969
 20
3.500905511811024
 30
0.0
 10
-5.763153543307086
 20
3.498988188976378
 30
0.0
 10
-5.763153543307086
 20
3.498988188976378
 30
0.0
 10
-5.768181102362205
 20
3.497070866141732
 30
0.0
 10
-5.773566929133858
 20
3.496125984251969
 30
0.0
 10
-5.779346456692913
 20
3.496125984251969
 30
0.0
 10
-5.779346456692913
 20
3.496125984251969
 30
0.0
 10
-5.788846456692913
 20
3.496125984251969
 30
0.0
 10
-5.796149606299212
 20
3.498433070866142
 30
0.0
 10
-5.801263779527559
 20
3.503070866141732
 30
0.0
 10
-5.801263779527559
 20
3.503070866141732
 30
0.0
 10
-5.806374015748031
 20
3.507681102362205
 30
0.0
 10
-5.808929133858268
 20
3.51359842519685
 30
0.0
 10
-5.808929133858268
 20
3.520795275590551
 30
0.0
 10
-5.808929133858268
 20
3.520795275590551
 30
0.0
 10
-5.808929133858268
 20
3.525015748031496
 30
0.0
 10
-5.807956692913386
 20
3.528877952755905
 30
0.0
 10
-5.80603937007874
 20
3.532377952755906
 30
0.0
 10
-5.80603937007874
 20
3.532377952755906
 30
0.0
 10
-5.804094488188976
 20
3.535877952755905
 30
0.0
 10
-5.801566929133858
 20
3.538653543307086
 30
0.0
 10
-5.798456692913386
 20
3.540767716535433
 30
0.0
 10
-5.798456692913386
 20
3.540767716535433
 30
0.0
 10
-5.795318897637795
 20
3.542877952755906
 30
0.0
 10
-5.791818897637795
 20
3.544488188976378
 30
0.0
 10
-5.78790157480315
 20
3.545570866141732
 30
0.0
 10
-5.78790157480315
 20
3.545570866141732
 30
0.0
 10
-5.785011811023622
 20
3.546322834645669
 30
0.0
 10
-5.780653543307086
 20
3.547043307086614
 30
0.0
 10
-5.774846456692913
 20
3.547767716535433
 30
0.0
 10
-5.774846456692913
 20
3.547767716535433
 30
0.0
 10
-5.763011811023622
 20
3.549153543307086
 30
0.0
 10
-5.754263779527559
 20
3.550850393700788
 30
0.0
 10
-5.748681102362204
 20
3.552795275590551
 30
0.0
 10
-5.748681102362204
 20
3.552795275590551
 30
0.0
 10
-5.748625984251968
 20
3.554795275590551
 30
0.0
 10
-5.748594488188976
 20
3.556070866141732
 30
0.0
 10
-5.748594488188976
 20
3.55659842519685
 30
0.0
 10
-5.748594488188976
 20
3.55659842519685
 30
0.0
 10
-5.748594488188976
 20
3.562543307086614
 30
0.0
 10
-5.749984251968504
 20
3.566736220472441
 30
0.0
 10
-5.752763779527559
 20
3.569181102362205
 30
0.0
 10
-5.752763779527559
 20
3.569181102362205
 30
0.0
 10
-5.756511811023622
 20
3.572488188976378
 30
0.0
 10
-5.762094488188977
 20
3.574125984251968
 30
0.0
 10
-5.769484251968504
 20
3.574125984251968
 30
0.0
 10
-5.769484251968504
 20
3.574125984251968
 30
0.0
 10
-5.77640157480315
 20
3.574125984251968
 30
0.0
 10
-5.781511811023622
 20
3.572905511811024
 30
0.0
 10
-5.784791338582677
 20
3.570488188976378
 30
0.0
 10
-5.784791338582677
 20
3.570488188976378
 30
0.0
 10
-5.788094488188976
 20
3.568070866141732
 30
0.0
 10
-5.790511811023622
 20
3.563795275590551
 30
0.0
 10
-5.792094488188976
 20
3.557625984251969
 30
0.0
 10
-5.792094488188976
 20
3.557625984251969
 30
0.0
 10
-5.792094488188976
 20
3.557625984251969
 30
0.0
 10
-5.806429133858268
 20
3.559625984251968
 30
0.0
 10
-5.806429133858268
 20
3.559625984251968
 30
0.0
 10
-5.806429133858268
 20
3.559625984251968
 30
0.0
 10
-5.805122047244095
 20
3.565763779527559
 30
0.0
 10
-5.802984251968504
 20
3.570736220472441
 30
0.0
 10
-5.799984251968504
 20
3.574515748031496
 30
0.0
 10
-5.799984251968504
 20
3.574515748031496
 30
0.0
 10
-5.796984251968504
 20
3.578295275590551
 30
0.0
 10
-5.792649606299213
 20
3.581181102362205
 30
0.0
 10
-5.786984251968504
 20
3.583236220472441
 30
0.0
 10
-5.786984251968504
 20
3.583236220472441
 30
0.0
 10
-5.781346456692914
 20
3.585263779527559
 30
0.0
 10
-5.774763779527559
 20
3.586291338582677
 30
0.0
 10
-5.767318897637796
 20
3.586291338582677
 30
0.0
 10
-5.767318897637796
 20
3.586291338582677
 30
0.0
 10
-5.759929133858268
 20
3.586291338582677
 30
0.0
 10
-5.75390157480315
 20
3.585433070866142
 30
0.0
 10
-5.749263779527559
 20
3.583681102362205
 30
0.0
 10
-5.749263779527559
 20
3.583681102362205
 30
0.0
 10
-5.744653543307087
 20
3.581933070866142
 30
0.0
 10
-5.741236220472441
 20
3.579763779527559
 30
0.0
 10
-5.739066929133858
 20
3.577125984251968
 30
0.0
 10
-5.739066929133858
 20
3.577125984251968
 30
0.0
 10
-5.73690157480315
 20
3.574488188976378
 30
0.0
 10
-5.735374015748032
 20
3.571153543307087
 30
0.0
 10
-5.734484251968504
 20
3.567125984251969
 30
0.0
 10
-5.734484251968504
 20
3.567125984251969
 30
0.0
 10
-5.734011811023622
 20
3.564625984251968
 30
0.0
 10
-5.733763779527559
 20
3.560125984251969
 30
0.0
 10
-5.733763779527559
 20
3.553653543307087
 30
0.0
 10
-5.733763779527559
 20
3.553653543307087
 30
0.0
 10
-5.733763779527559
 20
3.553653543307087
 30
0.0
 10
-5.733763779527559
 20
3.534208661417323
 30
0.0
 10
-5.733763779527559
 20
3.534208661417323
 30
0.0
 10
-5.733763779527559
 20
3.534208661417323
 30
0.0
 10
-5.733763779527559
 20
3.520625984251969
 30
0.0
 10
-5.733456692913386
 20
3.512043307086614
 30
0.0
 10
-5.732846456692913
 20
3.508405511811024
 30
0.0
 10
-5.732846456692913
 20
3.508405511811024
 30
0.0
 10
-5.732263779527559
 20
3.504767716535433
 30
0.0
 10
-5.73103937007874
 20
3.501295275590551
 30
0.0
 10
-5.729263779527559
 20
3.49796062992126
 30
0.0
 10
-5.729263779527559
 20
3.49796062992126
 30
0.0
 10
-5.729263779527559
 20
3.49796062992126
 30
0.0
 10
-5.744594488188977
 20
3.49796062992126
 30
0.0
 10
-5.744594488188977
 20
3.49796062992126
 30
0.0
 10
-5.744594488188977
 20
3.49796062992126
 30
0.0
 10
-5.746066929133859
 20
3.501043307086614
 30
0.0
 10
-5.747011811023622
 20
3.504653543307087
 30
0.0
 10
-5.747429133858268
 20
3.508795275590551
 30
0.0
  0
SPLINE
  5
81
330
1F
100
AcDbEntity
  8
Layer 1
 62
   250
100
AcDbSpline
210
0.0
220
0.0
230
1.0
 70
    11
 71
     3
 72
    44
 73
    40
 74
     0
 42
0.000000001
 43
0.0000000001
 40
0.0
 40
0.0
 40
0.0
 40
0.0
 40
0.0909090909090909
 40
0.0909090909090909
 40
0.0909090909090909
 40
0.0909090909090909
 40
0.1818181818181818
 40
0.1818181818181818
 40
0.1818181818181818
 40
0.1818181818181818
 40
0.2727272727272727
 40
0.2727272727272727
 40
0.2727272727272727
 40
0.2727272727272727
 40
0.3636363636363636
 40
0.3636363636363636
 40
0.3636363636363636
 40
0.3636363636363636
 40
0.4545454545454545
 40
0.4545454545454545
 40
0.4545454545454545
 40
0.4545454545454545
 40
0.5454545454545454
 40
0.5454545454545454
 40
0.5454545454545454
 40
0.5454545454545454
 40
0.6363636363636364
 40
0.6363636363636364
 40
0.6363636363636364
 40
0.6363636363636364
 40
0.7272727272727273
 40
0.7272727272727273
 40
0.7272727272727273
 40
0.7272727272727273
 40
0.8181818181818182
 40
0.8181818181818182
 40
0.8181818181818182
 40
0.8181818181818182
 40
1.0
 40
1.0
 40
1.0
 40
1.0
 10
-5.748594488188976
 20
3.541295275590551
 30
0.0
 10
-5.753929133858268
 20
3.539125984251969
 30
0.0
 10
-5.761929133858268
 20
3.537295275590551
 30
0.0
 10
-5.772594488188976
 20
3.535795275590551
 30
0.0
 10
-5.772594488188976
 20
3.535795275590551
 30
0.0
 10
-5.778653543307087
 20
3.534933070866142
 30
0.0
 10
-5.782929133858268
 20
3.53396062992126
 30
0.0
 10
-5.785429133858267
 20
3.532877952755905
 30
0.0
 10
-5.785429133858267
 20
3.532877952755905
 30
0.0
 10
-5.787929133858268
 20
3.531795275590551
 30
0.0
 10
-5.789846456692914
 20
3.530208661417323
 30
0.0
 10
-5.791208661417323
 20
3.528153543307087
 30
0.0
 10
-5.791208661417323
 20
3.528153543307087
 30
0.0
 10
-5.792566929133859
 20
3.526070866141732
 30
0.0
 10
-5.793263779527559
 20
3.523767716535433
 30
0.0
 10
-5.793263779527559
 20
3.521208661417323
 30
0.0
 10
-5.793263779527559
 20
3.521208661417323
 30
0.0
 10
-5.793263779527559
 20
3.517350393700788
 30
0.0
 10
-5.791791338582677
 20
3.51409842519685
 30
0.0
 10
-5.788818897637795
 20
3.511515748031496
 30
0.0
 10
-5.788818897637795
 20
3.511515748031496
 30
0.0
 10
-5.785846456692913
 20
3.508933070866142
 30
0.0
 10
-5.781511811023622
 20
3.507625984251968
 30
0.0
 10
-5.775818897637795
 20
3.507625984251968
 30
0.0
 10
-5.775818897637795
 20
3.507625984251968
 30
0.0
 10
-5.770181102362205
 20
3.507625984251968
 30
0.0
 10
-5.765153543307086
 20
3.508850393700787
 30
0.0
 10
-5.760736220472441
 20
3.511322834645669
 30
0.0
 10
-5.760736220472441
 20
3.511322834645669
 30
0.0
 10
-5.756346456692913
 20
3.513767716535433
 30
0.0
 10
-5.753094488188976
 20
3.517125984251968
 30
0.0
 10
-5.751039370078741
 20
3.521377952755905
 30
0.0
 10
-5.751039370078741
 20
3.521377952755905
 30
0.0
 10
-5.749456692913386
 20
3.524681102362205
 30
0.0
 10
-5.748681102362204
 20
3.529543307086614
 30
0.0
 10
-5.748681102362204
 20
3.53596062992126
 30
0.0
 10
-5.748681102362204
 20
3.53596062992126
 30
0.0
 10
-5.748681102362204
 20
3.53596062992126
 30
0.0
 10
-5.748594488188976
 20
3.541295275590551
 30
0.0
 10
-5.748594488188976
 20
3.541295275590551
 30
0.0
  0
SPLINE
  5
82
330
1F
100
AcDbEntity
  8
Layer 1
 62
   250
100
AcDbSpline
210
0.0
220
0.0
230
1.0
 70
    11
 71
     3
 72
    56
 73
    52
 74
     0
 42
0.000000001
 43
0.0000000001
 40
0.0
 40
0.0
 40
0.0
 40
0.0
 40
0.0714285714285714
 40
0.0714285714285714
 40
0.0714285714285714
 40
0.0714285714285714
 40
0.1428571428571428
 40
0.1428571428571428
 40
0.1428571428571428
 40
0.1428571428571428
 40
0.2142857142857143
 40
0.2142857142857143
 40
0.2142857142857143
 40
0.2142857142857143
 40
0.2857142857142857
 40
0.2857142857142857
 40
0.2857142857142857
 40
0.2857142857142857
 40
0.3571428571428572
 40
0.3571428571428572
 40
0.3571428571428572
 40
0.3571428571428572
 40
0.4285714285714285
 40
0.4285714285714285
 40
0.4285714285714285
 40
0.4285714285714285
 40
0.5
 40
0.5
 40
0.5
 40
0.5
 40
0.5714285714285714
 40
0.5714285714285714
 40
0.5714285714285714
 40
0.5714285714285714
 40
0.6428571428571429
 40
0.6428571428571429
 40
0.6428571428571429
 40
0.6428571428571429
 40
0.7142857142857143
 40
0.7142857142857143
 40
0.7142857142857143
 40
0.7142857142857143
 40
0.7857142857142857
 40
0.7857142857142857
 40
0.7857142857142857
 40
0.7857142857142857
 40
0.8571428571428571
 40
0.8571428571428571
 40
0.8571428571428571
 40
0.8571428571428571
 40
1.0
 40
1.0
 40
1.0
 40
1.0
 10
-5.711401574803149
 20
3.49796062992126
 30
0.0
 10
-5.711401574803149
 20
3.49796062992126
 30
0.0
 10
-5.711401574803149
 20
3.58446062992126
 30
0.0
 10
-5.711401574803149
 20
3.58446062992126
 30
0.0
 10
-5.711401574803149
 20
3.58446062992126
 30
0.0
 10
-5.711401574803149
 20
3.58446062992126
 30
0.0
 10
-5.698236220472441
 20
3.58446062992126
 30
0.0
 10
-5.698236220472441
 20
3.58446062992126
 30
0.0
 10
-5.698236220472441
 20
3.58446062992126
 30
0.0
 10
-5.698236220472441
 20
3.58446062992126
 30
0.0
 10
-5.698236220472441
 20
3.571208661417323
 30
0.0
 10
-5.698236220472441
 20
3.571208661417323
 30
0.0
 10
-5.698236220472441
 20
3.571208661417323
 30
0.0
 10
-5.694874015748032
 20
3.577350393700788
 30
0.0
 10
-5.691763779527559
 20
3.581405511811024
 30
0.0
 10
-5.68890157480315
 20
3.583350393700787
 30
0.0
 10
-5.68890157480315
 20
3.583350393700787
 30
0.0
 10
-5.686043307086615
 20
3.585322834645669
 30
0.0
 10
-5.682901574803149
 20
3.586291338582677
 30
0.0
 10
-5.679488188976378
 20
3.586291338582677
 30
0.0
 10
-5.679488188976378
 20
3.586291338582677
 30
0.0
 10
-5.674543307086614
 20
3.586291338582677
 30
0.0
 10
-5.669515748031496
 20
3.584736220472441
 30
0.0
 10
-5.66440157480315
 20
3.581653543307087
 30
0.0
 10
-5.66440157480315
 20
3.581653543307087
 30
0.0
 10
-5.66440157480315
 20
3.581653543307087
 30
0.0
 10
-5.669625984251969
 20
3.568125984251969
 30
0.0
 10
-5.669625984251969
 20
3.568125984251969
 30
0.0
 10
-5.669625984251969
 20
3.568125984251969
 30
0.0
 10
-5.673181102362205
 20
3.570125984251968
 30
0.0
 10
-5.676736220472441
 20
3.571125984251969
 30
0.0
 10
-5.680291338582677
 20
3.571125984251969
 30
0.0
 10
-5.680291338582677
 20
3.571125984251969
 30
0.0
 10
-5.683488188976378
 20
3.571125984251969
 30
0.0
 10
-5.686346456692913
 20
3.570153543307087
 30
0.0
 10
-5.688874015748032
 20
3.568236220472441
 30
0.0
 10
-5.688874015748032
 20
3.568236220472441
 30
0.0
 10
-5.69140157480315
 20
3.566322834645669
 30
0.0
 10
-5.693208661417323
 20
3.563653543307087
 30
0.0
 10
-5.694291338582677
 20
3.560236220472441
 30
0.0
 10
-5.694291338582677
 20
3.560236220472441
 30
0.0
 10
-5.695929133858268
 20
3.555043307086614
 30
0.0
 10
-5.696736220472441
 20
3.549350393700788
 30
0.0
 10
-5.696736220472441
 20
3.543153543307087
 30
0.0
 10
-5.696736220472441
 20
3.543153543307087
 30
0.0
 10
-5.696736220472441
 20
3.543153543307087
 30
0.0
 10
-5.696736220472441
 20
3.49796062992126
 30
0.0
 10
-5.696736220472441
 20
3.49796062992126
 30
0.0
 10
-5.696736220472441
 20
3.49796062992126
 30
0.0
 10
-5.696736220472441
 20
3.49796062992126
 30
0.0
 10
-5.711401574803149
 20
3.49796062992126
 30
0.0
 10
-5.711401574803149
 20
3.49796062992126
 30
0.0
  0
SPLINE
  5
83
330
1F
100
AcDbEntity
  8
Layer 1
 62
   250
100
AcDbSpline
210
0.0
220
0.0
230
1.0
 70
    11
 71
     3
 72
    88
 73
    84
 74
     0
 42
0.000000001
 43
0.0000000001
 40
0.0
 40
0.0
 40
0.0
 40
0.0
 40
0.0454545454545455
 40
0.0454545454545455
 40
0.0454545454545455
 40
0.0454545454545455
 40
0.0909090909090909
 40
0.0909090909090909
 40
0.0909090909090909
 40
0.0909090909090909
 40
0.1363636363636364
 40
0.1363636363636364
 40
0.1363636363636364
 40
0.1363636363636364
 40
0.1818181818181818
 40
0.1818181818181818
 40
0.1818181818181818
 40
0.1818181818181818
 40
0.2272727272727273
 40
0.2272727272727273
 40
0.2272727272727273
 40
0.2272727272727273
 40
0.2727272727272727
 40
0.2727272727272727
 40
0.2727272727272727
 40
0.2727272727272727
 40
0.3181818181818182
 40
0.3181818181818182
 40
0.3181818181818182
 40
0.3181818181818182
 40
0.3636363636363636
 40
0.3636363636363636
 40
0.3636363636363636
 40
0.3636363636363636
 40
0.4090909090909091
 40
0.4090909090909091
 40
0.4090909090909091
 40
0.4090909090909091
 40
0.4545454545454545
 40
0.4545454545454545
 40
0.4545454545454545
 40
0.4545454545454545
 40
0.5
 40
0.5
 40
0.5
 40
0.5
 40
0.5454545454545454
 40
0.5454545454545454
 40
0.5454545454545454
 40
0.5454545454545454
 40
0.5909090909090909
 40
0.5909090909090909
 40
0.5909090909090909
 40
0.5909090909090909
 40
0.6363636363636364
 40
0.6363636363636364
 40
0.6363636363636364
 40
0.6363636363636364
 40
0.6818181818181818
 40
0.6818181818181818
 40
0.6818181818181818
 40
0.6818181818181818
 40
0.7272727272727273
 40
0.7272727272727273
 40
0.7272727272727273
 40
0.7272727272727273
 40
0.7727272727272727
 40
0.7727272727272727
 40
0.7727272727272727
 40
0.7727272727272727
 40
0.8181818181818182
 40
0.8181818181818182
 40
0.8181818181818182
 40
0.8181818181818182
 40
0.8636363636363636
 40
0.8636363636363636
 40
0.8636363636363636
 40
0.8636363636363636
 40
0.9090909090909091
 40
0.9090909090909091
 40
0.9090909090909091
 40
0.9090909090909091
 40
1.0
 40
1.0
 40
1.0
 40
1.0
 10
-5.658429133858268
 20
3.490795275590551
 30
0.0
 10
-5.658429133858268
 20
3.490795275590551
 30
0.0
 10
-5.644263779527559
 20
3.488795275590551
 30
0.0
 10
-5.644263779527559
 20
3.488795275590551
 30
0.0
 10
-5.644263779527559
 20
3.488795275590551
 30
0.0
 10
-5.643681102362205
 20
3.484405511811024
 30
0.0
 10
-5.642015748031496
 20
3.481212598425197
 30
0.0
 10
-5.639291338582678
 20
3.479181102362205
 30
0.0
 10
-5.639291338582678
 20
3.479181102362205
 30
0.0
 10
-5.635653543307087
 20
3.476488188976378
 30
0.0
 10
-5.630681102362205
 20
3.475125984251969
 30
0.0
 10
-5.624374015748032
 20
3.475125984251969
 30
0.0
 10
-5.624374015748032
 20
3.475125984251969
 30
0.0
 10
-5.61759842519685
 20
3.475125984251969
 30
0.0
 10
-5.612346456692913
 20
3.476488188976378
 30
0.0
 10
-5.608653543307087
 20
3.479181102362205
 30
0.0
 10
-5.608653543307087
 20
3.479181102362205
 30
0.0
 10
-5.60496062992126
 20
3.481877952755906
 30
0.0
 10
-5.60246062992126
 20
3.485681102362205
 30
0.0
 10
-5.601153543307086
 20
3.490543307086614
 30
0.0
 10
-5.601153543307086
 20
3.490543307086614
 30
0.0
 10
-5.60040157480315
 20
3.493515748031496
 30
0.0
 10
-5.600043307086614
 20
3.499767716535433
 30
0.0
 10
-5.60009842519685
 20
3.509295275590551
 30
0.0
 10
-5.60009842519685
 20
3.509295275590551
 30
0.0
 10
-5.606515748031496
 20
3.501740157480315
 30
0.0
 10
-5.614488188976378
 20
3.49796062992126
 30
0.0
 10
-5.624043307086614
 20
3.49796062992126
 30
0.0
 10
-5.624043307086614
 20
3.49796062992126
 30
0.0
 10
-5.635929133858268
 20
3.49796062992126
 30
0.0
 10
-5.645153543307087
 20
3.502240157480315
 30
0.0
 10
-5.651653543307087
 20
3.510822834645669
 30
0.0
 10
-5.651653543307087
 20
3.510822834645669
 30
0.0
 10
-5.658181102362205
 20
3.519377952755906
 30
0.0
 10
-5.661429133858268
 20
3.529653543307087
 30
0.0
 10
-5.661429133858268
 20
3.541625984251969
 30
0.0
 10
-5.661429133858268
 20
3.541625984251969
 30
0.0
 10
-5.661429133858268
 20
3.549877952755906
 30
0.0
 10
-5.659929133858268
 20
3.557488188976378
 30
0.0
 10
-5.656956692913385
 20
3.56446062992126
 30
0.0
 10
-5.656956692913385
 20
3.56446062992126
 30
0.0
 10
-5.653988188976378
 20
3.571433070866142
 30
0.0
 10
-5.649653543307086
 20
3.576795275590551
 30
0.0
 10
-5.643988188976378
 20
3.58059842519685
 30
0.0
 10
-5.643988188976378
 20
3.58059842519685
 30
0.0
 10
-5.638318897637795
 20
3.584405511811024
 30
0.0
 10
-5.631653543307086
 20
3.586291338582677
 30
0.0
 10
-5.623988188976378
 20
3.586291338582677
 30
0.0
 10
-5.623988188976378
 20
3.586291338582677
 30
0.0
 10
-5.613791338582677
 20
3.586291338582677
 30
0.0
 10
-5.605374015748032
 20
3.582125984251968
 30
0.0
 10
-5.598763779527559
 20
3.573795275590551
 30
0.0
 10
-5.598763779527559
 20
3.573795275590551
 30
0.0
 10
-5.598763779527559
 20
3.573795275590551
 30
0.0
 10
-5.598763779527559
 20
3.58446062992126
 30
0.0
 10
-5.598763779527559
 20
3.58446062992126
 30
0.0
 10
-5.598763779527559
 20
3.58446062992126
 30
0.0
 10
-5.598763779527559
 20
3.58446062992126
 30
0.0
 10
-5.585263779527559
 20
3.58446062992126
 30
0.0
 10
-5.585263779527559
 20
3.58446062992126
 30
0.0
 10
-5.585263779527559
 20
3.58446062992126
 30
0.0
 10
-5.585263779527559
 20
3.58446062992126
 30
0.0
 10
-5.585263779527559
 20
3.509767716535433
 30
0.0
 10
-5.585263779527559
 20
3.509767716535433
 30
0.0
 10
-5.585263779527559
 20
3.509767716535433
 30
0.0
 10
-5.585263779527559
 20
3.496295275590551
 30
0.0
 10
-5.586625984251969
 20
3.486767716535433
 30
0.0
 10
-5.589374015748032
 20
3.481153543307087
 30
0.0
 10
-5.589374015748032
 20
3.481153543307087
 30
0.0
 10
-5.59209842519685
 20
3.475543307086614
 30
0.0
 10
-5.59646062992126
 20
3.47109842519685
 30
0.0
 10
-5.602374015748032
 20
3.467850393700787
 30
0.0
 10
-5.602374015748032
 20
3.467850393700787
 30
0.0
 10
-5.608318897637795
 20
3.46459842519685
 30
0.0
 10
-5.615625984251968
 20
3.46296062992126
 30
0.0
 10
-5.624291338582677
 20
3.46296062992126
 30
0.0
 10
-5.624291338582677
 20
3.46296062992126
 30
0.0
 10
-5.634598425196851
 20
3.46296062992126
 30
0.0
 10
-5.642901574803149
 20
3.465267716535433
 30
0.0
 10
-5.649236220472441
 20
3.469905511811024
 30
0.0
 10
-5.649236220472441
 20
3.469905511811024
 30
0.0
 10
-5.655598425196851
 20
3.474515748031496
 30
0.0
 10
-5.658653543307087
 20
3.481488188976378
 30
0.0
 10
-5.658429133858268
 20
3.490795275590551
 30
0.0
  0
SPLINE
  5
84
330
1F
100
AcDbEntity
  8
Layer 1
 62
   250
100
AcDbSpline
210
0.0
220
0.0
230
1.0
 70
    11
 71
     3
 72
    36
 73
    32
 74
     0
 42
0.000000001
 43
0.0000000001
 40
0.0
 40
0.0
 40
0.0
 40
0.0
 40
0.1111111111111111
 40
0.1111111111111111
 40
0.1111111111111111
 40
0.1111111111111111
 40
0.2222222222222222
 40
0.2222222222222222
 40
0.2222222222222222
 40
0.2222222222222222
 40
0.3333333333333333
 40
0.3333333333333333
 40
0.3333333333333333
 40
0.3333333333333333
 40
0.4444444444444444
 40
0.4444444444444444
 40
0.4444444444444444
 40
0.4444444444444444
 40
0.5555555555555556
 40
0.5555555555555556
 40
0.5555555555555556
 40
0.5555555555555556
 40
0.6666666666666666
 40
0.6666666666666666
 40
0.6666666666666666
 40
0.6666666666666666
 40
0.7777777777777778
 40
0.7777777777777778
 40
0.7777777777777778
 40
0.7777777777777778
 40
1.0
 40
1.0
 40
1.0
 40
1.0
 10
-5.646429133858268
 20
3.542681102362205
 30
0.0
 10
-5.646429133858268
 20
3.531377952755906
 30
0.0
 10
-5.644181102362205
 20
3.523125984251969
 30
0.0
 10
-5.639681102362204
 20
3.517933070866142
 30
0.0
 10
-5.639681102362204
 20
3.517933070866142
 30
0.0
 10
-5.635153543307086
 20
3.512740157480315
 30
0.0
 10
-5.629515748031496
 20
3.510125984251968
 30
0.0
 10
-5.622736220472441
 20
3.510125984251968
 30
0.0
 10
-5.622736220472441
 20
3.510125984251968
 30
0.0
 10
-5.615988188976378
 20
3.510125984251968
 30
0.0
 10
-5.610346456692914
 20
3.512708661417323
 30
0.0
 10
-5.605763779527559
 20
3.517877952755906
 30
0.0
 10
-5.605763779527559
 20
3.517877952755906
 30
0.0
 10
-5.601208661417322
 20
3.523043307086614
 30
0.0
 10
-5.598933070866142
 20
3.531153543307087
 30
0.0
 10
-5.598933070866142
 20
3.542208661417323
 30
0.0
 10
-5.598933070866142
 20
3.542208661417323
 30
0.0
 10
-5.598933070866142
 20
3.552767716535433
 30
0.0
 10
-5.601291338582677
 20
3.560736220472441
 30
0.0
 10
-5.605988188976378
 20
3.56609842519685
 30
0.0
 10
-5.605988188976378
 20
3.56609842519685
 30
0.0
 10
-5.610681102362205
 20
3.57146062992126
 30
0.0
 10
-5.616346456692914
 20
3.574125984251968
 30
0.0
 10
-5.62296062992126
 20
3.574125984251968
 30
0.0
 10
-5.62296062992126
 20
3.574125984251968
 30
0.0
 10
-5.629488188976378
 20
3.574125984251968
 30
0.0
 10
-5.635015748031496
 20
3.571488188976378
 30
0.0
 10
-5.639598425196851
 20
3.566208661417323
 30
0.0
 10
-5.639598425196851
 20
3.566208661417323
 30
0.0
 10
-5.644153543307087
 20
3.560933070866142
 30
0.0
 10
-5.646429133858268
 20
3.55309842519685
 30
0.0
 10
-5.646429133858268
 20
3.542681102362205
 30
0.0
  0
SPLINE
  5
85
330
1F
100
AcDbEntity
  8
Layer 1
 62
   250
100
AcDbSpline
210
0.0
220
0.0
230
1.0
 70
    11
 71
     3
 72
    64
 73
    60
 74
     0
 42
0.000000001
 43
0.0000000001
 40
0.0
 40
0.0
 40
0.0
 40
0.0
 40
0.0625
 40
0.0625
 40
0.0625
 40
0.0625
 40
0.125
 40
0.125
 40
0.125
 40
0.125
 40
0.1875
 40
0.1875
 40
0.1875
 40
0.1875
 40
0.25
 40
0.25
 40
0.25
 40
0.25
 40
0.3125
 40
0.3125
 40
0.3125
 40
0.3125
 40
0.375
 40
0.375
 40
0.375
 40
0.375
 40
0.4375
 40
0.4375
 40
0.4375
 40
0.4375
 40
0.5
 40
0.5
 40
0.5
 40
0.5
 40
0.5625
 40
0.5625
 40
0.5625
 40
0.5625
 40
0.625
 40
0.625
 40
0.625
 40
0.625
 40
0.6875
 40
0.6875
 40
0.6875
 40
0.6875
 40
0.75
 40
0.75
 40
0.75
 40
0.75
 40
0.8125
 40
0.8125
 40
0.8125
 40
0.8125
 40
0.875
 40
0.875
 40
0.875
 40
0.875
 40
1.0
 40
1.0
 40
1.0
 40
1.0
 10
-5.504043307086614
 20
3.52596062992126
 30
0.0
 10
-5.504043307086614
 20
3.52596062992126
 30
0.0
 10
-5.488877952755906
 20
3.52396062992126
 30
0.0
 10
-5.488877952755906
 20
3.52396062992126
 30
0.0
 10
-5.488877952755906
 20
3.52396062992126
 30
0.0
 10
-5.491240157480315
 20
3.515153543307087
 30
0.0
 10
-5.495653543307086
 20
3.508295275590551
 30
0.0
 10
-5.50209842519685
 20
3.503433070866142
 30
0.0
 10
-5.50209842519685
 20
3.503433070866142
 30
0.0
 10
-5.508543307086614
 20
3.498570866141732
 30
0.0
 10
-5.516767716535433
 20
3.496125984251969
 30
0.0
 10
-5.526795275590551
 20
3.496125984251969
 30
0.0
 10
-5.526795275590551
 20
3.496125984251969
 30
0.0
 10
-5.539405511811023
 20
3.496125984251969
 30
0.0
 10
-5.549405511811024
 20
3.500015748031496
 30
0.0
 10
-5.556795275590551
 20
3.507795275590551
 30
0.0
 10
-5.556795275590551
 20
3.507795275590551
 30
0.0
 10
-5.564181102362205
 20
3.515543307086614
 30
0.0
 10
-5.567877952755905
 20
3.52646062992126
 30
0.0
 10
-5.567877952755905
 20
3.540488188976378
 30
0.0
 10
-5.567877952755905
 20
3.540488188976378
 30
0.0
 10
-5.567877952755905
 20
3.554988188976378
 30
0.0
 10
-5.564153543307087
 20
3.566263779527559
 30
0.0
 10
-5.556681102362205
 20
3.574263779527559
 30
0.0
 10
-5.556681102362205
 20
3.574263779527559
 30
0.0
 10
-5.549208661417323
 20
3.582291338582677
 30
0.0
 10
-5.539515748031496
 20
3.586291338582677
 30
0.0
 10
-5.52759842519685
 20
3.586291338582677
 30
0.0
 10
-5.52759842519685
 20
3.586291338582677
 30
0.0
 10
-5.516070866141733
 20
3.586291338582677
 30
0.0
 10
-5.506653543307086
 20
3.582377952755905
 30
0.0
 10
-5.499350393700787
 20
3.574515748031496
 30
0.0
 10
-5.499350393700787
 20
3.574515748031496
 30
0.0
 10
-5.492043307086615
 20
3.566653543307087
 30
0.0
 10
-5.488377952755905
 20
3.55559842519685
 30
0.0
 10
-5.488377952755905
 20
3.541350393700788
 30
0.0
 10
-5.488377952755905
 20
3.541350393700788
 30
0.0
 10
-5.488377952755905
 20
3.540488188976378
 30
0.0
 10
-5.488405511811024
 20
3.539181102362205
 30
0.0
 10
-5.48846062992126
 20
3.53746062992126
 30
0.0
 10
-5.48846062992126
 20
3.53746062992126
 30
0.0
 10
-5.48846062992126
 20
3.53746062992126
 30
0.0
 10
-5.552877952755906
 20
3.53746062992126
 30
0.0
 10
-5.552877952755906
 20
3.53746062992126
 30
0.0
 10
-5.552877952755906
 20
3.53746062992126
 30
0.0
 10
-5.552322834645669
 20
3.527988188976378
 30
0.0
 10
-5.549653543307087
 20
3.520708661417323
 30
0.0
 10
-5.544822834645669
 20
3.515681102362205
 30
0.0
 10
-5.544822834645669
 20
3.515681102362205
 30
0.0
 10
-5.540015748031496
 20
3.510653543307086
 30
0.0
 10
-5.533988188976378
 20
3.508125984251969
 30
0.0
 10
-5.526795275590551
 20
3.508125984251969
 30
0.0
 10
-5.526795275590551
 20
3.508125984251969
 30
0.0
 10
-5.521433070866141
 20
3.508125984251969
 30
0.0
 10
-5.516850393700787
 20
3.509543307086614
 30
0.0
 10
-5.513070866141732
 20
3.512377952755906
 30
0.0
 10
-5.513070866141732
 20
3.512377952755906
 30
0.0
 10
-5.509267716535433
 20
3.515208661417323
 30
0.0
 10
-5.506267716535433
 20
3.519740157480315
 30
0.0
 10
-5.504043307086614
 20
3.52596062992126
 30
0.0
  0
SPLINE
  5
86
330
1F
100
AcDbEntity
  8
Layer 1
 62
   250
100
AcDbSpline
210
0.0
220
0.0
230
1.0
 70
    11
 71
     3
 72
    24
 73
    20
 74
     0
 42
0.000000001
 43
0.0000000001
 40
0.0
 40
0.0
 40
0.0
 40
0.0
 40
0.1666666666666667
 40
0.1666666666666667
 40
0.1666666666666667
 40
0.1666666666666667
 40
0.3333333333333333
 40
0.3333333333333333
 40
0.3333333333333333
 40
0.3333333333333333
 40
0.5
 40
0.5
 40
0.5
 40
0.5
 40
0.6666666666666666
 40
0.6666666666666666
 40
0.6666666666666666
 40
0.6666666666666666
 40
1.0
 40
1.0
 40
1.0
 40
1.0
 10
-5.552043307086614
 20
3.54946062992126
 30
0.0
 10
-5.552043307086614
 20
3.54946062992126
 30
0.0
 10
-5.503877952755905
 20
3.54946062992126
 30
0.0
 10
-5.503877952755905
 20
3.54946062992126
 30
0.0
 10
-5.503877952755905
 20
3.54946062992126
 30
0.0
 10
-5.504515748031496
 20
3.556736220472441
 30
0.0
 10
-5.506377952755906
 20
3.562181102362205
 30
0.0
 10
-5.509405511811024
 20
3.565822834645669
 30
0.0
 10
-5.509405511811024
 20
3.565822834645669
 30
0.0
 10
-5.514043307086614
 20
3.57146062992126
 30
0.0
 10
-5.52009842519685
 20
3.574295275590551
 30
0.0
 10
-5.527515748031496
 20
3.574295275590551
 30
0.0
 10
-5.527515748031496
 20
3.574295275590551
 30
0.0
 10
-5.534236220472441
 20
3.574295275590551
 30
0.0
 10
-5.539877952755906
 20
3.572043307086614
 30
0.0
 10
-5.54446062992126
 20
3.567543307086614
 30
0.0
 10
-5.54446062992126
 20
3.567543307086614
 30
0.0
 10
-5.549015748031496
 20
3.563043307086614
 30
0.0
 10
-5.551543307086614
 20
3.557015748031496
 30
0.0
 10
-5.552043307086614
 20
3.54946062992126
 30
0.0
  0
SPLINE
  5
87
330
1F
100
AcDbEntity
  8
Layer 1
 62
   250
100
AcDbSpline
210
0.0
220
0.0
230
1.0
 70
    11
 71
     3
 72
   136
 73
   132
 74
     0
 42
0.000000001
 43
0.0000000001
 40
0.0
 40
0.0
 40
0.0
 40
0.0
 40
0.0294117647058824
 40
0.0294117647058824
 40
0.0294117647058824
 40
0.0294117647058824
 40
0.0588235294117647
 40
0.0588235294117647
 40
0.0588235294117647
 40
0.0588235294117647
 40
0.0882352941176471
 40
0.0882352941176471
 40
0.0882352941176471
 40
0.0882352941176471
 40
0.1176470588235294
 40
0.1176470588235294
 40
0.1176470588235294
 40
0.1176470588235294
 40
0.1470588235294118
 40
0.1470588235294118
 40
0.1470588235294118
 40
0.1470588235294118
 40
0.1764705882352941
 40
0.1764705882352941
 40
0.1764705882352941
 40
0.1764705882352941
 40
0.2058823529411765
 40
0.2058823529411765
 40
0.2058823529411765
 40
0.2058823529411765
 40
0.2352941176470588
 40
0.2352941176470588
 40
0.2352941176470588
 40
0.2352941176470588
 40
0.2647058823529412
 40
0.2647058823529412
 40
0.2647058823529412
 40
0.2647058823529412
 40
0.2941176470588235
 40
0.2941176470588235
 40
0.2941176470588235
 40
0.2941176470588235
 40
0.3235294117647059
 40
0.3235294117647059
 40
0.3235294117647059
 40
0.3235294117647059
 40
0.3529411764705883
 40
0.3529411764705883
 40
0.3529411764705883
 40
0.3529411764705883
 40
0.3823529411764706
 40
0.3823529411764706
 40
0.3823529411764706
 40
0.3823529411764706
 40
0.4117647058823529
 40
0.4117647058823529
 40
0.4117647058823529
 40
0.4117647058823529
 40
0.4411764705882353
 40
0.4411764705882353
 40
0.4411764705882353
 40
0.4411764705882353
 40
0.4705882352941176
 40
0.4705882352941176
 40
0.4705882352941176
 40
0.4705882352941176
 40
0.5
 40
0.5
 40
0.5
 40
0.5
 40
0.5294117647058824
 40
0.5294117647058824
 40
0.5294117647058824
 40
0.5294117647058824
 40
0.5588235294117647
 40
0.5588235294117647
 40
0.5588235294117647
 40
0.5588235294117647
 40
0.5882352941176471
 40
0.5882352941176471
 40
0.5882352941176471
 40
0.5882352941176471
 40
0.6176470588235294
 40
0.6176470588235294
 40
0.6176470588235294
 40
0.6176470588235294
 40
0.6470588235294118
 40
0.6470588235294118
 40
0.6470588235294118
 40
0.6470588235294118
 40
0.6764705882352942
 40
0.6764705882352942
 40
0.6764705882352942
 40
0.6764705882352942
 40
0.7058823529411765
 40
0.7058823529411765
 40
0.7058823529411765
 40
0.7058823529411765
 40
0.7352941176470589
 40
0.7352941176470589
 40
0.7352941176470589
 40
0.7352941176470589
 40
0.7647058823529411
 40
0.7647058823529411
 40
0.7647058823529411
 40
0.7647058823529411
 40
0.7941176470588235
 40
0.7941176470588235
 40
0.7941176470588235
 40
0.7941176470588235
 40
0.8235294117647058
 40
0.8235294117647058
 40
0.8235294117647058
 40
0.8235294117647058
 40
0.8529411764705882
 40
0.8529411764705882
 40
0.8529411764705882
 40
0.8529411764705882
 40
0.8823529411764706
 40
0.8823529411764706
 40
0.8823529411764706
 40
0.8823529411764706
 40
0.9117647058823529
 40
0.9117647058823529
 40
0.9117647058823529
 40
0.9117647058823529
 40
0.9411764705882353
 40
0.9411764705882353
 40
0.9411764705882353
 40
0.9411764705882353
 40
1.0
 40
1.0
 40
1.0
 40
1.0
 10
-5.476185039370079
 20
3.523795275590551
 30
0.0
 10
-5.476185039370079
 20
3.523795275590551
 30
0.0
 10
-5.461685039370079
 20
3.526125984251968
 30
0.0
 10
-5.461685039370079
 20
3.526125984251968
 30
0.0
 10
-5.461685039370079
 20
3.526125984251968
 30
0.0
 10
-5.460877952755905
 20
3.520322834645669
 30
0.0
 10
-5.458602362204725
 20
3.515877952755905
 30
0.0
 10
-5.454877952755906
 20
3.512767716535433
 30
0.0
 10
-5.454877952755906
 20
3.512767716535433
 30
0.0
 10
-5.451157480314961
 20
3.509681102362205
 30
0.0
 10
-5.445933070866142
 20
3.508125984251969
 30
0.0
 10
-5.439267716535433
 20
3.508125984251969
 30
0.0
 10
-5.439267716535433
 20
3.508125984251969
 30
0.0
 10
-5.432515748031496
 20
3.508125984251969
 30
0.0
 10
-5.427515748031496
 20
3.509488188976378
 30
0.0
 10
-5.424240157480315
 20
3.512240157480315
 30
0.0
 10
-5.424240157480315
 20
3.512240157480315
 30
0.0
 10
-5.420988188976378
 20
3.51496062992126
 30
0.0
 10
-5.419350393700787
 20
3.518181102362205
 30
0.0
 10
-5.419350393700787
 20
3.521877952755906
 30
0.0
 10
-5.419350393700787
 20
3.521877952755906
 30
0.0
 10
-5.419350393700787
 20
3.525181102362205
 30
0.0
 10
-5.420822834645669
 20
3.527795275590551
 30
0.0
 10
-5.423740157480315
 20
3.529681102362205
 30
0.0
 10
-5.423740157480315
 20
3.529681102362205
 30
0.0
 10
-5.425795275590551
 20
3.530988188976378
 30
0.0
 10
-5.430795275590551
 20
3.532625984251969
 30
0.0
 10
-5.438740157480315
 20
3.534653543307086
 30
0.0
 10
-5.438740157480315
 20
3.534653543307086
 30
0.0
 10
-5.44946062992126
 20
3.537350393700788
 30
0.0
 10
-5.456877952755906
 20
3.539681102362205
 30
0.0
 10
-5.461043307086614
 20
3.541653543307087
 30
0.0
 10
-5.461043307086614
 20
3.541653543307087
 30
0.0
 10
-5.465185039370079
 20
3.543653543307087
 30
0.0
 10
-5.46832283464567
 20
3.546377952755905
 30
0.0
 10
-5.47046062992126
 20
3.549877952755906
 30
0.0
 10
-5.47046062992126
 20
3.549877952755906
 30
0.0
 10
-5.472602362204724
 20
3.553350393700788
 30
0.0
 10
-5.473685039370078
 20
3.557208661417323
 30
0.0
 10
-5.473685039370078
 20
3.561433070866142
 30
0.0
 10
-5.473685039370078
 20
3.561433070866142
 30
0.0
 10
-5.473685039370078
 20
3.565295275590551
 30
0.0
 10
-5.472795275590551
 20
3.568850393700787
 30
0.0
 10
-5.471043307086614
 20
3.572125984251969
 30
0.0
 10
-5.471043307086614
 20
3.572125984251969
 30
0.0
 10
-5.469267716535433
 20
3.575405511811024
 30
0.0
 10
-5.466877952755905
 20
3.578125984251968
 30
0.0
 10
-5.463850393700787
 20
3.580295275590551
 30
0.0
 10
-5.463850393700787
 20
3.580295275590551
 30
0.0
 10
-5.461570866141733
 20
3.58196062992126
 30
0.0
 10
-5.45846062992126
 20
3.583377952755905
 30
0.0
 10
-5.454543307086614
 20
3.584543307086614
 30
0.0
 10
-5.454543307086614
 20
3.584543307086614
 30
0.0
 10
-5.450602362204725
 20
3.585708661417323
 30
0.0
 10
-5.446405511811023
 20
3.586291338582677
 30
0.0
 10
-5.441905511811024
 20
3.586291338582677
 30
0.0
 10
-5.441905511811024
 20
3.586291338582677
 30
0.0
 10
-5.435129921259843
 20
3.586291338582677
 30
0.0
 10
-5.429185039370079
 20
3.585322834645669
 30
0.0
 10
-5.424074803149606
 20
3.583350393700787
 30
0.0
 10
-5.424074803149606
 20
3.583350393700787
 30
0.0
 10
-5.418933070866141
 20
3.581405511811024
 30
0.0
 10
-5.415157480314961
 20
3.578736220472441
 30
0.0
 10
-5.412712598425196
 20
3.575405511811024
 30
0.0
 10
-5.412712598425196
 20
3.575405511811024
 30
0.0
 10
-5.410295275590551
 20
3.572043307086614
 30
0.0
 10
-5.408602362204724
 20
3.567570866141732
 30
0.0
 10
-5.407685039370079
 20
3.56196062992126
 30
0.0
 10
-5.407685039370079
 20
3.56196062992126
 30
0.0
 10
-5.407685039370079
 20
3.56196062992126
 30
0.0
 10
-5.422015748031496
 20
3.55996062992126
 30
0.0
 10
-5.422015748031496
 20
3.55996062992126
 30
0.0
 10
-5.422015748031496
 20
3.55996062992126
 30
0.0
 10
-5.42265748031496
 20
3.56446062992126
 30
0.0
 10
-5.424547244094488
 20
3.567988188976378
 30
0.0
 10
-5.42765748031496
 20
3.570515748031496
 30
0.0
 10
-5.42765748031496
 20
3.570515748031496
 30
0.0
 10
-5.430767716535433
 20
3.573043307086614
 30
0.0
 10
-5.43515748031496
 20
3.574295275590551
 30
0.0
 10
-5.440850393700788
 20
3.574295275590551
 30
0.0
 10
-5.440850393700788
 20
3.574295275590551
 30
0.0
 10
-5.447543307086614
 20
3.574295275590551
 30
0.0
 10
-5.452350393700788
 20
3.573181102362205
 30
0.0
 10
-5.455212598425197
 20
3.57096062992126
 30
0.0
 10
-5.455212598425197
 20
3.57096062992126
 30
0.0
 10
-5.458070866141732
 20
3.568736220472441
 30
0.0
 10
-5.459515748031496
 20
3.566125984251968
 30
0.0
 10
-5.459515748031496
 20
3.563153543307087
 30
0.0
 10
-5.459515748031496
 20
3.563153543307087
 30
0.0
 10
-5.459515748031496
 20
3.561263779527559
 30
0.0
 10
-5.458933070866141
 20
3.559543307086614
 30
0.0
 10
-5.457740157480315
 20
3.558015748031496
 30
0.0
 10
-5.457740157480315
 20
3.558015748031496
 30
0.0
 10
-5.456543307086614
 20
3.55646062992126
 30
0.0
 10
-5.454685039370078
 20
3.555153543307087
 30
0.0
 10
-5.452129921259843
 20
3.554125984251968
 30
0.0
 10
-5.452129921259843
 20
3.554125984251968
 30
0.0
 10
-5.450657480314961
 20
3.553570866141732
 30
0.0
 10
-5.446377952755905
 20
3.552322834645669
 30
0.0
 10
-5.439212598425197
 20
3.550377952755905
 30
0.0
 10
-5.439212598425197
 20
3.550377952755905
 30
0.0
 10
-5.428877952755905
 20
3.547625984251968
 30
0.0
 10
-5.421657480314961
 20
3.545350393700788
 30
0.0
 10
-5.417547244094489
 20
3.54359842519685
 30
0.0
 10
-5.417547244094489
 20
3.54359842519685
 30
0.0
 10
-5.413433070866142
 20
3.541850393700787
 30
0.0
 10
-5.410212598425197
 20
3.539267716535433
 30
0.0
 10
-5.407877952755905
 20
3.535933070866142
 30
0.0
 10
-5.407877952755905
 20
3.535933070866142
 30
0.0
 10
-5.405515748031496
 20
3.532570866141732
 30
0.0
 10
-5.404350393700788
 20
3.528405511811024
 30
0.0
 10
-5.404350393700788
 20
3.523405511811024
 30
0.0
 10
-5.404350393700788
 20
3.523405511811024
 30
0.0
 10
-5.404350393700788
 20
3.518543307086614
 30
0.0
 10
-5.405767716535433
 20
3.51396062992126
 30
0.0
 10
-5.408629921259842
 20
3.509653543307087
 30
0.0
 10
-5.408629921259842
 20
3.509653543307087
 30
0.0
 10
-5.411488188976378
 20
3.505350393700787
 30
0.0
 10
-5.415602362204725
 20
3.502015748031496
 30
0.0
 10
-5.42096062992126
 20
3.499653543307087
 30
0.0
 10
-5.42096062992126
 20
3.499653543307087
 30
0.0
 10
-5.426350393700788
 20
3.497295275590551
 30
0.0
 10
-5.432433070866142
 20
3.496125984251969
 30
0.0
 10
-5.439212598425197
 20
3.496125984251969
 30
0.0
 10
-5.439212598425197
 20
3.496125984251969
 30
0.0
 10
-5.450433070866142
 20
3.496125984251969
 30
0.0
 10
-5.459015748031496
 20
3.49846062992126
 30
0.0
 10
-5.464905511811024
 20
3.50309842519685
 30
0.0
 10
-5.464905511811024
 20
3.50309842519685
 30
0.0
 10
-5.470795275590551
 20
3.507767716535433
 30
0.0
 10
-5.474543307086615
 20
3.514653543307086
 30
0.0
 10
-5.476185039370079
 20
3.523795275590551
 30
0.0
  0
SPLINE
  5
88
330
1F
100
AcDbEntity
  8
Layer 1
 62
   250
100
AcDbSpline
210
0.0
220
0.0
230
1.0
 70
    11
 71
     3
 72
    84
 73
    80
 74
     0
 42
0.000000001
 43
0.0000000001
 40
0.0
 40
0.0
 40
0.0
 40
0.0
 40
0.0476190476190476
 40
0.0476190476190476
 40
0.0476190476190476
 40
0.0476190476190476
 40
0.0952380952380952
 40
0.0952380952380952
 40
0.0952380952380952
 40
0.0952380952380952
 40
0.1428571428571428
 40
0.1428571428571428
 40
0.1428571428571428
 40
0.1428571428571428
 40
0.1904761904761905
 40
0.1904761904761905
 40
0.1904761904761905
 40
0.1904761904761905
 40
0.2380952380952381
 40
0.2380952380952381
 40
0.2380952380952381
 40
0.2380952380952381
 40
0.2857142857142857
 40
0.2857142857142857
 40
0.2857142857142857
 40
0.2857142857142857
 40
0.3333333333333333
 40
0.3333333333333333
 40
0.3333333333333333
 40
0.3333333333333333
 40
0.3809523809523809
 40
0.3809523809523809
 40
0.3809523809523809
 40
0.3809523809523809
 40
0.4285714285714285
 40
0.4285714285714285
 40
0.4285714285714285
 40
0.4285714285714285
 40
0.4761904761904762
 40
0.4761904761904762
 40
0.4761904761904762
 40
0.4761904761904762
 40
0.5238095238095238
 40
0.5238095238095238
 40
0.5238095238095238
 40
0.5238095238095238
 40
0.5714285714285714
 40
0.5714285714285714
 40
0.5714285714285714
 40
0.5714285714285714
 40
0.6190476190476191
 40
0.6190476190476191
 40
0.6190476190476191
 40
0.6190476190476191
 40
0.6666666666666666
 40
0.6666666666666666
 40
0.6666666666666666
 40
0.6666666666666666
 40
0.7142857142857143
 40
0.7142857142857143
 40
0.7142857142857143
 40
0.7142857142857143
 40
0.7619047619047619
 40
0.7619047619047619
 40
0.7619047619047619
 40
0.7619047619047619
 40
0.8095238095238095
 40
0.8095238095238095
 40
0.8095238095238095
 40
0.8095238095238095
 40
0.8571428571428571
 40
0.8571428571428571
 40
0.8571428571428571
 40
0.8571428571428571
 40
0.9047619047619048
 40
0.9047619047619048
 40
0.9047619047619048
 40
0.9047619047619048
 40
1.0
 40
1.0
 40
1.0
 40
1.0
 10
-5.355181102362205
 20
3.511043307086614
 30
0.0
 10
-5.355181102362205
 20
3.511043307086614
 30
0.0
 10
-5.353181102362205
 20
3.49809842519685
 30
0.0
 10
-5.353181102362205
 20
3.49809842519685
 30
0.0
 10
-5.353181102362205
 20
3.49809842519685
 30
0.0
 10
-5.357295275590551
 20
3.497240157480315
 30
0.0
 10
-5.360988188976378
 20
3.496795275590551
 30
0.0
 10
-5.364208661417323
 20
3.496795275590551
 30
0.0
 10
-5.364208661417323
 20
3.496795275590551
 30
0.0
 10
-5.369515748031496
 20
3.496795275590551
 30
0.0
 10
-5.373625984251968
 20
3.497625984251969
 30
0.0
 10
-5.376570866141733
 20
3.499322834645669
 30
0.0
 10
-5.376570866141733
 20
3.499322834645669
 30
0.0
 10
-5.379488188976378
 20
3.501015748031496
 30
0.0
 10
-5.381543307086615
 20
3.503208661417323
 30
0.0
 10
-5.382736220472441
 20
3.50596062992126
 30
0.0
 10
-5.382736220472441
 20
3.50596062992126
 30
0.0
 10
-5.383933070866142
 20
3.508708661417323
 30
0.0
 10
-5.384515748031496
 20
3.514488188976378
 30
0.0
 10
-5.384515748031496
 20
3.523295275590551
 30
0.0
 10
-5.384515748031496
 20
3.523295275590551
 30
0.0
 10
-5.384515748031496
 20
3.523295275590551
 30
0.0
 10
-5.384515748031496
 20
3.573125984251968
 30
0.0
 10
-5.384515748031496
 20
3.573125984251968
 30
0.0
 10
-5.384515748031496
 20
3.573125984251968
 30
0.0
 10
-5.384515748031496
 20
3.573125984251968
 30
0.0
 10
-5.395350393700787
 20
3.573125984251968
 30
0.0
 10
-5.395350393700787
 20
3.573125984251968
 30
0.0
 10
-5.395350393700787
 20
3.573125984251968
 30
0.0
 10
-5.395350393700787
 20
3.573125984251968
 30
0.0
 10
-5.395350393700787
 20
3.58446062992126
 30
0.0
 10
-5.395350393700787
 20
3.58446062992126
 30
0.0
 10
-5.395350393700787
 20
3.58446062992126
 30
0.0
 10
-5.395350393700787
 20
3.58446062992126
 30
0.0
 10
-5.384515748031496
 20
3.58446062992126
 30
0.0
 10
-5.384515748031496
 20
3.58446062992126
 30
0.0
 10
-5.384515748031496
 20
3.58446062992126
 30
0.0
 10
-5.384515748031496
 20
3.58446062992126
 30
0.0
 10
-5.384515748031496
 20
3.605850393700787
 30
0.0
 10
-5.384515748031496
 20
3.605850393700787
 30
0.0
 10
-5.384515748031496
 20
3.605850393700787
 30
0.0
 10
-5.384515748031496
 20
3.605850393700787
 30
0.0
 10
-5.369850393700787
 20
3.614653543307087
 30
0.0
 10
-5.369850393700787
 20
3.614653543307087
 30
0.0
 10
-5.369850393700787
 20
3.614653543307087
 30
0.0
 10
-5.369850393700787
 20
3.614653543307087
 30
0.0
 10
-5.369850393700787
 20
3.58446062992126
 30
0.0
 10
-5.369850393700787
 20
3.58446062992126
 30
0.0
 10
-5.369850393700787
 20
3.58446062992126
 30
0.0
 10
-5.369850393700787
 20
3.58446062992126
 30
0.0
 10
-5.355181102362205
 20
3.58446062992126
 30
0.0
 10
-5.355181102362205
 20
3.58446062992126
 30
0.0
 10
-5.355181102362205
 20
3.58446062992126
 30
0.0
 10
-5.355181102362205
 20
3.58446062992126
 30
0.0
 10
-5.355181102362205
 20
3.573125984251968
 30
0.0
 10
-5.355181102362205
 20
3.573125984251968
 30
0.0
 10
-5.355181102362205
 20
3.573125984251968
 30
0.0
 10
-5.355181102362205
 20
3.573125984251968
 30
0.0
 10
-5.369850393700787
 20
3.573125984251968
 30
0.0
 10
-5.369850393700787
 20
3.573125984251968
 30
0.0
 10
-5.369850393700787
 20
3.573125984251968
 30
0.0
 10
-5.369850393700787
 20
3.573125984251968
 30
0.0
 10
-5.369850393700787
 20
3.52246062992126
 30
0.0
 10
-5.369850393700787
 20
3.52246062992126
 30
0.0
 10
-5.369850393700787
 20
3.52246062992126
 30
0.0
 10
-5.369850393700787
 20
3.518267716535433
 30
0.0
 10
-5.36959842519685
 20
3.515570866141732
 30
0.0
 10
-5.369070866141732
 20
3.514377952755905
 30
0.0
 10
-5.369070866141732
 20
3.514377952755905
 30
0.0
 10
-5.368570866141733
 20
3.513181102362205
 30
0.0
 10
-5.367740157480315
 20
3.512240157480315
 30
0.0
 10
-5.366570866141732
 20
3.511515748031496
 30
0.0
 10
-5.366570866141732
 20
3.511515748031496
 30
0.0
 10
-5.365405511811024
 20
3.510822834645669
 30
0.0
 10
-5.363740157480315
 20
3.51046062992126
 30
0.0
 10
-5.361570866141732
 20
3.51046062992126
 30
0.0
 10
-5.361570866141732
 20
3.51046062992126
 30
0.0
 10
-5.35996062992126
 20
3.51046062992126
 30
0.0
 10
-5.35782283464567
 20
3.510653543307086
 30
0.0
 10
-5.355181102362205
 20
3.511043307086614
 30
0.0
  0
SPLINE
  5
89
330
1F
100
AcDbEntity
  8
Layer 1
 62
   250
100
AcDbSpline
210
0.0
220
0.0
230
1.0
 70
    11
 71
     3
 72
    52
 73
    48
 74
     0
 42
0.000000001
 43
0.0000000001
 40
0.0
 40
0.0
 40
0.0
 40
0.0
 40
0.0769230769230769
 40
0.0769230769230769
 40
0.0769230769230769
 40
0.0769230769230769
 40
0.1538461538461539
 40
0.1538461538461539
 40
0.1538461538461539
 40
0.1538461538461539
 40
0.2307692307692308
 40
0.2307692307692308
 40
0.2307692307692308
 40
0.2307692307692308
 40
0.3076923076923077
 40
0.3076923076923077
 40
0.3076923076923077
 40
0.3076923076923077
 40
0.3846153846153846
 40
0.3846153846153846
 40
0.3846153846153846
 40
0.3846153846153846
 40
0.4615384615384616
 40
0.4615384615384616
 40
0.4615384615384616
 40
0.4615384615384616
 40
0.5384615384615384
 40
0.5384615384615384
 40
0.5384615384615384
 40
0.5384615384615384
 40
0.6153846153846154
 40
0.6153846153846154
 40
0.6153846153846154
 40
0.6153846153846154
 40
0.6923076923076923
 40
0.6923076923076923
 40
0.6923076923076923
 40
0.6923076923076923
 40
0.7692307692307693
 40
0.7692307692307693
 40
0.7692307692307693
 40
0.7692307692307693
 40
0.8461538461538461
 40
0.8461538461538461
 40
0.8461538461538461
 40
0.8461538461538461
 40
1.0
 40
1.0
 40
1.0
 40
1.0
 10
-5.844956692913386
 20
3.370657480314961
 30
0.0
 10
-5.844956692913386
 20
3.384740157480315
 30
0.0
 10
-5.843511811023622
 20
3.396129921259842
 30
0.0
 10
-5.840622047244095
 20
3.404740157480315
 30
0.0
 10
-5.840622047244095
 20
3.404740157480315
 30
0.0
 10
-5.837708661417323
 20
3.413377952755905
 30
0.0
 10
-5.833401574803149
 20
3.420015748031496
 30
0.0
 10
-5.827677165354331
 20
3.424657480314961
 30
0.0
 10
-5.827677165354331
 20
3.424657480314961
 30
0.0
 10
-5.821984251968504
 20
3.429295275590551
 30
0.0
 10
-5.814791338582677
 20
3.43159842519685
 30
0.0
 10
-5.806122047244094
 20
3.43159842519685
 30
0.0
 10
-5.806122047244094
 20
3.43159842519685
 30
0.0
 10
-5.799736220472441
 20
3.43159842519685
 30
0.0
 10
-5.794122047244095
 20
3.430322834645669
 30
0.0
 10
-5.789263779527559
 20
3.427740157480315
 30
0.0
 10
-5.789263779527559
 20
3.427740157480315
 30
0.0
 10
-5.784429133858268
 20
3.425157480314961
 30
0.0
 10
-5.780429133858267
 20
3.421433070866142
 30
0.0
 10
-5.777318897637795
 20
3.416570866141732
 30
0.0
 10
-5.777318897637795
 20
3.416570866141732
 30
0.0
 10
-5.774208661417322
 20
3.411740157480315
 30
0.0
 10
-5.771763779527559
 20
3.405822834645669
 30
0.0
 10
-5.769984251968504
 20
3.398850393700787
 30
0.0
 10
-5.769984251968504
 20
3.398850393700787
 30
0.0
 10
-5.768181102362205
 20
3.391877952755905
 30
0.0
 10
-5.767291338582677
 20
3.38246062992126
 30
0.0
 10
-5.767291338582677
 20
3.370657480314961
 30
0.0
 10
-5.767291338582677
 20
3.370657480314961
 30
0.0
 10
-5.767291338582677
 20
3.35665748031496
 30
0.0
 10
-5.768736220472441
 20
3.345322834645669
 30
0.0
 10
-5.771594488188977
 20
3.336712598425197
 30
0.0
 10
-5.771594488188977
 20
3.336712598425197
 30
0.0
 10
-5.774456692913386
 20
3.328074803149606
 30
0.0
 10
-5.778763779527559
 20
3.321433070866142
 30
0.0
 10
-5.784484251968504
 20
3.316767716535433
 30
0.0
 10
-5.784484251968504
 20
3.316767716535433
 30
0.0
 10
-5.790181102362205
 20
3.312102362204724
 30
0.0
 10
-5.79740157480315
 20
3.309767716535433
 30
0.0
 10
-5.806122047244094
 20
3.309767716535433
 30
0.0
 10
-5.806122047244094
 20
3.309767716535433
 30
0.0
 10
-5.817594488188976
 20
3.309767716535433
 30
0.0
 10
-5.826622047244094
 20
3.313850393700787
 30
0.0
 10
-5.83317716535433
 20
3.322047244094488
 30
0.0
 10
-5.83317716535433
 20
3.322047244094488
 30
0.0
 10
-5.84103937007874
 20
3.332047244094488
 30
0.0
 10
-5.844956692913386
 20
3.348240157480315
 30
0.0
 10
-5.844956692913386
 20
3.370657480314961
 30
0.0
  0
SPLINE
  5
8A
330
1F
100
AcDbEntity
  8
Layer 1
 62
   250
100
AcDbSpline
210
0.0
220
0.0
230
1.0
 70
    11
 71
     3
 72
    36
 73
    32
 74
     0
 42
0.000000001
 43
0.0000000001
 40
0.0
 40
0.0
 40
0.0
 40
0.0
 40
0.1111111111111111
 40
0.1111111111111111
 40
0.1111111111111111
 40
0.1111111111111111
 40
0.2222222222222222
 40
0.2222222222222222
 40
0.2222222222222222
 40
0.2222222222222222
 40
0.3333333333333333
 40
0.3333333333333333
 40
0.3333333333333333
 40
0.3333333333333333
 40
0.4444444444444444
 40
0.4444444444444444
 40
0.4444444444444444
 40
0.4444444444444444
 40
0.5555555555555556
 40
0.5555555555555556
 40
0.5555555555555556
 40
0.5555555555555556
 40
0.6666666666666666
 40
0.6666666666666666
 40
0.6666666666666666
 40
0.6666666666666666
 40
0.7777777777777778
 40
0.7777777777777778
 40
0.7777777777777778
 40
0.7777777777777778
 40
1.0
 40
1.0
 40
1.0
 40
1.0
 10
-5.829956692913385
 20
3.370602362204724
 30
0.0
 10
-5.829956692913385
 20
3.35096062992126
 30
0.0
 10
-5.827677165354331
 20
3.337905511811023
 30
0.0
 10
-5.823094488188977
 20
3.33146062992126
 30
0.0
 10
-5.823094488188977
 20
3.33146062992126
 30
0.0
 10
-5.818511811023622
 20
3.324988188976378
 30
0.0
 10
-5.812846456692913
 20
3.321767716535433
 30
0.0
 10
-5.806122047244094
 20
3.321767716535433
 30
0.0
 10
-5.806122047244094
 20
3.321767716535433
 30
0.0
 10
-5.79940157480315
 20
3.321767716535433
 30
0.0
 10
-5.793736220472441
 20
3.325015748031496
 30
0.0
 10
-5.789153543307086
 20
3.331488188976378
 30
0.0
 10
-5.789153543307086
 20
3.331488188976378
 30
0.0
 10
-5.784566929133859
 20
3.337988188976378
 30
0.0
 10
-5.782291338582677
 20
3.351015748031496
 30
0.0
 10
-5.782291338582677
 20
3.370602362204724
 30
0.0
 10
-5.782291338582677
 20
3.370602362204724
 30
0.0
 10
-5.782291338582677
 20
3.390240157480315
 30
0.0
 10
-5.784566929133859
 20
3.403295275590551
 30
0.0
 10
-5.789153543307086
 20
3.409740157480315
 30
0.0
 10
-5.789153543307086
 20
3.409740157480315
 30
0.0
 10
-5.793708661417323
 20
3.416212598425197
 30
0.0
 10
-5.799429133858268
 20
3.419433070866142
 30
0.0
 10
-5.806291338582677
 20
3.419433070866142
 30
0.0
 10
-5.806291338582677
 20
3.419433070866142
 30
0.0
 10
-5.813011811023622
 20
3.419433070866142
 30
0.0
 10
-5.81840157480315
 20
3.416570866141732
 30
0.0
 10
-5.822429133858268
 20
3.410877952755905
 30
0.0
 10
-5.822429133858268
 20
3.410877952755905
 30
0.0
 10
-5.827456692913386
 20
3.403629921259843
 30
0.0
 10
-5.829956692913385
 20
3.390185039370079
 30
0.0
 10
-5.829956692913385
 20
3.370602362204724
 30
0.0
  0
SPLINE
  5
8B
330
1F
100
AcDbEntity
  8
Layer 1
 62
   250
100
AcDbSpline
210
0.0
220
0.0
230
1.0
 70
    11
 71
     3
 72
    20
 73
    16
 74
     0
 42
0.000000001
 43
0.0000000001
 40
0.0
 40
0.0
 40
0.0
 40
0.0
 40
0.2
 40
0.2
 40
0.2
 40
0.2
 40
0.4
 40
0.4
 40
0.4
 40
0.4
 40
0.6
 40
0.6
 40
0.6
 40
0.6
 40
1.0
 40
1.0
 40
1.0
 40
1.0
 10
-5.74409842519685
 20
3.311767716535433
 30
0.0
 10
-5.74409842519685
 20
3.311767716535433
 30
0.0
 10
-5.74409842519685
 20
3.328433070866142
 30
0.0
 10
-5.74409842519685
 20
3.328433070866142
 30
0.0
 10
-5.74409842519685
 20
3.328433070866142
 30
0.0
 10
-5.74409842519685
 20
3.328433070866142
 30
0.0
 10
-5.727429133858267
 20
3.328433070866142
 30
0.0
 10
-5.727429133858267
 20
3.328433070866142
 30
0.0
 10
-5.727429133858267
 20
3.328433070866142
 30
0.0
 10
-5.727429133858267
 20
3.328433070866142
 30
0.0
 10
-5.727429133858267
 20
3.311767716535433
 30
0.0
 10
-5.727429133858267
 20
3.311767716535433
 30
0.0
 10
-5.727429133858267
 20
3.311767716535433
 30
0.0
 10
-5.727429133858267
 20
3.311767716535433
 30
0.0
 10
-5.74409842519685
 20
3.311767716535433
 30
0.0
 10
-5.74409842519685
 20
3.311767716535433
 30
0.0
  0
SPLINE
  5
8C
330
1F
100
AcDbEntity
  8
Layer 1
 62
   250
100
AcDbSpline
210
0.0
220
0.0
230
1.0
 70
    11
 71
     3
 72
    40
 73
    36
 74
     0
 42
0.000000001
 43
0.0000000001
 40
0.0
 40
0.0
 40
0.0
 40
0.0
 40
0.1
 40
0.1
 40
0.1
 40
0.1
 40
0.2
 40
0.2
 40
0.2
 40
0.2
 40
0.3
 40
0.3
 40
0.3
 40
0.3
 40
0.4
 40
0.4
 40
0.4
 40
0.4
 40
0.5
 40
0.5
 40
0.5
 40
0.5
 40
0.6
 40
0.6
 40
0.6
 40
0.6
 40
0.7
 40
0.7
 40
0.7
 40
0.7
 40
0.8
 40
0.8
 40
0.8
 40
0.8
 40
1.0
 40
1.0
 40
1.0
 40
1.0
 10
-5.650956692913386
 20
3.311767716535433
 30
0.0
 10
-5.650956692913386
 20
3.311767716535433
 30
0.0
 10
-5.665622047244095
 20
3.311767716535433
 30
0.0
 10
-5.665622047244095
 20
3.311767716535433
 30
0.0
 10
-5.665622047244095
 20
3.311767716535433
 30
0.0
 10
-5.665622047244095
 20
3.311767716535433
 30
0.0
 10
-5.665622047244095
 20
3.405157480314961
 30
0.0
 10
-5.665622047244095
 20
3.405157480314961
 30
0.0
 10
-5.665622047244095
 20
3.405157480314961
 30
0.0
 10
-5.669149606299213
 20
3.401767716535433
 30
0.0
 10
-5.673791338582677
 20
3.398405511811024
 30
0.0
 10
-5.679511811023622
 20
3.395043307086614
 30
0.0
 10
-5.679511811023622
 20
3.395043307086614
 30
0.0
 10
-5.685236220472441
 20
3.391685039370079
 30
0.0
 10
-5.69040157480315
 20
3.389157480314961
 30
0.0
 10
-5.694956692913386
 20
3.387488188976378
 30
0.0
 10
-5.694956692913386
 20
3.387488188976378
 30
0.0
 10
-5.694956692913386
 20
3.387488188976378
 30
0.0
 10
-5.694956692913386
 20
3.401657480314961
 30
0.0
 10
-5.694956692913386
 20
3.401657480314961
 30
0.0
 10
-5.694956692913386
 20
3.401657480314961
 30
0.0
 10
-5.686763779527559
 20
3.405488188976378
 30
0.0
 10
-5.679594488188976
 20
3.410157480314961
 30
0.0
 10
-5.673456692913386
 20
3.415657480314961
 30
0.0
 10
-5.673456692913386
 20
3.415657480314961
 30
0.0
 10
-5.667318897637795
 20
3.421129921259843
 30
0.0
 10
-5.662956692913386
 20
3.426433070866142
 30
0.0
 10
-5.660401574803149
 20
3.43159842519685
 30
0.0
 10
-5.660401574803149
 20
3.43159842519685
 30
0.0
 10
-5.660401574803149
 20
3.43159842519685
 30
0.0
 10
-5.650956692913386
 20
3.43159842519685
 30
0.0
 10
-5.650956692913386
 20
3.43159842519685
 30
0.0
 10
-5.650956692913386
 20
3.43159842519685
 30
0.0
 10
-5.650956692913386
 20
3.43159842519685
 30
0.0
 10
-5.650956692913386
 20
3.311767716535433
 30
0.0
 10
-5.650956692913386
 20
3.311767716535433
 30
0.0
  0
SPLINE
  5
8D
330
1F
100
AcDbEntity
  8
Layer 1
 62
   250
100
AcDbSpline
210
0.0
220
0.0
230
1.0
 70
    11
 71
     3
 72
    80
 73
    76
 74
     0
 42
0.000000001
 43
0.0000000001
 40
0.0
 40
0.0
 40
0.0
 40
0.0
 40
0.05
 40
0.05
 40
0.05
 40
0.05
 40
0.1
 40
0.1
 40
0.1
 40
0.1
 40
0.15
 40
0.15
 40
0.15
 40
0.15
 40
0.2
 40
0.2
 40
0.2
 40
0.2
 40
0.25
 40
0.25
 40
0.25
 40
0.25
 40
0.3
 40
0.3
 40
0.3
 40
0.3
 40
0.35
 40
0.35
 40
0.35
 40
0.35
 40
0.4
 40
0.4
 40
0.4
 40
0.4
 40
0.45
 40
0.45
 40
0.45
 40
0.45
 40
0.5
 40
0.5
 40
0.5
 40
0.5
 40
0.55
 40
0.55
 40
0.55
 40
0.55
 40
0.6
 40
0.6
 40
0.6
 40
0.6
 40
0.65
 40
0.65
 40
0.65
 40
0.65
 40
0.7
 40
0.7
 40
0.7
 40
0.7
 40
0.75
 40
0.75
 40
0.75
 40
0.75
 40
0.8
 40
0.8
 40
0.8
 40
0.8
 40
0.85
 40
0.85
 40
0.85
 40
0.85
 40
0.9
 40
0.9
 40
0.9
 40
0.9
 40
1.0
 40
1.0
 40
1.0
 40
1.0
 10
-5.53709842519685
 20
3.401933070866142
 30
0.0
 10
-5.53709842519685
 20
3.401933070866142
 30
0.0
 10
-5.55159842519685
 20
3.400767716535433
 30
0.0
 10
-5.55159842519685
 20
3.400767716535433
 30
0.0
 10
-5.55159842519685
 20
3.400767716535433
 30
0.0
 10
-5.552901574803149
 20
3.406515748031496
 30
0.0
 10
-5.554763779527559
 20
3.410712598425197
 30
0.0
 10
-5.557181102362205
 20
3.413322834645669
 30
0.0
 10
-5.557181102362205
 20
3.413322834645669
 30
0.0
 10
-5.561153543307086
 20
3.417515748031496
 30
0.0
 10
-5.566070866141732
 20
3.41959842519685
 30
0.0
 10
-5.57190157480315
 20
3.41959842519685
 30
0.0
 10
-5.57190157480315
 20
3.41959842519685
 30
0.0
 10
-5.576598425196851
 20
3.41959842519685
 30
0.0
 10
-5.580763779527559
 20
3.418295275590551
 30
0.0
 10
-5.584346456692914
 20
3.415685039370079
 30
0.0
 10
-5.584346456692914
 20
3.415685039370079
 30
0.0
 10
-5.588956692913386
 20
3.412322834645669
 30
0.0
 10
-5.592570866141732
 20
3.407433070866142
 30
0.0
 10
-5.595263779527559
 20
3.400988188976378
 30
0.0
 10
-5.595263779527559
 20
3.400988188976378
 30
0.0
 10
-5.597929133858267
 20
3.394515748031496
 30
0.0
 10
-5.599318897637795
 20
3.385322834645669
 30
0.0
 10
-5.599429133858267
 20
3.373405511811024
 30
0.0
 10
-5.599429133858267
 20
3.373405511811024
 30
0.0
 10
-5.59590157480315
 20
3.378767716535433
 30
0.0
 10
-5.591570866141732
 20
3.382767716535433
 30
0.0
 10
-5.586456692913385
 20
3.385350393700787
 30
0.0
 10
-5.586456692913385
 20
3.385350393700787
 30
0.0
 10
-5.581346456692914
 20
3.38796062992126
 30
0.0
 10
-5.576015748031496
 20
3.389267716535433
 30
0.0
 10
-5.570401574803149
 20
3.389267716535433
 30
0.0
 10
-5.570401574803149
 20
3.389267716535433
 30
0.0
 10
-5.560625984251969
 20
3.389267716535433
 30
0.0
 10
-5.552291338582677
 20
3.385657480314961
 30
0.0
 10
-5.54540157480315
 20
3.37846062992126
 30
0.0
 10
-5.54540157480315
 20
3.37846062992126
 30
0.0
 10
-5.538543307086615
 20
3.371267716535433
 30
0.0
 10
-5.535098425196851
 20
3.361988188976378
 30
0.0
 10
-5.535098425196851
 20
3.350574803149606
 30
0.0
 10
-5.535098425196851
 20
3.350574803149606
 30
0.0
 10
-5.535098425196851
 20
3.343074803149606
 30
0.0
 10
-5.536708661417323
 20
3.336129921259842
 30
0.0
 10
-5.539929133858267
 20
3.329685039370079
 30
0.0
 10
-5.539929133858267
 20
3.329685039370079
 30
0.0
 10
-5.543181102362205
 20
3.323240157480315
 30
0.0
 10
-5.54759842519685
 20
3.318322834645669
 30
0.0
 10
-5.553263779527559
 20
3.314905511811024
 30
0.0
 10
-5.553263779527559
 20
3.314905511811024
 30
0.0
 10
-5.55890157480315
 20
3.311488188976378
 30
0.0
 10
-5.565318897637796
 20
3.309767716535433
 30
0.0
 10
-5.572488188976378
 20
3.309767716535433
 30
0.0
 10
-5.572488188976378
 20
3.309767716535433
 30
0.0
 10
-5.584681102362205
 20
3.309767716535433
 30
0.0
 10
-5.594653543307087
 20
3.314267716535433
 30
0.0
 10
-5.602374015748032
 20
3.323240157480315
 30
0.0
 10
-5.602374015748032
 20
3.323240157480315
 30
0.0
 10
-5.610070866141732
 20
3.332212598425197
 30
0.0
 10
-5.613929133858267
 20
3.347015748031496
 30
0.0
 10
-5.613929133858267
 20
3.367629921259843
 30
0.0
 10
-5.613929133858267
 20
3.367629921259843
 30
0.0
 10
-5.613929133858267
 20
3.390685039370079
 30
0.0
 10
-5.609653543307086
 20
3.40746062992126
 30
0.0
 10
-5.601125984251969
 20
3.417933070866142
 30
0.0
 10
-5.601125984251969
 20
3.417933070866142
 30
0.0
 10
-5.593681102362205
 20
3.427043307086614
 30
0.0
 10
-5.583653543307086
 20
3.43159842519685
 30
0.0
 10
-5.571015748031496
 20
3.43159842519685
 30
0.0
 10
-5.571015748031496
 20
3.43159842519685
 30
0.0
 10
-5.561625984251968
 20
3.43159842519685
 30
0.0
 10
-5.55390157480315
 20
3.42896062992126
 30
0.0
 10
-5.547901574803149
 20
3.423712598425197
 30
0.0
 10
-5.547901574803149
 20
3.423712598425197
 30
0.0
 10
-5.541901574803149
 20
3.41846062992126
 30
0.0
 10
-5.538291338582678
 20
3.411212598425197
 30
0.0
 10
-5.53709842519685
 20
3.401933070866142
 30
0.0
  0
SPLINE
  5
8E
330
1F
100
AcDbEntity
  8
Layer 1
 62
   250
100
AcDbSpline
210
0.0
220
0.0
230
1.0
 70
    11
 71
     3
 72
    40
 73
    36
 74
     0
 42
0.000000001
 43
0.0000000001
 40
0.0
 40
0.0
 40
0.0
 40
0.0
 40
0.1
 40
0.1
 40
0.1
 40
0.1
 40
0.2
 40
0.2
 40
0.2
 40
0.2
 40
0.3
 40
0.3
 40
0.3
 40
0.3
 40
0.4
 40
0.4
 40
0.4
 40
0.4
 40
0.5
 40
0.5
 40
0.5
 40
0.5
 40
0.6
 40
0.6
 40
0.6
 40
0.6
 40
0.7
 40
0.7
 40
0.7
 40
0.7
 40
0.8
 40
0.8
 40
0.8
 40
0.8
 40
1.0
 40
1.0
 40
1.0
 40
1.0
 10
-5.59709842519685
 20
3.350433070866142
 30
0.0
 10
-5.59709842519685
 20
3.345377952755905
 30
0.0
 10
-5.596015748031496
 20
3.340543307086614
 30
0.0
 10
-5.593874015748032
 20
3.335933070866142
 30
0.0
 10
-5.593874015748032
 20
3.335933070866142
 30
0.0
 10
-5.591736220472441
 20
3.331322834645669
 30
0.0
 10
-5.588736220472441
 20
3.327822834645669
 30
0.0
 10
-5.584929133858267
 20
3.325405511811024
 30
0.0
 10
-5.584929133858267
 20
3.325405511811024
 30
0.0
 10
-5.58109842519685
 20
3.322988188976378
 30
0.0
 10
-5.577043307086615
 20
3.321767716535433
 30
0.0
 10
-5.572736220472441
 20
3.321767716535433
 30
0.0
 10
-5.572736220472441
 20
3.321767716535433
 30
0.0
 10
-5.566488188976378
 20
3.321767716535433
 30
0.0
 10
-5.561153543307086
 20
3.324267716535433
 30
0.0
 10
-5.556736220472441
 20
3.329267716535433
 30
0.0
 10
-5.556736220472441
 20
3.329267716535433
 30
0.0
 10
-5.552318897637795
 20
3.334267716535433
 30
0.0
 10
-5.55009842519685
 20
3.341043307086614
 30
0.0
 10
-5.55009842519685
 20
3.349629921259842
 30
0.0
 10
-5.55009842519685
 20
3.349629921259842
 30
0.0
 10
-5.55009842519685
 20
3.357877952755906
 30
0.0
 10
-5.552291338582677
 20
3.364377952755905
 30
0.0
 10
-5.556653543307086
 20
3.369129921259843
 30
0.0
 10
-5.556653543307086
 20
3.369129921259843
 30
0.0
 10
-5.561015748031496
 20
3.373877952755906
 30
0.0
 10
-5.566570866141732
 20
3.376267716535433
 30
0.0
 10
-5.573318897637796
 20
3.376267716535433
 30
0.0
 10
-5.573318897637796
 20
3.376267716535433
 30
0.0
 10
-5.579929133858267
 20
3.376267716535433
 30
0.0
 10
-5.585570866141732
 20
3.373877952755906
 30
0.0
 10
-5.590181102362204
 20
3.369129921259843
 30
0.0
 10
-5.590181102362204
 20
3.369129921259843
 30
0.0
 10
-5.594791338582677
 20
3.364377952755905
 30
0.0
 10
-5.59709842519685
 20
3.358157480314961
 30
0.0
 10
-5.59709842519685
 20
3.350433070866142
 30
0.0
  0
SPLINE
  5
8F
330
1F
100
AcDbEntity
  8
Layer 1
 62
   250
100
AcDbSpline
210
0.0
220
0.0
230
1.0
 70
    11
 71
     3
 72
    92
 73
    88
 74
     0
 42
0.000000001
 43
0.0000000001
 40
0.0
 40
0.0
 40
0.0
 40
0.0
 40
0.0434782608695652
 40
0.0434782608695652
 40
0.0434782608695652
 40
0.0434782608695652
 40
0.0869565217391304
 40
0.0869565217391304
 40
0.0869565217391304
 40
0.0869565217391304
 40
0.1304347826086956
 40
0.1304347826086956
 40
0.1304347826086956
 40
0.1304347826086956
 40
0.1739130434782609
 40
0.1739130434782609
 40
0.1739130434782609
 40
0.1739130434782609
 40
0.2173913043478261
 40
0.2173913043478261
 40
0.2173913043478261
 40
0.2173913043478261
 40
0.2608695652173913
 40
0.2608695652173913
 40
0.2608695652173913
 40
0.2608695652173913
 40
0.3043478260869565
 40
0.3043478260869565
 40
0.3043478260869565
 40
0.3043478260869565
 40
0.3478260869565217
 40
0.3478260869565217
 40
0.3478260869565217
 40
0.3478260869565217
 40
0.391304347826087
 40
0.391304347826087
 40
0.391304347826087
 40
0.391304347826087
 40
0.4347826086956522
 40
0.4347826086956522
 40
0.4347826086956522
 40
0.4347826086956522
 40
0.4782608695652174
 40
0.4782608695652174
 40
0.4782608695652174
 40
0.4782608695652174
 40
0.5217391304347826
 40
0.5217391304347826
 40
0.5217391304347826
 40
0.5217391304347826
 40
0.5652173913043478
 40
0.5652173913043478
 40
0.5652173913043478
 40
0.5652173913043478
 40
0.6086956521739131
 40
0.6086956521739131
 40
0.6086956521739131
 40
0.6086956521739131
 40
0.6521739130434783
 40
0.6521739130434783
 40
0.6521739130434783
 40
0.6521739130434783
 40
0.6956521739130435
 40
0.6956521739130435
 40
0.6956521739130435
 40
0.6956521739130435
 40
0.7391304347826086
 40
0.7391304347826086
 40
0.7391304347826086
 40
0.7391304347826086
 40
0.782608695652174
 40
0.782608695652174
 40
0.782608695652174
 40
0.782608695652174
 40
0.8260869565217391
 40
0.8260869565217391
 40
0.8260869565217391
 40
0.8260869565217391
 40
0.8695652173913043
 40
0.8695652173913043
 40
0.8695652173913043
 40
0.8695652173913043
 40
0.9130434782608695
 40
0.9130434782608695
 40
0.9130434782608695
 40
0.9130434782608695
 40
1.0
 40
1.0
 40
1.0
 40
1.0
 10
-5.520570866141732
 20
3.343102362204724
 30
0.0
 10
-5.520570866141732
 20
3.343102362204724
 30
0.0
 10
-5.505236220472441
 20
3.344267716535433
 30
0.0
 10
-5.505236220472441
 20
3.344267716535433
 30
0.0
 10
-5.505236220472441
 20
3.344267716535433
 30
0.0
 10
-5.50409842519685
 20
3.336795275590551
 30
0.0
 10
-5.50146062992126
 20
3.331185039370079
 30
0.0
 10
-5.497350393700787
 20
3.327405511811024
 30
0.0
 10
-5.497350393700787
 20
3.327405511811024
 30
0.0
 10
-5.493236220472441
 20
3.323657480314961
 30
0.0
 10
-5.488208661417323
 20
3.321767716535433
 30
0.0
 10
-5.482295275590551
 20
3.321767716535433
 30
0.0
 10
-5.482295275590551
 20
3.321767716535433
 30
0.0
 10
-5.475153543307087
 20
3.321767716535433
 30
0.0
 10
-5.469181102362205
 20
3.324433070866142
 30
0.0
 10
-5.464322834645669
 20
3.329740157480315
 30
0.0
 10
-5.464322834645669
 20
3.329740157480315
 30
0.0
 10
-5.459488188976378
 20
3.335074803149606
 30
0.0
 10
-5.457070866141732
 20
3.342129921259843
 30
0.0
 10
-5.457070866141732
 20
3.350905511811024
 30
0.0
 10
-5.457070866141732
 20
3.350905511811024
 30
0.0
 10
-5.457070866141732
 20
3.359267716535433
 30
0.0
 10
-5.459377952755905
 20
3.365850393700788
 30
0.0
 10
-5.464015748031496
 20
3.370685039370079
 30
0.0
 10
-5.464015748031496
 20
3.370685039370079
 30
0.0
 10
-5.468653543307086
 20
3.375515748031496
 30
0.0
 10
-5.474795275590552
 20
3.377933070866142
 30
0.0
 10
-5.482433070866142
 20
3.377933070866142
 30
0.0
 10
-5.482433070866142
 20
3.377933070866142
 30
0.0
 10
-5.487181102362205
 20
3.377933070866142
 30
0.0
 10
-5.491433070866142
 20
3.376850393700787
 30
0.0
 10
-5.495208661417323
 20
3.374685039370079
 30
0.0
 10
-5.495208661417323
 20
3.374685039370079
 30
0.0
 10
-5.498960629921259
 20
3.372515748031496
 30
0.0
 10
-5.501905511811024
 20
3.369712598425197
 30
0.0
 10
-5.504070866141732
 20
3.366267716535433
 30
0.0
 10
-5.504070866141732
 20
3.366267716535433
 30
0.0
 10
-5.504070866141732
 20
3.366267716535433
 30
0.0
 10
-5.517905511811024
 20
3.368267716535433
 30
0.0
 10
-5.517905511811024
 20
3.368267716535433
 30
0.0
 10
-5.517905511811024
 20
3.368267716535433
 30
0.0
 10
-5.517905511811024
 20
3.368267716535433
 30
0.0
 10
-5.506405511811024
 20
3.429598425196851
 30
0.0
 10
-5.506405511811024
 20
3.429598425196851
 30
0.0
 10
-5.506405511811024
 20
3.429598425196851
 30
0.0
 10
-5.506405511811024
 20
3.429598425196851
 30
0.0
 10
-5.447236220472441
 20
3.429598425196851
 30
0.0
 10
-5.447236220472441
 20
3.429598425196851
 30
0.0
 10
-5.447236220472441
 20
3.429598425196851
 30
0.0
 10
-5.447236220472441
 20
3.429598425196851
 30
0.0
 10
-5.447236220472441
 20
3.41559842519685
 30
0.0
 10
-5.447236220472441
 20
3.41559842519685
 30
0.0
 10
-5.447236220472441
 20
3.41559842519685
 30
0.0
 10
-5.447236220472441
 20
3.41559842519685
 30
0.0
 10
-5.494708661417323
 20
3.41559842519685
 30
0.0
 10
-5.494708661417323
 20
3.41559842519685
 30
0.0
 10
-5.494708661417323
 20
3.41559842519685
 30
0.0
 10
-5.494708661417323
 20
3.41559842519685
 30
0.0
 10
-5.501070866141732
 20
3.383405511811024
 30
0.0
 10
-5.501070866141732
 20
3.383405511811024
 30
0.0
 10
-5.501070866141732
 20
3.383405511811024
 30
0.0
 10
-5.493933070866142
 20
3.388433070866142
 30
0.0
 10
-5.486433070866141
 20
3.390933070866142
 30
0.0
 10
-5.47859842519685
 20
3.390933070866142
 30
0.0
 10
-5.47859842519685
 20
3.390933070866142
 30
0.0
 10
-5.468208661417322
 20
3.390933070866142
 30
0.0
 10
-5.459433070866142
 20
3.387322834645669
 30
0.0
 10
-5.452295275590552
 20
3.380102362204724
 30
0.0
 10
-5.452295275590552
 20
3.380102362204724
 30
0.0
 10
-5.445153543307087
 20
3.372877952755906
 30
0.0
 10
-5.441570866141732
 20
3.363602362204724
 30
0.0
 10
-5.441570866141732
 20
3.352267716535433
 30
0.0
 10
-5.441570866141732
 20
3.352267716535433
 30
0.0
 10
-5.441570866141732
 20
3.34146062992126
 30
0.0
 10
-5.444708661417323
 20
3.332129921259842
 30
0.0
 10
-5.450988188976378
 20
3.324267716535433
 30
0.0
 10
-5.450988188976378
 20
3.324267716535433
 30
0.0
 10
-5.458625984251968
 20
3.314602362204724
 30
0.0
 10
-5.469070866141732
 20
3.309767716535433
 30
0.0
 10
-5.482295275590551
 20
3.309767716535433
 30
0.0
 10
-5.482295275590551
 20
3.309767716535433
 30
0.0
 10
-5.493125984251969
 20
3.309767716535433
 30
0.0
 10
-5.50196062992126
 20
3.312822834645669
 30
0.0
 10
-5.508822834645669
 20
3.318905511811024
 30
0.0
 10
-5.508822834645669
 20
3.318905511811024
 30
0.0
 10
-5.515681102362205
 20
3.324988188976378
 30
0.0
 10
-5.51959842519685
 20
3.333047244094488
 30
0.0
 10
-5.520570866141732
 20
3.343102362204724
 30
0.0
  0
SPLINE
  5
90
330
1F
100
AcDbEntity
  8
Layer 1
 62
   250
100
AcDbSpline
210
0.0
220
0.0
230
1.0
 70
    11
 71
     3
 72
    56
 73
    52
 74
     0
 42
0.000000001
 43
0.0000000001
 40
0.0
 40
0.0
 40
0.0
 40
0.0
 40
0.0714285714285714
 40
0.0714285714285714
 40
0.0714285714285714
 40
0.0714285714285714
 40
0.1428571428571428
 40
0.1428571428571428
 40
0.1428571428571428
 40
0.1428571428571428
 40
0.2142857142857143
 40
0.2142857142857143
 40
0.2142857142857143
 40
0.2142857142857143
 40
0.2857142857142857
 40
0.2857142857142857
 40
0.2857142857142857
 40
0.2857142857142857
 40
0.3571428571428572
 40
0.3571428571428572
 40
0.3571428571428572
 40
0.3571428571428572
 40
0.4285714285714285
 40
0.4285714285714285
 40
0.4285714285714285
 40
0.4285714285714285
 40
0.5
 40
0.5
 40
0.5
 40
0.5
 40
0.5714285714285714
 40
0.5714285714285714
 40
0.5714285714285714
 40
0.5714285714285714
 40
0.6428571428571429
 40
0.6428571428571429
 40
0.6428571428571429
 40
0.6428571428571429
 40
0.7142857142857143
 40
0.7142857142857143
 40
0.7142857142857143
 40
0.7142857142857143
 40
0.7857142857142857
 40
0.7857142857142857
 40
0.7857142857142857
 40
0.7857142857142857
 40
0.8571428571428571
 40
0.8571428571428571
 40
0.8571428571428571
 40
0.8571428571428571
 40
1.0
 40
1.0
 40
1.0
 40
1.0
 10
-0.8747913385826772
 20
3.518433070866142
 30
0.0
 10
-0.8747913385826772
 20
3.518433070866142
 30
0.0
 10
-0.8884566929133858
 20
3.518433070866142
 30
0.0
 10
-0.8884566929133858
 20
3.518433070866142
 30
0.0
 10
-0.8884566929133858
 20
3.518433070866142
 30
0.0
 10
-0.8884566929133858
 20
3.518433070866142
 30
0.0
 10
-0.8884566929133858
 20
3.637763779527559
 30
0.0
 10
-0.8884566929133858
 20
3.637763779527559
 30
0.0
 10
-0.8884566929133858
 20
3.637763779527559
 30
0.0
 10
-0.8884566929133858
 20
3.637763779527559
 30
0.0
 10
-0.8737913385826772
 20
3.637763779527559
 30
0.0
 10
-0.8737913385826772
 20
3.637763779527559
 30
0.0
 10
-0.8737913385826772
 20
3.637763779527559
 30
0.0
 10
-0.8737913385826772
 20
3.637763779527559
 30
0.0
 10
-0.8737913385826772
 20
3.595181102362205
 30
0.0
 10
-0.8737913385826772
 20
3.595181102362205
 30
0.0
 10
-0.8737913385826772
 20
3.595181102362205
 30
0.0
 10
-0.8675984251968504
 20
3.602905511811024
 30
0.0
 10
-0.8597086614173228
 20
3.606763779527559
 30
0.0
 10
-0.8500984251968504
 20
3.606763779527559
 30
0.0
 10
-0.8500984251968504
 20
3.606763779527559
 30
0.0
 10
-0.8447913385826772
 20
3.606763779527559
 30
0.0
 10
-0.8397362204724409
 20
3.605708661417323
 30
0.0
 10
-0.8349881889763779
 20
3.603570866141732
 30
0.0
 10
-0.8349881889763779
 20
3.603570866141732
 30
0.0
 10
-0.8302362204724409
 20
3.601433070866142
 30
0.0
 10
-0.8263464566929134
 20
3.598405511811023
 30
0.0
 10
-0.823263779527559
 20
3.594543307086614
 30
0.0
 10
-0.823263779527559
 20
3.594543307086614
 30
0.0
 10
-0.8202086614173228
 20
3.590653543307087
 30
0.0
 10
-0.8177913385826772
 20
3.585988188976378
 30
0.0
 10
-0.8160708661417323
 20
3.580515748031496
 30
0.0
 10
-0.8160708661417323
 20
3.580515748031496
 30
0.0
 10
-0.8143188976377953
 20
3.575070866141732
 30
0.0
 10
-0.8134606299212599
 20
3.569208661417323
 30
0.0
 10
-0.8134606299212599
 20
3.562988188976378
 30
0.0
 10
-0.8134606299212599
 20
3.562988188976378
 30
0.0
 10
-0.8134606299212599
 20
3.548208661417323
 30
0.0
 10
-0.8171259842519685
 20
3.536767716535433
 30
0.0
 10
-0.8244291338582678
 20
3.528712598425197
 30
0.0
 10
-0.8244291338582678
 20
3.528712598425197
 30
0.0
 10
-0.8317637795275591
 20
3.520625984251969
 30
0.0
 10
-0.8405433070866142
 20
3.51659842519685
 30
0.0
 10
-0.8507913385826772
 20
3.51659842519685
 30
0.0
 10
-0.8507913385826772
 20
3.51659842519685
 30
0.0
 10
-0.8609842519685039
 20
3.51659842519685
 30
0.0
 10
-0.8689842519685039
 20
3.520850393700787
 30
0.0
 10
-0.8747913385826772
 20
3.529322834645669
 30
0.0
 10
-0.8747913385826772
 20
3.529322834645669
 30
0.0
 10
-0.8747913385826772
 20
3.529322834645669
 30
0.0
 10
-0.8747913385826772
 20
3.518433070866142
 30
0.0
 10
-0.8747913385826772
 20
3.518433070866142
 30
0.0
  0
SPLINE
  5
91
330
1F
100
AcDbEntity
  8
Layer 1
 62
   250
100
AcDbSpline
210
0.0
220
0.0
230
1.0
 70
    11
 71
     3
 72
    36
 73
    32
 74
     0
 42
0.000000001
 43
0.0000000001
 40
0.0
 40
0.0
 40
0.0
 40
0.0
 40
0.1111111111111111
 40
0.1111111111111111
 40
0.1111111111111111
 40
0.1111111111111111
 40
0.2222222222222222
 40
0.2222222222222222
 40
0.2222222222222222
 40
0.2222222222222222
 40
0.3333333333333333
 40
0.3333333333333333
 40
0.3333333333333333
 40
0.3333333333333333
 40
0.4444444444444444
 40
0.4444444444444444
 40
0.4444444444444444
 40
0.4444444444444444
 40
0.5555555555555556
 40
0.5555555555555556
 40
0.5555555555555556
 40
0.5555555555555556
 40
0.6666666666666666
 40
0.6666666666666666
 40
0.6666666666666666
 40
0.6666666666666666
 40
0.7777777777777778
 40
0.7777777777777778
 40
0.7777777777777778
 40
0.7777777777777778
 40
1.0
 40
1.0
 40
1.0
 40
1.0
 10
-0.8749566929133858
 20
3.562322834645669
 30
0.0
 10
-0.8749566929133858
 20
3.551988188976378
 30
0.0
 10
-0.8735433070866142
 20
3.544515748031496
 30
0.0
 10
-0.8707362204724409
 20
3.539905511811023
 30
0.0
 10
-0.8707362204724409
 20
3.539905511811023
 30
0.0
 10
-0.8661259842519685
 20
3.532377952755906
 30
0.0
 10
-0.8599015748031497
 20
3.52859842519685
 30
0.0
 10
-0.8520433070866141
 20
3.52859842519685
 30
0.0
 10
-0.8520433070866141
 20
3.52859842519685
 30
0.0
 10
-0.8456259842519686
 20
3.52859842519685
 30
0.0
 10
-0.8400984251968504
 20
3.531377952755906
 30
0.0
 10
-0.8354566929133859
 20
3.536933070866142
 30
0.0
 10
-0.8354566929133859
 20
3.536933070866142
 30
0.0
 10
-0.8307913385826772
 20
3.542488188976378
 30
0.0
 10
-0.8284566929133859
 20
3.550767716535433
 30
0.0
 10
-0.8284566929133859
 20
3.561767716535433
 30
0.0
 10
-0.8284566929133859
 20
3.561767716535433
 30
0.0
 10
-0.8284566929133859
 20
3.573043307086614
 30
0.0
 10
-0.8306811023622047
 20
3.581350393700788
 30
0.0
 10
-0.8351535433070866
 20
3.586708661417323
 30
0.0
 10
-0.8351535433070866
 20
3.586708661417323
 30
0.0
 10
-0.8396259842519685
 20
3.592070866141732
 30
0.0
 10
-0.8450433070866141
 20
3.594767716535433
 30
0.0
 10
-0.8513740157480315
 20
3.594767716535433
 30
0.0
 10
-0.8513740157480315
 20
3.594767716535433
 30
0.0
 10
-0.8577913385826772
 20
3.594767716535433
 30
0.0
 10
-0.8633188976377952
 20
3.591988188976378
 30
0.0
 10
-0.8679566929133858
 20
3.586433070866142
 30
0.0
 10
-0.8679566929133858
 20
3.586433070866142
 30
0.0
 10
-0.8726259842519685
 20
3.580877952755905
 30
0.0
 10
-0.8749566929133858
 20
3.572850393700787
 30
0.0
 10
-0.8749566929133858
 20
3.562322834645669
 30
0.0
  0
SPLINE
  5
92
330
1F
100
AcDbEntity
  8
Layer 1
 62
   250
100
AcDbSpline
210
0.0
220
0.0
230
1.0
 70
    11
 71
     3
 72
    64
 73
    60
 74
     0
 42
0.000000001
 43
0.0000000001
 40
0.0
 40
0.0
 40
0.0
 40
0.0
 40
0.0625
 40
0.0625
 40
0.0625
 40
0.0625
 40
0.125
 40
0.125
 40
0.125
 40
0.125
 40
0.1875
 40
0.1875
 40
0.1875
 40
0.1875
 40
0.25
 40
0.25
 40
0.25
 40
0.25
 40
0.3125
 40
0.3125
 40
0.3125
 40
0.3125
 40
0.375
 40
0.375
 40
0.375
 40
0.375
 40
0.4375
 40
0.4375
 40
0.4375
 40
0.4375
 40
0.5
 40
0.5
 40
0.5
 40
0.5
 40
0.5625
 40
0.5625
 40
0.5625
 40
0.5625
 40
0.625
 40
0.625
 40
0.625
 40
0.625
 40
0.6875
 40
0.6875
 40
0.6875
 40
0.6875
 40
0.75
 40
0.75
 40
0.75
 40
0.75
 40
0.8125
 40
0.8125
 40
0.8125
 40
0.8125
 40
0.875
 40
0.875
 40
0.875
 40
0.875
 40
1.0
 40
1.0
 40
1.0
 40
1.0
 10
-0.7365984251968504
 20
3.546433070866142
 30
0.0
 10
-0.7365984251968504
 20
3.546433070866142
 30
0.0
 10
-0.7214330708661417
 20
3.544433070866142
 30
0.0
 10
-0.7214330708661417
 20
3.544433070866142
 30
0.0
 10
-0.7214330708661417
 20
3.544433070866142
 30
0.0
 10
-0.7237952755905512
 20
3.535625984251968
 30
0.0
 10
-0.7282086614173229
 20
3.528767716535433
 30
0.0
 10
-0.7346535433070867
 20
3.523905511811023
 30
0.0
 10
-0.7346535433070867
 20
3.523905511811023
 30
0.0
 10
-0.7410984251968504
 20
3.519043307086614
 30
0.0
 10
-0.7493228346456693
 20
3.51659842519685
 30
0.0
 10
-0.7593503937007874
 20
3.51659842519685
 30
0.0
 10
-0.7593503937007874
 20
3.51659842519685
 30
0.0
 10
-0.7719606299212598
 20
3.51659842519685
 30
0.0
 10
-0.7819606299212598
 20
3.520488188976378
 30
0.0
 10
-0.7893503937007874
 20
3.528267716535433
 30
0.0
 10
-0.7893503937007874
 20
3.528267716535433
 30
0.0
 10
-0.796736220472441
 20
3.536015748031496
 30
0.0
 10
-0.8004330708661417
 20
3.546933070866142
 30
0.0
 10
-0.8004330708661417
 20
3.56096062992126
 30
0.0
 10
-0.8004330708661417
 20
3.56096062992126
 30
0.0
 10
-0.8004330708661417
 20
3.57546062992126
 30
0.0
 10
-0.7967086614173229
 20
3.586736220472441
 30
0.0
 10
-0.7892362204724409
 20
3.594736220472441
 30
0.0
 10
-0.7892362204724409
 20
3.594736220472441
 30
0.0
 10
-0.781763779527559
 20
3.602763779527559
 30
0.0
 10
-0.7720708661417323
 20
3.606763779527559
 30
0.0
 10
-0.7601535433070866
 20
3.606763779527559
 30
0.0
 10
-0.7601535433070866
 20
3.606763779527559
 30
0.0
 10
-0.7486259842519685
 20
3.606763779527559
 30
0.0
 10
-0.7392086614173229
 20
3.602850393700787
 30
0.0
 10
-0.7319055118110236
 20
3.594988188976378
 30
0.0
 10
-0.7319055118110236
 20
3.594988188976378
 30
0.0
 10
-0.7245984251968504
 20
3.587125984251969
 30
0.0
 10
-0.7209330708661418
 20
3.576070866141732
 30
0.0
 10
-0.7209330708661418
 20
3.561822834645669
 30
0.0
 10
-0.7209330708661418
 20
3.561822834645669
 30
0.0
 10
-0.7209330708661418
 20
3.56096062992126
 30
0.0
 10
-0.7209606299212599
 20
3.559653543307087
 30
0.0
 10
-0.721015748031496
 20
3.557933070866142
 30
0.0
 10
-0.721015748031496
 20
3.557933070866142
 30
0.0
 10
-0.721015748031496
 20
3.557933070866142
 30
0.0
 10
-0.7854330708661418
 20
3.557933070866142
 30
0.0
 10
-0.7854330708661418
 20
3.557933070866142
 30
0.0
 10
-0.7854330708661418
 20
3.557933070866142
 30
0.0
 10
-0.7848779527559056
 20
3.54846062992126
 30
0.0
 10
-0.7822086614173228
 20
3.541181102362205
 30
0.0
 10
-0.7773779527559055
 20
3.536153543307087
 30
0.0
 10
-0.7773779527559055
 20
3.536153543307087
 30
0.0
 10
-0.7725708661417323
 20
3.531125984251969
 30
0.0
 10
-0.7665433070866142
 20
3.52859842519685
 30
0.0
 10
-0.7593503937007874
 20
3.52859842519685
 30
0.0
 10
-0.7593503937007874
 20
3.52859842519685
 30
0.0
 10
-0.753988188976378
 20
3.52859842519685
 30
0.0
 10
-0.7494055118110237
 20
3.530015748031496
 30
0.0
 10
-0.7456259842519685
 20
3.532850393700787
 30
0.0
 10
-0.7456259842519685
 20
3.532850393700787
 30
0.0
 10
-0.7418228346456693
 20
3.535681102362205
 30
0.0
 10
-0.7388228346456693
 20
3.540212598425197
 30
0.0
 10
-0.7365984251968504
 20
3.546433070866142
 30
0.0
  0
SPLINE
  5
93
330
1F
100
AcDbEntity
  8
Layer 1
 62
   250
100
AcDbSpline
210
0.0
220
0.0
230
1.0
 70
    11
 71
     3
 72
    24
 73
    20
 74
     0
 42
0.000000001
 43
0.0000000001
 40
0.0
 40
0.0
 40
0.0
 40
0.0
 40
0.1666666666666667
 40
0.1666666666666667
 40
0.1666666666666667
 40
0.1666666666666667
 40
0.3333333333333333
 40
0.3333333333333333
 40
0.3333333333333333
 40
0.3333333333333333
 40
0.5
 40
0.5
 40
0.5
 40
0.5
 40
0.6666666666666666
 40
0.6666666666666666
 40
0.6666666666666666
 40
0.6666666666666666
 40
1.0
 40
1.0
 40
1.0
 40
1.0
 10
-0.7845984251968504
 20
3.569933070866142
 30
0.0
 10
-0.7845984251968504
 20
3.569933070866142
 30
0.0
 10
-0.7364330708661417
 20
3.569933070866142
 30
0.0
 10
-0.7364330708661417
 20
3.569933070866142
 30
0.0
 10
-0.7364330708661417
 20
3.569933070866142
 30
0.0
 10
-0.7370708661417322
 20
3.577208661417323
 30
0.0
 10
-0.7389330708661417
 20
3.582653543307087
 30
0.0
 10
-0.7419606299212599
 20
3.586295275590551
 30
0.0
 10
-0.7419606299212599
 20
3.586295275590551
 30
0.0
 10
-0.7465984251968504
 20
3.591933070866142
 30
0.0
 10
-0.7526535433070866
 20
3.594767716535433
 30
0.0
 10
-0.7600708661417322
 20
3.594767716535433
 30
0.0
 10
-0.7600708661417322
 20
3.594767716535433
 30
0.0
 10
-0.7667913385826771
 20
3.594767716535433
 30
0.0
 10
-0.7724330708661418
 20
3.592515748031496
 30
0.0
 10
-0.7770157480314961
 20
3.588015748031496
 30
0.0
 10
-0.7770157480314961
 20
3.588015748031496
 30
0.0
 10
-0.7815708661417323
 20
3.583515748031496
 30
0.0
 10
-0.7840984251968504
 20
3.577488188976378
 30
0.0
 10
-0.7845984251968504
 20
3.569933070866142
 30
0.0
  0
SPLINE
  5
94
330
1F
100
AcDbEntity
  8
Layer 1
 62
   250
100
AcDbSpline
210
0.0
220
0.0
230
1.0
 70
    11
 71
     3
 72
   136
 73
   132
 74
     0
 42
0.000000001
 43
0.0000000001
 40
0.0
 40
0.0
 40
0.0
 40
0.0
 40
0.0294117647058824
 40
0.0294117647058824
 40
0.0294117647058824
 40
0.0294117647058824
 40
0.0588235294117647
 40
0.0588235294117647
 40
0.0588235294117647
 40
0.0588235294117647
 40
0.0882352941176471
 40
0.0882352941176471
 40
0.0882352941176471
 40
0.0882352941176471
 40
0.1176470588235294
 40
0.1176470588235294
 40
0.1176470588235294
 40
0.1176470588235294
 40
0.1470588235294118
 40
0.1470588235294118
 40
0.1470588235294118
 40
0.1470588235294118
 40
0.1764705882352941
 40
0.1764705882352941
 40
0.1764705882352941
 40
0.1764705882352941
 40
0.2058823529411765
 40
0.2058823529411765
 40
0.2058823529411765
 40
0.2058823529411765
 40
0.2352941176470588
 40
0.2352941176470588
 40
0.2352941176470588
 40
0.2352941176470588
 40
0.2647058823529412
 40
0.2647058823529412
 40
0.2647058823529412
 40
0.2647058823529412
 40
0.2941176470588235
 40
0.2941176470588235
 40
0.2941176470588235
 40
0.2941176470588235
 40
0.3235294117647059
 40
0.3235294117647059
 40
0.3235294117647059
 40
0.3235294117647059
 40
0.3529411764705883
 40
0.3529411764705883
 40
0.3529411764705883
 40
0.3529411764705883
 40
0.3823529411764706
 40
0.3823529411764706
 40
0.3823529411764706
 40
0.3823529411764706
 40
0.4117647058823529
 40
0.4117647058823529
 40
0.4117647058823529
 40
0.4117647058823529
 40
0.4411764705882353
 40
0.4411764705882353
 40
0.4411764705882353
 40
0.4411764705882353
 40
0.4705882352941176
 40
0.4705882352941176
 40
0.4705882352941176
 40
0.4705882352941176
 40
0.5
 40
0.5
 40
0.5
 40
0.5
 40
0.5294117647058824
 40
0.5294117647058824
 40
0.5294117647058824
 40
0.5294117647058824
 40
0.5588235294117647
 40
0.5588235294117647
 40
0.5588235294117647
 40
0.5588235294117647
 40
0.5882352941176471
 40
0.5882352941176471
 40
0.5882352941176471
 40
0.5882352941176471
 40
0.6176470588235294
 40
0.6176470588235294
 40
0.6176470588235294
 40
0.6176470588235294
 40
0.6470588235294118
 40
0.6470588235294118
 40
0.6470588235294118
 40
0.6470588235294118
 40
0.6764705882352942
 40
0.6764705882352942
 40
0.6764705882352942
 40
0.6764705882352942
 40
0.7058823529411765
 40
0.7058823529411765
 40
0.7058823529411765
 40
0.7058823529411765
 40
0.7352941176470589
 40
0.7352941176470589
 40
0.7352941176470589
 40
0.7352941176470589
 40
0.7647058823529411
 40
0.7647058823529411
 40
0.7647058823529411
 40
0.7647058823529411
 40
0.7941176470588235
 40
0.7941176470588235
 40
0.7941176470588235
 40
0.7941176470588235
 40
0.8235294117647058
 40
0.8235294117647058
 40
0.8235294117647058
 40
0.8235294117647058
 40
0.8529411764705882
 40
0.8529411764705882
 40
0.8529411764705882
 40
0.8529411764705882
 40
0.8823529411764706
 40
0.8823529411764706
 40
0.8823529411764706
 40
0.8823529411764706
 40
0.9117647058823529
 40
0.9117647058823529
 40
0.9117647058823529
 40
0.9117647058823529
 40
0.9411764705882353
 40
0.9411764705882353
 40
0.9411764705882353
 40
0.9411764705882353
 40
1.0
 40
1.0
 40
1.0
 40
1.0
 10
-0.7087401574803149
 20
3.544267716535433
 30
0.0
 10
-0.7087401574803149
 20
3.544267716535433
 30
0.0
 10
-0.694240157480315
 20
3.546598425196851
 30
0.0
 10
-0.694240157480315
 20
3.546598425196851
 30
0.0
 10
-0.694240157480315
 20
3.546598425196851
 30
0.0
 10
-0.6934330708661417
 20
3.540795275590551
 30
0.0
 10
-0.6911574803149606
 20
3.536350393700787
 30
0.0
 10
-0.6874330708661417
 20
3.533240157480315
 30
0.0
 10
-0.6874330708661417
 20
3.533240157480315
 30
0.0
 10
-0.6837125984251968
 20
3.530153543307087
 30
0.0
 10
-0.678488188976378
 20
3.52859842519685
 30
0.0
 10
-0.6718228346456693
 20
3.52859842519685
 30
0.0
 10
-0.6718228346456693
 20
3.52859842519685
 30
0.0
 10
-0.6650708661417323
 20
3.52859842519685
 30
0.0
 10
-0.6600708661417323
 20
3.52996062992126
 30
0.0
 10
-0.6567952755905512
 20
3.532712598425197
 30
0.0
 10
-0.6567952755905512
 20
3.532712598425197
 30
0.0
 10
-0.6535433070866141
 20
3.535433070866142
 30
0.0
 10
-0.6519055118110236
 20
3.538653543307086
 30
0.0
 10
-0.6519055118110236
 20
3.542350393700787
 30
0.0
 10
-0.6519055118110236
 20
3.542350393700787
 30
0.0
 10
-0.6519055118110236
 20
3.545653543307087
 30
0.0
 10
-0.6533779527559055
 20
3.548267716535433
 30
0.0
 10
-0.6562952755905512
 20
3.550153543307087
 30
0.0
 10
-0.6562952755905512
 20
3.550153543307087
 30
0.0
 10
-0.6583503937007874
 20
3.55146062992126
 30
0.0
 10
-0.6633503937007874
 20
3.55309842519685
 30
0.0
 10
-0.6712952755905511
 20
3.555125984251969
 30
0.0
 10
-0.6712952755905511
 20
3.555125984251969
 30
0.0
 10
-0.6820157480314961
 20
3.557822834645669
 30
0.0
 10
-0.6894330708661417
 20
3.560153543307087
 30
0.0
 10
-0.6935984251968504
 20
3.562125984251968
 30
0.0
 10
-0.6935984251968504
 20
3.562125984251968
 30
0.0
 10
-0.6977401574803149
 20
3.564125984251969
 30
0.0
 10
-0.7008779527559055
 20
3.566850393700788
 30
0.0
 10
-0.703015748031496
 20
3.570350393700787
 30
0.0
 10
-0.703015748031496
 20
3.570350393700787
 30
0.0
 10
-0.7051574803149606
 20
3.573822834645669
 30
0.0
 10
-0.706240157480315
 20
3.577681102362205
 30
0.0
 10
-0.706240157480315
 20
3.581905511811024
 30
0.0
 10
-0.706240157480315
 20
3.581905511811024
 30
0.0
 10
-0.706240157480315
 20
3.585767716535433
 30
0.0
 10
-0.7053503937007874
 20
3.589322834645669
 30
0.0
 10
-0.7035984251968503
 20
3.59259842519685
 30
0.0
 10
-0.7035984251968503
 20
3.59259842519685
 30
0.0
 10
-0.7018228346456693
 20
3.595877952755905
 30
0.0
 10
-0.6994330708661417
 20
3.598598425196851
 30
0.0
 10
-0.6964055118110236
 20
3.600767716535433
 30
0.0
 10
-0.6964055118110236
 20
3.600767716535433
 30
0.0
 10
-0.6941259842519685
 20
3.602433070866142
 30
0.0
 10
-0.691015748031496
 20
3.603850393700788
 30
0.0
 10
-0.6870984251968504
 20
3.605015748031496
 30
0.0
 10
-0.6870984251968504
 20
3.605015748031496
 30
0.0
 10
-0.6831574803149606
 20
3.606181102362205
 30
0.0
 10
-0.6789606299212598
 20
3.606763779527559
 30
0.0
 10
-0.6744606299212599
 20
3.606763779527559
 30
0.0
 10
-0.6744606299212599
 20
3.606763779527559
 30
0.0
 10
-0.6676850393700787
 20
3.606763779527559
 30
0.0
 10
-0.661740157480315
 20
3.605795275590551
 30
0.0
 10
-0.6566299212598425
 20
3.603822834645669
 30
0.0
 10
-0.6566299212598425
 20
3.603822834645669
 30
0.0
 10
-0.651488188976378
 20
3.601877952755906
 30
0.0
 10
-0.6477125984251968
 20
3.599208661417323
 30
0.0
 10
-0.645267716535433
 20
3.595877952755905
 30
0.0
 10
-0.645267716535433
 20
3.595877952755905
 30
0.0
 10
-0.6428503937007874
 20
3.592515748031496
 30
0.0
 10
-0.6411574803149607
 20
3.588043307086614
 30
0.0
 10
-0.6402401574803149
 20
3.582433070866142
 30
0.0
 10
-0.6402401574803149
 20
3.582433070866142
 30
0.0
 10
-0.6402401574803149
 20
3.582433070866142
 30
0.0
 10
-0.6545708661417323
 20
3.580433070866142
 30
0.0
 10
-0.6545708661417323
 20
3.580433070866142
 30
0.0
 10
-0.6545708661417323
 20
3.580433070866142
 30
0.0
 10
-0.6552125984251969
 20
3.584933070866142
 30
0.0
 10
-0.6571023622047244
 20
3.58846062992126
 30
0.0
 10
-0.6602125984251969
 20
3.590988188976378
 30
0.0
 10
-0.6602125984251969
 20
3.590988188976378
 30
0.0
 10
-0.6633228346456693
 20
3.593515748031496
 30
0.0
 10
-0.6677125984251968
 20
3.594767716535433
 30
0.0
 10
-0.6734055118110236
 20
3.594767716535433
 30
0.0
 10
-0.6734055118110236
 20
3.594767716535433
 30
0.0
 10
-0.6800984251968504
 20
3.594767716535433
 30
0.0
 10
-0.6849055118110237
 20
3.593653543307087
 30
0.0
 10
-0.6877677165354331
 20
3.591433070866142
 30
0.0
 10
-0.6877677165354331
 20
3.591433070866142
 30
0.0
 10
-0.6906259842519685
 20
3.589208661417323
 30
0.0
 10
-0.6920708661417323
 20
3.586598425196851
 30
0.0
 10
-0.6920708661417323
 20
3.583625984251968
 30
0.0
 10
-0.6920708661417323
 20
3.583625984251968
 30
0.0
 10
-0.6920708661417323
 20
3.581736220472441
 30
0.0
 10
-0.691488188976378
 20
3.580015748031496
 30
0.0
 10
-0.6902952755905511
 20
3.578488188976378
 30
0.0
 10
-0.6902952755905511
 20
3.578488188976378
 30
0.0
 10
-0.6890984251968504
 20
3.576933070866142
 30
0.0
 10
-0.687240157480315
 20
3.575625984251968
 30
0.0
 10
-0.6846850393700787
 20
3.574598425196851
 30
0.0
 10
-0.6846850393700787
 20
3.574598425196851
 30
0.0
 10
-0.6832125984251969
 20
3.574043307086614
 30
0.0
 10
-0.6789330708661417
 20
3.572795275590551
 30
0.0
 10
-0.6717677165354331
 20
3.570850393700788
 30
0.0
 10
-0.6717677165354331
 20
3.570850393700788
 30
0.0
 10
-0.6614330708661418
 20
3.568098425196851
 30
0.0
 10
-0.6542125984251969
 20
3.565822834645669
 30
0.0
 10
-0.6501023622047244
 20
3.564070866141732
 30
0.0
 10
-0.6501023622047244
 20
3.564070866141732
 30
0.0
 10
-0.645988188976378
 20
3.562322834645669
 30
0.0
 10
-0.6427677165354331
 20
3.559740157480315
 30
0.0
 10
-0.6404330708661418
 20
3.556405511811024
 30
0.0
 10
-0.6404330708661418
 20
3.556405511811024
 30
0.0
 10
-0.6380708661417323
 20
3.553043307086614
 30
0.0
 10
-0.6369055118110236
 20
3.548877952755905
 30
0.0
 10
-0.6369055118110236
 20
3.543877952755905
 30
0.0
 10
-0.6369055118110236
 20
3.543877952755905
 30
0.0
 10
-0.6369055118110236
 20
3.539015748031496
 30
0.0
 10
-0.6383228346456693
 20
3.534433070866142
 30
0.0
 10
-0.6411850393700788
 20
3.530125984251968
 30
0.0
 10
-0.6411850393700788
 20
3.530125984251968
 30
0.0
 10
-0.6440433070866142
 20
3.525822834645669
 30
0.0
 10
-0.6481574803149607
 20
3.522488188976378
 30
0.0
 10
-0.653515748031496
 20
3.520125984251969
 30
0.0
 10
-0.653515748031496
 20
3.520125984251969
 30
0.0
 10
-0.6589055118110236
 20
3.517767716535433
 30
0.0
 10
-0.6649881889763779
 20
3.51659842519685
 30
0.0
 10
-0.6717677165354331
 20
3.51659842519685
 30
0.0
 10
-0.6717677165354331
 20
3.51659842519685
 30
0.0
 10
-0.6829881889763779
 20
3.51659842519685
 30
0.0
 10
-0.6915708661417322
 20
3.518933070866142
 30
0.0
 10
-0.6974606299212598
 20
3.523570866141732
 30
0.0
 10
-0.6974606299212598
 20
3.523570866141732
 30
0.0
 10
-0.7033503937007874
 20
3.528240157480315
 30
0.0
 10
-0.7070984251968504
 20
3.535125984251969
 30
0.0
 10
-0.7087401574803149
 20
3.544267716535433
 30
0.0
  0
SPLINE
  5
95
330
1F
100
AcDbEntity
  8
Layer 1
 62
   250
100
AcDbSpline
210
0.0
220
0.0
230
1.0
 70
    11
 71
     3
 72
    84
 73
    80
 74
     0
 42
0.000000001
 43
0.0000000001
 40
0.0
 40
0.0
 40
0.0
 40
0.0
 40
0.0476190476190476
 40
0.0476190476190476
 40
0.0476190476190476
 40
0.0476190476190476
 40
0.0952380952380952
 40
0.0952380952380952
 40
0.0952380952380952
 40
0.0952380952380952
 40
0.1428571428571428
 40
0.1428571428571428
 40
0.1428571428571428
 40
0.1428571428571428
 40
0.1904761904761905
 40
0.1904761904761905
 40
0.1904761904761905
 40
0.1904761904761905
 40
0.2380952380952381
 40
0.2380952380952381
 40
0.2380952380952381
 40
0.2380952380952381
 40
0.2857142857142857
 40
0.2857142857142857
 40
0.2857142857142857
 40
0.2857142857142857
 40
0.3333333333333333
 40
0.3333333333333333
 40
0.3333333333333333
 40
0.3333333333333333
 40
0.3809523809523809
 40
0.3809523809523809
 40
0.3809523809523809
 40
0.3809523809523809
 40
0.4285714285714285
 40
0.4285714285714285
 40
0.4285714285714285
 40
0.4285714285714285
 40
0.4761904761904762
 40
0.4761904761904762
 40
0.4761904761904762
 40
0.4761904761904762
 40
0.5238095238095238
 40
0.5238095238095238
 40
0.5238095238095238
 40
0.5238095238095238
 40
0.5714285714285714
 40
0.5714285714285714
 40
0.5714285714285714
 40
0.5714285714285714
 40
0.6190476190476191
 40
0.6190476190476191
 40
0.6190476190476191
 40
0.6190476190476191
 40
0.6666666666666666
 40
0.6666666666666666
 40
0.6666666666666666
 40
0.6666666666666666
 40
0.7142857142857143
 40
0.7142857142857143
 40
0.7142857142857143
 40
0.7142857142857143
 40
0.7619047619047619
 40
0.7619047619047619
 40
0.7619047619047619
 40
0.7619047619047619
 40
0.8095238095238095
 40
0.8095238095238095
 40
0.8095238095238095
 40
0.8095238095238095
 40
0.8571428571428571
 40
0.8571428571428571
 40
0.8571428571428571
 40
0.8571428571428571
 40
0.9047619047619048
 40
0.9047619047619048
 40
0.9047619047619048
 40
0.9047619047619048
 40
1.0
 40
1.0
 40
1.0
 40
1.0
 10
-0.5877362204724409
 20
3.531515748031496
 30
0.0
 10
-0.5877362204724409
 20
3.531515748031496
 30
0.0
 10
-0.5857362204724409
 20
3.518570866141732
 30
0.0
 10
-0.5857362204724409
 20
3.518570866141732
 30
0.0
 10
-0.5857362204724409
 20
3.518570866141732
 30
0.0
 10
-0.5898503937007874
 20
3.517712598425197
 30
0.0
 10
-0.5935433070866142
 20
3.517267716535433
 30
0.0
 10
-0.5967637795275591
 20
3.517267716535433
 30
0.0
 10
-0.5967637795275591
 20
3.517267716535433
 30
0.0
 10
-0.6020708661417323
 20
3.517267716535433
 30
0.0
 10
-0.6061811023622047
 20
3.51809842519685
 30
0.0
 10
-0.6091259842519685
 20
3.519795275590551
 30
0.0
 10
-0.6091259842519685
 20
3.519795275590551
 30
0.0
 10
-0.6120433070866141
 20
3.521488188976378
 30
0.0
 10
-0.6140984251968504
 20
3.523681102362205
 30
0.0
 10
-0.6152913385826771
 20
3.526433070866142
 30
0.0
 10
-0.6152913385826771
 20
3.526433070866142
 30
0.0
 10
-0.6164881889763779
 20
3.529181102362205
 30
0.0
 10
-0.6170708661417322
 20
3.53496062992126
 30
0.0
 10
-0.6170708661417322
 20
3.543767716535433
 30
0.0
 10
-0.6170708661417322
 20
3.543767716535433
 30
0.0
 10
-0.6170708661417322
 20
3.543767716535433
 30
0.0
 10
-0.6170708661417322
 20
3.59359842519685
 30
0.0
 10
-0.6170708661417322
 20
3.59359842519685
 30
0.0
 10
-0.6170708661417322
 20
3.59359842519685
 30
0.0
 10
-0.6170708661417322
 20
3.59359842519685
 30
0.0
 10
-0.6279055118110236
 20
3.59359842519685
 30
0.0
 10
-0.6279055118110236
 20
3.59359842519685
 30
0.0
 10
-0.6279055118110236
 20
3.59359842519685
 30
0.0
 10
-0.6279055118110236
 20
3.59359842519685
 30
0.0
 10
-0.6279055118110236
 20
3.604933070866142
 30
0.0
 10
-0.6279055118110236
 20
3.604933070866142
 30
0.0
 10
-0.6279055118110236
 20
3.604933070866142
 30
0.0
 10
-0.6279055118110236
 20
3.604933070866142
 30
0.0
 10
-0.6170708661417322
 20
3.604933070866142
 30
0.0
 10
-0.6170708661417322
 20
3.604933070866142
 30
0.0
 10
-0.6170708661417322
 20
3.604933070866142
 30
0.0
 10
-0.6170708661417322
 20
3.604933070866142
 30
0.0
 10
-0.6170708661417322
 20
3.62632283464567
 30
0.0
 10
-0.6170708661417322
 20
3.62632283464567
 30
0.0
 10
-0.6170708661417322
 20
3.62632283464567
 30
0.0
 10
-0.6170708661417322
 20
3.62632283464567
 30
0.0
 10
-0.6024055118110236
 20
3.635125984251968
 30
0.0
 10
-0.6024055118110236
 20
3.635125984251968
 30
0.0
 10
-0.6024055118110236
 20
3.635125984251968
 30
0.0
 10
-0.6024055118110236
 20
3.635125984251968
 30
0.0
 10
-0.6024055118110236
 20
3.604933070866142
 30
0.0
 10
-0.6024055118110236
 20
3.604933070866142
 30
0.0
 10
-0.6024055118110236
 20
3.604933070866142
 30
0.0
 10
-0.6024055118110236
 20
3.604933070866142
 30
0.0
 10
-0.5877362204724409
 20
3.604933070866142
 30
0.0
 10
-0.5877362204724409
 20
3.604933070866142
 30
0.0
 10
-0.5877362204724409
 20
3.604933070866142
 30
0.0
 10
-0.5877362204724409
 20
3.604933070866142
 30
0.0
 10
-0.5877362204724409
 20
3.59359842519685
 30
0.0
 10
-0.5877362204724409
 20
3.59359842519685
 30
0.0
 10
-0.5877362204724409
 20
3.59359842519685
 30
0.0
 10
-0.5877362204724409
 20
3.59359842519685
 30
0.0
 10
-0.6024055118110236
 20
3.59359842519685
 30
0.0
 10
-0.6024055118110236
 20
3.59359842519685
 30
0.0
 10
-0.6024055118110236
 20
3.59359842519685
 30
0.0
 10
-0.6024055118110236
 20
3.59359842519685
 30
0.0
 10
-0.6024055118110236
 20
3.542933070866142
 30
0.0
 10
-0.6024055118110236
 20
3.542933070866142
 30
0.0
 10
-0.6024055118110236
 20
3.542933070866142
 30
0.0
 10
-0.6024055118110236
 20
3.538740157480315
 30
0.0
 10
-0.6021535433070866
 20
3.536043307086614
 30
0.0
 10
-0.6016259842519684
 20
3.534850393700788
 30
0.0
 10
-0.6016259842519684
 20
3.534850393700788
 30
0.0
 10
-0.6011259842519685
 20
3.533653543307087
 30
0.0
 10
-0.6002952755905512
 20
3.532712598425197
 30
0.0
 10
-0.5991259842519685
 20
3.531988188976378
 30
0.0
 10
-0.5991259842519685
 20
3.531988188976378
 30
0.0
 10
-0.5979606299212599
 20
3.531295275590551
 30
0.0
 10
-0.5962952755905512
 20
3.530933070866142
 30
0.0
 10
-0.5941259842519685
 20
3.530933070866142
 30
0.0
 10
-0.5941259842519685
 20
3.530933070866142
 30
0.0
 10
-0.5925157480314961
 20
3.530933070866142
 30
0.0
 10
-0.5903779527559055
 20
3.531125984251969
 30
0.0
 10
-0.5877362204724409
 20
3.531515748031496
 30
0.0
  0
SPLINE
  5
96
330
1F
100
AcDbEntity
  8
Layer 1
 62
   250
100
AcDbSpline
210
0.0
220
0.0
230
1.0
 70
    11
 71
     3
 72
    76
 73
    72
 74
     0
 42
0.000000001
 43
0.0000000001
 40
0.0
 40
0.0
 40
0.0
 40
0.0
 40
0.0526315789473684
 40
0.0526315789473684
 40
0.0526315789473684
 40
0.0526315789473684
 40
0.1052631578947368
 40
0.1052631578947368
 40
0.1052631578947368
 40
0.1052631578947368
 40
0.1578947368421053
 40
0.1578947368421053
 40
0.1578947368421053
 40
0.1578947368421053
 40
0.2105263157894737
 40
0.2105263157894737
 40
0.2105263157894737
 40
0.2105263157894737
 40
0.2631578947368421
 40
0.2631578947368421
 40
0.2631578947368421
 40
0.2631578947368421
 40
0.3157894736842105
 40
0.3157894736842105
 40
0.3157894736842105
 40
0.3157894736842105
 40
0.3684210526315789
 40
0.3684210526315789
 40
0.3684210526315789
 40
0.3684210526315789
 40
0.4210526315789473
 40
0.4210526315789473
 40
0.4210526315789473
 40
0.4210526315789473
 40
0.4736842105263158
 40
0.4736842105263158
 40
0.4736842105263158
 40
0.4736842105263158
 40
0.5263157894736842
 40
0.5263157894736842
 40
0.5263157894736842
 40
0.5263157894736842
 40
0.5789473684210527
 40
0.5789473684210527
 40
0.5789473684210527
 40
0.5789473684210527
 40
0.631578947368421
 40
0.631578947368421
 40
0.631578947368421
 40
0.631578947368421
 40
0.6842105263157895
 40
0.6842105263157895
 40
0.6842105263157895
 40
0.6842105263157895
 40
0.7368421052631579
 40
0.7368421052631579
 40
0.7368421052631579
 40
0.7368421052631579
 40
0.7894736842105263
 40
0.7894736842105263
 40
0.7894736842105263
 40
0.7894736842105263
 40
0.8421052631578947
 40
0.8421052631578947
 40
0.8421052631578947
 40
0.8421052631578947
 40
0.8947368421052632
 40
0.8947368421052632
 40
0.8947368421052632
 40
0.8947368421052632
 40
1.0
 40
1.0
 40
1.0
 40
1.0
 10
-0.5231220472440945
 20
3.518433070866142
 30
0.0
 10
-0.5231220472440945
 20
3.518433070866142
 30
0.0
 10
-0.5231220472440945
 20
3.59359842519685
 30
0.0
 10
-0.5231220472440945
 20
3.59359842519685
 30
0.0
 10
-0.5231220472440945
 20
3.59359842519685
 30
0.0
 10
-0.5231220472440945
 20
3.59359842519685
 30
0.0
 10
-0.5361220472440945
 20
3.59359842519685
 30
0.0
 10
-0.5361220472440945
 20
3.59359842519685
 30
0.0
 10
-0.5361220472440945
 20
3.59359842519685
 30
0.0
 10
-0.5361220472440945
 20
3.59359842519685
 30
0.0
 10
-0.5361220472440945
 20
3.604933070866142
 30
0.0
 10
-0.5361220472440945
 20
3.604933070866142
 30
0.0
 10
-0.5361220472440945
 20
3.604933070866142
 30
0.0
 10
-0.5361220472440945
 20
3.604933070866142
 30
0.0
 10
-0.5231220472440945
 20
3.604933070866142
 30
0.0
 10
-0.5231220472440945
 20
3.604933070866142
 30
0.0
 10
-0.5231220472440945
 20
3.604933070866142
 30
0.0
 10
-0.5231220472440945
 20
3.604933070866142
 30
0.0
 10
-0.5231220472440945
 20
3.613295275590551
 30
0.0
 10
-0.5231220472440945
 20
3.613295275590551
 30
0.0
 10
-0.5231220472440945
 20
3.613295275590551
 30
0.0
 10
-0.5231220472440945
 20
3.621850393700787
 30
0.0
 10
-0.5212637795275591
 20
3.628405511811024
 30
0.0
 10
-0.5175669291338583
 20
3.632933070866142
 30
0.0
 10
-0.5175669291338583
 20
3.632933070866142
 30
0.0
 10
-0.5138740157480315
 20
3.637488188976378
 30
0.0
 10
-0.5080393700787401
 20
3.639763779527559
 30
0.0
 10
-0.5000393700787401
 20
3.639763779527559
 30
0.0
 10
-0.5000393700787401
 20
3.639763779527559
 30
0.0
 10
-0.4946496062992126
 20
3.639763779527559
 30
0.0
 10
-0.4896811023622047
 20
3.639153543307087
 30
0.0
 10
-0.4851220472440945
 20
3.637933070866142
 30
0.0
 10
-0.4851220472440945
 20
3.637933070866142
 30
0.0
 10
-0.4851220472440945
 20
3.637933070866142
 30
0.0
 10
-0.4874015748031496
 20
3.625570866141732
 30
0.0
 10
-0.4874015748031496
 20
3.625570866141732
 30
0.0
 10
-0.4874015748031496
 20
3.625570866141732
 30
0.0
 10
-0.4902913385826771
 20
3.626043307086614
 30
0.0
 10
-0.4929291338582677
 20
3.626263779527559
 30
0.0
 10
-0.4953188976377953
 20
3.626263779527559
 30
0.0
 10
-0.4953188976377953
 20
3.626263779527559
 30
0.0
 10
-0.5003740157480315
 20
3.626263779527559
 30
0.0
 10
-0.5038464566929134
 20
3.625263779527559
 30
0.0
 10
-0.5056811023622048
 20
3.623263779527559
 30
0.0
 10
-0.5056811023622048
 20
3.623263779527559
 30
0.0
 10
-0.5075393700787402
 20
3.621263779527559
 30
0.0
 10
-0.5084566929133858
 20
3.617015748031496
 30
0.0
 10
-0.5084566929133858
 20
3.610515748031496
 30
0.0
 10
-0.5084566929133858
 20
3.610515748031496
 30
0.0
 10
-0.5084566929133858
 20
3.610515748031496
 30
0.0
 10
-0.5084566929133858
 20
3.604933070866142
 30
0.0
 10
-0.5084566929133858
 20
3.604933070866142
 30
0.0
 10
-0.5084566929133858
 20
3.604933070866142
 30
0.0
 10
-0.5084566929133858
 20
3.604933070866142
 30
0.0
 10
-0.4916220472440945
 20
3.604933070866142
 30
0.0
 10
-0.4916220472440945
 20
3.604933070866142
 30
0.0
 10
-0.4916220472440945
 20
3.604933070866142
 30
0.0
 10
-0.4916220472440945
 20
3.604933070866142
 30
0.0
 10
-0.4916220472440945
 20
3.59359842519685
 30
0.0
 10
-0.4916220472440945
 20
3.59359842519685
 30
0.0
 10
-0.4916220472440945
 20
3.59359842519685
 30
0.0
 10
-0.4916220472440945
 20
3.59359842519685
 30
0.0
 10
-0.5084566929133858
 20
3.59359842519685
 30
0.0
 10
-0.5084566929133858
 20
3.59359842519685
 30
0.0
 10
-0.5084566929133858
 20
3.59359842519685
 30
0.0
 10
-0.5084566929133858
 20
3.59359842519685
 30
0.0
 10
-0.5084566929133858
 20
3.518433070866142
 30
0.0
 10
-0.5084566929133858
 20
3.518433070866142
 30
0.0
 10
-0.5084566929133858
 20
3.518433070866142
 30
0.0
 10
-0.5084566929133858
 20
3.518433070866142
 30
0.0
 10
-0.5231220472440945
 20
3.518433070866142
 30
0.0
 10
-0.5231220472440945
 20
3.518433070866142
 30
0.0
  0
SPLINE
  5
97
330
1F
100
AcDbEntity
  8
Layer 1
 62
   250
100
AcDbSpline
210
0.0
220
0.0
230
1.0
 70
    11
 71
     3
 72
    20
 73
    16
 74
     0
 42
0.000000001
 43
0.0000000001
 40
0.0
 40
0.0
 40
0.0
 40
0.0
 40
0.2
 40
0.2
 40
0.2
 40
0.2
 40
0.4
 40
0.4
 40
0.4
 40
0.4
 40
0.6
 40
0.6
 40
0.6
 40
0.6
 40
1.0
 40
1.0
 40
1.0
 40
1.0
 10
-0.4807913385826771
 20
3.621098425196851
 30
0.0
 10
-0.4807913385826771
 20
3.621098425196851
 30
0.0
 10
-0.4807913385826771
 20
3.637763779527559
 30
0.0
 10
-0.4807913385826771
 20
3.637763779527559
 30
0.0
 10
-0.4807913385826771
 20
3.637763779527559
 30
0.0
 10
-0.4807913385826771
 20
3.637763779527559
 30
0.0
 10
-0.4661220472440945
 20
3.637763779527559
 30
0.0
 10
-0.4661220472440945
 20
3.637763779527559
 30
0.0
 10
-0.4661220472440945
 20
3.637763779527559
 30
0.0
 10
-0.4661220472440945
 20
3.637763779527559
 30
0.0
 10
-0.4661220472440945
 20
3.621098425196851
 30
0.0
 10
-0.4661220472440945
 20
3.621098425196851
 30
0.0
 10
-0.4661220472440945
 20
3.621098425196851
 30
0.0
 10
-0.4661220472440945
 20
3.621098425196851
 30
0.0
 10
-0.4807913385826771
 20
3.621098425196851
 30
0.0
 10
-0.4807913385826771
 20
3.621098425196851
 30
0.0
  0
SPLINE
  5
98
330
1F
100
AcDbEntity
  8
Layer 1
 62
   250
100
AcDbSpline
210
0.0
220
0.0
230
1.0
 70
    11
 71
     3
 72
    20
 73
    16
 74
     0
 42
0.000000001
 43
0.0000000001
 40
0.0
 40
0.0
 40
0.0
 40
0.0
 40
0.2
 40
0.2
 40
0.2
 40
0.2
 40
0.4
 40
0.4
 40
0.4
 40
0.4
 40
0.6
 40
0.6
 40
0.6
 40
0.6
 40
1.0
 40
1.0
 40
1.0
 40
1.0
 10
-0.4807913385826771
 20
3.518433070866142
 30
0.0
 10
-0.4807913385826771
 20
3.518433070866142
 30
0.0
 10
-0.4807913385826771
 20
3.604933070866142
 30
0.0
 10
-0.4807913385826771
 20
3.604933070866142
 30
0.0
 10
-0.4807913385826771
 20
3.604933070866142
 30
0.0
 10
-0.4807913385826771
 20
3.604933070866142
 30
0.0
 10
-0.4661220472440945
 20
3.604933070866142
 30
0.0
 10
-0.4661220472440945
 20
3.604933070866142
 30
0.0
 10
-0.4661220472440945
 20
3.604933070866142
 30
0.0
 10
-0.4661220472440945
 20
3.604933070866142
 30
0.0
 10
-0.4661220472440945
 20
3.518433070866142
 30
0.0
 10
-0.4661220472440945
 20
3.518433070866142
 30
0.0
 10
-0.4661220472440945
 20
3.518433070866142
 30
0.0
 10
-0.4661220472440945
 20
3.518433070866142
 30
0.0
 10
-0.4807913385826771
 20
3.518433070866142
 30
0.0
 10
-0.4807913385826771
 20
3.518433070866142
 30
0.0
  0
SPLINE
  5
99
330
1F
100
AcDbEntity
  8
Layer 1
 62
   250
100
AcDbSpline
210
0.0
220
0.0
230
1.0
 70
    11
 71
     3
 72
    84
 73
    80
 74
     0
 42
0.000000001
 43
0.0000000001
 40
0.0
 40
0.0
 40
0.0
 40
0.0
 40
0.0476190476190476
 40
0.0476190476190476
 40
0.0476190476190476
 40
0.0476190476190476
 40
0.0952380952380952
 40
0.0952380952380952
 40
0.0952380952380952
 40
0.0952380952380952
 40
0.1428571428571428
 40
0.1428571428571428
 40
0.1428571428571428
 40
0.1428571428571428
 40
0.1904761904761905
 40
0.1904761904761905
 40
0.1904761904761905
 40
0.1904761904761905
 40
0.2380952380952381
 40
0.2380952380952381
 40
0.2380952380952381
 40
0.2380952380952381
 40
0.2857142857142857
 40
0.2857142857142857
 40
0.2857142857142857
 40
0.2857142857142857
 40
0.3333333333333333
 40
0.3333333333333333
 40
0.3333333333333333
 40
0.3333333333333333
 40
0.3809523809523809
 40
0.3809523809523809
 40
0.3809523809523809
 40
0.3809523809523809
 40
0.4285714285714285
 40
0.4285714285714285
 40
0.4285714285714285
 40
0.4285714285714285
 40
0.4761904761904762
 40
0.4761904761904762
 40
0.4761904761904762
 40
0.4761904761904762
 40
0.5238095238095238
 40
0.5238095238095238
 40
0.5238095238095238
 40
0.5238095238095238
 40
0.5714285714285714
 40
0.5714285714285714
 40
0.5714285714285714
 40
0.5714285714285714
 40
0.6190476190476191
 40
0.6190476190476191
 40
0.6190476190476191
 40
0.6190476190476191
 40
0.6666666666666666
 40
0.6666666666666666
 40
0.6666666666666666
 40
0.6666666666666666
 40
0.7142857142857143
 40
0.7142857142857143
 40
0.7142857142857143
 40
0.7142857142857143
 40
0.7619047619047619
 40
0.7619047619047619
 40
0.7619047619047619
 40
0.7619047619047619
 40
0.8095238095238095
 40
0.8095238095238095
 40
0.8095238095238095
 40
0.8095238095238095
 40
0.8571428571428571
 40
0.8571428571428571
 40
0.8571428571428571
 40
0.8571428571428571
 40
0.9047619047619048
 40
0.9047619047619048
 40
0.9047619047619048
 40
0.9047619047619048
 40
1.0
 40
1.0
 40
1.0
 40
1.0
 10
-0.4117874015748031
 20
3.531515748031496
 30
0.0
 10
-0.4117874015748031
 20
3.531515748031496
 30
0.0
 10
-0.4097874015748031
 20
3.518570866141732
 30
0.0
 10
-0.4097874015748031
 20
3.518570866141732
 30
0.0
 10
-0.4097874015748031
 20
3.518570866141732
 30
0.0
 10
-0.4139015748031496
 20
3.517712598425197
 30
0.0
 10
-0.4175944881889764
 20
3.517267716535433
 30
0.0
 10
-0.4208149606299212
 20
3.517267716535433
 30
0.0
 10
-0.4208149606299212
 20
3.517267716535433
 30
0.0
 10
-0.4261220472440945
 20
3.517267716535433
 30
0.0
 10
-0.4302322834645669
 20
3.51809842519685
 30
0.0
 10
-0.4331771653543307
 20
3.519795275590551
 30
0.0
 10
-0.4331771653543307
 20
3.519795275590551
 30
0.0
 10
-0.4360944881889764
 20
3.521488188976378
 30
0.0
 10
-0.4381496062992126
 20
3.523681102362205
 30
0.0
 10
-0.4393425196850393
 20
3.526433070866142
 30
0.0
 10
-0.4393425196850393
 20
3.526433070866142
 30
0.0
 10
-0.4405393700787402
 20
3.529181102362205
 30
0.0
 10
-0.4411220472440945
 20
3.53496062992126
 30
0.0
 10
-0.4411220472440945
 20
3.543767716535433
 30
0.0
 10
-0.4411220472440945
 20
3.543767716535433
 30
0.0
 10
-0.4411220472440945
 20
3.543767716535433
 30
0.0
 10
-0.4411220472440945
 20
3.59359842519685
 30
0.0
 10
-0.4411220472440945
 20
3.59359842519685
 30
0.0
 10
-0.4411220472440945
 20
3.59359842519685
 30
0.0
 10
-0.4411220472440945
 20
3.59359842519685
 30
0.0
 10
-0.4519566929133858
 20
3.59359842519685
 30
0.0
 10
-0.4519566929133858
 20
3.59359842519685
 30
0.0
 10
-0.4519566929133858
 20
3.59359842519685
 30
0.0
 10
-0.4519566929133858
 20
3.59359842519685
 30
0.0
 10
-0.4519566929133858
 20
3.604933070866142
 30
0.0
 10
-0.4519566929133858
 20
3.604933070866142
 30
0.0
 10
-0.4519566929133858
 20
3.604933070866142
 30
0.0
 10
-0.4519566929133858
 20
3.604933070866142
 30
0.0
 10
-0.4411220472440945
 20
3.604933070866142
 30
0.0
 10
-0.4411220472440945
 20
3.604933070866142
 30
0.0
 10
-0.4411220472440945
 20
3.604933070866142
 30
0.0
 10
-0.4411220472440945
 20
3.604933070866142
 30
0.0
 10
-0.4411220472440945
 20
3.62632283464567
 30
0.0
 10
-0.4411220472440945
 20
3.62632283464567
 30
0.0
 10
-0.4411220472440945
 20
3.62632283464567
 30
0.0
 10
-0.4411220472440945
 20
3.62632283464567
 30
0.0
 10
-0.4264566929133858
 20
3.635125984251968
 30
0.0
 10
-0.4264566929133858
 20
3.635125984251968
 30
0.0
 10
-0.4264566929133858
 20
3.635125984251968
 30
0.0
 10
-0.4264566929133858
 20
3.635125984251968
 30
0.0
 10
-0.4264566929133858
 20
3.604933070866142
 30
0.0
 10
-0.4264566929133858
 20
3.604933070866142
 30
0.0
 10
-0.4264566929133858
 20
3.604933070866142
 30
0.0
 10
-0.4264566929133858
 20
3.604933070866142
 30
0.0
 10
-0.4117874015748031
 20
3.604933070866142
 30
0.0
 10
-0.4117874015748031
 20
3.604933070866142
 30
0.0
 10
-0.4117874015748031
 20
3.604933070866142
 30
0.0
 10
-0.4117874015748031
 20
3.604933070866142
 30
0.0
 10
-0.4117874015748031
 20
3.59359842519685
 30
0.0
 10
-0.4117874015748031
 20
3.59359842519685
 30
0.0
 10
-0.4117874015748031
 20
3.59359842519685
 30
0.0
 10
-0.4117874015748031
 20
3.59359842519685
 30
0.0
 10
-0.4264566929133858
 20
3.59359842519685
 30
0.0
 10
-0.4264566929133858
 20
3.59359842519685
 30
0.0
 10
-0.4264566929133858
 20
3.59359842519685
 30
0.0
 10
-0.4264566929133858
 20
3.59359842519685
 30
0.0
 10
-0.4264566929133858
 20
3.542933070866142
 30
0.0
 10
-0.4264566929133858
 20
3.542933070866142
 30
0.0
 10
-0.4264566929133858
 20
3.542933070866142
 30
0.0
 10
-0.4264566929133858
 20
3.538740157480315
 30
0.0
 10
-0.4262047244094488
 20
3.536043307086614
 30
0.0
 10
-0.4256771653543307
 20
3.534850393700788
 30
0.0
 10
-0.4256771653543307
 20
3.534850393700788
 30
0.0
 10
-0.4251771653543307
 20
3.533653543307087
 30
0.0
 10
-0.4243464566929134
 20
3.532712598425197
 30
0.0
 10
-0.4231771653543307
 20
3.531988188976378
 30
0.0
 10
-0.4231771653543307
 20
3.531988188976378
 30
0.0
 10
-0.4220118110236221
 20
3.531295275590551
 30
0.0
 10
-0.4203464566929134
 20
3.530933070866142
 30
0.0
 10
-0.4181771653543307
 20
3.530933070866142
 30
0.0
 10
-0.4181771653543307
 20
3.530933070866142
 30
0.0
 10
-0.4165669291338583
 20
3.530933070866142
 30
0.0
 10
-0.4144291338582677
 20
3.531125984251969
 30
0.0
 10
-0.4117874015748031
 20
3.531515748031496
 30
0.0
  0
SPLINE
  5
9A
330
1F
100
AcDbEntity
  8
Layer 1
 62
   250
100
AcDbSpline
210
0.0
220
0.0
230
1.0
 70
    11
 71
     3
 72
    52
 73
    48
 74
     0
 42
0.000000001
 43
0.0000000001
 40
0.0
 40
0.0
 40
0.0
 40
0.0
 40
0.0769230769230769
 40
0.0769230769230769
 40
0.0769230769230769
 40
0.0769230769230769
 40
0.1538461538461539
 40
0.1538461538461539
 40
0.1538461538461539
 40
0.1538461538461539
 40
0.2307692307692308
 40
0.2307692307692308
 40
0.2307692307692308
 40
0.2307692307692308
 40
0.3076923076923077
 40
0.3076923076923077
 40
0.3076923076923077
 40
0.3076923076923077
 40
0.3846153846153846
 40
0.3846153846153846
 40
0.3846153846153846
 40
0.3846153846153846
 40
0.4615384615384616
 40
0.4615384615384616
 40
0.4615384615384616
 40
0.4615384615384616
 40
0.5384615384615384
 40
0.5384615384615384
 40
0.5384615384615384
 40
0.5384615384615384
 40
0.6153846153846154
 40
0.6153846153846154
 40
0.6153846153846154
 40
0.6153846153846154
 40
0.6923076923076923
 40
0.6923076923076923
 40
0.6923076923076923
 40
0.6923076923076923
 40
0.7692307692307693
 40
0.7692307692307693
 40
0.7692307692307693
 40
0.7692307692307693
 40
0.8461538461538461
 40
0.8461538461538461
 40
0.8461538461538461
 40
0.8461538461538461
 40
1.0
 40
1.0
 40
1.0
 40
1.0
 10
-0.8922913385826772
 20
3.391129921259842
 30
0.0
 10
-0.8922913385826772
 20
3.405212598425197
 30
0.0
 10
-0.8908464566929134
 20
3.416602362204725
 30
0.0
 10
-0.8879566929133859
 20
3.425212598425197
 30
0.0
 10
-0.8879566929133859
 20
3.425212598425197
 30
0.0
 10
-0.8850433070866142
 20
3.433850393700788
 30
0.0
 10
-0.8807362204724409
 20
3.440488188976378
 30
0.0
 10
-0.875011811023622
 20
3.445129921259842
 30
0.0
 10
-0.875011811023622
 20
3.445129921259842
 30
0.0
 10
-0.8693188976377952
 20
3.449767716535433
 30
0.0
 10
-0.8621259842519685
 20
3.452070866141732
 30
0.0
 10
-0.8534566929133858
 20
3.452070866141732
 30
0.0
 10
-0.8534566929133858
 20
3.452070866141732
 30
0.0
 10
-0.8470708661417323
 20
3.452070866141732
 30
0.0
 10
-0.8414566929133859
 20
3.450795275590551
 30
0.0
 10
-0.8365984251968503
 20
3.448212598425197
 30
0.0
 10
-0.8365984251968503
 20
3.448212598425197
 30
0.0
 10
-0.8317637795275591
 20
3.445629921259842
 30
0.0
 10
-0.8277637795275591
 20
3.441905511811024
 30
0.0
 10
-0.8246535433070866
 20
3.437043307086614
 30
0.0
 10
-0.8246535433070866
 20
3.437043307086614
 30
0.0
 10
-0.8215433070866142
 20
3.432212598425197
 30
0.0
 10
-0.8190984251968504
 20
3.426295275590551
 30
0.0
 10
-0.8173188976377953
 20
3.419322834645669
 30
0.0
 10
-0.8173188976377953
 20
3.419322834645669
 30
0.0
 10
-0.8155157480314961
 20
3.412350393700788
 30
0.0
 10
-0.8146259842519685
 20
3.402933070866142
 30
0.0
 10
-0.8146259842519685
 20
3.391129921259842
 30
0.0
 10
-0.8146259842519685
 20
3.391129921259842
 30
0.0
 10
-0.8146259842519685
 20
3.377129921259843
 30
0.0
 10
-0.8160708661417323
 20
3.365795275590551
 30
0.0
 10
-0.8189291338582677
 20
3.357185039370079
 30
0.0
 10
-0.8189291338582677
 20
3.357185039370079
 30
0.0
 10
-0.8217913385826772
 20
3.348547244094488
 30
0.0
 10
-0.8260984251968504
 20
3.341905511811023
 30
0.0
 10
-0.8318188976377953
 20
3.337240157480315
 30
0.0
 10
-0.8318188976377953
 20
3.337240157480315
 30
0.0
 10
-0.8375157480314961
 20
3.332574803149606
 30
0.0
 10
-0.8447362204724409
 20
3.330240157480315
 30
0.0
 10
-0.8534566929133858
 20
3.330240157480315
 30
0.0
 10
-0.8534566929133858
 20
3.330240157480315
 30
0.0
 10
-0.8649291338582678
 20
3.330240157480315
 30
0.0
 10
-0.8739566929133858
 20
3.334322834645669
 30
0.0
 10
-0.8805118110236221
 20
3.34251968503937
 30
0.0
 10
-0.8805118110236221
 20
3.34251968503937
 30
0.0
 10
-0.8883740157480315
 20
3.35251968503937
 30
0.0
 10
-0.8922913385826772
 20
3.368712598425197
 30
0.0
 10
-0.8922913385826772
 20
3.391129921259842
 30
0.0
  0
SPLINE
  5
9B
330
1F
100
AcDbEntity
  8
Layer 1
 62
   250
100
AcDbSpline
210
0.0
220
0.0
230
1.0
 70
    11
 71
     3
 72
    36
 73
    32
 74
     0
 42
0.000000001
 43
0.0000000001
 40
0.0
 40
0.0
 40
0.0
 40
0.0
 40
0.1111111111111111
 40
0.1111111111111111
 40
0.1111111111111111
 40
0.1111111111111111
 40
0.2222222222222222
 40
0.2222222222222222
 40
0.2222222222222222
 40
0.2222222222222222
 40
0.3333333333333333
 40
0.3333333333333333
 40
0.3333333333333333
 40
0.3333333333333333
 40
0.4444444444444444
 40
0.4444444444444444
 40
0.4444444444444444
 40
0.4444444444444444
 40
0.5555555555555556
 40
0.5555555555555556
 40
0.5555555555555556
 40
0.5555555555555556
 40
0.6666666666666666
 40
0.6666666666666666
 40
0.6666666666666666
 40
0.6666666666666666
 40
0.7777777777777778
 40
0.7777777777777778
 40
0.7777777777777778
 40
0.7777777777777778
 40
1.0
 40
1.0
 40
1.0
 40
1.0
 10
-0.8772913385826772
 20
3.391074803149607
 30
0.0
 10
-0.8772913385826772
 20
3.371433070866142
 30
0.0
 10
-0.875011811023622
 20
3.358377952755906
 30
0.0
 10
-0.8704291338582677
 20
3.351933070866142
 30
0.0
 10
-0.8704291338582677
 20
3.351933070866142
 30
0.0
 10
-0.8658464566929134
 20
3.34546062992126
 30
0.0
 10
-0.8601811023622047
 20
3.342240157480315
 30
0.0
 10
-0.8534566929133858
 20
3.342240157480315
 30
0.0
 10
-0.8534566929133858
 20
3.342240157480315
 30
0.0
 10
-0.8467362204724409
 20
3.342240157480315
 30
0.0
 10
-0.8410708661417323
 20
3.345488188976378
 30
0.0
 10
-0.836488188976378
 20
3.35196062992126
 30
0.0
 10
-0.836488188976378
 20
3.35196062992126
 30
0.0
 10
-0.8319015748031496
 20
3.35846062992126
 30
0.0
 10
-0.8296259842519685
 20
3.371488188976378
 30
0.0
 10
-0.8296259842519685
 20
3.391074803149607
 30
0.0
 10
-0.8296259842519685
 20
3.391074803149607
 30
0.0
 10
-0.8296259842519685
 20
3.410712598425197
 30
0.0
 10
-0.8319015748031496
 20
3.423767716535433
 30
0.0
 10
-0.836488188976378
 20
3.430212598425197
 30
0.0
 10
-0.836488188976378
 20
3.430212598425197
 30
0.0
 10
-0.8410433070866141
 20
3.436685039370079
 30
0.0
 10
-0.8467637795275591
 20
3.439905511811024
 30
0.0
 10
-0.8536259842519685
 20
3.439905511811024
 30
0.0
 10
-0.8536259842519685
 20
3.439905511811024
 30
0.0
 10
-0.8603464566929134
 20
3.439905511811024
 30
0.0
 10
-0.8657362204724409
 20
3.437043307086614
 30
0.0
 10
-0.869763779527559
 20
3.431350393700787
 30
0.0
 10
-0.869763779527559
 20
3.431350393700787
 30
0.0
 10
-0.8747913385826772
 20
3.424102362204724
 30
0.0
 10
-0.8772913385826772
 20
3.410657480314961
 30
0.0
 10
-0.8772913385826772
 20
3.391074803149607
 30
0.0
  0
SPLINE
  5
9C
330
1F
100
AcDbEntity
  8
Layer 1
 62
   250
100
AcDbSpline
210
0.0
220
0.0
230
1.0
 70
    11
 71
     3
 72
    20
 73
    16
 74
     0
 42
0.000000001
 43
0.0000000001
 40
0.0
 40
0.0
 40
0.0
 40
0.0
 40
0.2
 40
0.2
 40
0.2
 40
0.2
 40
0.4
 40
0.4
 40
0.4
 40
0.4
 40
0.6
 40
0.6
 40
0.6
 40
0.6
 40
1.0
 40
1.0
 40
1.0
 40
1.0
 10
-0.7914330708661418
 20
3.332240157480315
 30
0.0
 10
-0.7914330708661418
 20
3.332240157480315
 30
0.0
 10
-0.7914330708661418
 20
3.348905511811024
 30
0.0
 10
-0.7914330708661418
 20
3.348905511811024
 30
0.0
 10
-0.7914330708661418
 20
3.348905511811024
 30
0.0
 10
-0.7914330708661418
 20
3.348905511811024
 30
0.0
 10
-0.774763779527559
 20
3.348905511811024
 30
0.0
 10
-0.774763779527559
 20
3.348905511811024
 30
0.0
 10
-0.774763779527559
 20
3.348905511811024
 30
0.0
 10
-0.774763779527559
 20
3.348905511811024
 30
0.0
 10
-0.774763779527559
 20
3.332240157480315
 30
0.0
 10
-0.774763779527559
 20
3.332240157480315
 30
0.0
 10
-0.774763779527559
 20
3.332240157480315
 30
0.0
 10
-0.774763779527559
 20
3.332240157480315
 30
0.0
 10
-0.7914330708661418
 20
3.332240157480315
 30
0.0
 10
-0.7914330708661418
 20
3.332240157480315
 30
0.0
  0
SPLINE
  5
9D
330
1F
100
AcDbEntity
  8
Layer 1
 62
   250
100
AcDbSpline
210
0.0
220
0.0
230
1.0
 70
    11
 71
     3
 72
    40
 73
    36
 74
     0
 42
0.000000001
 43
0.0000000001
 40
0.0
 40
0.0
 40
0.0
 40
0.0
 40
0.1
 40
0.1
 40
0.1
 40
0.1
 40
0.2
 40
0.2
 40
0.2
 40
0.2
 40
0.3
 40
0.3
 40
0.3
 40
0.3
 40
0.4
 40
0.4
 40
0.4
 40
0.4
 40
0.5
 40
0.5
 40
0.5
 40
0.5
 40
0.6
 40
0.6
 40
0.6
 40
0.6
 40
0.7
 40
0.7
 40
0.7
 40
0.7
 40
0.8
 40
0.8
 40
0.8
 40
0.8
 40
1.0
 40
1.0
 40
1.0
 40
1.0
 10
-0.6982913385826771
 20
3.332240157480315
 30
0.0
 10
-0.6982913385826771
 20
3.332240157480315
 30
0.0
 10
-0.7129566929133858
 20
3.332240157480315
 30
0.0
 10
-0.7129566929133858
 20
3.332240157480315
 30
0.0
 10
-0.7129566929133858
 20
3.332240157480315
 30
0.0
 10
-0.7129566929133858
 20
3.332240157480315
 30
0.0
 10
-0.7129566929133858
 20
3.425629921259842
 30
0.0
 10
-0.7129566929133858
 20
3.425629921259842
 30
0.0
 10
-0.7129566929133858
 20
3.425629921259842
 30
0.0
 10
-0.716484251968504
 20
3.422240157480315
 30
0.0
 10
-0.7211259842519685
 20
3.418877952755905
 30
0.0
 10
-0.7268464566929134
 20
3.415515748031496
 30
0.0
 10
-0.7268464566929134
 20
3.415515748031496
 30
0.0
 10
-0.7325708661417323
 20
3.412157480314961
 30
0.0
 10
-0.7377362204724409
 20
3.409629921259842
 30
0.0
 10
-0.7422913385826772
 20
3.40796062992126
 30
0.0
 10
-0.7422913385826772
 20
3.40796062992126
 30
0.0
 10
-0.7422913385826772
 20
3.40796062992126
 30
0.0
 10
-0.7422913385826772
 20
3.422129921259843
 30
0.0
 10
-0.7422913385826772
 20
3.422129921259843
 30
0.0
 10
-0.7422913385826772
 20
3.422129921259843
 30
0.0
 10
-0.7340984251968504
 20
3.42596062992126
 30
0.0
 10
-0.7269291338582677
 20
3.430629921259842
 30
0.0
 10
-0.7207913385826772
 20
3.436129921259842
 30
0.0
 10
-0.7207913385826772
 20
3.436129921259842
 30
0.0
 10
-0.7146535433070866
 20
3.441602362204724
 30
0.0
 10
-0.7102913385826771
 20
3.446905511811023
 30
0.0
 10
-0.7077362204724409
 20
3.452070866141732
 30
0.0
 10
-0.7077362204724409
 20
3.452070866141732
 30
0.0
 10
-0.7077362204724409
 20
3.452070866141732
 30
0.0
 10
-0.6982913385826771
 20
3.452070866141732
 30
0.0
 10
-0.6982913385826771
 20
3.452070866141732
 30
0.0
 10
-0.6982913385826771
 20
3.452070866141732
 30
0.0
 10
-0.6982913385826771
 20
3.452070866141732
 30
0.0
 10
-0.6982913385826771
 20
3.332240157480315
 30
0.0
 10
-0.6982913385826771
 20
3.332240157480315
 30
0.0
  0
SPLINE
  5
9E
330
1F
100
AcDbEntity
  8
Layer 1
 62
   250
100
AcDbSpline
210
0.0
220
0.0
230
1.0
 70
    11
 71
     3
 72
    92
 73
    88
 74
     0
 42
0.000000001
 43
0.0000000001
 40
0.0
 40
0.0
 40
0.0
 40
0.0
 40
0.0434782608695652
 40
0.0434782608695652
 40
0.0434782608695652
 40
0.0434782608695652
 40
0.0869565217391304
 40
0.0869565217391304
 40
0.0869565217391304
 40
0.0869565217391304
 40
0.1304347826086956
 40
0.1304347826086956
 40
0.1304347826086956
 40
0.1304347826086956
 40
0.1739130434782609
 40
0.1739130434782609
 40
0.1739130434782609
 40
0.1739130434782609
 40
0.2173913043478261
 40
0.2173913043478261
 40
0.2173913043478261
 40
0.2173913043478261
 40
0.2608695652173913
 40
0.2608695652173913
 40
0.2608695652173913
 40
0.2608695652173913
 40
0.3043478260869565
 40
0.3043478260869565
 40
0.3043478260869565
 40
0.3043478260869565
 40
0.3478260869565217
 40
0.3478260869565217
 40
0.3478260869565217
 40
0.3478260869565217
 40
0.391304347826087
 40
0.391304347826087
 40
0.391304347826087
 40
0.391304347826087
 40
0.4347826086956522
 40
0.4347826086956522
 40
0.4347826086956522
 40
0.4347826086956522
 40
0.4782608695652174
 40
0.4782608695652174
 40
0.4782608695652174
 40
0.4782608695652174
 40
0.5217391304347826
 40
0.5217391304347826
 40
0.5217391304347826
 40
0.5217391304347826
 40
0.5652173913043478
 40
0.5652173913043478
 40
0.5652173913043478
 40
0.5652173913043478
 40
0.6086956521739131
 40
0.6086956521739131
 40
0.6086956521739131
 40
0.6086956521739131
 40
0.6521739130434783
 40
0.6521739130434783
 40
0.6521739130434783
 40
0.6521739130434783
 40
0.6956521739130435
 40
0.6956521739130435
 40
0.6956521739130435
 40
0.6956521739130435
 40
0.7391304347826086
 40
0.7391304347826086
 40
0.7391304347826086
 40
0.7391304347826086
 40
0.782608695652174
 40
0.782608695652174
 40
0.782608695652174
 40
0.782608695652174
 40
0.8260869565217391
 40
0.8260869565217391
 40
0.8260869565217391
 40
0.8260869565217391
 40
0.8695652173913043
 40
0.8695652173913043
 40
0.8695652173913043
 40
0.8695652173913043
 40
0.9130434782608695
 40
0.9130434782608695
 40
0.9130434782608695
 40
0.9130434782608695
 40
1.0
 40
1.0
 40
1.0
 40
1.0
 10
-0.6605984251968504
 20
3.363574803149606
 30
0.0
 10
-0.6605984251968504
 20
3.363574803149606
 30
0.0
 10
-0.6452637795275591
 20
3.364740157480315
 30
0.0
 10
-0.6452637795275591
 20
3.364740157480315
 30
0.0
 10
-0.6452637795275591
 20
3.364740157480315
 30
0.0
 10
-0.6441259842519685
 20
3.357267716535433
 30
0.0
 10
-0.6414881889763779
 20
3.351657480314961
 30
0.0
 10
-0.6373779527559055
 20
3.347877952755906
 30
0.0
 10
-0.6373779527559055
 20
3.347877952755906
 30
0.0
 10
-0.6332637795275591
 20
3.344129921259842
 30
0.0
 10
-0.628236220472441
 20
3.342240157480315
 30
0.0
 10
-0.6223228346456693
 20
3.342240157480315
 30
0.0
 10
-0.6223228346456693
 20
3.342240157480315
 30
0.0
 10
-0.6151811023622047
 20
3.342240157480315
 30
0.0
 10
-0.6092086614173229
 20
3.344905511811024
 30
0.0
 10
-0.6043503937007874
 20
3.350212598425197
 30
0.0
 10
-0.6043503937007874
 20
3.350212598425197
 30
0.0
 10
-0.5995157480314961
 20
3.355547244094488
 30
0.0
 10
-0.5970984251968504
 20
3.362602362204724
 30
0.0
 10
-0.5970984251968504
 20
3.371377952755906
 30
0.0
 10
-0.5970984251968504
 20
3.371377952755906
 30
0.0
 10
-0.5970984251968504
 20
3.379740157480315
 30
0.0
 10
-0.5994055118110236
 20
3.386322834645669
 30
0.0
 10
-0.6040433070866141
 20
3.39115748031496
 30
0.0
 10
-0.6040433070866141
 20
3.39115748031496
 30
0.0
 10
-0.6086811023622047
 20
3.395988188976378
 30
0.0
 10
-0.6148228346456693
 20
3.398405511811024
 30
0.0
 10
-0.6224606299212598
 20
3.398405511811024
 30
0.0
 10
-0.6224606299212598
 20
3.398405511811024
 30
0.0
 10
-0.6272086614173228
 20
3.398405511811024
 30
0.0
 10
-0.6314606299212598
 20
3.397322834645669
 30
0.0
 10
-0.635236220472441
 20
3.39515748031496
 30
0.0
 10
-0.635236220472441
 20
3.39515748031496
 30
0.0
 10
-0.638988188976378
 20
3.392988188976378
 30
0.0
 10
-0.6419330708661417
 20
3.390185039370079
 30
0.0
 10
-0.6440984251968503
 20
3.386740157480315
 30
0.0
 10
-0.6440984251968503
 20
3.386740157480315
 30
0.0
 10
-0.6440984251968503
 20
3.386740157480315
 30
0.0
 10
-0.6579330708661417
 20
3.388740157480315
 30
0.0
 10
-0.6579330708661417
 20
3.388740157480315
 30
0.0
 10
-0.6579330708661417
 20
3.388740157480315
 30
0.0
 10
-0.6579330708661417
 20
3.388740157480315
 30
0.0
 10
-0.6464330708661418
 20
3.450070866141732
 30
0.0
 10
-0.6464330708661418
 20
3.450070866141732
 30
0.0
 10
-0.6464330708661418
 20
3.450070866141732
 30
0.0
 10
-0.6464330708661418
 20
3.450070866141732
 30
0.0
 10
-0.587263779527559
 20
3.450070866141732
 30
0.0
 10
-0.587263779527559
 20
3.450070866141732
 30
0.0
 10
-0.587263779527559
 20
3.450070866141732
 30
0.0
 10
-0.587263779527559
 20
3.450070866141732
 30
0.0
 10
-0.587263779527559
 20
3.436070866141732
 30
0.0
 10
-0.587263779527559
 20
3.436070866141732
 30
0.0
 10
-0.587263779527559
 20
3.436070866141732
 30
0.0
 10
-0.587263779527559
 20
3.436070866141732
 30
0.0
 10
-0.6347362204724409
 20
3.436070866141732
 30
0.0
 10
-0.6347362204724409
 20
3.436070866141732
 30
0.0
 10
-0.6347362204724409
 20
3.436070866141732
 30
0.0
 10
-0.6347362204724409
 20
3.436070866141732
 30
0.0
 10
-0.6410984251968503
 20
3.403877952755905
 30
0.0
 10
-0.6410984251968503
 20
3.403877952755905
 30
0.0
 10
-0.6410984251968503
 20
3.403877952755905
 30
0.0
 10
-0.6339606299212598
 20
3.408905511811024
 30
0.0
 10
-0.6264606299212598
 20
3.411405511811024
 30
0.0
 10
-0.6186259842519685
 20
3.411405511811024
 30
0.0
 10
-0.6186259842519685
 20
3.411405511811024
 30
0.0
 10
-0.608236220472441
 20
3.411405511811024
 30
0.0
 10
-0.5994606299212598
 20
3.407795275590551
 30
0.0
 10
-0.5923228346456693
 20
3.400574803149606
 30
0.0
 10
-0.5923228346456693
 20
3.400574803149606
 30
0.0
 10
-0.5851811023622048
 20
3.393350393700787
 30
0.0
 10
-0.5815984251968503
 20
3.384074803149606
 30
0.0
 10
-0.5815984251968503
 20
3.372740157480315
 30
0.0
 10
-0.5815984251968503
 20
3.372740157480315
 30
0.0
 10
-0.5815984251968503
 20
3.361933070866142
 30
0.0
 10
-0.5847362204724409
 20
3.352602362204725
 30
0.0
 10
-0.591015748031496
 20
3.344740157480315
 30
0.0
 10
-0.591015748031496
 20
3.344740157480315
 30
0.0
 10
-0.5986535433070866
 20
3.335074803149606
 30
0.0
 10
-0.6090984251968504
 20
3.330240157480315
 30
0.0
 10
-0.6223228346456693
 20
3.330240157480315
 30
0.0
 10
-0.6223228346456693
 20
3.330240157480315
 30
0.0
 10
-0.6331535433070866
 20
3.330240157480315
 30
0.0
 10
-0.641988188976378
 20
3.333295275590551
 30
0.0
 10
-0.6488503937007875
 20
3.339377952755906
 30
0.0
 10
-0.6488503937007875
 20
3.339377952755906
 30
0.0
 10
-0.6557086614173229
 20
3.34546062992126
 30
0.0
 10
-0.6596259842519685
 20
3.35351968503937
 30
0.0
 10
-0.6605984251968504
 20
3.363574803149606
 30
0.0
  0
SPLINE
  5
9F
330
1F
100
AcDbEntity
  8
Layer 1
 62
   250
100
AcDbSpline
210
0.0
220
0.0
230
1.0
 70
    11
 71
     3
 72
    92
 73
    88
 74
     0
 42
0.000000001
 43
0.0000000001
 40
0.0
 40
0.0
 40
0.0
 40
0.0
 40
0.0434782608695652
 40
0.0434782608695652
 40
0.0434782608695652
 40
0.0434782608695652
 40
0.0869565217391304
 40
0.0869565217391304
 40
0.0869565217391304
 40
0.0869565217391304
 40
0.1304347826086956
 40
0.1304347826086956
 40
0.1304347826086956
 40
0.1304347826086956
 40
0.1739130434782609
 40
0.1739130434782609
 40
0.1739130434782609
 40
0.1739130434782609
 40
0.2173913043478261
 40
0.2173913043478261
 40
0.2173913043478261
 40
0.2173913043478261
 40
0.2608695652173913
 40
0.2608695652173913
 40
0.2608695652173913
 40
0.2608695652173913
 40
0.3043478260869565
 40
0.3043478260869565
 40
0.3043478260869565
 40
0.3043478260869565
 40
0.3478260869565217
 40
0.3478260869565217
 40
0.3478260869565217
 40
0.3478260869565217
 40
0.391304347826087
 40
0.391304347826087
 40
0.391304347826087
 40
0.391304347826087
 40
0.4347826086956522
 40
0.4347826086956522
 40
0.4347826086956522
 40
0.4347826086956522
 40
0.4782608695652174
 40
0.4782608695652174
 40
0.4782608695652174
 40
0.4782608695652174
 40
0.5217391304347826
 40
0.5217391304347826
 40
0.5217391304347826
 40
0.5217391304347826
 40
0.5652173913043478
 40
0.5652173913043478
 40
0.5652173913043478
 40
0.5652173913043478
 40
0.6086956521739131
 40
0.6086956521739131
 40
0.6086956521739131
 40
0.6086956521739131
 40
0.6521739130434783
 40
0.6521739130434783
 40
0.6521739130434783
 40
0.6521739130434783
 40
0.6956521739130435
 40
0.6956521739130435
 40
0.6956521739130435
 40
0.6956521739130435
 40
0.7391304347826086
 40
0.7391304347826086
 40
0.7391304347826086
 40
0.7391304347826086
 40
0.782608695652174
 40
0.782608695652174
 40
0.782608695652174
 40
0.782608695652174
 40
0.8260869565217391
 40
0.8260869565217391
 40
0.8260869565217391
 40
0.8260869565217391
 40
0.8695652173913043
 40
0.8695652173913043
 40
0.8695652173913043
 40
0.8695652173913043
 40
0.9130434782608695
 40
0.9130434782608695
 40
0.9130434782608695
 40
0.9130434782608695
 40
1.0
 40
1.0
 40
1.0
 40
1.0
 10
-0.4910748031496063
 20
3.346240157480315
 30
0.0
 10
-0.4910748031496063
 20
3.346240157480315
 30
0.0
 10
-0.4910748031496063
 20
3.332240157480315
 30
0.0
 10
-0.4910748031496063
 20
3.332240157480315
 30
0.0
 10
-0.4910748031496063
 20
3.332240157480315
 30
0.0
 10
-0.4910748031496063
 20
3.332240157480315
 30
0.0
 10
-0.5700708661417323
 20
3.332240157480315
 30
0.0
 10
-0.5700708661417323
 20
3.332240157480315
 30
0.0
 10
-0.5700708661417323
 20
3.332240157480315
 30
0.0
 10
-0.5701850393700787
 20
3.335767716535433
 30
0.0
 10
-0.5695984251968504
 20
3.339157480314961
 30
0.0
 10
-0.5683503937007874
 20
3.342433070866142
 30
0.0
 10
-0.5683503937007874
 20
3.342433070866142
 30
0.0
 10
-0.5663228346456692
 20
3.347795275590551
 30
0.0
 10
-0.5630708661417323
 20
3.353102362204724
 30
0.0
 10
-0.5585984251968504
 20
3.358295275590551
 30
0.0
 10
-0.5585984251968504
 20
3.358295275590551
 30
0.0
 10
-0.5541259842519685
 20
3.363488188976378
 30
0.0
 10
-0.547740157480315
 20
3.369488188976378
 30
0.0
 10
-0.5394330708661418
 20
3.376295275590551
 30
0.0
 10
-0.5394330708661418
 20
3.376295275590551
 30
0.0
 10
-0.526515748031496
 20
3.386933070866142
 30
0.0
 10
-0.517740157480315
 20
3.395350393700788
 30
0.0
 10
-0.5131574803149607
 20
3.401574803149606
 30
0.0
 10
-0.5131574803149607
 20
3.401574803149606
 30
0.0
 10
-0.5085433070866142
 20
3.407795275590551
 30
0.0
 10
-0.5062401574803149
 20
3.413685039370079
 30
0.0
 10
-0.5062401574803149
 20
3.419240157480315
 30
0.0
 10
-0.5062401574803149
 20
3.419240157480315
 30
0.0
 10
-0.5062401574803149
 20
3.425043307086614
 30
0.0
 10
-0.5083228346456693
 20
3.429933070866142
 30
0.0
 10
-0.5124881889763779
 20
3.433933070866142
 30
0.0
 10
-0.5124881889763779
 20
3.433933070866142
 30
0.0
 10
-0.5166574803149606
 20
3.437905511811024
 30
0.0
 10
-0.5220984251968503
 20
3.439905511811024
 30
0.0
 10
-0.5287952755905512
 20
3.439905511811024
 30
0.0
 10
-0.5287952755905512
 20
3.439905511811024
 30
0.0
 10
-0.5358779527559056
 20
3.439905511811024
 30
0.0
 10
-0.5415433070866141
 20
3.437795275590551
 30
0.0
 10
-0.5457952755905512
 20
3.433570866141732
 30
0.0
 10
-0.5457952755905512
 20
3.433570866141732
 30
0.0
 10
-0.5500433070866142
 20
3.429377952755905
 30
0.0
 10
-0.5521850393700788
 20
3.423543307086614
 30
0.0
 10
-0.552240157480315
 20
3.416070866141732
 30
0.0
 10
-0.552240157480315
 20
3.416070866141732
 30
0.0
 10
-0.552240157480315
 20
3.416070866141732
 30
0.0
 10
-0.567240157480315
 20
3.417570866141732
 30
0.0
 10
-0.567240157480315
 20
3.417570866141732
 30
0.0
 10
-0.567240157480315
 20
3.417570866141732
 30
0.0
 10
-0.5662125984251969
 20
3.428795275590551
 30
0.0
 10
-0.5623228346456693
 20
3.437350393700787
 30
0.0
 10
-0.5555984251968504
 20
3.443240157480315
 30
0.0
 10
-0.5555984251968504
 20
3.443240157480315
 30
0.0
 10
-0.5488503937007874
 20
3.449129921259842
 30
0.0
 10
-0.5398228346456693
 20
3.452070866141732
 30
0.0
 10
-0.5284606299212599
 20
3.452070866141732
 30
0.0
 10
-0.5284606299212599
 20
3.452070866141732
 30
0.0
 10
-0.5170157480314961
 20
3.452070866141732
 30
0.0
 10
-0.5079330708661417
 20
3.448905511811024
 30
0.0
 10
-0.5012677165354331
 20
3.442543307086614
 30
0.0
 10
-0.5012677165354331
 20
3.442543307086614
 30
0.0
 10
-0.4945708661417323
 20
3.436185039370079
 30
0.0
 10
-0.491240157480315
 20
3.428295275590551
 30
0.0
 10
-0.491240157480315
 20
3.418905511811023
 30
0.0
 10
-0.491240157480315
 20
3.418905511811023
 30
0.0
 10
-0.491240157480315
 20
3.414129921259843
 30
0.0
 10
-0.4922125984251968
 20
3.409433070866142
 30
0.0
 10
-0.4941850393700787
 20
3.404822834645669
 30
0.0
 10
-0.4941850393700787
 20
3.404822834645669
 30
0.0
 10
-0.4961299212598425
 20
3.400185039370079
 30
0.0
 10
-0.4993779527559055
 20
3.395322834645669
 30
0.0
 10
-0.5039055118110236
 20
3.390212598425197
 30
0.0
 10
-0.5039055118110236
 20
3.390212598425197
 30
0.0
 10
-0.5084606299212598
 20
3.385129921259843
 30
0.0
 10
-0.515988188976378
 20
3.378102362204725
 30
0.0
 10
-0.526488188976378
 20
3.369212598425197
 30
0.0
 10
-0.526488188976378
 20
3.369212598425197
 30
0.0
 10
-0.5352952755905512
 20
3.361822834645669
 30
0.0
 10
-0.5409606299212598
 20
3.356822834645669
 30
0.0
 10
-0.5434606299212599
 20
3.354185039370079
 30
0.0
 10
-0.5434606299212599
 20
3.354185039370079
 30
0.0
 10
-0.5459606299212598
 20
3.351547244094488
 30
0.0
 10
-0.5480157480314961
 20
3.348905511811024
 30
0.0
 10
-0.5496574803149606
 20
3.346240157480315
 30
0.0
 10
-0.5496574803149606
 20
3.346240157480315
 30
0.0
 10
-0.5496574803149606
 20
3.346240157480315
 30
0.0
 10
-0.4910748031496063
 20
3.346240157480315
 30
0.0
 10
-0.4910748031496063
 20
3.346240157480315
 30
0.0
  0
ENDSEC
  0
SECTION
  2
OBJECTS
  0
DICTIONARY
  5
C
330
0
100
AcDbDictionary
281
     1
  3
ACAD_DETAILVIEWSTYLE
350
DB
  3
ACAD_GROUP
350
D
  3
ACAD_LAYOUT
350
1A
  3
ACAD_MATERIAL
350
43
  3
ACAD_MLEADERSTYLE
350
6B
  3
ACAD_MLINESTYLE
350
17
  3
ACAD_PLOTSETTINGS
350
19
  3
ACAD_PLOTSTYLENAME
350
E
  3
ACAD_SCALELIST
350
47
  3
ACAD_SECTIONVIEWSTYLE
350
DC
  3
ACAD_TABLESTYLE
350
69
  3
ACAD_VISUALSTYLE
350
2A
  3
ACDB_RECOMPOSE_DATA
350
D8
  3
AcDbVariableDictionary
350
A0
  0
SUN
  5
6D
330
29
100
AcDbSun
 90
        1
290
     0
 63
     7
421
 16777215
 40
1.0
291
     1
 91
  2455826
 92
 54000000
292
     0
 70
     2
 71
   256
280
     1
  0
DICTIONARY
  5
DB
102
{ACAD_REACTORS
330
C
102
}
330
C
100
AcDbDictionary
281
     1
  0
DICTIONARY
  5
D
102
{ACAD_REACTORS
330
C
102
}
330
C
100
AcDbDictionary
281
     1
  0
DICTIONARY
  5
1A
102
{ACAD_REACTORS
330
C
102
}
330
C
100
AcDbDictionary
281
     1
  3
Layout1
350
1E
  3
Layout2
350
26
  3
Model
350
22
  0
DICTIONARY
  5
43
102
{ACAD_REACTORS
330
C
102
}
330
C
100
AcDbDictionary
281
     1
  3
ByBlock
350
45
  3
ByLayer
350
44
  3
Global
350
46
  0
DICTIONARY
  5
6B
102
{ACAD_REACTORS
330
C
102
}
330
C
100
AcDbDictionary
281
     1
  3
Standard
350
6C
  0
DICTIONARY
  5
17
102
{ACAD_REACTORS
330
C
102
}
330
C
100
AcDbDictionary
281
     1
  3
Standard
350
18
  0
DICTIONARY
  5
19
102
{ACAD_REACTORS
330
C
102
}
330
C
100
AcDbDictionary
281
     1
  0
ACDBDICTIONARYWDFLT
  5
E
102
{ACAD_REACTORS
330
C
102
}
330
C
100
AcDbDictionary
281
     1
  3
Normal
350
F
100
AcDbDictionaryWithDefault
340
F
  0
DICTIONARY
  5
47
102
{ACAD_REACTORS
330
C
102
}
330
C
100
AcDbDictionary
281
     1
  3
A0
350
48
  3
A1
350
49
  3
A2
350
4A
  3
A3
350
4B
  3
A4
350
4C
  3
A5
350
4D
  3
A6
350
4E
  3
A7
350
4F
  3
A8
350
50
  3
A9
350
51
  3
B0
350
52
  3
B1
350
53
  3
B2
350
54
  3
B3
350
55
  3
B4
350
56
  3
B5
350
57
  3
B6
350
58
  3
B7
350
59
  3
B8
350
5A
  3
B9
350
5B
  3
C0
350
5C
  3
C1
350
5D
  3
C2
350
5E
  3
C3
350
5F
  3
C4
350
60
  3
C5
350
61
  3
C6
350
62
  3
C7
350
63
  3
C8
350
64
  3
C9
350
65
  3
D0
350
66
  3
D1
350
67
  3
D2
350
68
  0
DICTIONARY
  5
DC
102
{ACAD_REACTORS
330
C
102
}
330
C
100
AcDbDictionary
281
     1
  0
DICTIONARY
  5
69
102
{ACAD_REACTORS
330
C
102
}
330
C
100
AcDbDictionary
281
     1
  3
Standard
350
6A
  0
DICTIONARY
  5
2A
102
{ACAD_REACTORS
330
C
102
}
330
C
100
AcDbDictionary
281
     1
  3
2dWireframe
350
2F
  3
Basic
350
32
  3
Brighten
350
36
  3
ColorChange
350
3A
  3
Conceptual
350
34
  3
Dim
350
35
  3
EdgeColorOff
350
3D
  3
Facepattern
350
39
  3
Flat
350
2B
  3
FlatWithEdges
350
2C
  3
Gouraud
350
2D
  3
GouraudWithEdges
350
2E
  3
Hidden
350
31
  3
JitterOff
350
3B
  3
Linepattern
350
38
  3
OverhangOff
350
3C
  3
Realistic
350
33
  3
Shaded
350
42
  3
Shaded with edges
350
41
  3
Shades of Gray
350
3E
  3
Sketchy
350
3F
  3
Thicken
350
37
  3
Wireframe
350
30
  3
X-Ray
350
40
  0
XRECORD
  5
D8
102
{ACAD_REACTORS
330
C
102
}
330
C
100
AcDbXrecord
280
     1
 90
        1
330
6A
  0
DICTIONARY
  5
A0
102
{ACAD_REACTORS
330
C
102
}
330
C
100
AcDbDictionary
281
     1
  3
CANNOSCALE
350
A1
  3
CMLEADERSTYLE
350
DA
  3
CTABLESTYLE
350
D9
  3
XCLIPFRAME
350
A2
  0
LAYOUT
  5
1E
102
{ACAD_REACTORS
330
1A
102
}
330
1A
100
AcDbPlotSettings
  1

  2
none_device
  4

  6

 40
0.0
 41
0.0
 42
0.0
 43
0.0
 44
0.0
 45
0.0
 46
0.0
 47
0.0
 48
0.0
 49
0.0
140
0.0
141
0.0
142
1.0
143
1.0
 70
   688
 72
     0
 73
     0
 74
     5
  7

 75
    16
 76
     0
 77
     2
 78
   300
147
1.0
148
0.0
149
0.0
100
AcDbLayout
  1
Layout1
 70
     1
 71
     1
 10
0.0
 20
0.0
 11
12.0
 21
9.0
 12
0.0
 22
0.0
 32
0.0
 14
1.000000000000000E+20
 24
1.000000000000000E+20
 34
1.000000000000000E+20
 15
-1.000000000000000E+20
 25
-1.000000000000000E+20
 35
-1.000000000000000E+20
146
0.0
 13
0.0
 23
0.0
 33
0.0
 16
1.0
 26
0.0
 36
0.0
 17
0.0
 27
1.0
 37
0.0
 76
     0
330
1B
  0
LAYOUT
  5
26
102
{ACAD_REACTORS
330
1A
102
}
330
1A
100
AcDbPlotSettings
  1

  2
none_device
  4

  6

 40
0.0
 41
0.0
 42
0.0
 43
0.0
 44
0.0
 45
0.0
 46
0.0
 47
0.0
 48
0.0
 49
0.0
140
0.0
141
0.0
142
1.0
143
1.0
 70
   688
 72
     0
 73
     0
 74
     5
  7

 75
    16
 76
     0
 77
     2
 78
   300
147
1.0
148
0.0
149
0.0
100
AcDbLayout
  1
Layout2
 70
     1
 71
     2
 10
0.0
 20
0.0
 11
0.0
 21
0.0
 12
0.0
 22
0.0
 32
0.0
 14
0.0
 24
0.0
 34
0.0
 15
0.0
 25
0.0
 35
0.0
146
0.0
 13
0.0
 23
0.0
 33
0.0
 16
1.0
 26
0.0
 36
0.0
 17
0.0
 27
1.0
 37
0.0
 76
     0
330
23
  0
LAYOUT
  5
22
102
{ACAD_REACTORS
330
1A
102
}
330
1A
100
AcDbPlotSettings
  1

  2
none_device
  4
Letter_(8.50_x_11.00_Inches)
  6

 40
6.35
 41
6.35
 42
6.35000508
 43
6.35000508
 44
215.9
 45
279.4
 46
0.0
 47
0.0
 48
0.0
 49
0.0
140
0.0
141
0.0
142
1.0
143
1.0
 70
  1712
 72
     0
 73
     0
 74
     0
  7

 75
     0
 76
     0
 77
     2
 78
   300
147
1.0
148
0.0
149
0.0
100
AcDbLayout
  1
Model
 70
     1
 71
     0
 10
0.0
 20
0.0
 11
12.0
 21
9.0
 12
0.0
 22
0.0
 32
0.0
 14
-5.939527559055118
 24
0.0431220472440945
 34
0.0
 15
1.205594488188976
 25
4.172003937007874
 35
0.0
146
0.0
 13
0.0
 23
0.0
 33
0.0
 16
1.0
 26
0.0
 36
0.0
 17
0.0
 27
1.0
 37
0.0
 76
     0
330
1F
331
29
  0
MATERIAL
  5
45
102
{ACAD_REACTORS
330
43
102
}
330
43
100
AcDbMaterial
  1
ByBlock
 72
     1
 94
      127
  0
MATERIAL
  5
44
102
{ACAD_REACTORS
330
43
102
}
330
43
100
AcDbMaterial
  1
ByLayer
 72
     1
 94
      127
  0
MATERIAL
  5
46
102
{ACAD_REACTORS
330
43
102
}
330
43
100
AcDbMaterial
  1
Global
 72
     1
 94
      127
  0
MLEADERSTYLE
  5
6C
102
{ACAD_REACTORS
330
6B
102
}
102
{ACAD_XDICTIONARY
360
D6
102
}
330
6B
100
AcDbMLeaderStyle
170
     2
171
     1
172
     0
 90
        2
 40
0.0
 41
0.0
173
     1
 91
-1056964608
340
14
 92
       -2
290
     1
 42
0.09
291
     1
 43
0.36
  3
Standard
341
0
 44
0.18
300

342
11
174
     1
178
     6
175
     1
176
     0
 93
-1056964608
 45
0.18
292
     0
297
     0
 46
0.18
343
0
 94
-1056964608
 47
1.0
 49
1.0
140
1.0
293
     1
141
0.0
294
     1
177
     0
142
1.0
295
     0
296
     0
143
0.125
1001
ACAD_MLEADERVER
1070
     2
  0
MLINESTYLE
  5
18
102
{ACAD_REACTORS
330
17
102
}
330
17
100
AcDbMlineStyle
  2
Standard
 70
     0
  3

 62
   256
 51
90.0
 52
90.0
 71
     2
 49
0.5
 62
   256
  6
BYLAYER
 49
-0.5
 62
   256
  6
BYLAYER
  0
ACDBPLACEHOLDER
  5
F
102
{ACAD_REACTORS
330
E
102
}
330
E
  0
SCALE
  5
48
102
{ACAD_REACTORS
330
47
102
}
330
47
100
AcDbScale
 70
     0
300
1:1
140
1.0
141
1.0
290
     1
  0
SCALE
  5
49
102
{ACAD_REACTORS
330
47
102
}
330
47
100
AcDbScale
 70
     0
300
1:2
140
1.0
141
2.0
290
     0
  0
SCALE
  5
4A
102
{ACAD_REACTORS
330
47
102
}
330
47
100
AcDbScale
 70
     0
300
1:4
140
1.0
141
4.0
290
     0
  0
SCALE
  5
4B
102
{ACAD_REACTORS
330
47
102
}
330
47
100
AcDbScale
 70
     0
300
1:5
140
1.0
141
5.0
290
     0
  0
SCALE
  5
4C
102
{ACAD_REACTORS
330
47
102
}
330
47
100
AcDbScale
 70
     0
300
1:8
140
1.0
141
8.0
290
     0
  0
SCALE
  5
4D
102
{ACAD_REACTORS
330
47
102
}
330
47
100
AcDbScale
 70
     0
300
1:10
140
1.0
141
10.0
290
     0
  0
SCALE
  5
4E
102
{ACAD_REACTORS
330
47
102
}
330
47
100
AcDbScale
 70
     0
300
1:16
140
1.0
141
16.0
290
     0
  0
SCALE
  5
4F
102
{ACAD_REACTORS
330
47
102
}
330
47
100
AcDbScale
 70
     0
300
1:20
140
1.0
141
20.0
290
     0
  0
SCALE
  5
50
102
{ACAD_REACTORS
330
47
102
}
330
47
100
AcDbScale
 70
     0
300
1:30
140
1.0
141
30.0
290
     0
  0
SCALE
  5
51
102
{ACAD_REACTORS
330
47
102
}
330
47
100
AcDbScale
 70
     0
300
1:40
140
1.0
141
40.0
290
     0
  0
SCALE
  5
52
102
{ACAD_REACTORS
330
47
102
}
330
47
100
AcDbScale
 70
     0
300
1:50
140
1.0
141
50.0
290
     0
  0
SCALE
  5
53
102
{ACAD_REACTORS
330
47
102
}
330
47
100
AcDbScale
 70
     0
300
1:100
140
1.0
141
100.0
290
     0
  0
SCALE
  5
54
102
{ACAD_REACTORS
330
47
102
}
330
47
100
AcDbScale
 70
     0
300
2:1
140
2.0
141
1.0
290
     0
  0
SCALE
  5
55
102
{ACAD_REACTORS
330
47
102
}
330
47
100
AcDbScale
 70
     0
300
4:1
140
4.0
141
1.0
290
     0
  0
SCALE
  5
56
102
{ACAD_REACTORS
330
47
102
}
330
47
100
AcDbScale
 70
     0
300
8:1
140
8.0
141
1.0
290
     0
  0
SCALE
  5
57
102
{ACAD_REACTORS
330
47
102
}
330
47
100
AcDbScale
 70
     0
300
10:1
140
10.0
141
1.0
290
     0
  0
SCALE
  5
58
102
{ACAD_REACTORS
330
47
102
}
330
47
100
AcDbScale
 70
     0
300
100:1
140
100.0
141
1.0
290
     0
  0
SCALE
  5
59
102
{ACAD_REACTORS
330
47
102
}
330
47
100
AcDbScale
 70
     0
300
1/128" = 1'-0"
140
0.0078125
141
12.0
290
     0
  0
SCALE
  5
5A
102
{ACAD_REACTORS
330
47
102
}
330
47
100
AcDbScale
 70
     0
300
1/64" = 1'-0"
140
0.015625
141
12.0
290
     0
  0
SCALE
  5
5B
102
{ACAD_REACTORS
330
47
102
}
330
47
100
AcDbScale
 70
     0
300
1/32" = 1'-0"
140
0.03125
141
12.0
290
     0
  0
SCALE
  5
5C
102
{ACAD_REACTORS
330
47
102
}
330
47
100
AcDbScale
 70
     0
300
1/16" = 1'-0"
140
0.0625
141
12.0
290
     0
  0
SCALE
  5
5D
102
{ACAD_REACTORS
330
47
102
}
330
47
100
AcDbScale
 70
     0
300
3/32" = 1'-0"
140
0.09375
141
12.0
290
     0
  0
SCALE
  5
5E
102
{ACAD_REACTORS
330
47
102
}
330
47
100
AcDbScale
 70
     0
300
1/8" = 1'-0"
140
0.125
141
12.0
290
     0
  0
SCALE
  5
5F
102
{ACAD_REACTORS
330
47
102
}
330
47
100
AcDbScale
 70
     0
300
3/16" = 1'-0"
140
0.1875
141
12.0
290
     0
  0
SCALE
  5
60
102
{ACAD_REACTORS
330
47
102
}
330
47
100
AcDbScale
 70
     0
300
1/4" = 1'-0"
140
0.25
141
12.0
290
     0
  0
SCALE
  5
61
102
{ACAD_REACTORS
330
47
102
}
330
47
100
AcDbScale
 70
     0
300
3/8" = 1'-0"
140
0.375
141
12.0
290
     0
  0
SCALE
  5
62
102
{ACAD_REACTORS
330
47
102
}
330
47
100
AcDbScale
 70
     0
300
1/2" = 1'-0"
140
0.5
141
12.0
290
     0
  0
SCALE
  5
63
102
{ACAD_REACTORS
330
47
102
}
330
47
100
AcDbScale
 70
     0
300
3/4" = 1'-0"
140
0.75
141
12.0
290
     0
  0
SCALE
  5
64
102
{ACAD_REACTORS
330
47
102
}
330
47
100
AcDbScale
 70
     0
300
1" = 1'-0"
140
1.0
141
12.0
290
     0
  0
SCALE
  5
65
102
{ACAD_REACTORS
330
47
102
}
330
47
100
AcDbScale
 70
     0
300
1-1/2" = 1'-0"
140
1.5
141
12.0
290
     0
  0
SCALE
  5
66
102
{ACAD_REACTORS
330
47
102
}
330
47
100
AcDbScale
 70
     0
300
3" = 1'-0"
140
3.0
141
12.0
290
     0
  0
SCALE
  5
67
102
{ACAD_REACTORS
330
47
102
}
330
47
100
AcDbScale
 70
     0
300
6" = 1'-0"
140
6.0
141
12.0
290
     0
  0
SCALE
  5
68
102
{ACAD_REACTORS
330
47
102
}
330
47
100
AcDbScale
 70
     0
300
1'-0" = 1'-0"
140
12.0
141
12.0
290
     0
  0
TABLESTYLE
  5
6A
102
{ACAD_REACTORS
330
69
102
}
102
{ACAD_XDICTIONARY
360
D3
102
}
330
69
100
AcDbTableStyle
  3
Standard
 70
     0
 71
     0
 40
0.06
 41
0.06
280
     0
281
     0
  7
Standard
140
0.18
170
     2
 62
     0
 63
   257
283
     0
 90
        4
 91
        0
  1

274
    -2
284
     1
 64
     0
275
    -2
285
     1
 65
     0
276
    -2
286
     1
 66
     0
277
    -2
287
     1
 67
     0
278
    -2
288
     1
 68
     0
279
    -2
289
     1
 69
     0
  7
Standard
140
0.25
170
     5
 62
     0
 63
   257
283
     0
 90
        4
 91
        0
  1

274
    -2
284
     1
 64
     0
275
    -2
285
     1
 65
     0
276
    -2
286
     1
 66
     0
277
    -2
287
     1
 67
     0
278
    -2
288
     1
 68
     0
279
    -2
289
     1
 69
     0
  7
Standard
140
0.18
170
     5
 62
     0
 63
   257
283
     0
 90
        4
 91
        0
  1

274
    -2
284
     1
 64
     0
275
    -2
285
     1
 65
     0
276
    -2
286
     1
 66
     0
277
    -2
287
     1
 67
     0
278
    -2
288
     1
 68
     0
279
    -2
289
     1
 69
     0
  0
VISUALSTYLE
  5
2F
102
{ACAD_REACTORS
330
2A
102
}
102
{ACAD_XDICTIONARY
360
AB
102
}
330
2A
100
AcDbVisualStyle
  2
2dWireframe
 70
     4
 71
     0
 72
     2
 73
     0
 90
        0
 40
0.6
 41
30.0
 62
     5
 63
     7
421
 16777215
 74
     1
 91
        4
 64
     7
 65
   257
 75
     1
175
     1
 42
1.0
 92
        0
 66
   257
 43
1.0
 76
     1
 77
     6
 78
     2
 67
     7
 79
     5
170
     0
171
     0
290
     0
174
     0
 93
        1
 44
0.0
173
     0
291
     0
 45
0.0
  0
VISUALSTYLE
  5
32
102
{ACAD_REACTORS
330
2A
102
}
102
{ACAD_XDICTIONARY
360
B1
102
}
330
2A
100
AcDbVisualStyle
  2
Basic
 70
     7
 71
     1
 72
     0
 73
     1
 90
        0
 40
0.6
 41
30.0
 62
     5
 63
     7
421
 16777215
 74
     0
 91
        4
 64
     7
 65
   257
 75
     1
175
     1
 42
1.0
 92
        8
 66
     7
 43
1.0
 76
     1
 77
     6
 78
     2
 67
     7
 79
     5
170
     0
171
     0
290
     0
174
     0
 93
        1
 44
0.0
173
     0
291
     1
 45
0.0
  0
VISUALSTYLE
  5
36
102
{ACAD_REACTORS
330
2A
102
}
102
{ACAD_XDICTIONARY
360
B9
102
}
330
2A
100
AcDbVisualStyle
  2
Brighten
 70
    12
 71
     2
 72
     2
 73
     0
 90
        0
 40
0.6
 41
30.0
 62
     5
 63
     7
421
 16777215
 74
     1
 91
        4
 64
     7
 65
   257
 75
     1
175
     1
 42
1.0
 92
        8
 66
     7
 43
1.0
 76
     1
 77
     6
 78
     2
 67
     7
 79
     5
170
     0
171
     0
290
     0
174
     0
 93
        1
 44
50.0
173
     0
291
     1
 45
0.0
  0
VISUALSTYLE
  5
3A
102
{ACAD_REACTORS
330
2A
102
}
102
{ACAD_XDICTIONARY
360
C1
102
}
330
2A
100
AcDbVisualStyle
  2
ColorChange
 70
    16
 71
     2
 72
     2
 73
     3
 90
        0
 40
0.6
 41
30.0
 62
     5
 63
     8
421
  8421504
 74
     1
 91
        4
 64
     7
 65
   257
 75
     1
175
     1
 42
1.0
 92
        8
 66
     8
424
  8421504
 43
1.0
 76
     1
 77
     6
 78
     2
 67
     7
 79
     5
170
     0
171
     0
290
     0
174
     0
 93
        1
 44
0.0
173
     0
291
     1
 45
0.0
  0
VISUALSTYLE
  5
34
102
{ACAD_REACTORS
330
2A
102
}
102
{ACAD_XDICTIONARY
360
B5
102
}
330
2A
100
AcDbVisualStyle
  2
Conceptual
 70
     9
 71
     3
 72
     2
 73
     0
 90
        0
 40
0.6
 41
30.0
 62
     5
 63
     7
421
 16777215
 74
     2
 91
        2
 64
     7
 65
   257
 75
     1
175
     1
 42
179.0
 92
        8
 66
     7
 43
1.0
 76
     1
 77
     6
 78
     2
 67
     7
 79
     3
170
     0
171
     0
290
     0
174
     0
 93
        1
 44
0.0
173
     0
291
     0
 45
0.0
  0
VISUALSTYLE
  5
35
102
{ACAD_REACTORS
330
2A
102
}
102
{ACAD_XDICTIONARY
360
B7
102
}
330
2A
100
AcDbVisualStyle
  2
Dim
 70
    11
 71
     2
 72
     2
 73
     0
 90
        0
 40
0.6
 41
30.0
 62
     5
 63
     7
421
 16777215
 74
     1
 91
        4
 64
     7
 65
   257
 75
     1
175
     1
 42
1.0
 92
        8
 66
     7
 43
1.0
 76
     1
 77
     6
 78
     2
 67
     7
 79
     5
170
     0
171
     0
290
     0
174
     0
 93
        1
 44
-50.0
173
     0
291
     1
 45
0.0
  0
VISUALSTYLE
  5
3D
102
{ACAD_REACTORS
330
2A
102
}
102
{ACAD_XDICTIONARY
360
C7
102
}
330
2A
100
AcDbVisualStyle
  2
EdgeColorOff
 70
    22
 71
     2
 72
     2
 73
     0
 90
        0
 40
0.6
 41
30.0
 62
     5
 63
     7
421
 16777215
 74
     1
 91
        4
 64
     7
 65
   257
 75
     1
175
     1
 42
1.0
 92
        8
 66
     7
 43
1.0
 76
     1
 77
     6
 78
     2
 67
     7
 79
     5
170
     0
171
     0
290
     0
174
     0
 93
        1
 44
0.0
173
     0
291
     1
 45
0.0
  0
VISUALSTYLE
  5
39
102
{ACAD_REACTORS
330
2A
102
}
102
{ACAD_XDICTIONARY
360
BF
102
}
330
2A
100
AcDbVisualStyle
  2
Facepattern
 70
    15
 71
     2
 72
     2
 73
     0
 90
        0
 40
0.6
 41
30.0
 62
     5
 63
     7
421
 16777215
 74
     1
 91
        4
 64
     7
 65
   257
 75
     1
175
     1
 42
1.0
 92
        8
 66
     7
 43
1.0
 76
     1
 77
     6
 78
     2
 67
     7
 79
     5
170
     0
171
     0
290
     0
174
     0
 93
        1
 44
0.0
173
     0
291
     1
 45
0.0
  0
VISUALSTYLE
  5
2B
102
{ACAD_REACTORS
330
2A
102
}
102
{ACAD_XDICTIONARY
360
A3
102
}
330
2A
100
AcDbVisualStyle
  2
Flat
 70
     0
 71
     2
 72
     1
 73
     1
 90
        2
 40
0.6
 41
30.0
 62
     5
 63
     7
421
 16777215
 74
     0
 91
        0
 64
     7
 65
   257
 75
     1
175
     1
 42
1.0
 92
        8
 66
     7
 43
1.0
 76
     1
 77
     6
 78
     2
 67
     7
 79
     5
170
     0
171
     0
290
     0
174
     0
 93
       13
 44
0.0
173
     0
291
     1
 45
0.0
  0
VISUALSTYLE
  5
2C
102
{ACAD_REACTORS
330
2A
102
}
102
{ACAD_XDICTIONARY
360
A5
102
}
330
2A
100
AcDbVisualStyle
  2
FlatWithEdges
 70
     1
 71
     2
 72
     1
 73
     1
 90
        2
 40
0.6
 41
30.0
 62
     5
 63
     7
421
 16777215
 74
     1
 91
        0
 64
     7
 65
   257
 75
     1
175
     1
 42
1.0
 92
        0
 66
   257
 43
1.0
 76
     1
 77
     6
 78
     2
 67
     7
 79
     5
170
     0
171
     0
290
     0
174
     0
 93
       13
 44
0.0
173
     0
291
     1
 45
0.0
  0
VISUALSTYLE
  5
2D
102
{ACAD_REACTORS
330
2A
102
}
102
{ACAD_XDICTIONARY
360
A7
102
}
330
2A
100
AcDbVisualStyle
  2
Gouraud
 70
     2
 71
     2
 72
     2
 73
     1
 90
        2
 40
0.6
 41
30.0
 62
     5
 63
     7
421
 16777215
 74
     0
 91
        0
 64
     7
 65
   257
 75
     1
175
     1
 42
1.0
 92
        0
 66
     7
 43
1.0
 76
     1
 77
     6
 78
     2
 67
     7
 79
     5
170
     0
171
     0
290
     0
174
     0
 93
       13
 44
0.0
173
     0
291
     1
 45
0.0
  0
VISUALSTYLE
  5
2E
102
{ACAD_REACTORS
330
2A
102
}
102
{ACAD_XDICTIONARY
360
A9
102
}
330
2A
100
AcDbVisualStyle
  2
GouraudWithEdges
 70
     3
 71
     2
 72
     2
 73
     1
 90
        2
 40
0.6
 41
30.0
 62
     5
 63
     7
421
 16777215
 74
     1
 91
        0
 64
     7
 65
   257
 75
     1
175
     1
 42
1.0
 92
        0
 66
   257
 43
1.0
 76
     1
 77
     6
 78
     2
 67
     7
 79
     5
170
     0
171
     0
290
     0
174
     0
 93
       13
 44
0.0
173
     0
291
     1
 45
0.0
  0
VISUALSTYLE
  5
31
102
{ACAD_REACTORS
330
2A
102
}
102
{ACAD_XDICTIONARY
360
AF
102
}
330
2A
100
AcDbVisualStyle
  2
Hidden
 70
     6
 71
     1
 72
     2
 73
     2
 90
        0
 40
0.6
 41
30.0
 62
     5
 63
     7
421
 16777215
 74
     2
 91
        2
 64
     7
 65
   257
 75
     2
175
     1
 42
40.0
 92
        0
 66
   257
 43
1.0
 76
     1
 77
     6
 78
     2
 67
     7
 79
     3
170
     0
171
     0
290
     0
174
     0
 93
        1
 44
0.0
173
     0
291
     0
 45
0.0
  0
VISUALSTYLE
  5
3B
102
{ACAD_REACTORS
330
2A
102
}
102
{ACAD_XDICTIONARY
360
C3
102
}
330
2A
100
AcDbVisualStyle
  2
JitterOff
 70
    20
 71
     2
 72
     2
 73
     0
 90
        0
 40
0.6
 41
30.0
 62
     5
 63
     7
421
 16777215
 74
     1
 91
        4
 64
     7
 65
   257
 75
     1
175
     1
 42
1.0
 92
       10
 66
     7
 43
1.0
 76
     1
 77
     6
 78
     2
 67
     7
 79
     5
170
     0
171
     0
290
     0
174
     0
 93
        1
 44
0.0
173
     0
291
     1
 45
0.0
  0
VISUALSTYLE
  5
38
102
{ACAD_REACTORS
330
2A
102
}
102
{ACAD_XDICTIONARY
360
BD
102
}
330
2A
100
AcDbVisualStyle
  2
Linepattern
 70
    14
 71
     2
 72
     2
 73
     0
 90
        0
 40
0.6
 41
30.0
 62
     5
 63
     7
421
 16777215
 74
     1
 91
        4
 64
     7
 65
   257
 75
     7
175
     7
 42
1.0
 92
        8
 66
     7
 43
1.0
 76
     1
 77
     6
 78
     2
 67
     7
 79
     5
170
     0
171
     0
290
     0
174
     0
 93
        1
 44
0.0
173
     0
291
     1
 45
0.0
  0
VISUALSTYLE
  5
3C
102
{ACAD_REACTORS
330
2A
102
}
102
{ACAD_XDICTIONARY
360
C5
102
}
330
2A
100
AcDbVisualStyle
  2
OverhangOff
 70
    21
 71
     2
 72
     2
 73
     0
 90
        0
 40
0.6
 41
30.0
 62
     5
 63
     7
421
 16777215
 74
     1
 91
        4
 64
     7
 65
   257
 75
     1
175
     1
 42
1.0
 92
        9
 66
     7
 43
1.0
 76
     1
 77
     6
 78
     2
 67
     7
 79
     5
170
     0
171
     0
290
     0
174
     0
 93
        1
 44
0.0
173
     0
291
     1
 45
0.0
  0
VISUALSTYLE
  5
33
102
{ACAD_REACTORS
330
2A
102
}
102
{ACAD_XDICTIONARY
360
B3
102
}
330
2A
100
AcDbVisualStyle
  2
Realistic
 70
     8
 71
     2
 72
     3
 73
     0
 90
        2
 40
0.6
 41
30.0
 62
     5
 63
     7
421
 16777215
 74
     0
 91
        0
 64
     7
 65
   257
 75
     1
175
     1
 42
1.0
 92
        8
 66
   257
 43
1.0
 76
     1
 77
     6
 78
     2
 67
     7
 79
     3
170
     0
171
     0
290
     0
174
     0
 93
       13
 44
0.0
173
     0
291
     0
 45
0.0
  0
VISUALSTYLE
  5
42
102
{ACAD_REACTORS
330
2A
102
}
102
{ACAD_XDICTIONARY
360
D1
102
}
330
2A
100
AcDbVisualStyle
  2
Shaded
 70
    27
 71
     2
 72
     2
 73
     1
 90
        2
 40
0.6
 41
30.0
 62
     5
 63
     7
421
 16777215
 74
     0
 91
        4
 64
     7
 65
   257
 75
     1
175
     1
 42
1.0
 92
        8
 66
   257
 43
1.0
 76
     1
 77
     6
 78
     2
 67
     8
425
  7895160
 79
     3
170
     0
171
     0
290
     0
174
     0
 93
        5
 44
0.0
173
     0
291
     0
 45
0.0
  0
VISUALSTYLE
  5
41
102
{ACAD_REACTORS
330
2A
102
}
102
{ACAD_XDICTIONARY
360
CF
102
}
330
2A
100
AcDbVisualStyle
  2
Shaded with edges
 70
    26
 71
     2
 72
     2
 73
     1
 90
        2
 40
0.6
 41
30.0
 62
     5
 63
     7
421
 16777215
 74
     1
 91
       10
 64
     7
 65
   257
 75
     2
175
     1
 42
1.0
 92
        8
 66
   257
 43
1.0
 76
     1
 77
     6
 78
     2
 67
     7
 79
     3
170
     0
171
     0
290
     0
174
     0
 93
        5
 44
0.0
173
     0
291
     0
 45
0.0
  0
VISUALSTYLE
  5
3E
102
{ACAD_REACTORS
330
2A
102
}
102
{ACAD_XDICTIONARY
360
C9
102
}
330
2A
100
AcDbVisualStyle
  2
Shades of Gray
 70
    23
 71
     2
 72
     2
 73
     3
 90
        0
 40
0.6
 41
30.0
 62
     5
 63
     7
421
 16777215
 74
     2
 91
        2
 64
     7
 65
     7
 75
     1
175
     1
 42
40.0
 92
        8
 66
     7
 43
1.0
 76
     1
 77
     6
 78
     2
 67
     7
 79
     3
170
     0
171
     0
290
     0
174
     0
 93
        1
 44
0.0
173
     0
291
     0
 45
0.0
  0
VISUALSTYLE
  5
3F
102
{ACAD_REACTORS
330
2A
102
}
102
{ACAD_XDICTIONARY
360
CB
102
}
330
2A
100
AcDbVisualStyle
  2
Sketchy
 70
    24
 71
     1
 72
     2
 73
     2
 90
        0
 40
0.6
 41
30.0
 62
     5
 63
     7
421
 16777215
 74
     2
 91
        2
 64
     7
 65
     7
 75
     1
175
     1
 42
40.0
 92
       11
 66
     7
 43
1.0
 76
     1
 77
     6
 78
     2
 67
     7
 79
     6
170
     0
171
     0
290
     0
174
     0
 93
        1
 44
0.0
173
     0
291
     0
 45
0.0
  0
VISUALSTYLE
  5
37
102
{ACAD_REACTORS
330
2A
102
}
102
{ACAD_XDICTIONARY
360
BB
102
}
330
2A
100
AcDbVisualStyle
  2
Thicken
 70
    13
 71
     2
 72
     2
 73
     0
 90
        0
 40
0.6
 41
30.0
 62
     5
 63
     7
421
 16777215
 74
     1
 91
        4
 64
     7
 65
   257
 75
     1
175
     1
 42
1.0
 92
       12
 66
     7
 43
1.0
 76
     1
 77
     6
 78
     2
 67
     7
 79
     5
170
     0
171
     0
290
     0
174
     0
 93
        1
 44
0.0
173
     0
291
     1
 45
0.0
  0
VISUALSTYLE
  5
30
102
{ACAD_REACTORS
330
2A
102
}
102
{ACAD_XDICTIONARY
360
AD
102
}
330
2A
100
AcDbVisualStyle
  2
Wireframe
 70
     5
 71
     0
 72
     2
 73
     0
 90
        0
 40
0.6
 41
30.0
 62
     5
 63
     7
421
 16777215
 74
     1
 91
        4
 64
     7
 65
   257
 75
     1
175
     1
 42
1.0
 92
        0
 66
   257
 43
1.0
 76
     1
 77
     6
 78
     2
 67
     7
 79
     3
170
     0
171
     0
290
     0
174
     0
 93
        1
 44
0.0
173
     0
291
     0
 45
0.0
  0
VISUALSTYLE
  5
40
102
{ACAD_REACTORS
330
2A
102
}
102
{ACAD_XDICTIONARY
360
CD
102
}
330
2A
100
AcDbVisualStyle
  2
X-Ray
 70
    25
 71
     2
 72
     2
 73
     1
 90
        1
 40
0.5
 41
30.0
 62
     5
 63
     7
421
 16777215
 74
     1
 91
        0
 64
     7
 65
   257
 75
     1
175
     1
 42
1.0
 92
        8
 66
     7
 43
1.0
 76
     1
 77
     6
 78
     2
 67
     7
 79
     3
170
     0
171
     0
290
     0
174
     0
 93
       13
 44
0.0
173
     0
291
     0
 45
0.0
  0
DICTIONARYVAR
  5
A1
102
{ACAD_REACTORS
330
A0
102
}
330
A0
100
DictionaryVariables
280
     0
  1
1:1
  0
DICTIONARYVAR
  5
DA
102
{ACAD_REACTORS
330
A0
102
}
330
A0
100
DictionaryVariables
280
     0
  1
Standard
  0
DICTIONARYVAR
  5
D9
102
{ACAD_REACTORS
330
A0
102
}
330
A0
100
DictionaryVariables
280
     0
  1
Standard
  0
DICTIONARYVAR
  5
A2
102
{ACAD_REACTORS
330
A0
102
}
330
A0
100
DictionaryVariables
280
     0
  1
2
  0
DICTIONARY
  5
D6
330
6C
100
AcDbDictionary
280
     1
281
     1
  3
ACAD_XREC_ROUNDTRIP
360
D7
  0
DICTIONARY
  5
D3
330
6A
100
AcDbDictionary
280
     1
281
     1
  3
ACAD_ROUNDTRIP_2008_TABLESTYLE_CELLSTYLEMAP
360
D4
  0
DICTIONARY
  5
AB
330
2F
100
AcDbDictionary
280
     1
281
     1
  3
ACAD_XREC_ROUNDTRIP
360
AC
  0
DICTIONARY
  5
B1
330
32
100
AcDbDictionary
280
     1
281
     1
  3
ACAD_XREC_ROUNDTRIP
360
B2
  0
DICTIONARY
  5
B9
330
36
100
AcDbDictionary
280
     1
281
     1
  3
ACAD_XREC_ROUNDTRIP
360
BA
  0
DICTIONARY
  5
C1
330
3A
100
AcDbDictionary
280
     1
281
     1
  3
ACAD_XREC_ROUNDTRIP
360
C2
  0
DICTIONARY
  5
B5
330
34
100
AcDbDictionary
280
     1
281
     1
  3
ACAD_XREC_ROUNDTRIP
360
B6
  0
DICTIONARY
  5
B7
330
35
100
AcDbDictionary
280
     1
281
     1
  3
ACAD_XREC_ROUNDTRIP
360
B8
  0
DICTIONARY
  5
C7
330
3D
100
AcDbDictionary
280
     1
281
     1
  3
ACAD_XREC_ROUNDTRIP
360
C8
  0
DICTIONARY
  5
BF
330
39
100
AcDbDictionary
280
     1
281
     1
  3
ACAD_XREC_ROUNDTRIP
360
C0
  0
DICTIONARY
  5
A3
330
2B
100
AcDbDictionary
280
     1
281
     1
  3
ACAD_XREC_ROUNDTRIP
360
A4
  0
DICTIONARY
  5
A5
330
2C
100
AcDbDictionary
280
     1
281
     1
  3
ACAD_XREC_ROUNDTRIP
360
A6
  0
DICTIONARY
  5
A7
330
2D
100
AcDbDictionary
280
     1
281
     1
  3
ACAD_XREC_ROUNDTRIP
360
A8
  0
DICTIONARY
  5
A9
330
2E
100
AcDbDictionary
280
     1
281
     1
  3
ACAD_XREC_ROUNDTRIP
360
AA
  0
DICTIONARY
  5
AF
330
31
100
AcDbDictionary
280
     1
281
     1
  3
ACAD_XREC_ROUNDTRIP
360
B0
  0
DICTIONARY
  5
C3
330
3B
100
AcDbDictionary
280
     1
281
     1
  3
ACAD_XREC_ROUNDTRIP
360
C4
  0
DICTIONARY
  5
BD
330
38
100
AcDbDictionary
280
     1
281
     1
  3
ACAD_XREC_ROUNDTRIP
360
BE
  0
DICTIONARY
  5
C5
330
3C
100
AcDbDictionary
280
     1
281
     1
  3
ACAD_XREC_ROUNDTRIP
360
C6
  0
DICTIONARY
  5
B3
330
33
100
AcDbDictionary
280
     1
281
     1
  3
ACAD_XREC_ROUNDTRIP
360
B4
  0
DICTIONARY
  5
D1
330
42
100
AcDbDictionary
280
     1
281
     1
  3
ACAD_XREC_ROUNDTRIP
360
D2
  0
DICTIONARY
  5
CF
330
41
100
AcDbDictionary
280
     1
281
     1
  3
ACAD_XREC_ROUNDTRIP
360
D0
  0
DICTIONARY
  5
C9
330
3E
100
AcDbDictionary
280
     1
281
     1
  3
ACAD_XREC_ROUNDTRIP
360
CA
  0
DICTIONARY
  5
CB
330
3F
100
AcDbDictionary
280
     1
281
     1
  3
ACAD_XREC_ROUNDTRIP
360
CC
  0
DICTIONARY
  5
BB
330
37
100
AcDbDictionary
280
     1
281
     1
  3
ACAD_XREC_ROUNDTRIP
360
BC
  0
DICTIONARY
  5
AD
330
30
100
AcDbDictionary
280
     1
281
     1
  3
ACAD_XREC_ROUNDTRIP
360
AE
  0
DICTIONARY
  5
CD
330
40
100
AcDbDictionary
280
     1
281
     1
  3
ACAD_XREC_ROUNDTRIP
360
CE
  0
XRECORD
  5
D7
102
{ACAD_REACTORS
330
D6
102
}
330
D6
100
AcDbXrecord
280
     1
102
ACAD_ROUNDTRIP_2010_MLEADER_STYLE
  0
CELLSTYLEMAP
  5
D4
102
{ACAD_REACTORS
330
D3
102
}
330
D3
100
AcDbCellStyleMap
 90
        3
300
CELLSTYLE
  1
TABLEFORMAT_BEGIN
 90
        5
170
     1
 91
        0
 92
    32768
 62
   257
 93
        1
300
CONTENTFORMAT
  1
CONTENTFORMAT_BEGIN
 90
        0
 91
        0
 92
        4
 93
        0
300

 40
0.0
140
1.0
 94
        5
 62
     0
340
11
144
0.25
309
CONTENTFORMAT_END
171
     1
301
MARGIN
  1
CELLMARGIN_BEGIN
 40
0.06
 40
0.06
 40
0.06
 40
0.06
 40
0.06
 40
0.06
309
CELLMARGIN_END
 94
        6
 95
        1
302
GRIDFORMAT
  1
GRIDFORMAT_BEGIN
 90
        0
 91
        1
 62
     0
 92
       -2
340
14
 93
        0
 40
0.045
309
GRIDFORMAT_END
 95
        2
302
GRIDFORMAT
  1
GRIDFORMAT_BEGIN
 90
        0
 91
        1
 62
     0
 92
       -2
340
14
 93
        0
 40
0.045
309
GRIDFORMAT_END
 95
        4
302
GRIDFORMAT
  1
GRIDFORMAT_BEGIN
 90
        0
 91
        1
 62
     0
 92
       -2
340
14
 93
        0
 40
0.045
309
GRIDFORMAT_END
 95
        8
302
GRIDFORMAT
  1
GRIDFORMAT_BEGIN
 90
        0
 91
        1
 62
     0
 92
       -2
340
14
 93
        0
 40
0.045
309
GRIDFORMAT_END
 95
       16
302
GRIDFORMAT
  1
GRIDFORMAT_BEGIN
 90
        0
 91
        1
 62
     0
 92
       -2
340
14
 93
        0
 40
0.045
309
GRIDFORMAT_END
 95
       32
302
GRIDFORMAT
  1
GRIDFORMAT_BEGIN
 90
        0
 91
        1
 62
     0
 92
       -2
340
14
 93
        0
 40
0.045
309
GRIDFORMAT_END
309
TABLEFORMAT_END
  1
CELLSTYLE_BEGIN
 90
        1
 91
        1
300
_TITLE
309
CELLSTYLE_END
300
CELLSTYLE
  1
TABLEFORMAT_BEGIN
 90
        5
170
     1
 91
        0
 92
        0
 62
   257
 93
        1
300
CONTENTFORMAT
  1
CONTENTFORMAT_BEGIN
 90
        0
 91
        0
 92
        4
 93
        0
300

 40
0.0
140
1.0
 94
        5
 62
     0
340
11
144
0.18
309
CONTENTFORMAT_END
171
     1
301
MARGIN
  1
CELLMARGIN_BEGIN
 40
0.06
 40
0.06
 40
0.06
 40
0.06
 40
0.06
 40
0.06
309
CELLMARGIN_END
 94
        6
 95
        1
302
GRIDFORMAT
  1
GRIDFORMAT_BEGIN
 90
        0
 91
        1
 62
     0
 92
       -2
340
14
 93
        0
 40
0.045
309
GRIDFORMAT_END
 95
        2
302
GRIDFORMAT
  1
GRIDFORMAT_BEGIN
 90
        0
 91
        1
 62
     0
 92
       -2
340
14
 93
        0
 40
0.045
309
GRIDFORMAT_END
 95
        4
302
GRIDFORMAT
  1
GRIDFORMAT_BEGIN
 90
        0
 91
        1
 62
     0
 92
       -2
340
14
 93
        0
 40
0.045
309
GRIDFORMAT_END
 95
        8
302
GRIDFORMAT
  1
GRIDFORMAT_BEGIN
 90
        0
 91
        1
 62
     0
 92
       -2
340
14
 93
        0
 40
0.045
309
GRIDFORMAT_END
 95
       16
302
GRIDFORMAT
  1
GRIDFORMAT_BEGIN
 90
        0
 91
        1
 62
     0
 92
       -2
340
14
 93
        0
 40
0.045
309
GRIDFORMAT_END
 95
       32
302
GRIDFORMAT
  1
GRIDFORMAT_BEGIN
 90
        0
 91
        1
 62
     0
 92
       -2
340
14
 93
        0
 40
0.045
309
GRIDFORMAT_END
309
TABLEFORMAT_END
  1
CELLSTYLE_BEGIN
 90
        2
 91
        1
300
_HEADER
309
CELLSTYLE_END
300
CELLSTYLE
  1
TABLEFORMAT_BEGIN
 90
        5
170
     1
 91
        0
 92
        0
 62
   257
 93
        1
300
CONTENTFORMAT
  1
CONTENTFORMAT_BEGIN
 90
        0
 91
        0
 92
        4
 93
        0
300

 40
0.0
140
1.0
 94
        2
 62
     0
340
11
144
0.18
309
CONTENTFORMAT_END
171
     1
301
MARGIN
  1
CELLMARGIN_BEGIN
 40
0.06
 40
0.06
 40
0.06
 40
0.06
 40
0.06
 40
0.06
309
CELLMARGIN_END
 94
        6
 95
        1
302
GRIDFORMAT
  1
GRIDFORMAT_BEGIN
 90
        0
 91
        1
 62
     0
 92
       -2
340
14
 93
        0
 40
0.045
309
GRIDFORMAT_END
 95
        2
302
GRIDFORMAT
  1
GRIDFORMAT_BEGIN
 90
        0
 91
        1
 62
     0
 92
       -2
340
14
 93
        0
 40
0.045
309
GRIDFORMAT_END
 95
        4
302
GRIDFORMAT
  1
GRIDFORMAT_BEGIN
 90
        0
 91
        1
 62
     0
 92
       -2
340
14
 93
        0
 40
0.045
309
GRIDFORMAT_END
 95
        8
302
GRIDFORMAT
  1
GRIDFORMAT_BEGIN
 90
        0
 91
        1
 62
     0
 92
       -2
340
14
 93
        0
 40
0.045
309
GRIDFORMAT_END
 95
       16
302
GRIDFORMAT
  1
GRIDFORMAT_BEGIN
 90
        0
 91
        1
 62
     0
 92
       -2
340
14
 93
        0
 40
0.045
309
GRIDFORMAT_END
 95
       32
302
GRIDFORMAT
  1
GRIDFORMAT_BEGIN
 90
        0
 91
        1
 62
     0
 92
       -2
340
14
 93
        0
 40
0.045
309
GRIDFORMAT_END
309
TABLEFORMAT_END
  1
CELLSTYLE_BEGIN
 90
        3
 91
        2
300
_DATA
309
CELLSTYLE_END
  0
XRECORD
  5
AC
102
{ACAD_REACTORS
330
AB
102
}
330
AB
100
AcDbXrecord
280
     1
102
RTVSPropertyOp0
 70
     1
102
RTVSPropertyOp1
 70
     1
102
RTVSPropertyOp2
 70
     1
102
RTVSPropertyOp3
 70
     1
102
RTVSPropertyOp4
 70
     1
102
RTVSPropertyOp5
 70
     1
102
RTVSPropertyOp6
 70
     1
102
RTVSPropertyOp7
 70
     1
102
RTVSPropertyOp8
 70
     1
102
RTVSPropertyOp9
 70
     1
102
RTVSPropertyOp10
 70
     1
102
RTVSPropertyOp11
 70
     1
102
RTVSPropertyOp12
 70
     1
102
RTVSPropertyOp13
 70
     1
102
RTVSPropertyOp14
 70
     1
102
RTVSPropertyOp15
 70
     1
102
RTVSPropertyOp16
 70
     1
102
RTVSPropertyOp17
 70
     1
102
RTVSPropertyOp18
 70
     1
102
RTVSPropertyOp19
 70
     1
102
RTVSPropertyOp20
 70
     1
102
RTVSPropertyOp21
 70
     1
102
RTVSPropertyOp22
 70
     1
102
RTVSPropertyOp23
 70
     1
102
RTVSPropertyOp24
 70
     1
102
RTVSPropertyOp25
 70
     1
102
RTVSPropertyOp26
 70
     1
102
RTVSPropertyOp27
 70
     1
102
RTVSPropertyOp28
 70
     1
102
RTVSPropertyOp29
 70
     1
102
RTVSPropertyOp30
 70
     1
102
RTVSPropertyOp31
 70
     1
102
RTVSPropertyOp32
 70
     1
102
RTVSPropertyOp33
 70
     1
102
RTVSPropertyOp34
 70
     1
102
RTVSPropertyOp35
 70
     1
102
RTVSPropertyOp36
 70
     1
102
RTVSPropertyOp37
 70
     1
102
RTVSPropertyOp38
 70
     1
102
RTVSPropertyOp39
 70
     1
102
RTVSPropertyOp40
 70
     1
102
RTVSPropertyOp41
 70
     1
102
RTVSPropertyOp42
 70
     1
102
RTVSPropertyOp43
 70
     1
102
RTVSPropertyOp44
 70
     1
102
RTVSPropertyOp45
 70
     1
102
RTVSPropertyOp46
 70
     1
102
RTVSPropertyOp47
 70
     1
102
RTVSPropertyOp48
 70
     1
102
RTVSPropertyOp49
 70
     1
102
RTVSPropertyOp50
 70
     1
102
RTVSPropertyOp51
 70
     0
102
RTVSPropertyOp52
 70
     0
102
RTVSPropertyOp53
 70
     1
102
RTVSPropertyOp54
 70
     1
102
RTVSPropertyOp55
 70
     1
102
RTVSPropertyOp56
 70
     1
102
RTVSPropertyOp57
 70
     1
102
RTVSPost2010Prop28
280
     1
102
RTVSPost2010PropOp28
 70
     1
102
RTVSPost2010Prop29
280
     1
102
RTVSPost2010PropOp29
 70
     1
102
RTVSPost2010Prop30
280
     0
102
RTVSPost2010PropOp30
 70
     1
102
RTVSPost2010Prop31
280
     0
102
RTVSPost2010PropOp31
 70
     1
102
RTVSPost2010Prop32
280
     0
102
RTVSPost2010PropOp32
 70
     1
102
RTVSPost2010Prop33
280
     0
102
RTVSPost2010PropOp33
 70
     1
102
RTVSPost2010Prop34
280
     0
102
RTVSPost2010PropOp34
 70
     1
102
RTVSPost2010Prop35
280
     0
102
RTVSPost2010PropOp35
 70
     1
102
RTVSPost2010Prop36
280
     0
102
RTVSPost2010PropOp36
 70
     1
102
RTVSPost2010Prop37
 90
       50
102
RTVSPost2010PropOp37
 70
     1
102
RTVSPost2010Prop38
140
0.0
102
RTVSPost2010PropOp38
 70
     1
102
RTVSPost2010Prop39
140
1.0
102
RTVSPost2010PropOp39
 70
     1
102
RTVSPost2010Prop40
 90
        0
102
RTVSPost2010PropOp40
 70
     1
102
RTVSPost2010Prop41ColorIndex
 90
       18
102
RTVSPost2010Prop41ColorRGB
 90
        0
102
RTVSPost2010PropOp41
 70
     1
102
RTVSPost2010Prop42
 90
       50
102
RTVSPost2010PropOp42
 70
     1
102
RTVSPost2010Prop43
 90
        3
102
RTVSPost2010PropOp43
 70
     1
102
RTVSPost2010Prop44ColorIndex
 90
        5
102
RTVSPost2010Prop44ColorRGB
 90
      255
102
RTVSPost2010PropOp44
 70
     1
102
RTVSPost2010Prop45
280
     0
102
RTVSPost2010PropOp45
 70
     1
102
RTVSPost2010Prop46
 90
       50
102
RTVSPost2010PropOp46
 70
     1
102
RTVSPost2010Prop47
 90
       50
102
RTVSPost2010PropOp47
 70
     1
102
RTVSPost2010Prop48
 90
       50
102
RTVSPost2010PropOp48
 70
     1
102
RTVSPost2010Prop49
280
     0
102
RTVSPost2010PropOp49
 70
     1
102
RTVSPost2010Prop50
 90
       50
102
RTVSPost2010PropOp50
 70
     1
102
RTVSPost2010Prop51ColorIndex
 90
      256
102
RTVSPost2010Prop51ColorRGB
 90
-16777216
102
RTVSPost2010PropOp51
 70
     0
102
RTVSPost2010Prop52
140
1.0
102
RTVSPost2010PropOp52
 70
     0
102
RTVSPost2010Prop53
 90
        2
102
RTVSPost2010PropOp53
 70
     1
102
RTVSPost2010Prop54
  1
strokes_ogs.tif
102
RTVSPost2010PropOp54
 70
     1
102
RTVSPost2010Prop55
280
     0
102
RTVSPost2010PropOp55
 70
     1
102
RTVSPost2010Prop56
140
1.0
102
RTVSPost2010PropOp56
 70
     1
102
RTVSPost2010Prop57
140
1.0
102
RTVSPost2010PropOp57
 70
     1
  0
XRECORD
  5
B2
102
{ACAD_REACTORS
330
B1
102
}
330
B1
100
AcDbXrecord
280
     1
102
RTVSPropertyOp0
 70
     1
102
RTVSPropertyOp1
 70
     1
102
RTVSPropertyOp2
 70
     1
102
RTVSPropertyOp3
 70
     1
102
RTVSPropertyOp4
 70
     1
102
RTVSPropertyOp5
 70
     1
102
RTVSPropertyOp6
 70
     1
102
RTVSPropertyOp7
 70
     1
102
RTVSPropertyOp8
 70
     1
102
RTVSPropertyOp9
 70
     1
102
RTVSPropertyOp10
 70
     1
102
RTVSPropertyOp11
 70
     1
102
RTVSPropertyOp12
 70
     1
102
RTVSPropertyOp13
 70
     1
102
RTVSPropertyOp14
 70
     1
102
RTVSPropertyOp15
 70
     1
102
RTVSPropertyOp16
 70
     1
102
RTVSPropertyOp17
 70
     1
102
RTVSPropertyOp18
 70
     1
102
RTVSPropertyOp19
 70
     1
102
RTVSPropertyOp20
 70
     1
102
RTVSPropertyOp21
 70
     1
102
RTVSPropertyOp22
 70
     1
102
RTVSPropertyOp23
 70
     1
102
RTVSPropertyOp24
 70
     1
102
RTVSPropertyOp25
 70
     1
102
RTVSPropertyOp26
 70
     1
102
RTVSPropertyOp27
 70
     1
102
RTVSPropertyOp28
 70
     1
102
RTVSPropertyOp29
 70
     1
102
RTVSPropertyOp30
 70
     1
102
RTVSPropertyOp31
 70
     1
102
RTVSPropertyOp32
 70
     1
102
RTVSPropertyOp33
 70
     1
102
RTVSPropertyOp34
 70
     1
102
RTVSPropertyOp35
 70
     1
102
RTVSPropertyOp36
 70
     1
102
RTVSPropertyOp37
 70
     1
102
RTVSPropertyOp38
 70
     1
102
RTVSPropertyOp39
 70
     1
102
RTVSPropertyOp40
 70
     1
102
RTVSPropertyOp41
 70
     1
102
RTVSPropertyOp42
 70
     1
102
RTVSPropertyOp43
 70
     1
102
RTVSPropertyOp44
 70
     1
102
RTVSPropertyOp45
 70
     1
102
RTVSPropertyOp46
 70
     1
102
RTVSPropertyOp47
 70
     1
102
RTVSPropertyOp48
 70
     1
102
RTVSPropertyOp49
 70
     1
102
RTVSPropertyOp50
 70
     1
102
RTVSPropertyOp51
 70
     0
102
RTVSPropertyOp52
 70
     0
102
RTVSPropertyOp53
 70
     1
102
RTVSPropertyOp54
 70
     1
102
RTVSPropertyOp55
 70
     1
102
RTVSPropertyOp56
 70
     1
102
RTVSPropertyOp57
 70
     1
102
RTVSPost2010Prop28
280
     0
102
RTVSPost2010PropOp28
 70
     1
102
RTVSPost2010Prop29
280
     1
102
RTVSPost2010PropOp29
 70
     1
102
RTVSPost2010Prop30
280
     1
102
RTVSPost2010PropOp30
 70
     1
102
RTVSPost2010Prop31
280
     0
102
RTVSPost2010PropOp31
 70
     1
102
RTVSPost2010Prop32
280
     0
102
RTVSPost2010PropOp32
 70
     1
102
RTVSPost2010Prop33
280
     0
102
RTVSPost2010PropOp33
 70
     1
102
RTVSPost2010Prop34
280
     0
102
RTVSPost2010PropOp34
 70
     1
102
RTVSPost2010Prop35
280
     0
102
RTVSPost2010PropOp35
 70
     1
102
RTVSPost2010Prop36
280
     0
102
RTVSPost2010PropOp36
 70
     1
102
RTVSPost2010Prop37
 90
       50
102
RTVSPost2010PropOp37
 70
     1
102
RTVSPost2010Prop38
140
0.0
102
RTVSPost2010PropOp38
 70
     1
102
RTVSPost2010Prop39
140
1.0
102
RTVSPost2010PropOp39
 70
     1
102
RTVSPost2010Prop40
 90
        0
102
RTVSPost2010PropOp40
 70
     1
102
RTVSPost2010Prop41ColorIndex
 90
       18
102
RTVSPost2010Prop41ColorRGB
 90
        0
102
RTVSPost2010PropOp41
 70
     1
102
RTVSPost2010Prop42
 90
       50
102
RTVSPost2010PropOp42
 70
     1
102
RTVSPost2010Prop43
 90
        3
102
RTVSPost2010PropOp43
 70
     1
102
RTVSPost2010Prop44ColorIndex
 90
        5
102
RTVSPost2010Prop44ColorRGB
 90
      255
102
RTVSPost2010PropOp44
 70
     1
102
RTVSPost2010Prop45
280
     0
102
RTVSPost2010PropOp45
 70
     1
102
RTVSPost2010Prop46
 90
       50
102
RTVSPost2010PropOp46
 70
     1
102
RTVSPost2010Prop47
 90
       50
102
RTVSPost2010PropOp47
 70
     1
102
RTVSPost2010Prop48
 90
       50
102
RTVSPost2010PropOp48
 70
     1
102
RTVSPost2010Prop49
280
     0
102
RTVSPost2010PropOp49
 70
     1
102
RTVSPost2010Prop50
 90
       50
102
RTVSPost2010PropOp50
 70
     1
102
RTVSPost2010Prop51ColorIndex
 90
      256
102
RTVSPost2010Prop51ColorRGB
 90
-16777216
102
RTVSPost2010PropOp51
 70
     0
102
RTVSPost2010Prop52
140
1.0
102
RTVSPost2010PropOp52
 70
     0
102
RTVSPost2010Prop53
 90
        2
102
RTVSPost2010PropOp53
 70
     1
102
RTVSPost2010Prop54
  1
strokes_ogs.tif
102
RTVSPost2010PropOp54
 70
     1
102
RTVSPost2010Prop55
280
     0
102
RTVSPost2010PropOp55
 70
     1
102
RTVSPost2010Prop56
140
1.0
102
RTVSPost2010PropOp56
 70
     1
102
RTVSPost2010Prop57
140
1.0
102
RTVSPost2010PropOp57
 70
     1
  0
XRECORD
  5
BA
102
{ACAD_REACTORS
330
B9
102
}
330
B9
100
AcDbXrecord
280
     1
102
RTVSPropertyOp0
 70
     1
102
RTVSPropertyOp1
 70
     1
102
RTVSPropertyOp2
 70
     1
102
RTVSPropertyOp3
 70
     1
102
RTVSPropertyOp4
 70
     1
102
RTVSPropertyOp5
 70
     1
102
RTVSPropertyOp6
 70
     1
102
RTVSPropertyOp7
 70
     1
102
RTVSPropertyOp8
 70
     1
102
RTVSPropertyOp9
 70
     1
102
RTVSPropertyOp10
 70
     1
102
RTVSPropertyOp11
 70
     1
102
RTVSPropertyOp12
 70
     1
102
RTVSPropertyOp13
 70
     1
102
RTVSPropertyOp14
 70
     1
102
RTVSPropertyOp15
 70
     1
102
RTVSPropertyOp16
 70
     1
102
RTVSPropertyOp17
 70
     1
102
RTVSPropertyOp18
 70
     1
102
RTVSPropertyOp19
 70
     1
102
RTVSPropertyOp20
 70
     1
102
RTVSPropertyOp21
 70
     1
102
RTVSPropertyOp22
 70
     1
102
RTVSPropertyOp23
 70
     1
102
RTVSPropertyOp24
 70
     1
102
RTVSPropertyOp25
 70
     1
102
RTVSPropertyOp26
 70
     1
102
RTVSPropertyOp27
 70
     1
102
RTVSPropertyOp28
 70
     1
102
RTVSPropertyOp29
 70
     1
102
RTVSPropertyOp30
 70
     1
102
RTVSPropertyOp31
 70
     1
102
RTVSPropertyOp32
 70
     1
102
RTVSPropertyOp33
 70
     1
102
RTVSPropertyOp34
 70
     1
102
RTVSPropertyOp35
 70
     1
102
RTVSPropertyOp36
 70
     1
102
RTVSPropertyOp37
 70
     1
102
RTVSPropertyOp38
 70
     1
102
RTVSPropertyOp39
 70
     1
102
RTVSPropertyOp40
 70
     1
102
RTVSPropertyOp41
 70
     1
102
RTVSPropertyOp42
 70
     1
102
RTVSPropertyOp43
 70
     1
102
RTVSPropertyOp44
 70
     1
102
RTVSPropertyOp45
 70
     1
102
RTVSPropertyOp46
 70
     1
102
RTVSPropertyOp47
 70
     1
102
RTVSPropertyOp48
 70
     1
102
RTVSPropertyOp49
 70
     1
102
RTVSPropertyOp50
 70
     1
102
RTVSPropertyOp51
 70
     0
102
RTVSPropertyOp52
 70
     0
102
RTVSPropertyOp53
 70
     1
102
RTVSPropertyOp54
 70
     1
102
RTVSPropertyOp55
 70
     1
102
RTVSPropertyOp56
 70
     1
102
RTVSPropertyOp57
 70
     1
102
RTVSPost2010Prop28
280
     0
102
RTVSPost2010PropOp28
 70
     1
102
RTVSPost2010Prop29
280
     1
102
RTVSPost2010PropOp29
 70
     1
102
RTVSPost2010Prop30
280
     1
102
RTVSPost2010PropOp30
 70
     1
102
RTVSPost2010Prop31
280
     0
102
RTVSPost2010PropOp31
 70
     1
102
RTVSPost2010Prop32
280
     0
102
RTVSPost2010PropOp32
 70
     1
102
RTVSPost2010Prop33
280
     0
102
RTVSPost2010PropOp33
 70
     1
102
RTVSPost2010Prop34
280
     0
102
RTVSPost2010PropOp34
 70
     1
102
RTVSPost2010Prop35
280
     0
102
RTVSPost2010PropOp35
 70
     1
102
RTVSPost2010Prop36
280
     0
102
RTVSPost2010PropOp36
 70
     1
102
RTVSPost2010Prop37
 90
       50
102
RTVSPost2010PropOp37
 70
     1
102
RTVSPost2010Prop38
140
0.0
102
RTVSPost2010PropOp38
 70
     1
102
RTVSPost2010Prop39
140
1.0
102
RTVSPost2010PropOp39
 70
     1
102
RTVSPost2010Prop40
 90
        0
102
RTVSPost2010PropOp40
 70
     1
102
RTVSPost2010Prop41ColorIndex
 90
       18
102
RTVSPost2010Prop41ColorRGB
 90
        0
102
RTVSPost2010PropOp41
 70
     1
102
RTVSPost2010Prop42
 90
       50
102
RTVSPost2010PropOp42
 70
     1
102
RTVSPost2010Prop43
 90
        3
102
RTVSPost2010PropOp43
 70
     1
102
RTVSPost2010Prop44ColorIndex
 90
        5
102
RTVSPost2010Prop44ColorRGB
 90
      255
102
RTVSPost2010PropOp44
 70
     1
102
RTVSPost2010Prop45
280
     0
102
RTVSPost2010PropOp45
 70
     1
102
RTVSPost2010Prop46
 90
       50
102
RTVSPost2010PropOp46
 70
     1
102
RTVSPost2010Prop47
 90
       50
102
RTVSPost2010PropOp47
 70
     1
102
RTVSPost2010Prop48
 90
       50
102
RTVSPost2010PropOp48
 70
     1
102
RTVSPost2010Prop49
280
     0
102
RTVSPost2010PropOp49
 70
     1
102
RTVSPost2010Prop50
 90
       50
102
RTVSPost2010PropOp50
 70
     1
102
RTVSPost2010Prop51ColorIndex
 90
      256
102
RTVSPost2010Prop51ColorRGB
 90
-16777216
102
RTVSPost2010PropOp51
 70
     0
102
RTVSPost2010Prop52
140
1.0
102
RTVSPost2010PropOp52
 70
     0
102
RTVSPost2010Prop53
 90
        2
102
RTVSPost2010PropOp53
 70
     1
102
RTVSPost2010Prop54
  1
strokes_ogs.tif
102
RTVSPost2010PropOp54
 70
     1
102
RTVSPost2010Prop55
280
     0
102
RTVSPost2010PropOp55
 70
     1
102
RTVSPost2010Prop56
140
1.0
102
RTVSPost2010PropOp56
 70
     1
102
RTVSPost2010Prop57
140
1.0
102
RTVSPost2010PropOp57
 70
     1
  0
XRECORD
  5
C2
102
{ACAD_REACTORS
330
C1
102
}
330
C1
100
AcDbXrecord
280
     1
102
RTVSPropertyOp0
 70
     1
102
RTVSPropertyOp1
 70
     1
102
RTVSPropertyOp2
 70
     1
102
RTVSPropertyOp3
 70
     1
102
RTVSPropertyOp4
 70
     1
102
RTVSPropertyOp5
 70
     1
102
RTVSPropertyOp6
 70
     1
102
RTVSPropertyOp7
 70
     1
102
RTVSPropertyOp8
 70
     1
102
RTVSPropertyOp9
 70
     1
102
RTVSPropertyOp10
 70
     1
102
RTVSPropertyOp11
 70
     1
102
RTVSPropertyOp12
 70
     1
102
RTVSPropertyOp13
 70
     1
102
RTVSPropertyOp14
 70
     1
102
RTVSPropertyOp15
 70
     1
102
RTVSPropertyOp16
 70
     1
102
RTVSPropertyOp17
 70
     1
102
RTVSPropertyOp18
 70
     1
102
RTVSPropertyOp19
 70
     1
102
RTVSPropertyOp20
 70
     1
102
RTVSPropertyOp21
 70
     1
102
RTVSPropertyOp22
 70
     1
102
RTVSPropertyOp23
 70
     1
102
RTVSPropertyOp24
 70
     1
102
RTVSPropertyOp25
 70
     1
102
RTVSPropertyOp26
 70
     1
102
RTVSPropertyOp27
 70
     1
102
RTVSPropertyOp28
 70
     1
102
RTVSPropertyOp29
 70
     1
102
RTVSPropertyOp30
 70
     1
102
RTVSPropertyOp31
 70
     1
102
RTVSPropertyOp32
 70
     1
102
RTVSPropertyOp33
 70
     1
102
RTVSPropertyOp34
 70
     1
102
RTVSPropertyOp35
 70
     1
102
RTVSPropertyOp36
 70
     1
102
RTVSPropertyOp37
 70
     1
102
RTVSPropertyOp38
 70
     1
102
RTVSPropertyOp39
 70
     1
102
RTVSPropertyOp40
 70
     1
102
RTVSPropertyOp41
 70
     1
102
RTVSPropertyOp42
 70
     1
102
RTVSPropertyOp43
 70
     1
102
RTVSPropertyOp44
 70
     1
102
RTVSPropertyOp45
 70
     1
102
RTVSPropertyOp46
 70
     1
102
RTVSPropertyOp47
 70
     1
102
RTVSPropertyOp48
 70
     1
102
RTVSPropertyOp49
 70
     1
102
RTVSPropertyOp50
 70
     1
102
RTVSPropertyOp51
 70
     0
102
RTVSPropertyOp52
 70
     0
102
RTVSPropertyOp53
 70
     1
102
RTVSPropertyOp54
 70
     1
102
RTVSPropertyOp55
 70
     1
102
RTVSPropertyOp56
 70
     1
102
RTVSPropertyOp57
 70
     1
102
RTVSPost2010Prop28
280
     0
102
RTVSPost2010PropOp28
 70
     1
102
RTVSPost2010Prop29
280
     1
102
RTVSPost2010PropOp29
 70
     1
102
RTVSPost2010Prop30
280
     1
102
RTVSPost2010PropOp30
 70
     1
102
RTVSPost2010Prop31
280
     0
102
RTVSPost2010PropOp31
 70
     1
102
RTVSPost2010Prop32
280
     0
102
RTVSPost2010PropOp32
 70
     1
102
RTVSPost2010Prop33
280
     0
102
RTVSPost2010PropOp33
 70
     1
102
RTVSPost2010Prop34
280
     0
102
RTVSPost2010PropOp34
 70
     1
102
RTVSPost2010Prop35
280
     0
102
RTVSPost2010PropOp35
 70
     1
102
RTVSPost2010Prop36
280
     0
102
RTVSPost2010PropOp36
 70
     1
102
RTVSPost2010Prop37
 90
       50
102
RTVSPost2010PropOp37
 70
     1
102
RTVSPost2010Prop38
140
0.0
102
RTVSPost2010PropOp38
 70
     1
102
RTVSPost2010Prop39
140
1.0
102
RTVSPost2010PropOp39
 70
     1
102
RTVSPost2010Prop40
 90
        0
102
RTVSPost2010PropOp40
 70
     1
102
RTVSPost2010Prop41ColorIndex
 90
       18
102
RTVSPost2010Prop41ColorRGB
 90
        0
102
RTVSPost2010PropOp41
 70
     1
102
RTVSPost2010Prop42
 90
       50
102
RTVSPost2010PropOp42
 70
     1
102
RTVSPost2010Prop43
 90
        3
102
RTVSPost2010PropOp43
 70
     1
102
RTVSPost2010Prop44ColorIndex
 90
        5
102
RTVSPost2010Prop44ColorRGB
 90
      255
102
RTVSPost2010PropOp44
 70
     1
102
RTVSPost2010Prop45
280
     0
102
RTVSPost2010PropOp45
 70
     1
102
RTVSPost2010Prop46
 90
       50
102
RTVSPost2010PropOp46
 70
     1
102
RTVSPost2010Prop47
 90
       50
102
RTVSPost2010PropOp47
 70
     1
102
RTVSPost2010Prop48
 90
       50
102
RTVSPost2010PropOp48
 70
     1
102
RTVSPost2010Prop49
280
     0
102
RTVSPost2010PropOp49
 70
     1
102
RTVSPost2010Prop50
 90
       50
102
RTVSPost2010PropOp50
 70
     1
102
RTVSPost2010Prop51ColorIndex
 90
      256
102
RTVSPost2010Prop51ColorRGB
 90
-16777216
102
RTVSPost2010PropOp51
 70
     0
102
RTVSPost2010Prop52
140
1.0
102
RTVSPost2010PropOp52
 70
     0
102
RTVSPost2010Prop53
 90
        2
102
RTVSPost2010PropOp53
 70
     1
102
RTVSPost2010Prop54
  1
strokes_ogs.tif
102
RTVSPost2010PropOp54
 70
     1
102
RTVSPost2010Prop55
280
     0
102
RTVSPost2010PropOp55
 70
     1
102
RTVSPost2010Prop56
140
1.0
102
RTVSPost2010PropOp56
 70
     1
102
RTVSPost2010Prop57
140
1.0
102
RTVSPost2010PropOp57
 70
     1
  0
XRECORD
  5
B6
102
{ACAD_REACTORS
330
B5
102
}
330
B5
100
AcDbXrecord
280
     1
102
RTVSPropertyOp0
 70
     1
102
RTVSPropertyOp1
 70
     1
102
RTVSPropertyOp2
 70
     1
102
RTVSPropertyOp3
 70
     1
102
RTVSPropertyOp4
 70
     1
102
RTVSPropertyOp5
 70
     1
102
RTVSPropertyOp6
 70
     1
102
RTVSPropertyOp7
 70
     1
102
RTVSPropertyOp8
 70
     1
102
RTVSPropertyOp9
 70
     1
102
RTVSPropertyOp10
 70
     1
102
RTVSPropertyOp11
 70
     1
102
RTVSPropertyOp12
 70
     1
102
RTVSPropertyOp13
 70
     1
102
RTVSPropertyOp14
 70
     1
102
RTVSPropertyOp15
 70
     1
102
RTVSPropertyOp16
 70
     1
102
RTVSPropertyOp17
 70
     1
102
RTVSPropertyOp18
 70
     1
102
RTVSPropertyOp19
 70
     1
102
RTVSPropertyOp20
 70
     1
102
RTVSPropertyOp21
 70
     1
102
RTVSPropertyOp22
 70
     1
102
RTVSPropertyOp23
 70
     1
102
RTVSPropertyOp24
 70
     1
102
RTVSPropertyOp25
 70
     1
102
RTVSPropertyOp26
 70
     1
102
RTVSPropertyOp27
 70
     1
102
RTVSPropertyOp28
 70
     1
102
RTVSPropertyOp29
 70
     1
102
RTVSPropertyOp30
 70
     1
102
RTVSPropertyOp31
 70
     1
102
RTVSPropertyOp32
 70
     1
102
RTVSPropertyOp33
 70
     1
102
RTVSPropertyOp34
 70
     1
102
RTVSPropertyOp35
 70
     1
102
RTVSPropertyOp36
 70
     1
102
RTVSPropertyOp37
 70
     1
102
RTVSPropertyOp38
 70
     1
102
RTVSPropertyOp39
 70
     1
102
RTVSPropertyOp40
 70
     1
102
RTVSPropertyOp41
 70
     1
102
RTVSPropertyOp42
 70
     1
102
RTVSPropertyOp43
 70
     1
102
RTVSPropertyOp44
 70
     1
102
RTVSPropertyOp45
 70
     1
102
RTVSPropertyOp46
 70
     1
102
RTVSPropertyOp47
 70
     1
102
RTVSPropertyOp48
 70
     1
102
RTVSPropertyOp49
 70
     1
102
RTVSPropertyOp50
 70
     1
102
RTVSPropertyOp51
 70
     0
102
RTVSPropertyOp52
 70
     0
102
RTVSPropertyOp53
 70
     1
102
RTVSPropertyOp54
 70
     1
102
RTVSPropertyOp55
 70
     1
102
RTVSPropertyOp56
 70
     1
102
RTVSPropertyOp57
 70
     1
102
RTVSPost2010Prop28
280
     0
102
RTVSPost2010PropOp28
 70
     1
102
RTVSPost2010Prop29
280
     1
102
RTVSPost2010PropOp29
 70
     1
102
RTVSPost2010Prop30
280
     1
102
RTVSPost2010PropOp30
 70
     1
102
RTVSPost2010Prop31
280
     0
102
RTVSPost2010PropOp31
 70
     1
102
RTVSPost2010Prop32
280
     0
102
RTVSPost2010PropOp32
 70
     1
102
RTVSPost2010Prop33
280
     0
102
RTVSPost2010PropOp33
 70
     1
102
RTVSPost2010Prop34
280
     0
102
RTVSPost2010PropOp34
 70
     1
102
RTVSPost2010Prop35
280
     0
102
RTVSPost2010PropOp35
 70
     1
102
RTVSPost2010Prop36
280
     0
102
RTVSPost2010PropOp36
 70
     1
102
RTVSPost2010Prop37
 90
       50
102
RTVSPost2010PropOp37
 70
     1
102
RTVSPost2010Prop38
140
0.0
102
RTVSPost2010PropOp38
 70
     1
102
RTVSPost2010Prop39
140
1.0
102
RTVSPost2010PropOp39
 70
     1
102
RTVSPost2010Prop40
 90
        0
102
RTVSPost2010PropOp40
 70
     1
102
RTVSPost2010Prop41ColorIndex
 90
       18
102
RTVSPost2010Prop41ColorRGB
 90
        0
102
RTVSPost2010PropOp41
 70
     1
102
RTVSPost2010Prop42
 90
       50
102
RTVSPost2010PropOp42
 70
     1
102
RTVSPost2010Prop43
 90
        3
102
RTVSPost2010PropOp43
 70
     1
102
RTVSPost2010Prop44ColorIndex
 90
        5
102
RTVSPost2010Prop44ColorRGB
 90
      255
102
RTVSPost2010PropOp44
 70
     1
102
RTVSPost2010Prop45
280
     0
102
RTVSPost2010PropOp45
 70
     1
102
RTVSPost2010Prop46
 90
       50
102
RTVSPost2010PropOp46
 70
     1
102
RTVSPost2010Prop47
 90
       50
102
RTVSPost2010PropOp47
 70
     1
102
RTVSPost2010Prop48
 90
       50
102
RTVSPost2010PropOp48
 70
     1
102
RTVSPost2010Prop49
280
     0
102
RTVSPost2010PropOp49
 70
     1
102
RTVSPost2010Prop50
 90
       50
102
RTVSPost2010PropOp50
 70
     1
102
RTVSPost2010Prop51ColorIndex
 90
      256
102
RTVSPost2010Prop51ColorRGB
 90
-16777216
102
RTVSPost2010PropOp51
 70
     0
102
RTVSPost2010Prop52
140
1.0
102
RTVSPost2010PropOp52
 70
     0
102
RTVSPost2010Prop53
 90
        2
102
RTVSPost2010PropOp53
 70
     1
102
RTVSPost2010Prop54
  1
strokes_ogs.tif
102
RTVSPost2010PropOp54
 70
     1
102
RTVSPost2010Prop55
280
     0
102
RTVSPost2010PropOp55
 70
     1
102
RTVSPost2010Prop56
140
1.0
102
RTVSPost2010PropOp56
 70
     1
102
RTVSPost2010Prop57
140
1.0
102
RTVSPost2010PropOp57
 70
     1
  0
XRECORD
  5
B8
102
{ACAD_REACTORS
330
B7
102
}
330
B7
100
AcDbXrecord
280
     1
102
RTVSPropertyOp0
 70
     1
102
RTVSPropertyOp1
 70
     1
102
RTVSPropertyOp2
 70
     1
102
RTVSPropertyOp3
 70
     1
102
RTVSPropertyOp4
 70
     1
102
RTVSPropertyOp5
 70
     1
102
RTVSPropertyOp6
 70
     1
102
RTVSPropertyOp7
 70
     1
102
RTVSPropertyOp8
 70
     1
102
RTVSPropertyOp9
 70
     1
102
RTVSPropertyOp10
 70
     1
102
RTVSPropertyOp11
 70
     1
102
RTVSPropertyOp12
 70
     1
102
RTVSPropertyOp13
 70
     1
102
RTVSPropertyOp14
 70
     1
102
RTVSPropertyOp15
 70
     1
102
RTVSPropertyOp16
 70
     1
102
RTVSPropertyOp17
 70
     1
102
RTVSPropertyOp18
 70
     1
102
RTVSPropertyOp19
 70
     1
102
RTVSPropertyOp20
 70
     1
102
RTVSPropertyOp21
 70
     1
102
RTVSPropertyOp22
 70
     1
102
RTVSPropertyOp23
 70
     1
102
RTVSPropertyOp24
 70
     1
102
RTVSPropertyOp25
 70
     1
102
RTVSPropertyOp26
 70
     1
102
RTVSPropertyOp27
 70
     1
102
RTVSPropertyOp28
 70
     1
102
RTVSPropertyOp29
 70
     1
102
RTVSPropertyOp30
 70
     1
102
RTVSPropertyOp31
 70
     1
102
RTVSPropertyOp32
 70
     1
102
RTVSPropertyOp33
 70
     1
102
RTVSPropertyOp34
 70
     1
102
RTVSPropertyOp35
 70
     1
102
RTVSPropertyOp36
 70
     1
102
RTVSPropertyOp37
 70
     1
102
RTVSPropertyOp38
 70
     1
102
RTVSPropertyOp39
 70
     1
102
RTVSPropertyOp40
 70
     1
102
RTVSPropertyOp41
 70
     1
102
RTVSPropertyOp42
 70
     1
102
RTVSPropertyOp43
 70
     1
102
RTVSPropertyOp44
 70
     1
102
RTVSPropertyOp45
 70
     1
102
RTVSPropertyOp46
 70
     1
102
RTVSPropertyOp47
 70
     1
102
RTVSPropertyOp48
 70
     1
102
RTVSPropertyOp49
 70
     1
102
RTVSPropertyOp50
 70
     1
102
RTVSPropertyOp51
 70
     0
102
RTVSPropertyOp52
 70
     0
102
RTVSPropertyOp53
 70
     1
102
RTVSPropertyOp54
 70
     1
102
RTVSPropertyOp55
 70
     1
102
RTVSPropertyOp56
 70
     1
102
RTVSPropertyOp57
 70
     1
102
RTVSPost2010Prop28
280
     0
102
RTVSPost2010PropOp28
 70
     1
102
RTVSPost2010Prop29
280
     1
102
RTVSPost2010PropOp29
 70
     1
102
RTVSPost2010Prop30
280
     1
102
RTVSPost2010PropOp30
 70
     1
102
RTVSPost2010Prop31
280
     0
102
RTVSPost2010PropOp31
 70
     1
102
RTVSPost2010Prop32
280
     0
102
RTVSPost2010PropOp32
 70
     1
102
RTVSPost2010Prop33
280
     0
102
RTVSPost2010PropOp33
 70
     1
102
RTVSPost2010Prop34
280
     0
102
RTVSPost2010PropOp34
 70
     1
102
RTVSPost2010Prop35
280
     0
102
RTVSPost2010PropOp35
 70
     1
102
RTVSPost2010Prop36
280
     0
102
RTVSPost2010PropOp36
 70
     1
102
RTVSPost2010Prop37
 90
       50
102
RTVSPost2010PropOp37
 70
     1
102
RTVSPost2010Prop38
140
0.0
102
RTVSPost2010PropOp38
 70
     1
102
RTVSPost2010Prop39
140
1.0
102
RTVSPost2010PropOp39
 70
     1
102
RTVSPost2010Prop40
 90
        0
102
RTVSPost2010PropOp40
 70
     1
102
RTVSPost2010Prop41ColorIndex
 90
       18
102
RTVSPost2010Prop41ColorRGB
 90
        0
102
RTVSPost2010PropOp41
 70
     1
102
RTVSPost2010Prop42
 90
       50
102
RTVSPost2010PropOp42
 70
     1
102
RTVSPost2010Prop43
 90
        3
102
RTVSPost2010PropOp43
 70
     1
102
RTVSPost2010Prop44ColorIndex
 90
        5
102
RTVSPost2010Prop44ColorRGB
 90
      255
102
RTVSPost2010PropOp44
 70
     1
102
RTVSPost2010Prop45
280
     0
102
RTVSPost2010PropOp45
 70
     1
102
RTVSPost2010Prop46
 90
       50
102
RTVSPost2010PropOp46
 70
     1
102
RTVSPost2010Prop47
 90
       50
102
RTVSPost2010PropOp47
 70
     1
102
RTVSPost2010Prop48
 90
       50
102
RTVSPost2010PropOp48
 70
     1
102
RTVSPost2010Prop49
280
     0
102
RTVSPost2010PropOp49
 70
     1
102
RTVSPost2010Prop50
 90
       50
102
RTVSPost2010PropOp50
 70
     1
102
RTVSPost2010Prop51ColorIndex
 90
      256
102
RTVSPost2010Prop51ColorRGB
 90
-16777216
102
RTVSPost2010PropOp51
 70
     0
102
RTVSPost2010Prop52
140
1.0
102
RTVSPost2010PropOp52
 70
     0
102
RTVSPost2010Prop53
 90
        2
102
RTVSPost2010PropOp53
 70
     1
102
RTVSPost2010Prop54
  1
strokes_ogs.tif
102
RTVSPost2010PropOp54
 70
     1
102
RTVSPost2010Prop55
280
     0
102
RTVSPost2010PropOp55
 70
     1
102
RTVSPost2010Prop56
140
1.0
102
RTVSPost2010PropOp56
 70
     1
102
RTVSPost2010Prop57
140
1.0
102
RTVSPost2010PropOp57
 70
     1
  0
XRECORD
  5
C8
102
{ACAD_REACTORS
330
C7
102
}
330
C7
100
AcDbXrecord
280
     1
102
RTVSPropertyOp0
 70
     0
102
RTVSPropertyOp1
 70
     0
102
RTVSPropertyOp2
 70
     0
102
RTVSPropertyOp3
 70
     0
102
RTVSPropertyOp4
 70
     0
102
RTVSPropertyOp5
 70
     0
102
RTVSPropertyOp6
 70
     0
102
RTVSPropertyOp7
 70
     0
102
RTVSPropertyOp8
 70
     0
102
RTVSPropertyOp9
 70
     0
102
RTVSPropertyOp10
 70
     0
102
RTVSPropertyOp11
 70
     0
102
RTVSPropertyOp12
 70
     0
102
RTVSPropertyOp13
 70
     0
102
RTVSPropertyOp14
 70
     2
102
RTVSPropertyOp15
 70
     0
102
RTVSPropertyOp16
 70
     0
102
RTVSPropertyOp17
 70
     0
102
RTVSPropertyOp18
 70
     0
102
RTVSPropertyOp19
 70
     0
102
RTVSPropertyOp20
 70
     0
102
RTVSPropertyOp21
 70
     0
102
RTVSPropertyOp22
 70
     0
102
RTVSPropertyOp23
 70
     0
102
RTVSPropertyOp24
 70
     0
102
RTVSPropertyOp25
 70
     0
102
RTVSPropertyOp26
 70
     0
102
RTVSPropertyOp27
 70
     0
102
RTVSPropertyOp28
 70
     0
102
RTVSPropertyOp29
 70
     0
102
RTVSPropertyOp30
 70
     0
102
RTVSPropertyOp31
 70
     0
102
RTVSPropertyOp32
 70
     0
102
RTVSPropertyOp33
 70
     0
102
RTVSPropertyOp34
 70
     0
102
RTVSPropertyOp35
 70
     0
102
RTVSPropertyOp36
 70
     0
102
RTVSPropertyOp37
 70
     0
102
RTVSPropertyOp38
 70
     0
102
RTVSPropertyOp39
 70
     0
102
RTVSPropertyOp40
 70
     0
102
RTVSPropertyOp41
 70
     0
102
RTVSPropertyOp42
 70
     0
102
RTVSPropertyOp43
 70
     0
102
RTVSPropertyOp44
 70
     0
102
RTVSPropertyOp45
 70
     0
102
RTVSPropertyOp46
 70
     0
102
RTVSPropertyOp47
 70
     0
102
RTVSPropertyOp48
 70
     0
102
RTVSPropertyOp49
 70
     0
102
RTVSPropertyOp50
 70
     0
102
RTVSPropertyOp51
 70
     0
102
RTVSPropertyOp52
 70
     0
102
RTVSPropertyOp53
 70
     0
102
RTVSPropertyOp54
 70
     0
102
RTVSPropertyOp55
 70
     0
102
RTVSPropertyOp56
 70
     0
102
RTVSPropertyOp57
 70
     0
102
RTVSPost2010Prop28
280
     0
102
RTVSPost2010PropOp28
 70
     0
102
RTVSPost2010Prop29
280
     1
102
RTVSPost2010PropOp29
 70
     0
102
RTVSPost2010Prop30
280
     1
102
RTVSPost2010PropOp30
 70
     0
102
RTVSPost2010Prop31
280
     0
102
RTVSPost2010PropOp31
 70
     0
102
RTVSPost2010Prop32
280
     0
102
RTVSPost2010PropOp32
 70
     0
102
RTVSPost2010Prop33
280
     0
102
RTVSPost2010PropOp33
 70
     0
102
RTVSPost2010Prop34
280
     0
102
RTVSPost2010PropOp34
 70
     0
102
RTVSPost2010Prop35
280
     0
102
RTVSPost2010PropOp35
 70
     0
102
RTVSPost2010Prop36
280
     0
102
RTVSPost2010PropOp36
 70
     0
102
RTVSPost2010Prop37
 90
       50
102
RTVSPost2010PropOp37
 70
     0
102
RTVSPost2010Prop38
140
0.0
102
RTVSPost2010PropOp38
 70
     0
102
RTVSPost2010Prop39
140
1.0
102
RTVSPost2010PropOp39
 70
     0
102
RTVSPost2010Prop40
 90
        0
102
RTVSPost2010PropOp40
 70
     0
102
RTVSPost2010Prop41ColorIndex
 90
       18
102
RTVSPost2010Prop41ColorRGB
 90
        0
102
RTVSPost2010PropOp41
 70
     0
102
RTVSPost2010Prop42
 90
       50
102
RTVSPost2010PropOp42
 70
     0
102
RTVSPost2010Prop43
 90
        3
102
RTVSPost2010PropOp43
 70
     0
102
RTVSPost2010Prop44ColorIndex
 90
        5
102
RTVSPost2010Prop44ColorRGB
 90
      255
102
RTVSPost2010PropOp44
 70
     0
102
RTVSPost2010Prop45
280
     0
102
RTVSPost2010PropOp45
 70
     0
102
RTVSPost2010Prop46
 90
       50
102
RTVSPost2010PropOp46
 70
     0
102
RTVSPost2010Prop47
 90
       50
102
RTVSPost2010PropOp47
 70
     0
102
RTVSPost2010Prop48
 90
       50
102
RTVSPost2010PropOp48
 70
     0
102
RTVSPost2010Prop49
280
     0
102
RTVSPost2010PropOp49
 70
     0
102
RTVSPost2010Prop50
 90
       50
102
RTVSPost2010PropOp50
 70
     0
102
RTVSPost2010Prop51ColorIndex
 90
      256
102
RTVSPost2010Prop51ColorRGB
 90
-16777216
102
RTVSPost2010PropOp51
 70
     0
102
RTVSPost2010Prop52
140
1.0
102
RTVSPost2010PropOp52
 70
     0
102
RTVSPost2010Prop53
 90
        2
102
RTVSPost2010PropOp53
 70
     0
102
RTVSPost2010Prop54
  1
strokes_ogs.tif
102
RTVSPost2010PropOp54
 70
     0
102
RTVSPost2010Prop55
280
     0
102
RTVSPost2010PropOp55
 70
     0
102
RTVSPost2010Prop56
140
1.0
102
RTVSPost2010PropOp56
 70
     0
102
RTVSPost2010Prop57
140
1.0
102
RTVSPost2010PropOp57
 70
     0
  0
XRECORD
  5
C0
102
{ACAD_REACTORS
330
BF
102
}
330
BF
100
AcDbXrecord
280
     1
102
RTVSPropertyOp0
 70
     1
102
RTVSPropertyOp1
 70
     1
102
RTVSPropertyOp2
 70
     1
102
RTVSPropertyOp3
 70
     1
102
RTVSPropertyOp4
 70
     1
102
RTVSPropertyOp5
 70
     1
102
RTVSPropertyOp6
 70
     1
102
RTVSPropertyOp7
 70
     1
102
RTVSPropertyOp8
 70
     1
102
RTVSPropertyOp9
 70
     1
102
RTVSPropertyOp10
 70
     1
102
RTVSPropertyOp11
 70
     1
102
RTVSPropertyOp12
 70
     1
102
RTVSPropertyOp13
 70
     1
102
RTVSPropertyOp14
 70
     1
102
RTVSPropertyOp15
 70
     1
102
RTVSPropertyOp16
 70
     1
102
RTVSPropertyOp17
 70
     1
102
RTVSPropertyOp18
 70
     1
102
RTVSPropertyOp19
 70
     1
102
RTVSPropertyOp20
 70
     1
102
RTVSPropertyOp21
 70
     1
102
RTVSPropertyOp22
 70
     1
102
RTVSPropertyOp23
 70
     1
102
RTVSPropertyOp24
 70
     1
102
RTVSPropertyOp25
 70
     1
102
RTVSPropertyOp26
 70
     1
102
RTVSPropertyOp27
 70
     1
102
RTVSPropertyOp28
 70
     1
102
RTVSPropertyOp29
 70
     1
102
RTVSPropertyOp30
 70
     1
102
RTVSPropertyOp31
 70
     1
102
RTVSPropertyOp32
 70
     1
102
RTVSPropertyOp33
 70
     1
102
RTVSPropertyOp34
 70
     1
102
RTVSPropertyOp35
 70
     1
102
RTVSPropertyOp36
 70
     1
102
RTVSPropertyOp37
 70
     1
102
RTVSPropertyOp38
 70
     1
102
RTVSPropertyOp39
 70
     1
102
RTVSPropertyOp40
 70
     1
102
RTVSPropertyOp41
 70
     1
102
RTVSPropertyOp42
 70
     1
102
RTVSPropertyOp43
 70
     1
102
RTVSPropertyOp44
 70
     1
102
RTVSPropertyOp45
 70
     1
102
RTVSPropertyOp46
 70
     1
102
RTVSPropertyOp47
 70
     1
102
RTVSPropertyOp48
 70
     1
102
RTVSPropertyOp49
 70
     1
102
RTVSPropertyOp50
 70
     1
102
RTVSPropertyOp51
 70
     0
102
RTVSPropertyOp52
 70
     0
102
RTVSPropertyOp53
 70
     1
102
RTVSPropertyOp54
 70
     1
102
RTVSPropertyOp55
 70
     1
102
RTVSPropertyOp56
 70
     1
102
RTVSPropertyOp57
 70
     1
102
RTVSPost2010Prop28
280
     0
102
RTVSPost2010PropOp28
 70
     1
102
RTVSPost2010Prop29
280
     1
102
RTVSPost2010PropOp29
 70
     1
102
RTVSPost2010Prop30
280
     1
102
RTVSPost2010PropOp30
 70
     1
102
RTVSPost2010Prop31
280
     0
102
RTVSPost2010PropOp31
 70
     1
102
RTVSPost2010Prop32
280
     0
102
RTVSPost2010PropOp32
 70
     1
102
RTVSPost2010Prop33
280
     0
102
RTVSPost2010PropOp33
 70
     1
102
RTVSPost2010Prop34
280
     0
102
RTVSPost2010PropOp34
 70
     1
102
RTVSPost2010Prop35
280
     0
102
RTVSPost2010PropOp35
 70
     1
102
RTVSPost2010Prop36
280
     0
102
RTVSPost2010PropOp36
 70
     1
102
RTVSPost2010Prop37
 90
       50
102
RTVSPost2010PropOp37
 70
     1
102
RTVSPost2010Prop38
140
0.0
102
RTVSPost2010PropOp38
 70
     1
102
RTVSPost2010Prop39
140
1.0
102
RTVSPost2010PropOp39
 70
     1
102
RTVSPost2010Prop40
 90
        0
102
RTVSPost2010PropOp40
 70
     1
102
RTVSPost2010Prop41ColorIndex
 90
       18
102
RTVSPost2010Prop41ColorRGB
 90
        0
102
RTVSPost2010PropOp41
 70
     1
102
RTVSPost2010Prop42
 90
       50
102
RTVSPost2010PropOp42
 70
     1
102
RTVSPost2010Prop43
 90
        3
102
RTVSPost2010PropOp43
 70
     1
102
RTVSPost2010Prop44ColorIndex
 90
        5
102
RTVSPost2010Prop44ColorRGB
 90
      255
102
RTVSPost2010PropOp44
 70
     1
102
RTVSPost2010Prop45
280
     0
102
RTVSPost2010PropOp45
 70
     1
102
RTVSPost2010Prop46
 90
       50
102
RTVSPost2010PropOp46
 70
     1
102
RTVSPost2010Prop47
 90
       50
102
RTVSPost2010PropOp47
 70
     1
102
RTVSPost2010Prop48
 90
       50
102
RTVSPost2010PropOp48
 70
     1
102
RTVSPost2010Prop49
280
     0
102
RTVSPost2010PropOp49
 70
     1
102
RTVSPost2010Prop50
 90
       50
102
RTVSPost2010PropOp50
 70
     1
102
RTVSPost2010Prop51ColorIndex
 90
      256
102
RTVSPost2010Prop51ColorRGB
 90
-16777216
102
RTVSPost2010PropOp51
 70
     0
102
RTVSPost2010Prop52
140
1.0
102
RTVSPost2010PropOp52
 70
     0
102
RTVSPost2010Prop53
 90
        2
102
RTVSPost2010PropOp53
 70
     1
102
RTVSPost2010Prop54
  1
strokes_ogs.tif
102
RTVSPost2010PropOp54
 70
     1
102
RTVSPost2010Prop55
280
     0
102
RTVSPost2010PropOp55
 70
     1
102
RTVSPost2010Prop56
140
1.0
102
RTVSPost2010PropOp56
 70
     1
102
RTVSPost2010Prop57
140
1.0
102
RTVSPost2010PropOp57
 70
     1
  0
XRECORD
  5
A4
102
{ACAD_REACTORS
330
A3
102
}
330
A3
100
AcDbXrecord
280
     1
102
RTVSPropertyOp0
 70
     1
102
RTVSPropertyOp1
 70
     1
102
RTVSPropertyOp2
 70
     1
102
RTVSPropertyOp3
 70
     1
102
RTVSPropertyOp4
 70
     1
102
RTVSPropertyOp5
 70
     1
102
RTVSPropertyOp6
 70
     1
102
RTVSPropertyOp7
 70
     1
102
RTVSPropertyOp8
 70
     1
102
RTVSPropertyOp9
 70
     1
102
RTVSPropertyOp10
 70
     1
102
RTVSPropertyOp11
 70
     1
102
RTVSPropertyOp12
 70
     1
102
RTVSPropertyOp13
 70
     1
102
RTVSPropertyOp14
 70
     1
102
RTVSPropertyOp15
 70
     1
102
RTVSPropertyOp16
 70
     1
102
RTVSPropertyOp17
 70
     1
102
RTVSPropertyOp18
 70
     1
102
RTVSPropertyOp19
 70
     1
102
RTVSPropertyOp20
 70
     1
102
RTVSPropertyOp21
 70
     1
102
RTVSPropertyOp22
 70
     1
102
RTVSPropertyOp23
 70
     1
102
RTVSPropertyOp24
 70
     1
102
RTVSPropertyOp25
 70
     1
102
RTVSPropertyOp26
 70
     1
102
RTVSPropertyOp27
 70
     1
102
RTVSPropertyOp28
 70
     1
102
RTVSPropertyOp29
 70
     1
102
RTVSPropertyOp30
 70
     1
102
RTVSPropertyOp31
 70
     1
102
RTVSPropertyOp32
 70
     1
102
RTVSPropertyOp33
 70
     1
102
RTVSPropertyOp34
 70
     1
102
RTVSPropertyOp35
 70
     1
102
RTVSPropertyOp36
 70
     1
102
RTVSPropertyOp37
 70
     1
102
RTVSPropertyOp38
 70
     1
102
RTVSPropertyOp39
 70
     1
102
RTVSPropertyOp40
 70
     1
102
RTVSPropertyOp41
 70
     1
102
RTVSPropertyOp42
 70
     1
102
RTVSPropertyOp43
 70
     1
102
RTVSPropertyOp44
 70
     1
102
RTVSPropertyOp45
 70
     1
102
RTVSPropertyOp46
 70
     1
102
RTVSPropertyOp47
 70
     1
102
RTVSPropertyOp48
 70
     1
102
RTVSPropertyOp49
 70
     1
102
RTVSPropertyOp50
 70
     1
102
RTVSPropertyOp51
 70
     0
102
RTVSPropertyOp52
 70
     0
102
RTVSPropertyOp53
 70
     1
102
RTVSPropertyOp54
 70
     1
102
RTVSPropertyOp55
 70
     1
102
RTVSPropertyOp56
 70
     1
102
RTVSPropertyOp57
 70
     1
102
RTVSPost2010Prop28
280
     0
102
RTVSPost2010PropOp28
 70
     1
102
RTVSPost2010Prop29
280
     1
102
RTVSPost2010PropOp29
 70
     1
102
RTVSPost2010Prop30
280
     1
102
RTVSPost2010PropOp30
 70
     1
102
RTVSPost2010Prop31
280
     0
102
RTVSPost2010PropOp31
 70
     1
102
RTVSPost2010Prop32
280
     0
102
RTVSPost2010PropOp32
 70
     1
102
RTVSPost2010Prop33
280
     0
102
RTVSPost2010PropOp33
 70
     1
102
RTVSPost2010Prop34
280
     0
102
RTVSPost2010PropOp34
 70
     1
102
RTVSPost2010Prop35
280
     0
102
RTVSPost2010PropOp35
 70
     1
102
RTVSPost2010Prop36
280
     0
102
RTVSPost2010PropOp36
 70
     1
102
RTVSPost2010Prop37
 90
       50
102
RTVSPost2010PropOp37
 70
     1
102
RTVSPost2010Prop38
140
0.0
102
RTVSPost2010PropOp38
 70
     1
102
RTVSPost2010Prop39
140
1.0
102
RTVSPost2010PropOp39
 70
     1
102
RTVSPost2010Prop40
 90
        0
102
RTVSPost2010PropOp40
 70
     1
102
RTVSPost2010Prop41ColorIndex
 90
       18
102
RTVSPost2010Prop41ColorRGB
 90
        0
102
RTVSPost2010PropOp41
 70
     1
102
RTVSPost2010Prop42
 90
       50
102
RTVSPost2010PropOp42
 70
     1
102
RTVSPost2010Prop43
 90
        3
102
RTVSPost2010PropOp43
 70
     1
102
RTVSPost2010Prop44ColorIndex
 90
        5
102
RTVSPost2010Prop44ColorRGB
 90
      255
102
RTVSPost2010PropOp44
 70
     1
102
RTVSPost2010Prop45
280
     0
102
RTVSPost2010PropOp45
 70
     1
102
RTVSPost2010Prop46
 90
       50
102
RTVSPost2010PropOp46
 70
     1
102
RTVSPost2010Prop47
 90
       50
102
RTVSPost2010PropOp47
 70
     1
102
RTVSPost2010Prop48
 90
       50
102
RTVSPost2010PropOp48
 70
     1
102
RTVSPost2010Prop49
280
     0
102
RTVSPost2010PropOp49
 70
     1
102
RTVSPost2010Prop50
 90
       50
102
RTVSPost2010PropOp50
 70
     1
102
RTVSPost2010Prop51ColorIndex
 90
      256
102
RTVSPost2010Prop51ColorRGB
 90
-16777216
102
RTVSPost2010PropOp51
 70
     0
102
RTVSPost2010Prop52
140
1.0
102
RTVSPost2010PropOp52
 70
     0
102
RTVSPost2010Prop53
 90
        2
102
RTVSPost2010PropOp53
 70
     1
102
RTVSPost2010Prop54
  1
strokes_ogs.tif
102
RTVSPost2010PropOp54
 70
     1
102
RTVSPost2010Prop55
280
     0
102
RTVSPost2010PropOp55
 70
     1
102
RTVSPost2010Prop56
140
1.0
102
RTVSPost2010PropOp56
 70
     1
102
RTVSPost2010Prop57
140
1.0
102
RTVSPost2010PropOp57
 70
     1
  0
XRECORD
  5
A6
102
{ACAD_REACTORS
330
A5
102
}
330
A5
100
AcDbXrecord
280
     1
102
RTVSPropertyOp0
 70
     1
102
RTVSPropertyOp1
 70
     1
102
RTVSPropertyOp2
 70
     1
102
RTVSPropertyOp3
 70
     1
102
RTVSPropertyOp4
 70
     1
102
RTVSPropertyOp5
 70
     1
102
RTVSPropertyOp6
 70
     1
102
RTVSPropertyOp7
 70
     1
102
RTVSPropertyOp8
 70
     1
102
RTVSPropertyOp9
 70
     1
102
RTVSPropertyOp10
 70
     1
102
RTVSPropertyOp11
 70
     1
102
RTVSPropertyOp12
 70
     1
102
RTVSPropertyOp13
 70
     1
102
RTVSPropertyOp14
 70
     1
102
RTVSPropertyOp15
 70
     1
102
RTVSPropertyOp16
 70
     1
102
RTVSPropertyOp17
 70
     1
102
RTVSPropertyOp18
 70
     1
102
RTVSPropertyOp19
 70
     1
102
RTVSPropertyOp20
 70
     1
102
RTVSPropertyOp21
 70
     1
102
RTVSPropertyOp22
 70
     1
102
RTVSPropertyOp23
 70
     1
102
RTVSPropertyOp24
 70
     1
102
RTVSPropertyOp25
 70
     1
102
RTVSPropertyOp26
 70
     1
102
RTVSPropertyOp27
 70
     1
102
RTVSPropertyOp28
 70
     1
102
RTVSPropertyOp29
 70
     1
102
RTVSPropertyOp30
 70
     1
102
RTVSPropertyOp31
 70
     1
102
RTVSPropertyOp32
 70
     1
102
RTVSPropertyOp33
 70
     1
102
RTVSPropertyOp34
 70
     1
102
RTVSPropertyOp35
 70
     1
102
RTVSPropertyOp36
 70
     1
102
RTVSPropertyOp37
 70
     1
102
RTVSPropertyOp38
 70
     1
102
RTVSPropertyOp39
 70
     1
102
RTVSPropertyOp40
 70
     1
102
RTVSPropertyOp41
 70
     1
102
RTVSPropertyOp42
 70
     1
102
RTVSPropertyOp43
 70
     1
102
RTVSPropertyOp44
 70
     1
102
RTVSPropertyOp45
 70
     1
102
RTVSPropertyOp46
 70
     1
102
RTVSPropertyOp47
 70
     1
102
RTVSPropertyOp48
 70
     1
102
RTVSPropertyOp49
 70
     1
102
RTVSPropertyOp50
 70
     1
102
RTVSPropertyOp51
 70
     0
102
RTVSPropertyOp52
 70
     0
102
RTVSPropertyOp53
 70
     1
102
RTVSPropertyOp54
 70
     1
102
RTVSPropertyOp55
 70
     1
102
RTVSPropertyOp56
 70
     1
102
RTVSPropertyOp57
 70
     1
102
RTVSPost2010Prop28
280
     0
102
RTVSPost2010PropOp28
 70
     1
102
RTVSPost2010Prop29
280
     1
102
RTVSPost2010PropOp29
 70
     1
102
RTVSPost2010Prop30
280
     1
102
RTVSPost2010PropOp30
 70
     1
102
RTVSPost2010Prop31
280
     0
102
RTVSPost2010PropOp31
 70
     1
102
RTVSPost2010Prop32
280
     0
102
RTVSPost2010PropOp32
 70
     1
102
RTVSPost2010Prop33
280
     0
102
RTVSPost2010PropOp33
 70
     1
102
RTVSPost2010Prop34
280
     0
102
RTVSPost2010PropOp34
 70
     1
102
RTVSPost2010Prop35
280
     0
102
RTVSPost2010PropOp35
 70
     1
102
RTVSPost2010Prop36
280
     0
102
RTVSPost2010PropOp36
 70
     1
102
RTVSPost2010Prop37
 90
       50
102
RTVSPost2010PropOp37
 70
     1
102
RTVSPost2010Prop38
140
0.0
102
RTVSPost2010PropOp38
 70
     1
102
RTVSPost2010Prop39
140
1.0
102
RTVSPost2010PropOp39
 70
     1
102
RTVSPost2010Prop40
 90
        0
102
RTVSPost2010PropOp40
 70
     1
102
RTVSPost2010Prop41ColorIndex
 90
       18
102
RTVSPost2010Prop41ColorRGB
 90
        0
102
RTVSPost2010PropOp41
 70
     1
102
RTVSPost2010Prop42
 90
       50
102
RTVSPost2010PropOp42
 70
     1
102
RTVSPost2010Prop43
 90
        3
102
RTVSPost2010PropOp43
 70
     1
102
RTVSPost2010Prop44ColorIndex
 90
        5
102
RTVSPost2010Prop44ColorRGB
 90
      255
102
RTVSPost2010PropOp44
 70
     1
102
RTVSPost2010Prop45
280
     0
102
RTVSPost2010PropOp45
 70
     1
102
RTVSPost2010Prop46
 90
       50
102
RTVSPost2010PropOp46
 70
     1
102
RTVSPost2010Prop47
 90
       50
102
RTVSPost2010PropOp47
 70
     1
102
RTVSPost2010Prop48
 90
       50
102
RTVSPost2010PropOp48
 70
     1
102
RTVSPost2010Prop49
280
     0
102
RTVSPost2010PropOp49
 70
     1
102
RTVSPost2010Prop50
 90
       50
102
RTVSPost2010PropOp50
 70
     1
102
RTVSPost2010Prop51ColorIndex
 90
      256
102
RTVSPost2010Prop51ColorRGB
 90
-16777216
102
RTVSPost2010PropOp51
 70
     0
102
RTVSPost2010Prop52
140
1.0
102
RTVSPost2010PropOp52
 70
     0
102
RTVSPost2010Prop53
 90
        2
102
RTVSPost2010PropOp53
 70
     1
102
RTVSPost2010Prop54
  1
strokes_ogs.tif
102
RTVSPost2010PropOp54
 70
     1
102
RTVSPost2010Prop55
280
     0
102
RTVSPost2010PropOp55
 70
     1
102
RTVSPost2010Prop56
140
1.0
102
RTVSPost2010PropOp56
 70
     1
102
RTVSPost2010Prop57
140
1.0
102
RTVSPost2010PropOp57
 70
     1
  0
XRECORD
  5
A8
102
{ACAD_REACTORS
330
A7
102
}
330
A7
100
AcDbXrecord
280
     1
102
RTVSPropertyOp0
 70
     1
102
RTVSPropertyOp1
 70
     1
102
RTVSPropertyOp2
 70
     1
102
RTVSPropertyOp3
 70
     1
102
RTVSPropertyOp4
 70
     1
102
RTVSPropertyOp5
 70
     1
102
RTVSPropertyOp6
 70
     1
102
RTVSPropertyOp7
 70
     1
102
RTVSPropertyOp8
 70
     1
102
RTVSPropertyOp9
 70
     1
102
RTVSPropertyOp10
 70
     1
102
RTVSPropertyOp11
 70
     1
102
RTVSPropertyOp12
 70
     1
102
RTVSPropertyOp13
 70
     1
102
RTVSPropertyOp14
 70
     1
102
RTVSPropertyOp15
 70
     1
102
RTVSPropertyOp16
 70
     1
102
RTVSPropertyOp17
 70
     1
102
RTVSPropertyOp18
 70
     1
102
RTVSPropertyOp19
 70
     1
102
RTVSPropertyOp20
 70
     1
102
RTVSPropertyOp21
 70
     1
102
RTVSPropertyOp22
 70
     1
102
RTVSPropertyOp23
 70
     1
102
RTVSPropertyOp24
 70
     1
102
RTVSPropertyOp25
 70
     1
102
RTVSPropertyOp26
 70
     1
102
RTVSPropertyOp27
 70
     1
102
RTVSPropertyOp28
 70
     1
102
RTVSPropertyOp29
 70
     1
102
RTVSPropertyOp30
 70
     1
102
RTVSPropertyOp31
 70
     1
102
RTVSPropertyOp32
 70
     1
102
RTVSPropertyOp33
 70
     1
102
RTVSPropertyOp34
 70
     1
102
RTVSPropertyOp35
 70
     1
102
RTVSPropertyOp36
 70
     1
102
RTVSPropertyOp37
 70
     1
102
RTVSPropertyOp38
 70
     1
102
RTVSPropertyOp39
 70
     1
102
RTVSPropertyOp40
 70
     1
102
RTVSPropertyOp41
 70
     1
102
RTVSPropertyOp42
 70
     1
102
RTVSPropertyOp43
 70
     1
102
RTVSPropertyOp44
 70
     1
102
RTVSPropertyOp45
 70
     1
102
RTVSPropertyOp46
 70
     1
102
RTVSPropertyOp47
 70
     1
102
RTVSPropertyOp48
 70
     1
102
RTVSPropertyOp49
 70
     1
102
RTVSPropertyOp50
 70
     1
102
RTVSPropertyOp51
 70
     0
102
RTVSPropertyOp52
 70
     0
102
RTVSPropertyOp53
 70
     1
102
RTVSPropertyOp54
 70
     1
102
RTVSPropertyOp55
 70
     1
102
RTVSPropertyOp56
 70
     1
102
RTVSPropertyOp57
 70
     1
102
RTVSPost2010Prop28
280
     0
102
RTVSPost2010PropOp28
 70
     1
102
RTVSPost2010Prop29
280
     1
102
RTVSPost2010PropOp29
 70
     1
102
RTVSPost2010Prop30
280
     1
102
RTVSPost2010PropOp30
 70
     1
102
RTVSPost2010Prop31
280
     0
102
RTVSPost2010PropOp31
 70
     1
102
RTVSPost2010Prop32
280
     0
102
RTVSPost2010PropOp32
 70
     1
102
RTVSPost2010Prop33
280
     0
102
RTVSPost2010PropOp33
 70
     1
102
RTVSPost2010Prop34
280
     0
102
RTVSPost2010PropOp34
 70
     1
102
RTVSPost2010Prop35
280
     0
102
RTVSPost2010PropOp35
 70
     1
102
RTVSPost2010Prop36
280
     0
102
RTVSPost2010PropOp36
 70
     1
102
RTVSPost2010Prop37
 90
       50
102
RTVSPost2010PropOp37
 70
     1
102
RTVSPost2010Prop38
140
0.0
102
RTVSPost2010PropOp38
 70
     1
102
RTVSPost2010Prop39
140
1.0
102
RTVSPost2010PropOp39
 70
     1
102
RTVSPost2010Prop40
 90
        0
102
RTVSPost2010PropOp40
 70
     1
102
RTVSPost2010Prop41ColorIndex
 90
       18
102
RTVSPost2010Prop41ColorRGB
 90
        0
102
RTVSPost2010PropOp41
 70
     1
102
RTVSPost2010Prop42
 90
       50
102
RTVSPost2010PropOp42
 70
     1
102
RTVSPost2010Prop43
 90
        3
102
RTVSPost2010PropOp43
 70
     1
102
RTVSPost2010Prop44ColorIndex
 90
        5
102
RTVSPost2010Prop44ColorRGB
 90
      255
102
RTVSPost2010PropOp44
 70
     1
102
RTVSPost2010Prop45
280
     0
102
RTVSPost2010PropOp45
 70
     1
102
RTVSPost2010Prop46
 90
       50
102
RTVSPost2010PropOp46
 70
     1
102
RTVSPost2010Prop47
 90
       50
102
RTVSPost2010PropOp47
 70
     1
102
RTVSPost2010Prop48
 90
       50
102
RTVSPost2010PropOp48
 70
     1
102
RTVSPost2010Prop49
280
     0
102
RTVSPost2010PropOp49
 70
     1
102
RTVSPost2010Prop50
 90
       50
102
RTVSPost2010PropOp50
 70
     1
102
RTVSPost2010Prop51ColorIndex
 90
      256
102
RTVSPost2010Prop51ColorRGB
 90
-16777216
102
RTVSPost2010PropOp51
 70
     0
102
RTVSPost2010Prop52
140
1.0
102
RTVSPost2010PropOp52
 70
     0
102
RTVSPost2010Prop53
 90
        2
102
RTVSPost2010PropOp53
 70
     1
102
RTVSPost2010Prop54
  1
strokes_ogs.tif
102
RTVSPost2010PropOp54
 70
     1
102
RTVSPost2010Prop55
280
     0
102
RTVSPost2010PropOp55
 70
     1
102
RTVSPost2010Prop56
140
1.0
102
RTVSPost2010PropOp56
 70
     1
102
RTVSPost2010Prop57
140
1.0
102
RTVSPost2010PropOp57
 70
     1
  0
XRECORD
  5
AA
102
{ACAD_REACTORS
330
A9
102
}
330
A9
100
AcDbXrecord
280
     1
102
RTVSPropertyOp0
 70
     1
102
RTVSPropertyOp1
 70
     1
102
RTVSPropertyOp2
 70
     1
102
RTVSPropertyOp3
 70
     1
102
RTVSPropertyOp4
 70
     1
102
RTVSPropertyOp5
 70
     1
102
RTVSPropertyOp6
 70
     1
102
RTVSPropertyOp7
 70
     1
102
RTVSPropertyOp8
 70
     1
102
RTVSPropertyOp9
 70
     1
102
RTVSPropertyOp10
 70
     1
102
RTVSPropertyOp11
 70
     1
102
RTVSPropertyOp12
 70
     1
102
RTVSPropertyOp13
 70
     1
102
RTVSPropertyOp14
 70
     1
102
RTVSPropertyOp15
 70
     1
102
RTVSPropertyOp16
 70
     1
102
RTVSPropertyOp17
 70
     1
102
RTVSPropertyOp18
 70
     1
102
RTVSPropertyOp19
 70
     1
102
RTVSPropertyOp20
 70
     1
102
RTVSPropertyOp21
 70
     1
102
RTVSPropertyOp22
 70
     1
102
RTVSPropertyOp23
 70
     1
102
RTVSPropertyOp24
 70
     1
102
RTVSPropertyOp25
 70
     1
102
RTVSPropertyOp26
 70
     1
102
RTVSPropertyOp27
 70
     1
102
RTVSPropertyOp28
 70
     1
102
RTVSPropertyOp29
 70
     1
102
RTVSPropertyOp30
 70
     1
102
RTVSPropertyOp31
 70
     1
102
RTVSPropertyOp32
 70
     1
102
RTVSPropertyOp33
 70
     1
102
RTVSPropertyOp34
 70
     1
102
RTVSPropertyOp35
 70
     1
102
RTVSPropertyOp36
 70
     1
102
RTVSPropertyOp37
 70
     1
102
RTVSPropertyOp38
 70
     1
102
RTVSPropertyOp39
 70
     1
102
RTVSPropertyOp40
 70
     1
102
RTVSPropertyOp41
 70
     1
102
RTVSPropertyOp42
 70
     1
102
RTVSPropertyOp43
 70
     1
102
RTVSPropertyOp44
 70
     1
102
RTVSPropertyOp45
 70
     1
102
RTVSPropertyOp46
 70
     1
102
RTVSPropertyOp47
 70
     1
102
RTVSPropertyOp48
 70
     1
102
RTVSPropertyOp49
 70
     1
102
RTVSPropertyOp50
 70
     1
102
RTVSPropertyOp51
 70
     0
102
RTVSPropertyOp52
 70
     0
102
RTVSPropertyOp53
 70
     1
102
RTVSPropertyOp54
 70
     1
102
RTVSPropertyOp55
 70
     1
102
RTVSPropertyOp56
 70
     1
102
RTVSPropertyOp57
 70
     1
102
RTVSPost2010Prop28
280
     0
102
RTVSPost2010PropOp28
 70
     1
102
RTVSPost2010Prop29
280
     1
102
RTVSPost2010PropOp29
 70
     1
102
RTVSPost2010Prop30
280
     1
102
RTVSPost2010PropOp30
 70
     1
102
RTVSPost2010Prop31
280
     0
102
RTVSPost2010PropOp31
 70
     1
102
RTVSPost2010Prop32
280
     0
102
RTVSPost2010PropOp32
 70
     1
102
RTVSPost2010Prop33
280
     0
102
RTVSPost2010PropOp33
 70
     1
102
RTVSPost2010Prop34
280
     0
102
RTVSPost2010PropOp34
 70
     1
102
RTVSPost2010Prop35
280
     0
102
RTVSPost2010PropOp35
 70
     1
102
RTVSPost2010Prop36
280
     0
102
RTVSPost2010PropOp36
 70
     1
102
RTVSPost2010Prop37
 90
       50
102
RTVSPost2010PropOp37
 70
     1
102
RTVSPost2010Prop38
140
0.0
102
RTVSPost2010PropOp38
 70
     1
102
RTVSPost2010Prop39
140
1.0
102
RTVSPost2010PropOp39
 70
     1
102
RTVSPost2010Prop40
 90
        0
102
RTVSPost2010PropOp40
 70
     1
102
RTVSPost2010Prop41ColorIndex
 90
       18
102
RTVSPost2010Prop41ColorRGB
 90
        0
102
RTVSPost2010PropOp41
 70
     1
102
RTVSPost2010Prop42
 90
       50
102
RTVSPost2010PropOp42
 70
     1
102
RTVSPost2010Prop43
 90
        3
102
RTVSPost2010PropOp43
 70
     1
102
RTVSPost2010Prop44ColorIndex
 90
        5
102
RTVSPost2010Prop44ColorRGB
 90
      255
102
RTVSPost2010PropOp44
 70
     1
102
RTVSPost2010Prop45
280
     0
102
RTVSPost2010PropOp45
 70
     1
102
RTVSPost2010Prop46
 90
       50
102
RTVSPost2010PropOp46
 70
     1
102
RTVSPost2010Prop47
 90
       50
102
RTVSPost2010PropOp47
 70
     1
102
RTVSPost2010Prop48
 90
       50
102
RTVSPost2010PropOp48
 70
     1
102
RTVSPost2010Prop49
280
     0
102
RTVSPost2010PropOp49
 70
     1
102
RTVSPost2010Prop50
 90
       50
102
RTVSPost2010PropOp50
 70
     1
102
RTVSPost2010Prop51ColorIndex
 90
      256
102
RTVSPost2010Prop51ColorRGB
 90
-16777216
102
RTVSPost2010PropOp51
 70
     0
102
RTVSPost2010Prop52
140
1.0
102
RTVSPost2010PropOp52
 70
     0
102
RTVSPost2010Prop53
 90
        2
102
RTVSPost2010PropOp53
 70
     1
102
RTVSPost2010Prop54
  1
strokes_ogs.tif
102
RTVSPost2010PropOp54
 70
     1
102
RTVSPost2010Prop55
280
     0
102
RTVSPost2010PropOp55
 70
     1
102
RTVSPost2010Prop56
140
1.0
102
RTVSPost2010PropOp56
 70
     1
102
RTVSPost2010Prop57
140
1.0
102
RTVSPost2010PropOp57
 70
     1
  0
XRECORD
  5
B0
102
{ACAD_REACTORS
330
AF
102
}
330
AF
100
AcDbXrecord
280
     1
102
RTVSPropertyOp0
 70
     1
102
RTVSPropertyOp1
 70
     1
102
RTVSPropertyOp2
 70
     1
102
RTVSPropertyOp3
 70
     1
102
RTVSPropertyOp4
 70
     1
102
RTVSPropertyOp5
 70
     1
102
RTVSPropertyOp6
 70
     1
102
RTVSPropertyOp7
 70
     1
102
RTVSPropertyOp8
 70
     1
102
RTVSPropertyOp9
 70
     1
102
RTVSPropertyOp10
 70
     1
102
RTVSPropertyOp11
 70
     1
102
RTVSPropertyOp12
 70
     1
102
RTVSPropertyOp13
 70
     1
102
RTVSPropertyOp14
 70
     1
102
RTVSPropertyOp15
 70
     1
102
RTVSPropertyOp16
 70
     1
102
RTVSPropertyOp17
 70
     1
102
RTVSPropertyOp18
 70
     1
102
RTVSPropertyOp19
 70
     1
102
RTVSPropertyOp20
 70
     1
102
RTVSPropertyOp21
 70
     1
102
RTVSPropertyOp22
 70
     1
102
RTVSPropertyOp23
 70
     1
102
RTVSPropertyOp24
 70
     1
102
RTVSPropertyOp25
 70
     1
102
RTVSPropertyOp26
 70
     1
102
RTVSPropertyOp27
 70
     1
102
RTVSPropertyOp28
 70
     1
102
RTVSPropertyOp29
 70
     1
102
RTVSPropertyOp30
 70
     1
102
RTVSPropertyOp31
 70
     1
102
RTVSPropertyOp32
 70
     1
102
RTVSPropertyOp33
 70
     1
102
RTVSPropertyOp34
 70
     1
102
RTVSPropertyOp35
 70
     1
102
RTVSPropertyOp36
 70
     1
102
RTVSPropertyOp37
 70
     1
102
RTVSPropertyOp38
 70
     1
102
RTVSPropertyOp39
 70
     1
102
RTVSPropertyOp40
 70
     1
102
RTVSPropertyOp41
 70
     1
102
RTVSPropertyOp42
 70
     1
102
RTVSPropertyOp43
 70
     1
102
RTVSPropertyOp44
 70
     1
102
RTVSPropertyOp45
 70
     1
102
RTVSPropertyOp46
 70
     1
102
RTVSPropertyOp47
 70
     1
102
RTVSPropertyOp48
 70
     1
102
RTVSPropertyOp49
 70
     1
102
RTVSPropertyOp50
 70
     1
102
RTVSPropertyOp51
 70
     0
102
RTVSPropertyOp52
 70
     0
102
RTVSPropertyOp53
 70
     1
102
RTVSPropertyOp54
 70
     1
102
RTVSPropertyOp55
 70
     1
102
RTVSPropertyOp56
 70
     1
102
RTVSPropertyOp57
 70
     1
102
RTVSPost2010Prop28
280
     0
102
RTVSPost2010PropOp28
 70
     1
102
RTVSPost2010Prop29
280
     1
102
RTVSPost2010PropOp29
 70
     1
102
RTVSPost2010Prop30
280
     1
102
RTVSPost2010PropOp30
 70
     1
102
RTVSPost2010Prop31
280
     0
102
RTVSPost2010PropOp31
 70
     1
102
RTVSPost2010Prop32
280
     0
102
RTVSPost2010PropOp32
 70
     1
102
RTVSPost2010Prop33
280
     0
102
RTVSPost2010PropOp33
 70
     1
102
RTVSPost2010Prop34
280
     0
102
RTVSPost2010PropOp34
 70
     1
102
RTVSPost2010Prop35
280
     0
102
RTVSPost2010PropOp35
 70
     1
102
RTVSPost2010Prop36
280
     0
102
RTVSPost2010PropOp36
 70
     1
102
RTVSPost2010Prop37
 90
       50
102
RTVSPost2010PropOp37
 70
     1
102
RTVSPost2010Prop38
140
0.0
102
RTVSPost2010PropOp38
 70
     1
102
RTVSPost2010Prop39
140
1.0
102
RTVSPost2010PropOp39
 70
     1
102
RTVSPost2010Prop40
 90
        0
102
RTVSPost2010PropOp40
 70
     1
102
RTVSPost2010Prop41ColorIndex
 90
       18
102
RTVSPost2010Prop41ColorRGB
 90
        0
102
RTVSPost2010PropOp41
 70
     1
102
RTVSPost2010Prop42
 90
       50
102
RTVSPost2010PropOp42
 70
     1
102
RTVSPost2010Prop43
 90
        3
102
RTVSPost2010PropOp43
 70
     1
102
RTVSPost2010Prop44ColorIndex
 90
        5
102
RTVSPost2010Prop44ColorRGB
 90
      255
102
RTVSPost2010PropOp44
 70
     1
102
RTVSPost2010Prop45
280
     0
102
RTVSPost2010PropOp45
 70
     1
102
RTVSPost2010Prop46
 90
       50
102
RTVSPost2010PropOp46
 70
     1
102
RTVSPost2010Prop47
 90
       50
102
RTVSPost2010PropOp47
 70
     1
102
RTVSPost2010Prop48
 90
       50
102
RTVSPost2010PropOp48
 70
     1
102
RTVSPost2010Prop49
280
     0
102
RTVSPost2010PropOp49
 70
     1
102
RTVSPost2010Prop50
 90
       50
102
RTVSPost2010PropOp50
 70
     1
102
RTVSPost2010Prop51ColorIndex
 90
      256
102
RTVSPost2010Prop51ColorRGB
 90
-16777216
102
RTVSPost2010PropOp51
 70
     0
102
RTVSPost2010Prop52
140
1.0
102
RTVSPost2010PropOp52
 70
     0
102
RTVSPost2010Prop53
 90
        2
102
RTVSPost2010PropOp53
 70
     1
102
RTVSPost2010Prop54
  1
strokes_ogs.tif
102
RTVSPost2010PropOp54
 70
     1
102
RTVSPost2010Prop55
280
     0
102
RTVSPost2010PropOp55
 70
     1
102
RTVSPost2010Prop56
140
1.0
102
RTVSPost2010PropOp56
 70
     1
102
RTVSPost2010Prop57
140
1.0
102
RTVSPost2010PropOp57
 70
     1
  0
XRECORD
  5
C4
102
{ACAD_REACTORS
330
C3
102
}
330
C3
100
AcDbXrecord
280
     1
102
RTVSPropertyOp0
 70
     0
102
RTVSPropertyOp1
 70
     0
102
RTVSPropertyOp2
 70
     0
102
RTVSPropertyOp3
 70
     0
102
RTVSPropertyOp4
 70
     0
102
RTVSPropertyOp5
 70
     0
102
RTVSPropertyOp6
 70
     0
102
RTVSPropertyOp7
 70
     0
102
RTVSPropertyOp8
 70
     0
102
RTVSPropertyOp9
 70
     0
102
RTVSPropertyOp10
 70
     0
102
RTVSPropertyOp11
 70
     0
102
RTVSPropertyOp12
 70
     0
102
RTVSPropertyOp13
 70
     0
102
RTVSPropertyOp14
 70
     2
102
RTVSPropertyOp15
 70
     0
102
RTVSPropertyOp16
 70
     0
102
RTVSPropertyOp17
 70
     0
102
RTVSPropertyOp18
 70
     0
102
RTVSPropertyOp19
 70
     0
102
RTVSPropertyOp20
 70
     0
102
RTVSPropertyOp21
 70
     0
102
RTVSPropertyOp22
 70
     0
102
RTVSPropertyOp23
 70
     0
102
RTVSPropertyOp24
 70
     0
102
RTVSPropertyOp25
 70
     0
102
RTVSPropertyOp26
 70
     0
102
RTVSPropertyOp27
 70
     0
102
RTVSPropertyOp28
 70
     0
102
RTVSPropertyOp29
 70
     0
102
RTVSPropertyOp30
 70
     0
102
RTVSPropertyOp31
 70
     0
102
RTVSPropertyOp32
 70
     0
102
RTVSPropertyOp33
 70
     0
102
RTVSPropertyOp34
 70
     0
102
RTVSPropertyOp35
 70
     0
102
RTVSPropertyOp36
 70
     0
102
RTVSPropertyOp37
 70
     0
102
RTVSPropertyOp38
 70
     0
102
RTVSPropertyOp39
 70
     0
102
RTVSPropertyOp40
 70
     0
102
RTVSPropertyOp41
 70
     0
102
RTVSPropertyOp42
 70
     0
102
RTVSPropertyOp43
 70
     0
102
RTVSPropertyOp44
 70
     0
102
RTVSPropertyOp45
 70
     0
102
RTVSPropertyOp46
 70
     0
102
RTVSPropertyOp47
 70
     0
102
RTVSPropertyOp48
 70
     0
102
RTVSPropertyOp49
 70
     0
102
RTVSPropertyOp50
 70
     0
102
RTVSPropertyOp51
 70
     0
102
RTVSPropertyOp52
 70
     0
102
RTVSPropertyOp53
 70
     0
102
RTVSPropertyOp54
 70
     0
102
RTVSPropertyOp55
 70
     0
102
RTVSPropertyOp56
 70
     0
102
RTVSPropertyOp57
 70
     0
102
RTVSPost2010Prop28
280
     0
102
RTVSPost2010PropOp28
 70
     0
102
RTVSPost2010Prop29
280
     1
102
RTVSPost2010PropOp29
 70
     0
102
RTVSPost2010Prop30
280
     1
102
RTVSPost2010PropOp30
 70
     0
102
RTVSPost2010Prop31
280
     0
102
RTVSPost2010PropOp31
 70
     0
102
RTVSPost2010Prop32
280
     0
102
RTVSPost2010PropOp32
 70
     0
102
RTVSPost2010Prop33
280
     0
102
RTVSPost2010PropOp33
 70
     0
102
RTVSPost2010Prop34
280
     0
102
RTVSPost2010PropOp34
 70
     0
102
RTVSPost2010Prop35
280
     0
102
RTVSPost2010PropOp35
 70
     0
102
RTVSPost2010Prop36
280
     0
102
RTVSPost2010PropOp36
 70
     0
102
RTVSPost2010Prop37
 90
       50
102
RTVSPost2010PropOp37
 70
     0
102
RTVSPost2010Prop38
140
0.0
102
RTVSPost2010PropOp38
 70
     0
102
RTVSPost2010Prop39
140
1.0
102
RTVSPost2010PropOp39
 70
     0
102
RTVSPost2010Prop40
 90
        0
102
RTVSPost2010PropOp40
 70
     0
102
RTVSPost2010Prop41ColorIndex
 90
       18
102
RTVSPost2010Prop41ColorRGB
 90
        0
102
RTVSPost2010PropOp41
 70
     0
102
RTVSPost2010Prop42
 90
       50
102
RTVSPost2010PropOp42
 70
     0
102
RTVSPost2010Prop43
 90
        3
102
RTVSPost2010PropOp43
 70
     0
102
RTVSPost2010Prop44ColorIndex
 90
        5
102
RTVSPost2010Prop44ColorRGB
 90
      255
102
RTVSPost2010PropOp44
 70
     0
102
RTVSPost2010Prop45
280
     0
102
RTVSPost2010PropOp45
 70
     0
102
RTVSPost2010Prop46
 90
       50
102
RTVSPost2010PropOp46
 70
     0
102
RTVSPost2010Prop47
 90
       50
102
RTVSPost2010PropOp47
 70
     0
102
RTVSPost2010Prop48
 90
       50
102
RTVSPost2010PropOp48
 70
     0
102
RTVSPost2010Prop49
280
     0
102
RTVSPost2010PropOp49
 70
     0
102
RTVSPost2010Prop50
 90
       50
102
RTVSPost2010PropOp50
 70
     0
102
RTVSPost2010Prop51ColorIndex
 90
      256
102
RTVSPost2010Prop51ColorRGB
 90
-16777216
102
RTVSPost2010PropOp51
 70
     0
102
RTVSPost2010Prop52
140
1.0
102
RTVSPost2010PropOp52
 70
     0
102
RTVSPost2010Prop53
 90
        2
102
RTVSPost2010PropOp53
 70
     0
102
RTVSPost2010Prop54
  1
strokes_ogs.tif
102
RTVSPost2010PropOp54
 70
     0
102
RTVSPost2010Prop55
280
     0
102
RTVSPost2010PropOp55
 70
     0
102
RTVSPost2010Prop56
140
1.0
102
RTVSPost2010PropOp56
 70
     0
102
RTVSPost2010Prop57
140
1.0
102
RTVSPost2010PropOp57
 70
     0
  0
XRECORD
  5
BE
102
{ACAD_REACTORS
330
BD
102
}
330
BD
100
AcDbXrecord
280
     1
102
RTVSPropertyOp0
 70
     1
102
RTVSPropertyOp1
 70
     1
102
RTVSPropertyOp2
 70
     1
102
RTVSPropertyOp3
 70
     1
102
RTVSPropertyOp4
 70
     1
102
RTVSPropertyOp5
 70
     1
102
RTVSPropertyOp6
 70
     1
102
RTVSPropertyOp7
 70
     1
102
RTVSPropertyOp8
 70
     1
102
RTVSPropertyOp9
 70
     1
102
RTVSPropertyOp10
 70
     1
102
RTVSPropertyOp11
 70
     1
102
RTVSPropertyOp12
 70
     1
102
RTVSPropertyOp13
 70
     1
102
RTVSPropertyOp14
 70
     1
102
RTVSPropertyOp15
 70
     1
102
RTVSPropertyOp16
 70
     1
102
RTVSPropertyOp17
 70
     1
102
RTVSPropertyOp18
 70
     1
102
RTVSPropertyOp19
 70
     1
102
RTVSPropertyOp20
 70
     1
102
RTVSPropertyOp21
 70
     1
102
RTVSPropertyOp22
 70
     1
102
RTVSPropertyOp23
 70
     1
102
RTVSPropertyOp24
 70
     1
102
RTVSPropertyOp25
 70
     1
102
RTVSPropertyOp26
 70
     1
102
RTVSPropertyOp27
 70
     1
102
RTVSPropertyOp28
 70
     1
102
RTVSPropertyOp29
 70
     1
102
RTVSPropertyOp30
 70
     1
102
RTVSPropertyOp31
 70
     1
102
RTVSPropertyOp32
 70
     1
102
RTVSPropertyOp33
 70
     1
102
RTVSPropertyOp34
 70
     1
102
RTVSPropertyOp35
 70
     1
102
RTVSPropertyOp36
 70
     1
102
RTVSPropertyOp37
 70
     1
102
RTVSPropertyOp38
 70
     1
102
RTVSPropertyOp39
 70
     1
102
RTVSPropertyOp40
 70
     1
102
RTVSPropertyOp41
 70
     1
102
RTVSPropertyOp42
 70
     1
102
RTVSPropertyOp43
 70
     1
102
RTVSPropertyOp44
 70
     1
102
RTVSPropertyOp45
 70
     1
102
RTVSPropertyOp46
 70
     1
102
RTVSPropertyOp47
 70
     1
102
RTVSPropertyOp48
 70
     1
102
RTVSPropertyOp49
 70
     1
102
RTVSPropertyOp50
 70
     1
102
RTVSPropertyOp51
 70
     0
102
RTVSPropertyOp52
 70
     0
102
RTVSPropertyOp53
 70
     1
102
RTVSPropertyOp54
 70
     1
102
RTVSPropertyOp55
 70
     1
102
RTVSPropertyOp56
 70
     1
102
RTVSPropertyOp57
 70
     1
102
RTVSPost2010Prop28
280
     0
102
RTVSPost2010PropOp28
 70
     1
102
RTVSPost2010Prop29
280
     1
102
RTVSPost2010PropOp29
 70
     1
102
RTVSPost2010Prop30
280
     1
102
RTVSPost2010PropOp30
 70
     1
102
RTVSPost2010Prop31
280
     0
102
RTVSPost2010PropOp31
 70
     1
102
RTVSPost2010Prop32
280
     0
102
RTVSPost2010PropOp32
 70
     1
102
RTVSPost2010Prop33
280
     0
102
RTVSPost2010PropOp33
 70
     1
102
RTVSPost2010Prop34
280
     0
102
RTVSPost2010PropOp34
 70
     1
102
RTVSPost2010Prop35
280
     0
102
RTVSPost2010PropOp35
 70
     1
102
RTVSPost2010Prop36
280
     0
102
RTVSPost2010PropOp36
 70
     1
102
RTVSPost2010Prop37
 90
       50
102
RTVSPost2010PropOp37
 70
     1
102
RTVSPost2010Prop38
140
0.0
102
RTVSPost2010PropOp38
 70
     1
102
RTVSPost2010Prop39
140
1.0
102
RTVSPost2010PropOp39
 70
     1
102
RTVSPost2010Prop40
 90
        0
102
RTVSPost2010PropOp40
 70
     1
102
RTVSPost2010Prop41ColorIndex
 90
       18
102
RTVSPost2010Prop41ColorRGB
 90
        0
102
RTVSPost2010PropOp41
 70
     1
102
RTVSPost2010Prop42
 90
       50
102
RTVSPost2010PropOp42
 70
     1
102
RTVSPost2010Prop43
 90
        3
102
RTVSPost2010PropOp43
 70
     1
102
RTVSPost2010Prop44ColorIndex
 90
        5
102
RTVSPost2010Prop44ColorRGB
 90
      255
102
RTVSPost2010PropOp44
 70
     1
102
RTVSPost2010Prop45
280
     0
102
RTVSPost2010PropOp45
 70
     1
102
RTVSPost2010Prop46
 90
       50
102
RTVSPost2010PropOp46
 70
     1
102
RTVSPost2010Prop47
 90
       50
102
RTVSPost2010PropOp47
 70
     1
102
RTVSPost2010Prop48
 90
       50
102
RTVSPost2010PropOp48
 70
     1
102
RTVSPost2010Prop49
280
     0
102
RTVSPost2010PropOp49
 70
     1
102
RTVSPost2010Prop50
 90
       50
102
RTVSPost2010PropOp50
 70
     1
102
RTVSPost2010Prop51ColorIndex
 90
      256
102
RTVSPost2010Prop51ColorRGB
 90
-16777216
102
RTVSPost2010PropOp51
 70
     0
102
RTVSPost2010Prop52
140
1.0
102
RTVSPost2010PropOp52
 70
     0
102
RTVSPost2010Prop53
 90
        2
102
RTVSPost2010PropOp53
 70
     1
102
RTVSPost2010Prop54
  1
strokes_ogs.tif
102
RTVSPost2010PropOp54
 70
     1
102
RTVSPost2010Prop55
280
     0
102
RTVSPost2010PropOp55
 70
     1
102
RTVSPost2010Prop56
140
1.0
102
RTVSPost2010PropOp56
 70
     1
102
RTVSPost2010Prop57
140
1.0
102
RTVSPost2010PropOp57
 70
     1
  0
XRECORD
  5
C6
102
{ACAD_REACTORS
330
C5
102
}
330
C5
100
AcDbXrecord
280
     1
102
RTVSPropertyOp0
 70
     0
102
RTVSPropertyOp1
 70
     0
102
RTVSPropertyOp2
 70
     0
102
RTVSPropertyOp3
 70
     0
102
RTVSPropertyOp4
 70
     0
102
RTVSPropertyOp5
 70
     0
102
RTVSPropertyOp6
 70
     0
102
RTVSPropertyOp7
 70
     0
102
RTVSPropertyOp8
 70
     0
102
RTVSPropertyOp9
 70
     0
102
RTVSPropertyOp10
 70
     0
102
RTVSPropertyOp11
 70
     0
102
RTVSPropertyOp12
 70
     0
102
RTVSPropertyOp13
 70
     0
102
RTVSPropertyOp14
 70
     2
102
RTVSPropertyOp15
 70
     0
102
RTVSPropertyOp16
 70
     0
102
RTVSPropertyOp17
 70
     0
102
RTVSPropertyOp18
 70
     0
102
RTVSPropertyOp19
 70
     0
102
RTVSPropertyOp20
 70
     0
102
RTVSPropertyOp21
 70
     0
102
RTVSPropertyOp22
 70
     0
102
RTVSPropertyOp23
 70
     0
102
RTVSPropertyOp24
 70
     0
102
RTVSPropertyOp25
 70
     0
102
RTVSPropertyOp26
 70
     0
102
RTVSPropertyOp27
 70
     0
102
RTVSPropertyOp28
 70
     0
102
RTVSPropertyOp29
 70
     0
102
RTVSPropertyOp30
 70
     0
102
RTVSPropertyOp31
 70
     0
102
RTVSPropertyOp32
 70
     0
102
RTVSPropertyOp33
 70
     0
102
RTVSPropertyOp34
 70
     0
102
RTVSPropertyOp35
 70
     0
102
RTVSPropertyOp36
 70
     0
102
RTVSPropertyOp37
 70
     0
102
RTVSPropertyOp38
 70
     0
102
RTVSPropertyOp39
 70
     0
102
RTVSPropertyOp40
 70
     0
102
RTVSPropertyOp41
 70
     0
102
RTVSPropertyOp42
 70
     0
102
RTVSPropertyOp43
 70
     0
102
RTVSPropertyOp44
 70
     0
102
RTVSPropertyOp45
 70
     0
102
RTVSPropertyOp46
 70
     0
102
RTVSPropertyOp47
 70
     0
102
RTVSPropertyOp48
 70
     0
102
RTVSPropertyOp49
 70
     0
102
RTVSPropertyOp50
 70
     0
102
RTVSPropertyOp51
 70
     0
102
RTVSPropertyOp52
 70
     0
102
RTVSPropertyOp53
 70
     0
102
RTVSPropertyOp54
 70
     0
102
RTVSPropertyOp55
 70
     0
102
RTVSPropertyOp56
 70
     0
102
RTVSPropertyOp57
 70
     0
102
RTVSPost2010Prop28
280
     0
102
RTVSPost2010PropOp28
 70
     0
102
RTVSPost2010Prop29
280
     1
102
RTVSPost2010PropOp29
 70
     0
102
RTVSPost2010Prop30
280
     1
102
RTVSPost2010PropOp30
 70
     0
102
RTVSPost2010Prop31
280
     0
102
RTVSPost2010PropOp31
 70
     0
102
RTVSPost2010Prop32
280
     0
102
RTVSPost2010PropOp32
 70
     0
102
RTVSPost2010Prop33
280
     0
102
RTVSPost2010PropOp33
 70
     0
102
RTVSPost2010Prop34
280
     0
102
RTVSPost2010PropOp34
 70
     0
102
RTVSPost2010Prop35
280
     0
102
RTVSPost2010PropOp35
 70
     0
102
RTVSPost2010Prop36
280
     0
102
RTVSPost2010PropOp36
 70
     0
102
RTVSPost2010Prop37
 90
       50
102
RTVSPost2010PropOp37
 70
     0
102
RTVSPost2010Prop38
140
0.0
102
RTVSPost2010PropOp38
 70
     0
102
RTVSPost2010Prop39
140
1.0
102
RTVSPost2010PropOp39
 70
     0
102
RTVSPost2010Prop40
 90
        0
102
RTVSPost2010PropOp40
 70
     0
102
RTVSPost2010Prop41ColorIndex
 90
       18
102
RTVSPost2010Prop41ColorRGB
 90
        0
102
RTVSPost2010PropOp41
 70
     0
102
RTVSPost2010Prop42
 90
       50
102
RTVSPost2010PropOp42
 70
     0
102
RTVSPost2010Prop43
 90
        3
102
RTVSPost2010PropOp43
 70
     0
102
RTVSPost2010Prop44ColorIndex
 90
        5
102
RTVSPost2010Prop44ColorRGB
 90
      255
102
RTVSPost2010PropOp44
 70
     0
102
RTVSPost2010Prop45
280
     0
102
RTVSPost2010PropOp45
 70
     0
102
RTVSPost2010Prop46
 90
       50
102
RTVSPost2010PropOp46
 70
     0
102
RTVSPost2010Prop47
 90
       50
102
RTVSPost2010PropOp47
 70
     0
102
RTVSPost2010Prop48
 90
       50
102
RTVSPost2010PropOp48
 70
     0
102
RTVSPost2010Prop49
280
     0
102
RTVSPost2010PropOp49
 70
     0
102
RTVSPost2010Prop50
 90
       50
102
RTVSPost2010PropOp50
 70
     0
102
RTVSPost2010Prop51ColorIndex
 90
      256
102
RTVSPost2010Prop51ColorRGB
 90
-16777216
102
RTVSPost2010PropOp51
 70
     0
102
RTVSPost2010Prop52
140
1.0
102
RTVSPost2010PropOp52
 70
     0
102
RTVSPost2010Prop53
 90
        2
102
RTVSPost2010PropOp53
 70
     0
102
RTVSPost2010Prop54
  1
strokes_ogs.tif
102
RTVSPost2010PropOp54
 70
     0
102
RTVSPost2010Prop55
280
     0
102
RTVSPost2010PropOp55
 70
     0
102
RTVSPost2010Prop56
140
1.0
102
RTVSPost2010PropOp56
 70
     0
102
RTVSPost2010Prop57
140
1.0
102
RTVSPost2010PropOp57
 70
     0
  0
XRECORD
  5
B4
102
{ACAD_REACTORS
330
B3
102
}
330
B3
100
AcDbXrecord
280
     1
102
RTVSPropertyOp0
 70
     1
102
RTVSPropertyOp1
 70
     1
102
RTVSPropertyOp2
 70
     1
102
RTVSPropertyOp3
 70
     1
102
RTVSPropertyOp4
 70
     1
102
RTVSPropertyOp5
 70
     1
102
RTVSPropertyOp6
 70
     1
102
RTVSPropertyOp7
 70
     1
102
RTVSPropertyOp8
 70
     1
102
RTVSPropertyOp9
 70
     1
102
RTVSPropertyOp10
 70
     1
102
RTVSPropertyOp11
 70
     1
102
RTVSPropertyOp12
 70
     1
102
RTVSPropertyOp13
 70
     1
102
RTVSPropertyOp14
 70
     1
102
RTVSPropertyOp15
 70
     1
102
RTVSPropertyOp16
 70
     1
102
RTVSPropertyOp17
 70
     1
102
RTVSPropertyOp18
 70
     1
102
RTVSPropertyOp19
 70
     1
102
RTVSPropertyOp20
 70
     1
102
RTVSPropertyOp21
 70
     1
102
RTVSPropertyOp22
 70
     1
102
RTVSPropertyOp23
 70
     1
102
RTVSPropertyOp24
 70
     1
102
RTVSPropertyOp25
 70
     1
102
RTVSPropertyOp26
 70
     1
102
RTVSPropertyOp27
 70
     1
102
RTVSPropertyOp28
 70
     1
102
RTVSPropertyOp29
 70
     1
102
RTVSPropertyOp30
 70
     1
102
RTVSPropertyOp31
 70
     1
102
RTVSPropertyOp32
 70
     1
102
RTVSPropertyOp33
 70
     1
102
RTVSPropertyOp34
 70
     1
102
RTVSPropertyOp35
 70
     1
102
RTVSPropertyOp36
 70
     1
102
RTVSPropertyOp37
 70
     1
102
RTVSPropertyOp38
 70
     1
102
RTVSPropertyOp39
 70
     1
102
RTVSPropertyOp40
 70
     1
102
RTVSPropertyOp41
 70
     1
102
RTVSPropertyOp42
 70
     1
102
RTVSPropertyOp43
 70
     1
102
RTVSPropertyOp44
 70
     1
102
RTVSPropertyOp45
 70
     1
102
RTVSPropertyOp46
 70
     1
102
RTVSPropertyOp47
 70
     1
102
RTVSPropertyOp48
 70
     1
102
RTVSPropertyOp49
 70
     1
102
RTVSPropertyOp50
 70
     1
102
RTVSPropertyOp51
 70
     0
102
RTVSPropertyOp52
 70
     0
102
RTVSPropertyOp53
 70
     1
102
RTVSPropertyOp54
 70
     1
102
RTVSPropertyOp55
 70
     1
102
RTVSPropertyOp56
 70
     1
102
RTVSPropertyOp57
 70
     1
102
RTVSPost2010Prop28
280
     0
102
RTVSPost2010PropOp28
 70
     1
102
RTVSPost2010Prop29
280
     1
102
RTVSPost2010PropOp29
 70
     1
102
RTVSPost2010Prop30
280
     1
102
RTVSPost2010PropOp30
 70
     1
102
RTVSPost2010Prop31
280
     0
102
RTVSPost2010PropOp31
 70
     1
102
RTVSPost2010Prop32
280
     0
102
RTVSPost2010PropOp32
 70
     1
102
RTVSPost2010Prop33
280
     0
102
RTVSPost2010PropOp33
 70
     1
102
RTVSPost2010Prop34
280
     0
102
RTVSPost2010PropOp34
 70
     1
102
RTVSPost2010Prop35
280
     0
102
RTVSPost2010PropOp35
 70
     1
102
RTVSPost2010Prop36
280
     0
102
RTVSPost2010PropOp36
 70
     1
102
RTVSPost2010Prop37
 90
       50
102
RTVSPost2010PropOp37
 70
     1
102
RTVSPost2010Prop38
140
0.0
102
RTVSPost2010PropOp38
 70
     1
102
RTVSPost2010Prop39
140
1.0
102
RTVSPost2010PropOp39
 70
     1
102
RTVSPost2010Prop40
 90
        0
102
RTVSPost2010PropOp40
 70
     1
102
RTVSPost2010Prop41ColorIndex
 90
       18
102
RTVSPost2010Prop41ColorRGB
 90
        0
102
RTVSPost2010PropOp41
 70
     1
102
RTVSPost2010Prop42
 90
       50
102
RTVSPost2010PropOp42
 70
     1
102
RTVSPost2010Prop43
 90
        3
102
RTVSPost2010PropOp43
 70
     1
102
RTVSPost2010Prop44ColorIndex
 90
        5
102
RTVSPost2010Prop44ColorRGB
 90
      255
102
RTVSPost2010PropOp44
 70
     1
102
RTVSPost2010Prop45
280
     0
102
RTVSPost2010PropOp45
 70
     1
102
RTVSPost2010Prop46
 90
       50
102
RTVSPost2010PropOp46
 70
     1
102
RTVSPost2010Prop47
 90
       50
102
RTVSPost2010PropOp47
 70
     1
102
RTVSPost2010Prop48
 90
       50
102
RTVSPost2010PropOp48
 70
     1
102
RTVSPost2010Prop49
280
     0
102
RTVSPost2010PropOp49
 70
     1
102
RTVSPost2010Prop50
 90
       50
102
RTVSPost2010PropOp50
 70
     1
102
RTVSPost2010Prop51ColorIndex
 90
      256
102
RTVSPost2010Prop51ColorRGB
 90
-16777216
102
RTVSPost2010PropOp51
 70
     0
102
RTVSPost2010Prop52
140
1.0
102
RTVSPost2010PropOp52
 70
     0
102
RTVSPost2010Prop53
 90
        2
102
RTVSPost2010PropOp53
 70
     1
102
RTVSPost2010Prop54
  1
strokes_ogs.tif
102
RTVSPost2010PropOp54
 70
     1
102
RTVSPost2010Prop55
280
     0
102
RTVSPost2010PropOp55
 70
     1
102
RTVSPost2010Prop56
140
1.0
102
RTVSPost2010PropOp56
 70
     1
102
RTVSPost2010Prop57
140
1.0
102
RTVSPost2010PropOp57
 70
     1
  0
XRECORD
  5
D2
102
{ACAD_REACTORS
330
D1
102
}
330
D1
100
AcDbXrecord
280
     1
102
RTVSPropertyOp0
 70
     1
102
RTVSPropertyOp1
 70
     1
102
RTVSPropertyOp2
 70
     1
102
RTVSPropertyOp3
 70
     1
102
RTVSPropertyOp4
 70
     1
102
RTVSPropertyOp5
 70
     1
102
RTVSPropertyOp6
 70
     1
102
RTVSPropertyOp7
 70
     1
102
RTVSPropertyOp8
 70
     1
102
RTVSPropertyOp9
 70
     1
102
RTVSPropertyOp10
 70
     1
102
RTVSPropertyOp11
 70
     1
102
RTVSPropertyOp12
 70
     1
102
RTVSPropertyOp13
 70
     1
102
RTVSPropertyOp14
 70
     1
102
RTVSPropertyOp15
 70
     1
102
RTVSPropertyOp16
 70
     1
102
RTVSPropertyOp17
 70
     1
102
RTVSPropertyOp18
 70
     1
102
RTVSPropertyOp19
 70
     1
102
RTVSPropertyOp20
 70
     1
102
RTVSPropertyOp21
 70
     1
102
RTVSPropertyOp22
 70
     1
102
RTVSPropertyOp23
 70
     1
102
RTVSPropertyOp24
 70
     1
102
RTVSPropertyOp25
 70
     1
102
RTVSPropertyOp26
 70
     1
102
RTVSPropertyOp27
 70
     1
102
RTVSPropertyOp28
 70
     1
102
RTVSPropertyOp29
 70
     1
102
RTVSPropertyOp30
 70
     1
102
RTVSPropertyOp31
 70
     1
102
RTVSPropertyOp32
 70
     1
102
RTVSPropertyOp33
 70
     1
102
RTVSPropertyOp34
 70
     1
102
RTVSPropertyOp35
 70
     1
102
RTVSPropertyOp36
 70
     1
102
RTVSPropertyOp37
 70
     1
102
RTVSPropertyOp38
 70
     1
102
RTVSPropertyOp39
 70
     1
102
RTVSPropertyOp40
 70
     1
102
RTVSPropertyOp41
 70
     1
102
RTVSPropertyOp42
 70
     1
102
RTVSPropertyOp43
 70
     1
102
RTVSPropertyOp44
 70
     1
102
RTVSPropertyOp45
 70
     1
102
RTVSPropertyOp46
 70
     1
102
RTVSPropertyOp47
 70
     1
102
RTVSPropertyOp48
 70
     1
102
RTVSPropertyOp49
 70
     1
102
RTVSPropertyOp50
 70
     1
102
RTVSPropertyOp51
 70
     0
102
RTVSPropertyOp52
 70
     0
102
RTVSPropertyOp53
 70
     1
102
RTVSPropertyOp54
 70
     1
102
RTVSPropertyOp55
 70
     1
102
RTVSPropertyOp56
 70
     1
102
RTVSPropertyOp57
 70
     1
102
RTVSPost2010Prop28
280
     0
102
RTVSPost2010PropOp28
 70
     1
102
RTVSPost2010Prop29
280
     1
102
RTVSPost2010PropOp29
 70
     1
102
RTVSPost2010Prop30
280
     1
102
RTVSPost2010PropOp30
 70
     1
102
RTVSPost2010Prop31
280
     0
102
RTVSPost2010PropOp31
 70
     1
102
RTVSPost2010Prop32
280
     0
102
RTVSPost2010PropOp32
 70
     1
102
RTVSPost2010Prop33
280
     0
102
RTVSPost2010PropOp33
 70
     1
102
RTVSPost2010Prop34
280
     0
102
RTVSPost2010PropOp34
 70
     1
102
RTVSPost2010Prop35
280
     0
102
RTVSPost2010PropOp35
 70
     1
102
RTVSPost2010Prop36
280
     0
102
RTVSPost2010PropOp36
 70
     1
102
RTVSPost2010Prop37
 90
       50
102
RTVSPost2010PropOp37
 70
     1
102
RTVSPost2010Prop38
140
0.0
102
RTVSPost2010PropOp38
 70
     1
102
RTVSPost2010Prop39
140
1.0
102
RTVSPost2010PropOp39
 70
     1
102
RTVSPost2010Prop40
 90
        0
102
RTVSPost2010PropOp40
 70
     1
102
RTVSPost2010Prop41ColorIndex
 90
       18
102
RTVSPost2010Prop41ColorRGB
 90
        0
102
RTVSPost2010PropOp41
 70
     1
102
RTVSPost2010Prop42
 90
       50
102
RTVSPost2010PropOp42
 70
     1
102
RTVSPost2010Prop43
 90
        3
102
RTVSPost2010PropOp43
 70
     1
102
RTVSPost2010Prop44ColorIndex
 90
        5
102
RTVSPost2010Prop44ColorRGB
 90
      255
102
RTVSPost2010PropOp44
 70
     1
102
RTVSPost2010Prop45
280
     0
102
RTVSPost2010PropOp45
 70
     1
102
RTVSPost2010Prop46
 90
       50
102
RTVSPost2010PropOp46
 70
     1
102
RTVSPost2010Prop47
 90
       50
102
RTVSPost2010PropOp47
 70
     1
102
RTVSPost2010Prop48
 90
       50
102
RTVSPost2010PropOp48
 70
     1
102
RTVSPost2010Prop49
280
     0
102
RTVSPost2010PropOp49
 70
     1
102
RTVSPost2010Prop50
 90
       50
102
RTVSPost2010PropOp50
 70
     1
102
RTVSPost2010Prop51ColorIndex
 90
      256
102
RTVSPost2010Prop51ColorRGB
 90
-16777216
102
RTVSPost2010PropOp51
 70
     0
102
RTVSPost2010Prop52
140
1.0
102
RTVSPost2010PropOp52
 70
     0
102
RTVSPost2010Prop53
 90
        2
102
RTVSPost2010PropOp53
 70
     1
102
RTVSPost2010Prop54
  1
strokes_ogs.tif
102
RTVSPost2010PropOp54
 70
     1
102
RTVSPost2010Prop55
280
     0
102
RTVSPost2010PropOp55
 70
     1
102
RTVSPost2010Prop56
140
1.0
102
RTVSPost2010PropOp56
 70
     1
102
RTVSPost2010Prop57
140
1.0
102
RTVSPost2010PropOp57
 70
     1
  0
XRECORD
  5
D0
102
{ACAD_REACTORS
330
CF
102
}
330
CF
100
AcDbXrecord
280
     1
102
RTVSPropertyOp0
 70
     1
102
RTVSPropertyOp1
 70
     1
102
RTVSPropertyOp2
 70
     1
102
RTVSPropertyOp3
 70
     1
102
RTVSPropertyOp4
 70
     1
102
RTVSPropertyOp5
 70
     1
102
RTVSPropertyOp6
 70
     1
102
RTVSPropertyOp7
 70
     1
102
RTVSPropertyOp8
 70
     1
102
RTVSPropertyOp9
 70
     1
102
RTVSPropertyOp10
 70
     1
102
RTVSPropertyOp11
 70
     1
102
RTVSPropertyOp12
 70
     1
102
RTVSPropertyOp13
 70
     1
102
RTVSPropertyOp14
 70
     1
102
RTVSPropertyOp15
 70
     1
102
RTVSPropertyOp16
 70
     1
102
RTVSPropertyOp17
 70
     1
102
RTVSPropertyOp18
 70
     1
102
RTVSPropertyOp19
 70
     1
102
RTVSPropertyOp20
 70
     1
102
RTVSPropertyOp21
 70
     1
102
RTVSPropertyOp22
 70
     1
102
RTVSPropertyOp23
 70
     1
102
RTVSPropertyOp24
 70
     1
102
RTVSPropertyOp25
 70
     1
102
RTVSPropertyOp26
 70
     1
102
RTVSPropertyOp27
 70
     1
102
RTVSPropertyOp28
 70
     1
102
RTVSPropertyOp29
 70
     1
102
RTVSPropertyOp30
 70
     1
102
RTVSPropertyOp31
 70
     1
102
RTVSPropertyOp32
 70
     1
102
RTVSPropertyOp33
 70
     1
102
RTVSPropertyOp34
 70
     1
102
RTVSPropertyOp35
 70
     1
102
RTVSPropertyOp36
 70
     1
102
RTVSPropertyOp37
 70
     1
102
RTVSPropertyOp38
 70
     1
102
RTVSPropertyOp39
 70
     1
102
RTVSPropertyOp40
 70
     1
102
RTVSPropertyOp41
 70
     1
102
RTVSPropertyOp42
 70
     1
102
RTVSPropertyOp43
 70
     1
102
RTVSPropertyOp44
 70
     1
102
RTVSPropertyOp45
 70
     1
102
RTVSPropertyOp46
 70
     1
102
RTVSPropertyOp47
 70
     1
102
RTVSPropertyOp48
 70
     1
102
RTVSPropertyOp49
 70
     1
102
RTVSPropertyOp50
 70
     1
102
RTVSPropertyOp51
 70
     0
102
RTVSPropertyOp52
 70
     0
102
RTVSPropertyOp53
 70
     1
102
RTVSPropertyOp54
 70
     1
102
RTVSPropertyOp55
 70
     1
102
RTVSPropertyOp56
 70
     1
102
RTVSPropertyOp57
 70
     1
102
RTVSPost2010Prop28
280
     0
102
RTVSPost2010PropOp28
 70
     1
102
RTVSPost2010Prop29
280
     1
102
RTVSPost2010PropOp29
 70
     1
102
RTVSPost2010Prop30
280
     1
102
RTVSPost2010PropOp30
 70
     1
102
RTVSPost2010Prop31
280
     0
102
RTVSPost2010PropOp31
 70
     1
102
RTVSPost2010Prop32
280
     0
102
RTVSPost2010PropOp32
 70
     1
102
RTVSPost2010Prop33
280
     0
102
RTVSPost2010PropOp33
 70
     1
102
RTVSPost2010Prop34
280
     0
102
RTVSPost2010PropOp34
 70
     1
102
RTVSPost2010Prop35
280
     0
102
RTVSPost2010PropOp35
 70
     1
102
RTVSPost2010Prop36
280
     0
102
RTVSPost2010PropOp36
 70
     1
102
RTVSPost2010Prop37
 90
       50
102
RTVSPost2010PropOp37
 70
     1
102
RTVSPost2010Prop38
140
0.0
102
RTVSPost2010PropOp38
 70
     1
102
RTVSPost2010Prop39
140
1.0
102
RTVSPost2010PropOp39
 70
     1
102
RTVSPost2010Prop40
 90
        0
102
RTVSPost2010PropOp40
 70
     1
102
RTVSPost2010Prop41ColorIndex
 90
       18
102
RTVSPost2010Prop41ColorRGB
 90
        0
102
RTVSPost2010PropOp41
 70
     1
102
RTVSPost2010Prop42
 90
       50
102
RTVSPost2010PropOp42
 70
     1
102
RTVSPost2010Prop43
 90
        3
102
RTVSPost2010PropOp43
 70
     1
102
RTVSPost2010Prop44ColorIndex
 90
        5
102
RTVSPost2010Prop44ColorRGB
 90
      255
102
RTVSPost2010PropOp44
 70
     1
102
RTVSPost2010Prop45
280
     0
102
RTVSPost2010PropOp45
 70
     1
102
RTVSPost2010Prop46
 90
       50
102
RTVSPost2010PropOp46
 70
     1
102
RTVSPost2010Prop47
 90
       50
102
RTVSPost2010PropOp47
 70
     1
102
RTVSPost2010Prop48
 90
       50
102
RTVSPost2010PropOp48
 70
     1
102
RTVSPost2010Prop49
280
     0
102
RTVSPost2010PropOp49
 70
     1
102
RTVSPost2010Prop50
 90
       50
102
RTVSPost2010PropOp50
 70
     1
102
RTVSPost2010Prop51ColorIndex
 90
      256
102
RTVSPost2010Prop51ColorRGB
 90
-16777216
102
RTVSPost2010PropOp51
 70
     0
102
RTVSPost2010Prop52
140
1.0
102
RTVSPost2010PropOp52
 70
     0
102
RTVSPost2010Prop53
 90
        2
102
RTVSPost2010PropOp53
 70
     1
102
RTVSPost2010Prop54
  1
strokes_ogs.tif
102
RTVSPost2010PropOp54
 70
     1
102
RTVSPost2010Prop55
280
     0
102
RTVSPost2010PropOp55
 70
     1
102
RTVSPost2010Prop56
140
1.0
102
RTVSPost2010PropOp56
 70
     1
102
RTVSPost2010Prop57
140
1.0
102
RTVSPost2010PropOp57
 70
     1
  0
XRECORD
  5
CA
102
{ACAD_REACTORS
330
C9
102
}
330
C9
100
AcDbXrecord
280
     1
102
RTVSPropertyOp0
 70
     1
102
RTVSPropertyOp1
 70
     1
102
RTVSPropertyOp2
 70
     1
102
RTVSPropertyOp3
 70
     1
102
RTVSPropertyOp4
 70
     1
102
RTVSPropertyOp5
 70
     1
102
RTVSPropertyOp6
 70
     1
102
RTVSPropertyOp7
 70
     1
102
RTVSPropertyOp8
 70
     1
102
RTVSPropertyOp9
 70
     1
102
RTVSPropertyOp10
 70
     1
102
RTVSPropertyOp11
 70
     1
102
RTVSPropertyOp12
 70
     1
102
RTVSPropertyOp13
 70
     1
102
RTVSPropertyOp14
 70
     1
102
RTVSPropertyOp15
 70
     1
102
RTVSPropertyOp16
 70
     1
102
RTVSPropertyOp17
 70
     1
102
RTVSPropertyOp18
 70
     1
102
RTVSPropertyOp19
 70
     1
102
RTVSPropertyOp20
 70
     1
102
RTVSPropertyOp21
 70
     1
102
RTVSPropertyOp22
 70
     1
102
RTVSPropertyOp23
 70
     1
102
RTVSPropertyOp24
 70
     1
102
RTVSPropertyOp25
 70
     1
102
RTVSPropertyOp26
 70
     1
102
RTVSPropertyOp27
 70
     1
102
RTVSPropertyOp28
 70
     1
102
RTVSPropertyOp29
 70
     1
102
RTVSPropertyOp30
 70
     1
102
RTVSPropertyOp31
 70
     1
102
RTVSPropertyOp32
 70
     1
102
RTVSPropertyOp33
 70
     1
102
RTVSPropertyOp34
 70
     1
102
RTVSPropertyOp35
 70
     1
102
RTVSPropertyOp36
 70
     1
102
RTVSPropertyOp37
 70
     1
102
RTVSPropertyOp38
 70
     1
102
RTVSPropertyOp39
 70
     1
102
RTVSPropertyOp40
 70
     1
102
RTVSPropertyOp41
 70
     1
102
RTVSPropertyOp42
 70
     1
102
RTVSPropertyOp43
 70
     1
102
RTVSPropertyOp44
 70
     1
102
RTVSPropertyOp45
 70
     1
102
RTVSPropertyOp46
 70
     1
102
RTVSPropertyOp47
 70
     1
102
RTVSPropertyOp48
 70
     1
102
RTVSPropertyOp49
 70
     1
102
RTVSPropertyOp50
 70
     1
102
RTVSPropertyOp51
 70
     0
102
RTVSPropertyOp52
 70
     0
102
RTVSPropertyOp53
 70
     1
102
RTVSPropertyOp54
 70
     1
102
RTVSPropertyOp55
 70
     1
102
RTVSPropertyOp56
 70
     1
102
RTVSPropertyOp57
 70
     1
102
RTVSPost2010Prop28
280
     0
102
RTVSPost2010PropOp28
 70
     1
102
RTVSPost2010Prop29
280
     1
102
RTVSPost2010PropOp29
 70
     1
102
RTVSPost2010Prop30
280
     1
102
RTVSPost2010PropOp30
 70
     1
102
RTVSPost2010Prop31
280
     0
102
RTVSPost2010PropOp31
 70
     1
102
RTVSPost2010Prop32
280
     0
102
RTVSPost2010PropOp32
 70
     1
102
RTVSPost2010Prop33
280
     0
102
RTVSPost2010PropOp33
 70
     1
102
RTVSPost2010Prop34
280
     0
102
RTVSPost2010PropOp34
 70
     1
102
RTVSPost2010Prop35
280
     0
102
RTVSPost2010PropOp35
 70
     1
102
RTVSPost2010Prop36
280
     0
102
RTVSPost2010PropOp36
 70
     1
102
RTVSPost2010Prop37
 90
       50
102
RTVSPost2010PropOp37
 70
     1
102
RTVSPost2010Prop38
140
0.0
102
RTVSPost2010PropOp38
 70
     1
102
RTVSPost2010Prop39
140
1.0
102
RTVSPost2010PropOp39
 70
     1
102
RTVSPost2010Prop40
 90
        0
102
RTVSPost2010PropOp40
 70
     1
102
RTVSPost2010Prop41ColorIndex
 90
       18
102
RTVSPost2010Prop41ColorRGB
 90
        0
102
RTVSPost2010PropOp41
 70
     1
102
RTVSPost2010Prop42
 90
       50
102
RTVSPost2010PropOp42
 70
     1
102
RTVSPost2010Prop43
 90
        3
102
RTVSPost2010PropOp43
 70
     1
102
RTVSPost2010Prop44ColorIndex
 90
        5
102
RTVSPost2010Prop44ColorRGB
 90
      255
102
RTVSPost2010PropOp44
 70
     1
102
RTVSPost2010Prop45
280
     0
102
RTVSPost2010PropOp45
 70
     1
102
RTVSPost2010Prop46
 90
       50
102
RTVSPost2010PropOp46
 70
     1
102
RTVSPost2010Prop47
 90
       50
102
RTVSPost2010PropOp47
 70
     1
102
RTVSPost2010Prop48
 90
       50
102
RTVSPost2010PropOp48
 70
     1
102
RTVSPost2010Prop49
280
     0
102
RTVSPost2010PropOp49
 70
     1
102
RTVSPost2010Prop50
 90
       50
102
RTVSPost2010PropOp50
 70
     1
102
RTVSPost2010Prop51ColorIndex
 90
      256
102
RTVSPost2010Prop51ColorRGB
 90
-16777216
102
RTVSPost2010PropOp51
 70
     0
102
RTVSPost2010Prop52
140
1.0
102
RTVSPost2010PropOp52
 70
     0
102
RTVSPost2010Prop53
 90
        2
102
RTVSPost2010PropOp53
 70
     1
102
RTVSPost2010Prop54
  1
strokes_ogs.tif
102
RTVSPost2010PropOp54
 70
     1
102
RTVSPost2010Prop55
280
     0
102
RTVSPost2010PropOp55
 70
     1
102
RTVSPost2010Prop56
140
1.0
102
RTVSPost2010PropOp56
 70
     1
102
RTVSPost2010Prop57
140
1.0
102
RTVSPost2010PropOp57
 70
     1
  0
XRECORD
  5
CC
102
{ACAD_REACTORS
330
CB
102
}
330
CB
100
AcDbXrecord
280
     1
102
RTVSPropertyOp0
 70
     1
102
RTVSPropertyOp1
 70
     1
102
RTVSPropertyOp2
 70
     1
102
RTVSPropertyOp3
 70
     1
102
RTVSPropertyOp4
 70
     1
102
RTVSPropertyOp5
 70
     1
102
RTVSPropertyOp6
 70
     1
102
RTVSPropertyOp7
 70
     1
102
RTVSPropertyOp8
 70
     1
102
RTVSPropertyOp9
 70
     1
102
RTVSPropertyOp10
 70
     1
102
RTVSPropertyOp11
 70
     1
102
RTVSPropertyOp12
 70
     1
102
RTVSPropertyOp13
 70
     1
102
RTVSPropertyOp14
 70
     1
102
RTVSPropertyOp15
 70
     1
102
RTVSPropertyOp16
 70
     1
102
RTVSPropertyOp17
 70
     1
102
RTVSPropertyOp18
 70
     1
102
RTVSPropertyOp19
 70
     1
102
RTVSPropertyOp20
 70
     1
102
RTVSPropertyOp21
 70
     1
102
RTVSPropertyOp22
 70
     1
102
RTVSPropertyOp23
 70
     1
102
RTVSPropertyOp24
 70
     1
102
RTVSPropertyOp25
 70
     1
102
RTVSPropertyOp26
 70
     1
102
RTVSPropertyOp27
 70
     1
102
RTVSPropertyOp28
 70
     1
102
RTVSPropertyOp29
 70
     1
102
RTVSPropertyOp30
 70
     1
102
RTVSPropertyOp31
 70
     1
102
RTVSPropertyOp32
 70
     1
102
RTVSPropertyOp33
 70
     1
102
RTVSPropertyOp34
 70
     1
102
RTVSPropertyOp35
 70
     1
102
RTVSPropertyOp36
 70
     1
102
RTVSPropertyOp37
 70
     1
102
RTVSPropertyOp38
 70
     1
102
RTVSPropertyOp39
 70
     1
102
RTVSPropertyOp40
 70
     1
102
RTVSPropertyOp41
 70
     1
102
RTVSPropertyOp42
 70
     1
102
RTVSPropertyOp43
 70
     1
102
RTVSPropertyOp44
 70
     1
102
RTVSPropertyOp45
 70
     1
102
RTVSPropertyOp46
 70
     1
102
RTVSPropertyOp47
 70
     1
102
RTVSPropertyOp48
 70
     1
102
RTVSPropertyOp49
 70
     1
102
RTVSPropertyOp50
 70
     1
102
RTVSPropertyOp51
 70
     0
102
RTVSPropertyOp52
 70
     0
102
RTVSPropertyOp53
 70
     1
102
RTVSPropertyOp54
 70
     1
102
RTVSPropertyOp55
 70
     1
102
RTVSPropertyOp56
 70
     1
102
RTVSPropertyOp57
 70
     1
102
RTVSPost2010Prop28
280
     0
102
RTVSPost2010PropOp28
 70
     1
102
RTVSPost2010Prop29
280
     1
102
RTVSPost2010PropOp29
 70
     1
102
RTVSPost2010Prop30
280
     1
102
RTVSPost2010PropOp30
 70
     1
102
RTVSPost2010Prop31
280
     0
102
RTVSPost2010PropOp31
 70
     1
102
RTVSPost2010Prop32
280
     0
102
RTVSPost2010PropOp32
 70
     1
102
RTVSPost2010Prop33
280
     0
102
RTVSPost2010PropOp33
 70
     1
102
RTVSPost2010Prop34
280
     0
102
RTVSPost2010PropOp34
 70
     1
102
RTVSPost2010Prop35
280
     0
102
RTVSPost2010PropOp35
 70
     1
102
RTVSPost2010Prop36
280
     0
102
RTVSPost2010PropOp36
 70
     1
102
RTVSPost2010Prop37
 90
       50
102
RTVSPost2010PropOp37
 70
     1
102
RTVSPost2010Prop38
140
0.0
102
RTVSPost2010PropOp38
 70
     1
102
RTVSPost2010Prop39
140
1.0
102
RTVSPost2010PropOp39
 70
     1
102
RTVSPost2010Prop40
 90
        0
102
RTVSPost2010PropOp40
 70
     1
102
RTVSPost2010Prop41ColorIndex
 90
       18
102
RTVSPost2010Prop41ColorRGB
 90
        0
102
RTVSPost2010PropOp41
 70
     1
102
RTVSPost2010Prop42
 90
       50
102
RTVSPost2010PropOp42
 70
     1
102
RTVSPost2010Prop43
 90
        3
102
RTVSPost2010PropOp43
 70
     1
102
RTVSPost2010Prop44ColorIndex
 90
        5
102
RTVSPost2010Prop44ColorRGB
 90
      255
102
RTVSPost2010PropOp44
 70
     1
102
RTVSPost2010Prop45
280
     0
102
RTVSPost2010PropOp45
 70
     1
102
RTVSPost2010Prop46
 90
       50
102
RTVSPost2010PropOp46
 70
     1
102
RTVSPost2010Prop47
 90
       50
102
RTVSPost2010PropOp47
 70
     1
102
RTVSPost2010Prop48
 90
       50
102
RTVSPost2010PropOp48
 70
     1
102
RTVSPost2010Prop49
280
     0
102
RTVSPost2010PropOp49
 70
     1
102
RTVSPost2010Prop50
 90
       50
102
RTVSPost2010PropOp50
 70
     1
102
RTVSPost2010Prop51ColorIndex
 90
      256
102
RTVSPost2010Prop51ColorRGB
 90
-16777216
102
RTVSPost2010PropOp51
 70
     0
102
RTVSPost2010Prop52
140
1.0
102
RTVSPost2010PropOp52
 70
     0
102
RTVSPost2010Prop53
 90
        2
102
RTVSPost2010PropOp53
 70
     1
102
RTVSPost2010Prop54
  1
strokes_ogs.tif
102
RTVSPost2010PropOp54
 70
     1
102
RTVSPost2010Prop55
280
     0
102
RTVSPost2010PropOp55
 70
     1
102
RTVSPost2010Prop56
140
1.0
102
RTVSPost2010PropOp56
 70
     1
102
RTVSPost2010Prop57
140
1.0
102
RTVSPost2010PropOp57
 70
     1
  0
XRECORD
  5
BC
102
{ACAD_REACTORS
330
BB
102
}
330
BB
100
AcDbXrecord
280
     1
102
RTVSPropertyOp0
 70
     1
102
RTVSPropertyOp1
 70
     1
102
RTVSPropertyOp2
 70
     1
102
RTVSPropertyOp3
 70
     1
102
RTVSPropertyOp4
 70
     1
102
RTVSPropertyOp5
 70
     1
102
RTVSPropertyOp6
 70
     1
102
RTVSPropertyOp7
 70
     1
102
RTVSPropertyOp8
 70
     1
102
RTVSPropertyOp9
 70
     1
102
RTVSPropertyOp10
 70
     1
102
RTVSPropertyOp11
 70
     1
102
RTVSPropertyOp12
 70
     1
102
RTVSPropertyOp13
 70
     1
102
RTVSPropertyOp14
 70
     1
102
RTVSPropertyOp15
 70
     1
102
RTVSPropertyOp16
 70
     1
102
RTVSPropertyOp17
 70
     1
102
RTVSPropertyOp18
 70
     1
102
RTVSPropertyOp19
 70
     1
102
RTVSPropertyOp20
 70
     1
102
RTVSPropertyOp21
 70
     1
102
RTVSPropertyOp22
 70
     1
102
RTVSPropertyOp23
 70
     1
102
RTVSPropertyOp24
 70
     1
102
RTVSPropertyOp25
 70
     1
102
RTVSPropertyOp26
 70
     1
102
RTVSPropertyOp27
 70
     1
102
RTVSPropertyOp28
 70
     1
102
RTVSPropertyOp29
 70
     1
102
RTVSPropertyOp30
 70
     1
102
RTVSPropertyOp31
 70
     1
102
RTVSPropertyOp32
 70
     1
102
RTVSPropertyOp33
 70
     1
102
RTVSPropertyOp34
 70
     1
102
RTVSPropertyOp35
 70
     1
102
RTVSPropertyOp36
 70
     1
102
RTVSPropertyOp37
 70
     1
102
RTVSPropertyOp38
 70
     1
102
RTVSPropertyOp39
 70
     1
102
RTVSPropertyOp40
 70
     1
102
RTVSPropertyOp41
 70
     1
102
RTVSPropertyOp42
 70
     1
102
RTVSPropertyOp43
 70
     1
102
RTVSPropertyOp44
 70
     1
102
RTVSPropertyOp45
 70
     1
102
RTVSPropertyOp46
 70
     1
102
RTVSPropertyOp47
 70
     1
102
RTVSPropertyOp48
 70
     1
102
RTVSPropertyOp49
 70
     1
102
RTVSPropertyOp50
 70
     1
102
RTVSPropertyOp51
 70
     0
102
RTVSPropertyOp52
 70
     0
102
RTVSPropertyOp53
 70
     1
102
RTVSPropertyOp54
 70
     1
102
RTVSPropertyOp55
 70
     1
102
RTVSPropertyOp56
 70
     1
102
RTVSPropertyOp57
 70
     1
102
RTVSPost2010Prop28
280
     0
102
RTVSPost2010PropOp28
 70
     1
102
RTVSPost2010Prop29
280
     1
102
RTVSPost2010PropOp29
 70
     1
102
RTVSPost2010Prop30
280
     1
102
RTVSPost2010PropOp30
 70
     1
102
RTVSPost2010Prop31
280
     0
102
RTVSPost2010PropOp31
 70
     1
102
RTVSPost2010Prop32
280
     0
102
RTVSPost2010PropOp32
 70
     1
102
RTVSPost2010Prop33
280
     0
102
RTVSPost2010PropOp33
 70
     1
102
RTVSPost2010Prop34
280
     0
102
RTVSPost2010PropOp34
 70
     1
102
RTVSPost2010Prop35
280
     0
102
RTVSPost2010PropOp35
 70
     1
102
RTVSPost2010Prop36
280
     0
102
RTVSPost2010PropOp36
 70
     1
102
RTVSPost2010Prop37
 90
       50
102
RTVSPost2010PropOp37
 70
     1
102
RTVSPost2010Prop38
140
0.0
102
RTVSPost2010PropOp38
 70
     1
102
RTVSPost2010Prop39
140
1.0
102
RTVSPost2010PropOp39
 70
     1
102
RTVSPost2010Prop40
 90
        0
102
RTVSPost2010PropOp40
 70
     1
102
RTVSPost2010Prop41ColorIndex
 90
       18
102
RTVSPost2010Prop41ColorRGB
 90
        0
102
RTVSPost2010PropOp41
 70
     1
102
RTVSPost2010Prop42
 90
       50
102
RTVSPost2010PropOp42
 70
     1
102
RTVSPost2010Prop43
 90
        3
102
RTVSPost2010PropOp43
 70
     1
102
RTVSPost2010Prop44ColorIndex
 90
        5
102
RTVSPost2010Prop44ColorRGB
 90
      255
102
RTVSPost2010PropOp44
 70
     1
102
RTVSPost2010Prop45
280
     0
102
RTVSPost2010PropOp45
 70
     1
102
RTVSPost2010Prop46
 90
       50
102
RTVSPost2010PropOp46
 70
     1
102
RTVSPost2010Prop47
 90
       50
102
RTVSPost2010PropOp47
 70
     1
102
RTVSPost2010Prop48
 90
       50
102
RTVSPost2010PropOp48
 70
     1
102
RTVSPost2010Prop49
280
     0
102
RTVSPost2010PropOp49
 70
     1
102
RTVSPost2010Prop50
 90
       50
102
RTVSPost2010PropOp50
 70
     1
102
RTVSPost2010Prop51ColorIndex
 90
      256
102
RTVSPost2010Prop51ColorRGB
 90
-16777216
102
RTVSPost2010PropOp51
 70
     0
102
RTVSPost2010Prop52
140
1.0
102
RTVSPost2010PropOp52
 70
     0
102
RTVSPost2010Prop53
 90
        2
102
RTVSPost2010PropOp53
 70
     1
102
RTVSPost2010Prop54
  1
strokes_ogs.tif
102
RTVSPost2010PropOp54
 70
     1
102
RTVSPost2010Prop55
280
     0
102
RTVSPost2010PropOp55
 70
     1
102
RTVSPost2010Prop56
140
1.0
102
RTVSPost2010PropOp56
 70
     1
102
RTVSPost2010Prop57
140
1.0
102
RTVSPost2010PropOp57
 70
     1
  0
XRECORD
  5
AE
102
{ACAD_REACTORS
330
AD
102
}
330
AD
100
AcDbXrecord
280
     1
102
RTVSPropertyOp0
 70
     1
102
RTVSPropertyOp1
 70
     1
102
RTVSPropertyOp2
 70
     1
102
RTVSPropertyOp3
 70
     1
102
RTVSPropertyOp4
 70
     1
102
RTVSPropertyOp5
 70
     1
102
RTVSPropertyOp6
 70
     1
102
RTVSPropertyOp7
 70
     1
102
RTVSPropertyOp8
 70
     1
102
RTVSPropertyOp9
 70
     1
102
RTVSPropertyOp10
 70
     1
102
RTVSPropertyOp11
 70
     1
102
RTVSPropertyOp12
 70
     1
102
RTVSPropertyOp13
 70
     1
102
RTVSPropertyOp14
 70
     1
102
RTVSPropertyOp15
 70
     1
102
RTVSPropertyOp16
 70
     1
102
RTVSPropertyOp17
 70
     1
102
RTVSPropertyOp18
 70
     1
102
RTVSPropertyOp19
 70
     1
102
RTVSPropertyOp20
 70
     1
102
RTVSPropertyOp21
 70
     1
102
RTVSPropertyOp22
 70
     1
102
RTVSPropertyOp23
 70
     1
102
RTVSPropertyOp24
 70
     1
102
RTVSPropertyOp25
 70
     1
102
RTVSPropertyOp26
 70
     1
102
RTVSPropertyOp27
 70
     1
102
RTVSPropertyOp28
 70
     1
102
RTVSPropertyOp29
 70
     1
102
RTVSPropertyOp30
 70
     1
102
RTVSPropertyOp31
 70
     1
102
RTVSPropertyOp32
 70
     1
102
RTVSPropertyOp33
 70
     1
102
RTVSPropertyOp34
 70
     1
102
RTVSPropertyOp35
 70
     1
102
RTVSPropertyOp36
 70
     1
102
RTVSPropertyOp37
 70
     1
102
RTVSPropertyOp38
 70
     1
102
RTVSPropertyOp39
 70
     1
102
RTVSPropertyOp40
 70
     1
102
RTVSPropertyOp41
 70
     1
102
RTVSPropertyOp42
 70
     1
102
RTVSPropertyOp43
 70
     1
102
RTVSPropertyOp44
 70
     1
102
RTVSPropertyOp45
 70
     1
102
RTVSPropertyOp46
 70
     1
102
RTVSPropertyOp47
 70
     1
102
RTVSPropertyOp48
 70
     1
102
RTVSPropertyOp49
 70
     1
102
RTVSPropertyOp50
 70
     1
102
RTVSPropertyOp51
 70
     0
102
RTVSPropertyOp52
 70
     0
102
RTVSPropertyOp53
 70
     1
102
RTVSPropertyOp54
 70
     1
102
RTVSPropertyOp55
 70
     1
102
RTVSPropertyOp56
 70
     1
102
RTVSPropertyOp57
 70
     1
102
RTVSPost2010Prop28
280
     0
102
RTVSPost2010PropOp28
 70
     1
102
RTVSPost2010Prop29
280
     1
102
RTVSPost2010PropOp29
 70
     1
102
RTVSPost2010Prop30
280
     1
102
RTVSPost2010PropOp30
 70
     1
102
RTVSPost2010Prop31
280
     0
102
RTVSPost2010PropOp31
 70
     1
102
RTVSPost2010Prop32
280
     0
102
RTVSPost2010PropOp32
 70
     1
102
RTVSPost2010Prop33
280
     0
102
RTVSPost2010PropOp33
 70
     1
102
RTVSPost2010Prop34
280
     0
102
RTVSPost2010PropOp34
 70
     1
102
RTVSPost2010Prop35
280
     0
102
RTVSPost2010PropOp35
 70
     1
102
RTVSPost2010Prop36
280
     0
102
RTVSPost2010PropOp36
 70
     1
102
RTVSPost2010Prop37
 90
       50
102
RTVSPost2010PropOp37
 70
     1
102
RTVSPost2010Prop38
140
0.0
102
RTVSPost2010PropOp38
 70
     1
102
RTVSPost2010Prop39
140
1.0
102
RTVSPost2010PropOp39
 70
     1
102
RTVSPost2010Prop40
 90
        0
102
RTVSPost2010PropOp40
 70
     1
102
RTVSPost2010Prop41ColorIndex
 90
       18
102
RTVSPost2010Prop41ColorRGB
 90
        0
102
RTVSPost2010PropOp41
 70
     1
102
RTVSPost2010Prop42
 90
       50
102
RTVSPost2010PropOp42
 70
     1
102
RTVSPost2010Prop43
 90
        3
102
RTVSPost2010PropOp43
 70
     1
102
RTVSPost2010Prop44ColorIndex
 90
        5
102
RTVSPost2010Prop44ColorRGB
 90
      255
102
RTVSPost2010PropOp44
 70
     1
102
RTVSPost2010Prop45
280
     0
102
RTVSPost2010PropOp45
 70
     1
102
RTVSPost2010Prop46
 90
       50
102
RTVSPost2010PropOp46
 70
     1
102
RTVSPost2010Prop47
 90
       50
102
RTVSPost2010PropOp47
 70
     1
102
RTVSPost2010Prop48
 90
       50
102
RTVSPost2010PropOp48
 70
     1
102
RTVSPost2010Prop49
280
     0
102
RTVSPost2010PropOp49
 70
     1
102
RTVSPost2010Prop50
 90
       50
102
RTVSPost2010PropOp50
 70
     1
102
RTVSPost2010Prop51ColorIndex
 90
      256
102
RTVSPost2010Prop51ColorRGB
 90
-16777216
102
RTVSPost2010PropOp51
 70
     0
102
RTVSPost2010Prop52
140
1.0
102
RTVSPost2010PropOp52
 70
     0
102
RTVSPost2010Prop53
 90
        2
102
RTVSPost2010PropOp53
 70
     1
102
RTVSPost2010Prop54
  1
strokes_ogs.tif
102
RTVSPost2010PropOp54
 70
     1
102
RTVSPost2010Prop55
280
     0
102
RTVSPost2010PropOp55
 70
     1
102
RTVSPost2010Prop56
140
1.0
102
RTVSPost2010PropOp56
 70
     1
102
RTVSPost2010Prop57
140
1.0
102
RTVSPost2010PropOp57
 70
     1
  0
XRECORD
  5
CE
102
{ACAD_REACTORS
330
CD
102
}
330
CD
100
AcDbXrecord
280
     1
102
RTVSPropertyOp0
 70
     1
102
RTVSPropertyOp1
 70
     1
102
RTVSPropertyOp2
 70
     1
102
RTVSPropertyOp3
 70
     1
102
RTVSPropertyOp4
 70
     1
102
RTVSPropertyOp5
 70
     1
102
RTVSPropertyOp6
 70
     1
102
RTVSPropertyOp7
 70
     1
102
RTVSPropertyOp8
 70
     1
102
RTVSPropertyOp9
 70
     1
102
RTVSPropertyOp10
 70
     1
102
RTVSPropertyOp11
 70
     1
102
RTVSPropertyOp12
 70
     1
102
RTVSPropertyOp13
 70
     1
102
RTVSPropertyOp14
 70
     1
102
RTVSPropertyOp15
 70
     1
102
RTVSPropertyOp16
 70
     1
102
RTVSPropertyOp17
 70
     1
102
RTVSPropertyOp18
 70
     1
102
RTVSPropertyOp19
 70
     1
102
RTVSPropertyOp20
 70
     1
102
RTVSPropertyOp21
 70
     1
102
RTVSPropertyOp22
 70
     1
102
RTVSPropertyOp23
 70
     1
102
RTVSPropertyOp24
 70
     1
102
RTVSPropertyOp25
 70
     1
102
RTVSPropertyOp26
 70
     1
102
RTVSPropertyOp27
 70
     1
102
RTVSPropertyOp28
 70
     1
102
RTVSPropertyOp29
 70
     1
102
RTVSPropertyOp30
 70
     1
102
RTVSPropertyOp31
 70
     1
102
RTVSPropertyOp32
 70
     1
102
RTVSPropertyOp33
 70
     1
102
RTVSPropertyOp34
 70
     1
102
RTVSPropertyOp35
 70
     1
102
RTVSPropertyOp36
 70
     1
102
RTVSPropertyOp37
 70
     1
102
RTVSPropertyOp38
 70
     1
102
RTVSPropertyOp39
 70
     1
102
RTVSPropertyOp40
 70
     1
102
RTVSPropertyOp41
 70
     1
102
RTVSPropertyOp42
 70
     1
102
RTVSPropertyOp43
 70
     1
102
RTVSPropertyOp44
 70
     1
102
RTVSPropertyOp45
 70
     1
102
RTVSPropertyOp46
 70
     1
102
RTVSPropertyOp47
 70
     1
102
RTVSPropertyOp48
 70
     1
102
RTVSPropertyOp49
 70
     1
102
RTVSPropertyOp50
 70
     1
102
RTVSPropertyOp51
 70
     0
102
RTVSPropertyOp52
 70
     0
102
RTVSPropertyOp53
 70
     1
102
RTVSPropertyOp54
 70
     1
102
RTVSPropertyOp55
 70
     1
102
RTVSPropertyOp56
 70
     1
102
RTVSPropertyOp57
 70
     1
102
RTVSPost2010Prop28
280
     0
102
RTVSPost2010PropOp28
 70
     1
102
RTVSPost2010Prop29
280
     1
102
RTVSPost2010PropOp29
 70
     1
102
RTVSPost2010Prop30
280
     1
102
RTVSPost2010PropOp30
 70
     1
102
RTVSPost2010Prop31
280
     0
102
RTVSPost2010PropOp31
 70
     1
102
RTVSPost2010Prop32
280
     0
102
RTVSPost2010PropOp32
 70
     1
102
RTVSPost2010Prop33
280
     0
102
RTVSPost2010PropOp33
 70
     1
102
RTVSPost2010Prop34
280
     0
102
RTVSPost2010PropOp34
 70
     1
102
RTVSPost2010Prop35
280
     0
102
RTVSPost2010PropOp35
 70
     1
102
RTVSPost2010Prop36
280
     0
102
RTVSPost2010PropOp36
 70
     1
102
RTVSPost2010Prop37
 90
       50
102
RTVSPost2010PropOp37
 70
     1
102
RTVSPost2010Prop38
140
0.0
102
RTVSPost2010PropOp38
 70
     1
102
RTVSPost2010Prop39
140
1.0
102
RTVSPost2010PropOp39
 70
     1
102
RTVSPost2010Prop40
 90
        0
102
RTVSPost2010PropOp40
 70
     1
102
RTVSPost2010Prop41ColorIndex
 90
       18
102
RTVSPost2010Prop41ColorRGB
 90
        0
102
RTVSPost2010PropOp41
 70
     1
102
RTVSPost2010Prop42
 90
       50
102
RTVSPost2010PropOp42
 70
     1
102
RTVSPost2010Prop43
 90
        3
102
RTVSPost2010PropOp43
 70
     1
102
RTVSPost2010Prop44ColorIndex
 90
        5
102
RTVSPost2010Prop44ColorRGB
 90
      255
102
RTVSPost2010PropOp44
 70
     1
102
RTVSPost2010Prop45
280
     0
102
RTVSPost2010PropOp45
 70
     1
102
RTVSPost2010Prop46
 90
       50
102
RTVSPost2010PropOp46
 70
     1
102
RTVSPost2010Prop47
 90
       50
102
RTVSPost2010PropOp47
 70
     1
102
RTVSPost2010Prop48
 90
       50
102
RTVSPost2010PropOp48
 70
     1
102
RTVSPost2010Prop49
280
     0
102
RTVSPost2010PropOp49
 70
     1
102
RTVSPost2010Prop50
 90
       50
102
RTVSPost2010PropOp50
 70
     1
102
RTVSPost2010Prop51ColorIndex
 90
      256
102
RTVSPost2010Prop51ColorRGB
 90
-16777216
102
RTVSPost2010PropOp51
 70
     0
102
RTVSPost2010Prop52
140
1.0
102
RTVSPost2010PropOp52
 70
     0
102
RTVSPost2010Prop53
 90
        2
102
RTVSPost2010PropOp53
 70
     1
102
RTVSPost2010Prop54
  1
strokes_ogs.tif
102
RTVSPost2010PropOp54
 70
     1
102
RTVSPost2010Prop55
280
     0
102
RTVSPost2010PropOp55
 70
     1
102
RTVSPost2010Prop56
140
1.0
102
RTVSPost2010PropOp56
 70
     1
102
RTVSPost2010Prop57
140
1.0
102
RTVSPost2010PropOp57
 70
     1
  0
ENDSEC
  0
EOF
