  0
SECTION
  2
HEADER
  9
$ACADVER
  1
AC1009
  9
$DWGCODEPAGE
  3
ansi_1252
  9
$INSBASE
 10
0.0
 20
0.0
 30
0.0
  9
$EXTMIN
 10
2.460776275025282
 20
1.848163908359872
 30
0.0
  9
$EXTMAX
 10
87.51101332597783
 20
46.71094842692945
 30
0.0
  9
$LIMMIN
 10
0.0
 20
0.0
  9
$LIMMAX
 10
12.0
 20
9.0
  9
$ORTHOMODE
 70
     0
  9
$REGENMODE
 70
     1
  9
$FILLMODE
 70
     1
  9
$QTEXTMODE
 70
     0
  9
$MIRRTEXT
 70
     1
  9
$DRAGMODE
 70
     2
  9
$LTSCALE
 40
1.0
  9
$OSMODE
 70
    37
  9
$ATTMODE
 70
     1
  9
$TEXTSIZE
 40
0.2
  9
$TRACEWID
 40
0.05
  9
$TEXTSTYLE
  7
STANDARD
  9
$CLAYER
  8
0
  9
$CELTYPE
  6
BYLAYER
  9
$CECOLOR
 62
   256
  9
$DIMSCALE
 40
1.0
  9
$DIMASZ
 40
0.18
  9
$DIMEXO
 40
0.0625
  9
$DIMDLI
 40
0.38
  9
$DIMRND
 40
0.0
  9
$DIMDLE
 40
0.0
  9
$DIMEXE
 40
0.18
  9
$DIMTP
 40
0.0
  9
$DIMTM
 40
0.0
  9
$DIMTXT
 40
0.18
  9
$DIMCEN
 40
0.09
  9
$DIMTSZ
 40
0.0
  9
$DIMTOL
 70
     0
  9
$DIMLIM
 70
     0
  9
$DIMTIH
 70
     1
  9
$DIMTOH
 70
     1
  9
$DIMSE1
 70
     0
  9
$DIMSE2
 70
     0
  9
$DIMTAD
 70
     0
  9
$DIMZIN
 70
     0
  9
$DIMBLK
  1

  9
$DIMASO
 70
     1
  9
$DIMSHO
 70
     1
  9
$DIMPOST
  1

  9
$DIMAPOST
  1

  9
$DIMALT
 70
     0
  9
$DIMALTD
 70
     2
  9
$DIMALTF
 40
25.4
  9
$DIMLFAC
 40
1.0
  9
$DIMTOFL
 70
     0
  9
$DIMTVP
 40
0.0
  9
$DIMTIX
 70
     0
  9
$DIMSOXD
 70
     0
  9
$DIMSAH
 70
     0
  9
$DIMBLK1
  1

  9
$DIMBLK2
  1

  9
$DIMSTYLE
  2
STANDARD
  9
$DIMCLRD
 70
     0
  9
$DIMCLRE
 70
     0
  9
$DIMCLRT
 70
     0
  9
$DIMTFAC
 40
1.0
  9
$DIMGAP
 40
0.09
  9
$LUNITS
 70
     2
  9
$LUPREC
 70
     4
  9
$SKETCHINC
 40
0.1
  9
$FILLETRAD
 40
0.5
  9
$AUNITS
 70
     0
  9
$AUPREC
 70
     0
  9
$MENU
  1
.
  9
$ELEVATION
 40
0.0
  9
$PELEVATION
 40
0.0
  9
$THICKNESS
 40
0.0
  9
$LIMCHECK
 70
     0
  9
$CHAMFERA
 40
0.0
  9
$CHAMFERB
 40
0.0
  9
$SKPOLY
 70
     0
  9
$TDCREATE
 40
2454910.5
  9
$TDUPDATE
 40
2457204.532483183
  9
$TDINDWG
 40
0.0000000116
  9
$TDUSRTIMER
 40
0.0000000116
  9
$USRTIMER
 70
     1
  9
$ANGBASE
 50
0.0
  9
$ANGDIR
 70
     0
  9
$PDMODE
 70
     0
  9
$PDSIZE
 40
0.0
  9
$PLINEWID
 40
0.0
  9
$COORDS
 70
     1
  9
$SPLFRAME
 70
     0
  9
$SPLINETYPE
 70
     6
  9
$SPLINESEGS
 70
     8
  9
$ATTDIA
 70
     0
  9
$ATTREQ
 70
     1
  9
$HANDLING
 70
     1
  9
$HANDSEED
  5
225
  9
$SURFTAB1
 70
     6
  9
$SURFTAB2
 70
     6
  9
$SURFTYPE
 70
     6
  9
$SURFU
 70
     6
  9
$SURFV
 70
     6
  9
$UCSNAME
  2

  9
$UCSORG
 10
0.0
 20
0.0
 30
0.0
  9
$UCSXDIR
 10
1.0
 20
0.0
 30
0.0
  9
$UCSYDIR
 10
0.0
 20
1.0
 30
0.0
  9
$PUCSNAME
  2

  9
$PUCSORG
 10
0.0
 20
0.0
 30
0.0
  9
$PUCSXDIR
 10
1.0
 20
0.0
 30
0.0
  9
$PUCSYDIR
 10
0.0
 20
1.0
 30
0.0
  9
$USERI1
 70
     0
  9
$USERI2
 70
     0
  9
$USERI3
 70
     0
  9
$USERI4
 70
     0
  9
$USERI5
 70
     0
  9
$USERR1
 40
0.0
  9
$USERR2
 40
0.0
  9
$USERR3
 40
0.0
  9
$USERR4
 40
0.0
  9
$USERR5
 40
0.0
  9
$WORLDVIEW
 70
     1
  9
$SHADEDGE
 70
     3
  9
$SHADEDIF
 70
    70
  9
$TILEMODE
 70
     1
  9
$MAXACTVP
 70
    64
  9
$PLIMCHECK
 70
     0
  9
$PEXTMIN
 10
1.000000000000000E+20
 20
1.000000000000000E+20
 30
1.000000000000000E+20
  9
$PEXTMAX
 10
-1.000000000000000E+20
 20
-1.000000000000000E+20
 30
-1.000000000000000E+20
  9
$PLIMMIN
 10
0.0
 20
0.0
  9
$PLIMMAX
 10
12.0
 20
9.0
  9
$UNITMODE
 70
     0
  9
$VISRETAIN
 70
     1
  9
$PLINEGEN
 70
     0
  9
$PSLTSCALE
 70
     1
  0
ENDSEC
  0
SECTION
  2
TABLES
  0
TABLE
  2
VPORT
 70
     1
  0
VPORT
  2
*ACTIVE
 70
     0
 10
0.0
 20
0.0
 11
1.0
 21
1.0
 12
10.42990654205607
 22
4.5
 13
0.0
 23
0.0
 14
0.5
 24
0.5
 15
0.5
 25
0.5
 16
0.0
 26
0.0
 36
1.0
 17
0.0
 27
0.0
 37
0.0
 40
9.0
 41
1.972972972850329
 42
50.0
 43
0.0
 44
0.0
 50
0.0
 51
0.0
 71
     0
 72
   100
 73
     1
 74
     3
 75
     0
 76
     0
 77
     0
 78
     0
  0
ENDTAB
  0
TABLE
  2
LTYPE
 70
     2
  0
LTYPE
  2
CONTINUOUS
 70
     0
  3
Solid line
 72
    65
 73
     0
 40
0.0
  0
LTYPE
  2
CONTINUOUS2
 70
     0
  3
Solid Line
 72
    65
 73
     0
 40
0.0
  0
ENDTAB
  0
TABLE
  2
LAYER
 70
     2
  0
LAYER
  2
0
 70
     0
 62
     7
  6
CONTINUOUS
  0
LAYER
  2
LAYER_1
 70
     0
 62
    18
  6
CONTINUOUS
  0
ENDTAB
  0
TABLE
  2
STYLE
 70
     1
  0
STYLE
  2
STANDARD
 70
     0
 40
0.0
 41
1.0
 50
0.0
 71
     0
 42
0.2
  3
txt
  4

  0
ENDTAB
  0
TABLE
  2
VIEW
 70
     0
  0
ENDTAB
  0
TABLE
  2
UCS
 70
     0
  0
ENDTAB
  0
TABLE
  2
APPID
 70
     1
  0
APPID
  2
ACAD
 70
     0
  0
ENDTAB
  0
TABLE
  2
DIMSTYLE
 70
     1
  0
DIMSTYLE
  2
STANDARD
 70
     0
  3

  4

  5

  6

  7

 40
1.0
 41
0.18
 42
0.0625
 43
0.38
 44
0.18
 45
0.0
 46
0.0
 47
0.0
 48
0.0
140
0.18
141
0.09
142
0.0
143
25.4
144
1.0
145
0.0
146
1.0
147
0.09
 71
     0
 72
     0
 73
     1
 74
     1
 75
     0
 76
     0
 77
     0
 78
     0
170
     0
171
     2
172
     0
173
     0
174
     0
175
     0
176
     0
177
     0
178
     0
  0
ENDTAB
  0
ENDSEC
  0
SECTION
  2
BLOCKS
  0
BLOCK
  8
0
  2
$MODEL_SPACE
 70
     0
 10
0.0
 20
0.0
 30
0.0
  3
$MODEL_SPACE
  1

  0
ENDBLK
  5
21
  8
0
  0
BLOCK
 67
     1
  8
0
  2
$PAPER_SPACE
 70
     0
 10
0.0
 20
0.0
 30
0.0
  3
$PAPER_SPACE
  1

  0
ENDBLK
  5
1D
 67
     1
  8
0
  0
ENDSEC
  0
SECTION
  2
ENTITIES
  0
POLYLINE
  5
6C
  8
LAYER_1
 66
     1
 10
0.0
 20
0.0
 30
0.0
 70
     1
  0
VERTEX
  5
B6
  8
LAYER_1
 10
28.26118239666884
 20
2.643454290685185
 30
0.0
  0
VERTEX
  5
B7
  8
LAYER_1
 10
52.26118239666884
 20
2.643454290685185
 30
0.0
  0
VERTEX
  5
B8
  8
LAYER_1
 10
52.26118239666884
 20
38.64345429068517
 30
0.0
  0
VERTEX
  5
B9
  8
LAYER_1
 10
28.26118239666884
 20
38.64345429068517
 30
0.0
  0
SEQEND
  5
1E2
  8
LAYER_1
  0
POLYLINE
  5
6D
  8
LAYER_1
 66
     1
 10
0.0
 20
0.0
 30
0.0
 70
     1
  0
VERTEX
  5
BA
  8
LAYER_1
 10
40.26118239666884
 20
21.64345429068518
 30
0.0
 42
0.4142135623730951
  0
VERTEX
  5
BB
  8
LAYER_1
 10
39.26118239666884
 20
20.64345429068518
 30
0.0
 42
0.4142135623730951
  0
VERTEX
  5
BC
  8
LAYER_1
 10
40.26118239666884
 20
19.64345429068518
 30
0.0
 42
0.4142135623730951
  0
VERTEX
  5
BD
  8
LAYER_1
 10
41.26118239666884
 20
20.64345429068518
 30
0.0
 42
0.4142135623730951
  0
SEQEND
  5
1E3
  8
LAYER_1
  0
POLYLINE
  5
6E
  8
LAYER_1
 66
     1
 10
0.0
 20
0.0
 30
0.0
 70
     1
  0
VERTEX
  5
BE
  8
LAYER_1
 10
40.26118239666884
 20
23.64345429068518
 30
0.0
 42
0.4142135623730951
  0
VERTEX
  5
BF
  8
LAYER_1
 10
37.26118239666884
 20
20.64345429068518
 30
0.0
 42
0.4142135623730951
  0
VERTEX
  5
C0
  8
LAYER_1
 10
40.26118239666884
 20
17.64345429068518
 30
0.0
 42
0.4142135623730951
  0
VERTEX
  5
C1
  8
LAYER_1
 10
43.26118239666884
 20
20.64345429068518
 30
0.0
 42
0.4142135623730951
  0
SEQEND
  5
1E4
  8
LAYER_1
  0
POLYLINE
  5
6F
  8
LAYER_1
 66
     1
 10
0.0
 20
0.0
 30
0.0
 70
     1
  0
VERTEX
  5
C2
  8
LAYER_1
 10
40.26116293358158
 20
24.8034874541121
 30
0.0
 42
0.4142135623730951
  0
VERTEX
  5
C3
  8
LAYER_1
 10
40.10116293358161
 20
24.6434874541121
 30
0.0
 42
0.4142135623730951
  0
VERTEX
  5
C4
  8
LAYER_1
 10
40.26116293358158
 20
24.48348745411211
 30
0.0
 42
0.4142135623730951
  0
VERTEX
  5
C5
  8
LAYER_1
 10
40.42116293358161
 20
24.6434874541121
 30
0.0
 42
0.4142135623730951
  0
SEQEND
  5
1E5
  8
LAYER_1
  0
POLYLINE
  5
70
  8
LAYER_1
 66
     1
 10
0.0
 20
0.0
 30
0.0
 70
     1
  0
VERTEX
  5
C6
  8
LAYER_1
 10
43.72526293358161
 20
18.8034874541121
 30
0.0
 42
0.4142135623730951
  0
VERTEX
  5
C7
  8
LAYER_1
 10
43.56526293358159
 20
18.6434874541121
 30
0.0
 42
0.4142135623730951
  0
VERTEX
  5
C8
  8
LAYER_1
 10
43.72526293358161
 20
18.48348745411211
 30
0.0
 42
0.4142135623730951
  0
VERTEX
  5
C9
  8
LAYER_1
 10
43.88526293358158
 20
18.6434874541121
 30
0.0
 42
0.4142135623730951
  0
SEQEND
  5
1E6
  8
LAYER_1
  0
POLYLINE
  5
71
  8
LAYER_1
 66
     1
 10
0.0
 20
0.0
 30
0.0
 70
     1
  0
VERTEX
  5
CA
  8
LAYER_1
 10
36.79706293358161
 20
18.8034874541121
 30
0.0
 42
0.4142135623730951
  0
VERTEX
  5
CB
  8
LAYER_1
 10
36.63706293358161
 20
18.6434874541121
 30
0.0
 42
0.4142135623730951
  0
VERTEX
  5
CC
  8
LAYER_1
 10
36.79706293358161
 20
18.48348745411211
 30
0.0
 42
0.4142135623730951
  0
VERTEX
  5
CD
  8
LAYER_1
 10
36.9570629335816
 20
18.6434874541121
 30
0.0
 42
0.4142135623730951
  0
SEQEND
  5
1E7
  8
LAYER_1
  0
POLYLINE
  5
72
  8
LAYER_1
 66
     1
 10
0.0
 20
0.0
 30
0.0
 70
     1
  0
VERTEX
  5
CE
  8
LAYER_1
 10
58.88836765505254
 20
44.0992732788512
 30
0.0
 42
0.4142135623730951
  0
VERTEX
  5
CF
  8
LAYER_1
 10
53.88836765505254
 20
39.09927327885123
 30
0.0
 42
0.4142135623730951
  0
VERTEX
  5
D0
  8
LAYER_1
 10
58.88836765505254
 20
34.09927327885121
 30
0.0
 42
0.4142135623730951
  0
VERTEX
  5
D1
  8
LAYER_1
 10
63.88836765505255
 20
39.09927327885123
 30
0.0
 42
0.4142135623730951
  0
SEQEND
  5
1E8
  8
LAYER_1
  0
POLYLINE
  5
73
  8
LAYER_1
 66
     1
 10
0.0
 20
0.0
 30
0.0
 70
     1
  0
VERTEX
  5
D2
  8
LAYER_1
 10
31.63618239666832
 20
38.39345429068518
 30
0.0
 42
0.4142135623730951
  0
VERTEX
  5
D3
  8
LAYER_1
 10
31.51118239666832
 20
38.26845429068518
 30
0.0
 42
0.4142135623730951
  0
VERTEX
  5
D4
  8
LAYER_1
 10
31.63618239666832
 20
38.14345429068518
 30
0.0
 42
0.4142135623730951
  0
VERTEX
  5
D5
  8
LAYER_1
 10
31.76118239666832
 20
38.26845429068518
 30
0.0
 42
0.4142135623730951
  0
SEQEND
  5
1E9
  8
LAYER_1
  0
POLYLINE
  5
74
  8
LAYER_1
 66
     1
 10
0.0
 20
0.0
 30
0.0
 70
     1
  0
VERTEX
  5
D6
  8
LAYER_1
 10
40.26118239666656
 20
38.39345429068518
 30
0.0
 42
0.4142135623730951
  0
VERTEX
  5
D7
  8
LAYER_1
 10
40.13618239666656
 20
38.26845429068518
 30
0.0
 42
0.4142135623730951
  0
VERTEX
  5
D8
  8
LAYER_1
 10
40.26118239666656
 20
38.14345429068518
 30
0.0
 42
0.4142135623730951
  0
VERTEX
  5
D9
  8
LAYER_1
 10
40.38618239666656
 20
38.26845429068518
 30
0.0
 42
0.4142135623730951
  0
SEQEND
  5
1EA
  8
LAYER_1
  0
POLYLINE
  5
75
  8
LAYER_1
 66
     1
 10
0.0
 20
0.0
 30
0.0
 70
     1
  0
VERTEX
  5
DA
  8
LAYER_1
 10
48.88618239666938
 20
38.39345429068518
 30
0.0
 42
0.4142135623730951
  0
VERTEX
  5
DB
  8
LAYER_1
 10
48.76118239666938
 20
38.26845429068518
 30
0.0
 42
0.4142135623730951
  0
VERTEX
  5
DC
  8
LAYER_1
 10
48.88618239666938
 20
38.14345429068518
 30
0.0
 42
0.4142135623730951
  0
VERTEX
  5
DD
  8
LAYER_1
 10
49.01118239666938
 20
38.26845429068518
 30
0.0
 42
0.4142135623730951
  0
SEQEND
  5
1EB
  8
LAYER_1
  0
POLYLINE
  5
76
  8
LAYER_1
 66
     1
 10
0.0
 20
0.0
 30
0.0
 70
     1
  0
VERTEX
  5
DE
  8
LAYER_1
 10
31.6361823966683
 20
3.143454290685185
 30
0.0
 42
0.4142135623730951
  0
VERTEX
  5
DF
  8
LAYER_1
 10
31.5111823966683
 20
3.018454290685185
 30
0.0
 42
0.4142135623730951
  0
VERTEX
  5
E0
  8
LAYER_1
 10
31.6361823966683
 20
2.893454290685185
 30
0.0
 42
0.4142135623730951
  0
VERTEX
  5
E1
  8
LAYER_1
 10
31.7611823966683
 20
3.018454290685185
 30
0.0
 42
0.4142135623730951
  0
SEQEND
  5
1EC
  8
LAYER_1
  0
POLYLINE
  5
77
  8
LAYER_1
 66
     1
 10
0.0
 20
0.0
 30
0.0
 70
     1
  0
VERTEX
  5
E2
  8
LAYER_1
 10
40.26118239666656
 20
3.143454290685185
 30
0.0
 42
0.4142135623730951
  0
VERTEX
  5
E3
  8
LAYER_1
 10
40.13618239666656
 20
3.018454290685185
 30
0.0
 42
0.4142135623730951
  0
VERTEX
  5
E4
  8
LAYER_1
 10
40.26118239666656
 20
2.893454290685185
 30
0.0
 42
0.4142135623730951
  0
VERTEX
  5
E5
  8
LAYER_1
 10
40.38618239666656
 20
3.018454290685185
 30
0.0
 42
0.4142135623730951
  0
SEQEND
  5
1ED
  8
LAYER_1
  0
POLYLINE
  5
78
  8
LAYER_1
 66
     1
 10
0.0
 20
0.0
 30
0.0
 70
     1
  0
VERTEX
  5
E6
  8
LAYER_1
 10
48.88618239666935
 20
3.143454290685185
 30
0.0
 42
0.4142135623730951
  0
VERTEX
  5
E7
  8
LAYER_1
 10
48.76118239666935
 20
3.018454290685185
 30
0.0
 42
0.4142135623730951
  0
VERTEX
  5
E8
  8
LAYER_1
 10
48.88618239666935
 20
2.893454290685185
 30
0.0
 42
0.4142135623730951
  0
VERTEX
  5
E9
  8
LAYER_1
 10
49.01118239666935
 20
3.018454290685185
 30
0.0
 42
0.4142135623730951
  0
SEQEND
  5
1EE
  8
LAYER_1
  0
POLYLINE
  5
79
  8
LAYER_1
 66
     1
 10
0.0
 20
0.0
 30
0.0
 70
     1
  0
VERTEX
  5
EA
  8
LAYER_1
 10
51.35368239666884
 20
20.76845429068518
 30
0.0
 42
-0.4142135623730951
  0
VERTEX
  5
EB
  8
LAYER_1
 10
51.47868239666884
 20
20.64345429068518
 30
0.0
 42
-0.4142135623730951
  0
VERTEX
  5
EC
  8
LAYER_1
 10
51.35368239666884
 20
20.51845429068518
 30
0.0
 42
-0.4142135623730951
  0
VERTEX
  5
ED
  8
LAYER_1
 10
51.22868239666884
 20
20.64345429068518
 30
0.0
 42
-0.4142135623730951
  0
SEQEND
  5
1EF
  8
LAYER_1
  0
POLYLINE
  5
7A
  8
LAYER_1
 66
     1
 10
0.0
 20
0.0
 30
0.0
 70
     1
  0
VERTEX
  5
EE
  8
LAYER_1
 10
50.23868239666886
 20
20.76845429068518
 30
0.0
 42
-0.4142135623730951
  0
VERTEX
  5
EF
  8
LAYER_1
 10
50.36368239666886
 20
20.64345429068518
 30
0.0
 42
-0.4142135623730951
  0
VERTEX
  5
F0
  8
LAYER_1
 10
50.23868239666886
 20
20.51845429068518
 30
0.0
 42
-0.4142135623730951
  0
VERTEX
  5
F1
  8
LAYER_1
 10
50.11368239666886
 20
20.64345429068518
 30
0.0
 42
-0.4142135623730951
  0
SEQEND
  5
1F0
  8
LAYER_1
  0
POLYLINE
  5
7B
  8
LAYER_1
 66
     1
 10
0.0
 20
0.0
 30
0.0
 70
     1
  0
VERTEX
  5
F2
  8
LAYER_1
 10
51.35368239666884
 20
32.76845429068518
 30
0.0
 42
-0.4142135623730951
  0
VERTEX
  5
F3
  8
LAYER_1
 10
51.47868239666884
 20
32.64345429068518
 30
0.0
 42
-0.4142135623730951
  0
VERTEX
  5
F4
  8
LAYER_1
 10
51.35368239666884
 20
32.51845429068518
 30
0.0
 42
-0.4142135623730951
  0
VERTEX
  5
F5
  8
LAYER_1
 10
51.22868239666884
 20
32.64345429068518
 30
0.0
 42
-0.4142135623730951
  0
SEQEND
  5
1F1
  8
LAYER_1
  0
POLYLINE
  5
7C
  8
LAYER_1
 66
     1
 10
0.0
 20
0.0
 30
0.0
 70
     1
  0
VERTEX
  5
F6
  8
LAYER_1
 10
50.23868239666886
 20
32.76845429068518
 30
0.0
 42
-0.4142135623730951
  0
VERTEX
  5
F7
  8
LAYER_1
 10
50.36368239666886
 20
32.64345429068518
 30
0.0
 42
-0.4142135623730951
  0
VERTEX
  5
F8
  8
LAYER_1
 10
50.23868239666886
 20
32.51845429068518
 30
0.0
 42
-0.4142135623730951
  0
VERTEX
  5
F9
  8
LAYER_1
 10
50.11368239666886
 20
32.64345429068518
 30
0.0
 42
-0.4142135623730951
  0
SEQEND
  5
1F2
  8
LAYER_1
  0
POLYLINE
  5
7D
  8
LAYER_1
 66
     1
 10
0.0
 20
0.0
 30
0.0
 70
     1
  0
VERTEX
  5
FA
  8
LAYER_1
 10
51.35368239666884
 20
8.768454290685185
 30
0.0
 42
-0.4142135623730951
  0
VERTEX
  5
FB
  8
LAYER_1
 10
51.47868239666884
 20
8.643454290685185
 30
0.0
 42
-0.4142135623730951
  0
VERTEX
  5
FC
  8
LAYER_1
 10
51.35368239666884
 20
8.518454290685185
 30
0.0
 42
-0.4142135623730951
  0
VERTEX
  5
FD
  8
LAYER_1
 10
51.22868239666884
 20
8.643454290685185
 30
0.0
 42
-0.4142135623730951
  0
SEQEND
  5
1F3
  8
LAYER_1
  0
POLYLINE
  5
7E
  8
LAYER_1
 66
     1
 10
0.0
 20
0.0
 30
0.0
 70
     1
  0
VERTEX
  5
FE
  8
LAYER_1
 10
50.23868239666886
 20
8.768454290685185
 30
0.0
 42
-0.4142135623730951
  0
VERTEX
  5
FF
  8
LAYER_1
 10
50.36368239666886
 20
8.643454290685185
 30
0.0
 42
-0.4142135623730951
  0
VERTEX
  5
100
  8
LAYER_1
 10
50.23868239666886
 20
8.518454290685185
 30
0.0
 42
-0.4142135623730951
  0
VERTEX
  5
101
  8
LAYER_1
 10
50.11368239666886
 20
8.643454290685185
 30
0.0
 42
-0.4142135623730951
  0
SEQEND
  5
1F4
  8
LAYER_1
  0
POLYLINE
  5
7F
  8
LAYER_1
 66
     1
 10
0.0
 20
0.0
 30
0.0
 70
     1
  0
VERTEX
  5
102
  8
LAYER_1
 10
29.16868239666884
 20
20.76845429068518
 30
0.0
 42
0.4142135623730951
  0
VERTEX
  5
103
  8
LAYER_1
 10
29.04368239666884
 20
20.64345429068518
 30
0.0
 42
0.4142135623730951
  0
VERTEX
  5
104
  8
LAYER_1
 10
29.16868239666884
 20
20.51845429068518
 30
0.0
 42
0.4142135623730951
  0
VERTEX
  5
105
  8
LAYER_1
 10
29.29368239666884
 20
20.64345429068518
 30
0.0
 42
0.4142135623730951
  0
SEQEND
  5
1F5
  8
LAYER_1
  0
POLYLINE
  5
80
  8
LAYER_1
 66
     1
 10
0.0
 20
0.0
 30
0.0
 70
     1
  0
VERTEX
  5
106
  8
LAYER_1
 10
30.28368239666882
 20
20.76845429068518
 30
0.0
 42
0.4142135623730951
  0
VERTEX
  5
107
  8
LAYER_1
 10
30.15868239666882
 20
20.64345429068518
 30
0.0
 42
0.4142135623730951
  0
VERTEX
  5
108
  8
LAYER_1
 10
30.28368239666882
 20
20.51845429068518
 30
0.0
 42
0.4142135623730951
  0
VERTEX
  5
109
  8
LAYER_1
 10
30.40868239666882
 20
20.64345429068518
 30
0.0
 42
0.4142135623730951
  0
SEQEND
  5
1F6
  8
LAYER_1
  0
POLYLINE
  5
81
  8
LAYER_1
 66
     1
 10
0.0
 20
0.0
 30
0.0
 70
     1
  0
VERTEX
  5
10A
  8
LAYER_1
 10
29.16868239666884
 20
32.76845429068518
 30
0.0
 42
0.4142135623730951
  0
VERTEX
  5
10B
  8
LAYER_1
 10
29.04368239666884
 20
32.64345429068518
 30
0.0
 42
0.4142135623730951
  0
VERTEX
  5
10C
  8
LAYER_1
 10
29.16868239666884
 20
32.51845429068518
 30
0.0
 42
0.4142135623730951
  0
VERTEX
  5
10D
  8
LAYER_1
 10
29.29368239666884
 20
32.64345429068518
 30
0.0
 42
0.4142135623730951
  0
SEQEND
  5
1F7
  8
LAYER_1
  0
POLYLINE
  5
82
  8
LAYER_1
 66
     1
 10
0.0
 20
0.0
 30
0.0
 70
     1
  0
VERTEX
  5
10E
  8
LAYER_1
 10
30.28368239666882
 20
32.76845429068518
 30
0.0
 42
0.4142135623730951
  0
VERTEX
  5
10F
  8
LAYER_1
 10
30.15868239666882
 20
32.64345429068518
 30
0.0
 42
0.4142135623730951
  0
VERTEX
  5
110
  8
LAYER_1
 10
30.28368239666882
 20
32.51845429068518
 30
0.0
 42
0.4142135623730951
  0
VERTEX
  5
111
  8
LAYER_1
 10
30.40868239666882
 20
32.64345429068518
 30
0.0
 42
0.4142135623730951
  0
SEQEND
  5
1F8
  8
LAYER_1
  0
POLYLINE
  5
83
  8
LAYER_1
 66
     1
 10
0.0
 20
0.0
 30
0.0
 70
     1
  0
VERTEX
  5
112
  8
LAYER_1
 10
29.16868239666884
 20
8.768454290685185
 30
0.0
 42
0.4142135623730951
  0
VERTEX
  5
113
  8
LAYER_1
 10
29.04368239666884
 20
8.643454290685185
 30
0.0
 42
0.4142135623730951
  0
VERTEX
  5
114
  8
LAYER_1
 10
29.16868239666884
 20
8.518454290685185
 30
0.0
 42
0.4142135623730951
  0
VERTEX
  5
115
  8
LAYER_1
 10
29.29368239666884
 20
8.643454290685185
 30
0.0
 42
0.4142135623730951
  0
SEQEND
  5
1F9
  8
LAYER_1
  0
POLYLINE
  5
84
  8
LAYER_1
 66
     1
 10
0.0
 20
0.0
 30
0.0
 70
     1
  0
VERTEX
  5
116
  8
LAYER_1
 10
30.28368239666882
 20
8.768454290685185
 30
0.0
 42
0.4142135623730951
  0
VERTEX
  5
117
  8
LAYER_1
 10
30.15868239666882
 20
8.643454290685185
 30
0.0
 42
0.4142135623730951
  0
VERTEX
  5
118
  8
LAYER_1
 10
30.28368239666882
 20
8.518454290685185
 30
0.0
 42
0.4142135623730951
  0
VERTEX
  5
119
  8
LAYER_1
 10
30.40868239666882
 20
8.643454290685185
 30
0.0
 42
0.4142135623730951
  0
SEQEND
  5
1FA
  8
LAYER_1
  0
POLYLINE
  5
85
  8
LAYER_1
 66
     1
 10
0.0
 20
0.0
 30
0.0
 70
     1
  0
VERTEX
  5
11A
  8
LAYER_1
 10
3.960776275025289
 20
34.87996954048648
 30
0.0
  0
VERTEX
  5
11B
  8
LAYER_1
 10
3.960776275025289
 20
5.879969540486485
 30
0.0
 42
0.4142135623730931
  0
VERTEX
  5
11C
  8
LAYER_1
 10
5.960776275025289
 20
3.879969540486485
 30
0.0
  0
VERTEX
  5
11D
  8
LAYER_1
 10
22.96077627502521
 20
3.879969540486485
 30
0.0
 42
0.4142135623731087
  0
VERTEX
  5
11E
  8
LAYER_1
 10
24.9607762750252
 20
5.879969540486485
 30
0.0
  0
VERTEX
  5
11F
  8
LAYER_1
 10
24.9607762750252
 20
34.87996954048648
 30
0.0
 42
0.4142135623730763
  0
VERTEX
  5
120
  8
LAYER_1
 10
22.96077627502521
 20
36.87996954048648
 30
0.0
  0
VERTEX
  5
121
  8
LAYER_1
 10
5.960776275025289
 20
36.87996954048648
 30
0.0
 42
0.4142135623730985
  0
SEQEND
  5
1FB
  8
LAYER_1
  0
POLYLINE
  5
86
  8
LAYER_1
 66
     1
 10
0.0
 20
0.0
 30
0.0
 70
     1
  0
VERTEX
  5
122
  8
LAYER_1
 10
2.460776275025282
 20
2.379969540486485
 30
0.0
  0
VERTEX
  5
123
  8
LAYER_1
 10
26.4607762750252
 20
2.379969540486485
 30
0.0
  0
VERTEX
  5
124
  8
LAYER_1
 10
26.4607762750252
 20
38.37996954048648
 30
0.0
  0
VERTEX
  5
125
  8
LAYER_1
 10
2.460776275025282
 20
38.37996954048648
 30
0.0
  0
SEQEND
  5
1FC
  8
LAYER_1
  0
POLYLINE
  5
87
  8
LAYER_1
 66
     1
 10
0.0
 20
0.0
 30
0.0
 70
     1
  0
VERTEX
  5
126
  8
LAYER_1
 10
54.04415620805062
 20
2.440181354865821
 30
0.0
  0
VERTEX
  5
127
  8
LAYER_1
 10
70.04415620805062
 20
2.440181354865821
 30
0.0
  0
VERTEX
  5
128
  8
LAYER_1
 10
70.04415620805062
 20
30.9402126550501
 30
0.0
  0
VERTEX
  5
129
  8
LAYER_1
 10
54.04415620805062
 20
30.9402126550501
 30
0.0
  0
SEQEND
  5
1FD
  8
LAYER_1
  0
POLYLINE
  5
88
  8
LAYER_1
 66
     1
 10
0.0
 20
0.0
 30
0.0
 70
     1
  0
VERTEX
  5
12A
  8
LAYER_1
 10
62.04415620805063
 20
24.44018135486583
 30
0.0
 42
0.4142135623562798
  0
VERTEX
  5
12B
  8
LAYER_1
 10
61.89415620805063
 20
24.29018135486582
 30
0.0
  0
VERTEX
  5
12C
  8
LAYER_1
 10
61.89415620805063
 20
6.590181354865827
 30
0.0
 42
0.414213562393451
  0
VERTEX
  5
12D
  8
LAYER_1
 10
62.04415620805063
 20
6.440181354865828
 30
0.0
 42
0.4142135623874822
  0
VERTEX
  5
12E
  8
LAYER_1
 10
62.19415620805064
 20
6.590181354865827
 30
0.0
  0
VERTEX
  5
12F
  8
LAYER_1
 10
62.19415620805064
 20
24.29018135486582
 30
0.0
 42
0.4142135623437742
  0
SEQEND
  5
1FE
  8
LAYER_1
  0
POLYLINE
  5
89
  8
LAYER_1
 66
     1
 10
0.0
 20
0.0
 30
0.0
 70
     1
  0
VERTEX
  5
130
  8
LAYER_1
 10
56.04415620805062
 20
4.975212655050093
 30
0.0
 42
0.4142135623730951
  0
VERTEX
  5
131
  8
LAYER_1
 10
55.88415620805062
 20
4.81521265505009
 30
0.0
 42
0.4142135623730951
  0
VERTEX
  5
132
  8
LAYER_1
 10
56.04415620805062
 20
4.655212655050093
 30
0.0
 42
0.4142135623730951
  0
VERTEX
  5
133
  8
LAYER_1
 10
56.20415620805062
 20
4.81521265505009
 30
0.0
 42
0.4142135623730951
  0
SEQEND
  5
1FF
  8
LAYER_1
  0
POLYLINE
  5
8A
  8
LAYER_1
 66
     1
 10
0.0
 20
0.0
 30
0.0
 70
     1
  0
VERTEX
  5
134
  8
LAYER_1
 10
68.04415620805064
 20
4.975212655050093
 30
0.0
 42
0.4142135623730951
  0
VERTEX
  5
135
  8
LAYER_1
 10
67.88415620805064
 20
4.81521265505009
 30
0.0
 42
0.4142135623730951
  0
VERTEX
  5
136
  8
LAYER_1
 10
68.04415620805064
 20
4.655212655050093
 30
0.0
 42
0.4142135623730951
  0
VERTEX
  5
137
  8
LAYER_1
 10
68.20415620805063
 20
4.81521265505009
 30
0.0
 42
0.4142135623730951
  0
SEQEND
  5
200
  8
LAYER_1
  0
POLYLINE
  5
8B
  8
LAYER_1
 66
     1
 10
0.0
 20
0.0
 30
0.0
 70
     1
  0
VERTEX
  5
138
  8
LAYER_1
 10
6.460776275025239
 20
6.129953890394347
 30
0.0
  0
VERTEX
  5
139
  8
LAYER_1
 10
22.46077627502525
 20
6.129953890394347
 30
0.0
  0
VERTEX
  5
13A
  8
LAYER_1
 10
22.46077627502525
 20
34.62998519057862
 30
0.0
  0
VERTEX
  5
13B
  8
LAYER_1
 10
6.460776275025239
 20
34.62998519057862
 30
0.0
  0
SEQEND
  5
201
  8
LAYER_1
  0
POLYLINE
  5
8C
  8
LAYER_1
 66
     1
 10
0.0
 20
0.0
 30
0.0
 70
     1
  0
VERTEX
  5
13C
  8
LAYER_1
 10
14.46077627502525
 20
28.12995389039435
 30
0.0
 42
0.4142135623562798
  0
VERTEX
  5
13D
  8
LAYER_1
 10
14.31077627502526
 20
27.97995389039434
 30
0.0
  0
VERTEX
  5
13E
  8
LAYER_1
 10
14.31077627502526
 20
10.27995389039435
 30
0.0
 42
0.414213562393451
  0
VERTEX
  5
13F
  8
LAYER_1
 10
14.46077627502525
 20
10.12995389039435
 30
0.0
 42
0.4142135623874822
  0
VERTEX
  5
140
  8
LAYER_1
 10
14.61077627502526
 20
10.27995389039435
 30
0.0
  0
VERTEX
  5
141
  8
LAYER_1
 10
14.61077627502526
 20
27.97995389039434
 30
0.0
 42
0.4142135623437742
  0
SEQEND
  5
202
  8
LAYER_1
  0
POLYLINE
  5
8D
  8
LAYER_1
 66
     1
 10
0.0
 20
0.0
 30
0.0
 70
     1
  0
VERTEX
  5
142
  8
LAYER_1
 10
8.460776275025239
 20
8.66498519057862
 30
0.0
 42
0.4142135623730951
  0
VERTEX
  5
143
  8
LAYER_1
 10
8.300776275025243
 20
8.504985190578616
 30
0.0
 42
0.4142135623730951
  0
VERTEX
  5
144
  8
LAYER_1
 10
8.460776275025239
 20
8.344985190578619
 30
0.0
 42
0.4142135623730951
  0
VERTEX
  5
145
  8
LAYER_1
 10
8.62077627502525
 20
8.504985190578616
 30
0.0
 42
0.4142135623730951
  0
SEQEND
  5
203
  8
LAYER_1
  0
POLYLINE
  5
8E
  8
LAYER_1
 66
     1
 10
0.0
 20
0.0
 30
0.0
 70
     1
  0
VERTEX
  5
146
  8
LAYER_1
 10
20.46077627502527
 20
8.66498519057862
 30
0.0
 42
0.4142135623730951
  0
VERTEX
  5
147
  8
LAYER_1
 10
20.30077627502527
 20
8.504985190578616
 30
0.0
 42
0.4142135623730951
  0
VERTEX
  5
148
  8
LAYER_1
 10
20.46077627502527
 20
8.344985190578619
 30
0.0
 42
0.4142135623730951
  0
VERTEX
  5
149
  8
LAYER_1
 10
20.62077627502526
 20
8.504985190578616
 30
0.0
 42
0.4142135623730951
  0
SEQEND
  5
204
  8
LAYER_1
  0
POLYLINE
  5
8F
  8
LAYER_1
 66
     1
 10
0.0
 20
0.0
 30
0.0
 70
     1
  0
VERTEX
  5
14A
  8
LAYER_1
 10
55.42426603991262
 20
37.22427327885178
 30
0.0
 42
0.4142135623730951
  0
VERTEX
  5
14B
  8
LAYER_1
 10
55.29926603991262
 20
37.09927327885178
 30
0.0
 42
0.4142135623730951
  0
VERTEX
  5
14C
  8
LAYER_1
 10
55.42426603991262
 20
36.97427327885178
 30
0.0
 42
0.4142135623730951
  0
VERTEX
  5
14D
  8
LAYER_1
 10
55.54926603991262
 20
37.09927327885178
 30
0.0
 42
0.4142135623730951
  0
SEQEND
  5
205
  8
LAYER_1
  0
POLYLINE
  5
90
  8
LAYER_1
 66
     1
 10
0.0
 20
0.0
 30
0.0
 70
     1
  0
VERTEX
  5
14E
  8
LAYER_1
 10
62.35246927018996
 20
37.22427327885178
 30
0.0
 42
0.4142135623730951
  0
VERTEX
  5
14F
  8
LAYER_1
 10
62.22746927018996
 20
37.09927327885178
 30
0.0
 42
0.4142135623730951
  0
VERTEX
  5
150
  8
LAYER_1
 10
62.35246927018996
 20
36.97427327885178
 30
0.0
 42
0.4142135623730951
  0
VERTEX
  5
151
  8
LAYER_1
 10
62.47746927018996
 20
37.09927327885178
 30
0.0
 42
0.4142135623730951
  0
SEQEND
  5
206
  8
LAYER_1
  0
POLYLINE
  5
91
  8
LAYER_1
 66
     1
 10
0.0
 20
0.0
 30
0.0
 70
     1
  0
VERTEX
  5
152
  8
LAYER_1
 10
58.88836765505254
 20
43.2242732788512
 30
0.0
 42
0.4142135623730951
  0
VERTEX
  5
153
  8
LAYER_1
 10
58.76336765505254
 20
43.0992732788512
 30
0.0
 42
0.4142135623730951
  0
VERTEX
  5
154
  8
LAYER_1
 10
58.88836765505254
 20
42.9742732788512
 30
0.0
 42
0.4142135623730951
  0
VERTEX
  5
155
  8
LAYER_1
 10
59.01336765505254
 20
43.0992732788512
 30
0.0
 42
0.4142135623730951
  0
SEQEND
  5
207
  8
LAYER_1
  0
POLYLINE
  5
92
  8
LAYER_1
 66
     1
 10
0.0
 20
0.0
 30
0.0
 70
     1
  0
VERTEX
  5
156
  8
LAYER_1
 10
58.88838711813977
 20
41.16174011542429
 30
0.0
 42
-0.3441706035774714
  0
VERTEX
  5
157
  8
LAYER_1
 10
60.88899495031904
 20
39.59924011542431
 30
0.0
  0
VERTEX
  5
158
  8
LAYER_1
 10
61.13838711813977
 20
39.59924011542431
 30
0.0
 42
-0.4142135623990839
  0
VERTEX
  5
159
  8
LAYER_1
 10
61.26338711813977
 20
39.47424011542431
 30
0.0
  0
VERTEX
  5
15A
  8
LAYER_1
 10
61.26338711813977
 20
38.72424011542431
 30
0.0
 42
-0.4142135623877721
  0
VERTEX
  5
15B
  8
LAYER_1
 10
61.13838711813977
 20
38.59924011542431
 30
0.0
  0
VERTEX
  5
15C
  8
LAYER_1
 10
60.88899495031904
 20
38.59924011542431
 30
0.0
 42
-0.3441706035773971
  0
VERTEX
  5
15D
  8
LAYER_1
 10
58.88838711813977
 20
37.03674011542431
 30
0.0
 42
-0.3441706035773961
  0
VERTEX
  5
15E
  8
LAYER_1
 10
56.8877792859605
 20
38.59924011542431
 30
0.0
  0
VERTEX
  5
15F
  8
LAYER_1
 10
56.63838711813977
 20
38.59924011542431
 30
0.0
 42
-0.414213562369298
  0
VERTEX
  5
160
  8
LAYER_1
 10
56.51338711813977
 20
38.72424011542431
 30
0.0
  0
VERTEX
  5
161
  8
LAYER_1
 10
56.51338711813977
 20
39.47424011542431
 30
0.0
 42
-0.4142135623806666
  0
VERTEX
  5
162
  8
LAYER_1
 10
56.63838711813977
 20
39.59924011542431
 30
0.0
  0
VERTEX
  5
163
  8
LAYER_1
 10
56.8877792859605
 20
39.59924011542431
 30
0.0
 42
-0.3441706035774542
  0
SEQEND
  5
208
  8
LAYER_1
  0
POLYLINE
  5
93
  8
LAYER_1
 66
     1
 10
0.0
 20
0.0
 30
0.0
 70
     1
  0
VERTEX
  5
164
  8
LAYER_1
 10
2.460776275025282
 20
39.21094842692945
 30
0.0
  0
VERTEX
  5
165
  8
LAYER_1
 10
6.460776275025282
 20
39.21094842692945
 30
0.0
  0
VERTEX
  5
166
  8
LAYER_1
 10
6.460776275025282
 20
42.46094842692945
 30
0.0
  0
VERTEX
  5
167
  8
LAYER_1
 10
2.460776275025282
 20
42.46094842692945
 30
0.0
  0
SEQEND
  5
209
  8
LAYER_1
  0
POLYLINE
  5
94
  8
LAYER_1
 66
     1
 10
0.0
 20
0.0
 30
0.0
 70
     1
  0
VERTEX
  5
168
  8
LAYER_1
 10
7.460776275025282
 20
39.21094842692945
 30
0.0
  0
VERTEX
  5
169
  8
LAYER_1
 10
11.46077627502528
 20
39.21094842692945
 30
0.0
  0
VERTEX
  5
16A
  8
LAYER_1
 10
11.46077627502528
 20
42.46094842692945
 30
0.0
  0
VERTEX
  5
16B
  8
LAYER_1
 10
7.460776275025282
 20
42.46094842692945
 30
0.0
  0
SEQEND
  5
20A
  8
LAYER_1
  0
POLYLINE
  5
95
  8
LAYER_1
 66
     1
 10
0.0
 20
0.0
 30
0.0
 70
     1
  0
VERTEX
  5
16C
  8
LAYER_1
 10
12.46077627502528
 20
39.21094842692945
 30
0.0
  0
VERTEX
  5
16D
  8
LAYER_1
 10
16.46077627502528
 20
39.21094842692945
 30
0.0
  0
VERTEX
  5
16E
  8
LAYER_1
 10
16.46077627502528
 20
42.46094842692945
 30
0.0
  0
VERTEX
  5
16F
  8
LAYER_1
 10
12.46077627502528
 20
42.46094842692945
 30
0.0
  0
SEQEND
  5
20B
  8
LAYER_1
  0
POLYLINE
  5
96
  8
LAYER_1
 66
     1
 10
0.0
 20
0.0
 30
0.0
 70
     1
  0
VERTEX
  5
170
  8
LAYER_1
 10
17.46077627502528
 20
39.21094842692945
 30
0.0
  0
VERTEX
  5
171
  8
LAYER_1
 10
21.46077627502528
 20
39.21094842692945
 30
0.0
  0
VERTEX
  5
172
  8
LAYER_1
 10
21.46077627502528
 20
42.46094842692945
 30
0.0
  0
VERTEX
  5
173
  8
LAYER_1
 10
17.46077627502528
 20
42.46094842692945
 30
0.0
  0
SEQEND
  5
20C
  8
LAYER_1
  0
POLYLINE
  5
97
  8
LAYER_1
 66
     1
 10
0.0
 20
0.0
 30
0.0
 70
     1
  0
VERTEX
  5
174
  8
LAYER_1
 10
17.46077627502528
 20
43.46094842692945
 30
0.0
  0
VERTEX
  5
175
  8
LAYER_1
 10
21.46077627502528
 20
43.46094842692945
 30
0.0
  0
VERTEX
  5
176
  8
LAYER_1
 10
21.46077627502528
 20
46.71094842692945
 30
0.0
  0
VERTEX
  5
177
  8
LAYER_1
 10
17.46077627502528
 20
46.71094842692945
 30
0.0
  0
SEQEND
  5
20D
  8
LAYER_1
  0
POLYLINE
  5
98
  8
LAYER_1
 66
     1
 10
0.0
 20
0.0
 30
0.0
 70
     1
  0
VERTEX
  5
178
  8
LAYER_1
 10
12.46077627502528
 20
43.46094842692945
 30
0.0
  0
VERTEX
  5
179
  8
LAYER_1
 10
16.46077627502528
 20
43.46094842692945
 30
0.0
  0
VERTEX
  5
17A
  8
LAYER_1
 10
16.46077627502528
 20
46.71094842692945
 30
0.0
  0
VERTEX
  5
17B
  8
LAYER_1
 10
12.46077627502528
 20
46.71094842692945
 30
0.0
  0
SEQEND
  5
20E
  8
LAYER_1
  0
POLYLINE
  5
99
  8
LAYER_1
 66
     1
 10
0.0
 20
0.0
 30
0.0
 70
     1
  0
VERTEX
  5
17C
  8
LAYER_1
 10
7.460776275025282
 20
43.46094842692945
 30
0.0
  0
VERTEX
  5
17D
  8
LAYER_1
 10
11.46077627502528
 20
43.46094842692945
 30
0.0
  0
VERTEX
  5
17E
  8
LAYER_1
 10
11.46077627502528
 20
46.71094842692945
 30
0.0
  0
VERTEX
  5
17F
  8
LAYER_1
 10
7.460776275025282
 20
46.71094842692945
 30
0.0
  0
SEQEND
  5
20F
  8
LAYER_1
  0
POLYLINE
  5
9A
  8
LAYER_1
 66
     1
 10
0.0
 20
0.0
 30
0.0
 70
     1
  0
VERTEX
  5
180
  8
LAYER_1
 10
2.460776275025282
 20
43.46094842692945
 30
0.0
  0
VERTEX
  5
181
  8
LAYER_1
 10
6.460776275025282
 20
43.46094842692945
 30
0.0
  0
VERTEX
  5
182
  8
LAYER_1
 10
6.460776275025282
 20
46.71094842692945
 30
0.0
  0
VERTEX
  5
183
  8
LAYER_1
 10
2.460776275025282
 20
46.71094842692945
 30
0.0
  0
SEQEND
  5
210
  8
LAYER_1
  0
POLYLINE
  5
9B
  8
LAYER_1
 66
     1
 10
0.0
 20
0.0
 30
0.0
 70
     1
  0
VERTEX
  5
184
  8
LAYER_1
 10
81.51101332597783
 20
5.348163908359872
 30
0.0
 42
0.4142135623730951
  0
VERTEX
  5
185
  8
LAYER_1
 10
84.51101332597783
 20
2.348163908359879
 30
0.0
 42
0.4142135623730951
  0
VERTEX
  5
186
  8
LAYER_1
 10
87.51101332597781
 20
5.348163908359872
 30
0.0
 42
0.4142135623730951
  0
VERTEX
  5
187
  8
LAYER_1
 10
84.51101332597783
 20
8.348163908359872
 30
0.0
 42
0.4142135623730951
  0
SEQEND
  5
211
  8
LAYER_1
  0
POLYLINE
  5
9C
  8
LAYER_1
 66
     1
 10
0.0
 20
0.0
 30
0.0
 70
     1
  0
VERTEX
  5
188
  8
LAYER_1
 10
84.90101332597781
 20
1.848163908359872
 30
0.0
  0
VERTEX
  5
189
  8
LAYER_1
 10
84.90101332597781
 20
8.848163908359872
 30
0.0
  0
VERTEX
  5
18A
  8
LAYER_1
 10
84.12101332597781
 20
8.848163908359872
 30
0.0
  0
VERTEX
  5
18B
  8
LAYER_1
 10
84.12101332597781
 20
1.848163908359872
 30
0.0
  0
SEQEND
  5
212
  8
LAYER_1
  0
POLYLINE
  5
9D
  8
LAYER_1
 66
     1
 10
0.0
 20
0.0
 30
0.0
 70
     1
  0
VERTEX
  5
18C
  8
LAYER_1
 10
72.33693249112444
 20
3.027074814262598
 30
0.0
  0
VERTEX
  5
18D
  8
LAYER_1
 10
72.33693249112444
 20
5.527074814262598
 30
0.0
  0
VERTEX
  5
18E
  8
LAYER_1
 10
72.33693249112444
 20
9.027074814262598
 30
0.0
  0
VERTEX
  5
18F
  8
LAYER_1
 10
74.83693249112444
 20
9.027074814262598
 30
0.0
  0
VERTEX
  5
190
  8
LAYER_1
 10
80.33693249112444
 20
5.527074814262598
 30
0.0
  0
VERTEX
  5
191
  8
LAYER_1
 10
80.33693249112444
 20
3.027074814262598
 30
0.0
  0
VERTEX
  5
192
  8
LAYER_1
 10
74.83693249112444
 20
3.027074814262598
 30
0.0
  0
SEQEND
  5
213
  8
LAYER_1
  0
POLYLINE
  5
9E
  8
LAYER_1
 66
     1
 10
0.0
 20
0.0
 30
0.0
 70
     1
  0
VERTEX
  5
193
  8
LAYER_1
 10
81.51101332597783
 20
13.5270748142626
 30
0.0
 42
0.4142135623730951
  0
VERTEX
  5
194
  8
LAYER_1
 10
84.51101332597783
 20
10.5270748142626
 30
0.0
 42
0.4142135623730951
  0
VERTEX
  5
195
  8
LAYER_1
 10
87.51101332597781
 20
13.5270748142626
 30
0.0
 42
0.4142135623730951
  0
VERTEX
  5
196
  8
LAYER_1
 10
84.51101332597783
 20
16.5270748142626
 30
0.0
 42
0.4142135623730951
  0
SEQEND
  5
214
  8
LAYER_1
  0
POLYLINE
  5
9F
  8
LAYER_1
 66
     1
 10
0.0
 20
0.0
 30
0.0
 70
     1
  0
VERTEX
  5
197
  8
LAYER_1
 10
84.90101332597781
 20
10.0270748142626
 30
0.0
  0
VERTEX
  5
198
  8
LAYER_1
 10
84.90101332597781
 20
17.0270748142626
 30
0.0
  0
VERTEX
  5
199
  8
LAYER_1
 10
84.12101332597781
 20
17.0270748142626
 30
0.0
  0
VERTEX
  5
19A
  8
LAYER_1
 10
84.12101332597781
 20
10.0270748142626
 30
0.0
  0
SEQEND
  5
215
  8
LAYER_1
  0
POLYLINE
  5
A0
  8
LAYER_1
 66
     1
 10
0.0
 20
0.0
 30
0.0
 70
     1
  0
VERTEX
  5
19B
  8
LAYER_1
 10
72.33693249112444
 20
11.20598572016531
 30
0.0
  0
VERTEX
  5
19C
  8
LAYER_1
 10
72.33693249112444
 20
13.70598572016531
 30
0.0
  0
VERTEX
  5
19D
  8
LAYER_1
 10
72.33693249112444
 20
17.20598572016531
 30
0.0
  0
VERTEX
  5
19E
  8
LAYER_1
 10
74.83693249112444
 20
17.20598572016531
 30
0.0
  0
VERTEX
  5
19F
  8
LAYER_1
 10
80.33693249112444
 20
13.70598572016531
 30
0.0
  0
VERTEX
  5
1A0
  8
LAYER_1
 10
80.33693249112444
 20
11.20598572016531
 30
0.0
  0
VERTEX
  5
1A1
  8
LAYER_1
 10
74.83693249112444
 20
11.20598572016531
 30
0.0
  0
SEQEND
  5
216
  8
LAYER_1
  0
POLYLINE
  5
A1
  8
LAYER_1
 66
     1
 10
0.0
 20
0.0
 30
0.0
 70
     1
  0
VERTEX
  5
1A2
  8
LAYER_1
 10
81.51101332597783
 20
21.70598572016531
 30
0.0
 42
0.4142135623730951
  0
VERTEX
  5
1A3
  8
LAYER_1
 10
84.51101332597783
 20
18.70598572016531
 30
0.0
 42
0.4142135623730951
  0
VERTEX
  5
1A4
  8
LAYER_1
 10
87.51101332597781
 20
21.70598572016531
 30
0.0
 42
0.4142135623730951
  0
VERTEX
  5
1A5
  8
LAYER_1
 10
84.51101332597783
 20
24.70598572016531
 30
0.0
 42
0.4142135623730951
  0
SEQEND
  5
217
  8
LAYER_1
  0
POLYLINE
  5
A2
  8
LAYER_1
 66
     1
 10
0.0
 20
0.0
 30
0.0
 70
     1
  0
VERTEX
  5
1A6
  8
LAYER_1
 10
84.90101332597781
 20
18.20598572016531
 30
0.0
  0
VERTEX
  5
1A7
  8
LAYER_1
 10
84.90101332597781
 20
25.20598572016531
 30
0.0
  0
VERTEX
  5
1A8
  8
LAYER_1
 10
84.12101332597781
 20
25.20598572016531
 30
0.0
  0
VERTEX
  5
1A9
  8
LAYER_1
 10
84.12101332597781
 20
18.20598572016531
 30
0.0
  0
SEQEND
  5
218
  8
LAYER_1
  0
POLYLINE
  5
A3
  8
LAYER_1
 66
     1
 10
0.0
 20
0.0
 30
0.0
 70
     1
  0
VERTEX
  5
1AA
  8
LAYER_1
 10
72.33693249112444
 20
19.38489662606803
 30
0.0
  0
VERTEX
  5
1AB
  8
LAYER_1
 10
72.33693249112444
 20
21.88489662606803
 30
0.0
  0
VERTEX
  5
1AC
  8
LAYER_1
 10
72.33693249112444
 20
25.38489662606803
 30
0.0
  0
VERTEX
  5
1AD
  8
LAYER_1
 10
74.83693249112444
 20
25.38489662606803
 30
0.0
  0
VERTEX
  5
1AE
  8
LAYER_1
 10
80.33693249112444
 20
21.88489662606803
 30
0.0
  0
VERTEX
  5
1AF
  8
LAYER_1
 10
80.33693249112444
 20
19.38489662606803
 30
0.0
  0
VERTEX
  5
1B0
  8
LAYER_1
 10
74.83693249112444
 20
19.38489662606803
 30
0.0
  0
SEQEND
  5
219
  8
LAYER_1
  0
POLYLINE
  5
A4
  8
LAYER_1
 66
     1
 10
0.0
 20
0.0
 30
0.0
 70
     1
  0
VERTEX
  5
1B1
  8
LAYER_1
 10
81.51101332597783
 20
29.88489662606803
 30
0.0
 42
0.4142135623730951
  0
VERTEX
  5
1B2
  8
LAYER_1
 10
84.51101332597783
 20
26.88489662606803
 30
0.0
 42
0.4142135623730951
  0
VERTEX
  5
1B3
  8
LAYER_1
 10
87.51101332597783
 20
29.88489662606803
 30
0.0
 42
0.4142135623730951
  0
VERTEX
  5
1B4
  8
LAYER_1
 10
84.51101332597783
 20
32.88489662606803
 30
0.0
 42
0.4142135623730951
  0
SEQEND
  5
21A
  8
LAYER_1
  0
POLYLINE
  5
A5
  8
LAYER_1
 66
     1
 10
0.0
 20
0.0
 30
0.0
 70
     1
  0
VERTEX
  5
1B5
  8
LAYER_1
 10
84.90101332597781
 20
26.38489662606803
 30
0.0
  0
VERTEX
  5
1B6
  8
LAYER_1
 10
84.90101332597781
 20
33.38489662606803
 30
0.0
  0
VERTEX
  5
1B7
  8
LAYER_1
 10
84.12101332597781
 20
33.38489662606803
 30
0.0
  0
VERTEX
  5
1B8
  8
LAYER_1
 10
84.12101332597781
 20
26.38489662606803
 30
0.0
  0
SEQEND
  5
21B
  8
LAYER_1
  0
POLYLINE
  5
A6
  8
LAYER_1
 66
     1
 10
0.0
 20
0.0
 30
0.0
 70
     1
  0
VERTEX
  5
1B9
  8
LAYER_1
 10
72.33693249112444
 20
27.56380753197076
 30
0.0
  0
VERTEX
  5
1BA
  8
LAYER_1
 10
72.33693249112444
 20
30.06380753197076
 30
0.0
  0
VERTEX
  5
1BB
  8
LAYER_1
 10
72.33693249112444
 20
33.56380753197076
 30
0.0
  0
VERTEX
  5
1BC
  8
LAYER_1
 10
74.83693249112444
 20
33.56380753197076
 30
0.0
  0
VERTEX
  5
1BD
  8
LAYER_1
 10
80.33693249112444
 20
30.06380753197076
 30
0.0
  0
VERTEX
  5
1BE
  8
LAYER_1
 10
80.33693249112444
 20
27.56380753197076
 30
0.0
  0
VERTEX
  5
1BF
  8
LAYER_1
 10
74.83693249112444
 20
27.56380753197076
 30
0.0
  0
SEQEND
  5
21C
  8
LAYER_1
  0
POLYLINE
  5
A7
  8
LAYER_1
 66
     1
 10
0.0
 20
0.0
 30
0.0
 70
     1
  0
VERTEX
  5
1C0
  8
LAYER_1
 10
56.0441907625959
 20
28.69021265496194
 30
0.0
 42
0.4142135623730951
  0
VERTEX
  5
1C1
  8
LAYER_1
 10
55.9191907625959
 20
28.56521265496194
 30
0.0
 42
0.4142135623730951
  0
VERTEX
  5
1C2
  8
LAYER_1
 10
56.0441907625959
 20
28.44021265496194
 30
0.0
 42
0.4142135623730951
  0
VERTEX
  5
1C3
  8
LAYER_1
 10
56.1691907625959
 20
28.56521265496194
 30
0.0
 42
0.4142135623730951
  0
SEQEND
  5
21D
  8
LAYER_1
  0
POLYLINE
  5
A8
  8
LAYER_1
 66
     1
 10
0.0
 20
0.0
 30
0.0
 70
     1
  0
VERTEX
  5
1C4
  8
LAYER_1
 10
68.04419076259592
 20
28.69021265496194
 30
0.0
 42
0.4142135623730951
  0
VERTEX
  5
1C5
  8
LAYER_1
 10
67.91919076259592
 20
28.56521265496194
 30
0.0
 42
0.4142135623730951
  0
VERTEX
  5
1C6
  8
LAYER_1
 10
68.04419076259592
 20
28.44021265496194
 30
0.0
 42
0.4142135623730951
  0
VERTEX
  5
1C7
  8
LAYER_1
 10
68.16919076259592
 20
28.56521265496194
 30
0.0
 42
0.4142135623730951
  0
SEQEND
  5
21E
  8
LAYER_1
  0
POLYLINE
  5
A9
  8
LAYER_1
 66
     1
 10
0.0
 20
0.0
 30
0.0
 70
     1
  0
VERTEX
  5
1C8
  8
LAYER_1
 10
56.0441562080506
 20
28.72524395514621
 30
0.0
 42
0.4142135623730951
  0
VERTEX
  5
1C9
  8
LAYER_1
 10
55.88415620805061
 20
28.56524395514622
 30
0.0
 42
0.4142135623730951
  0
VERTEX
  5
1CA
  8
LAYER_1
 10
56.0441562080506
 20
28.40524395514622
 30
0.0
 42
0.4142135623730951
  0
VERTEX
  5
1CB
  8
LAYER_1
 10
56.20415620805061
 20
28.56524395514622
 30
0.0
 42
0.4142135623730951
  0
SEQEND
  5
21F
  8
LAYER_1
  0
POLYLINE
  5
AA
  8
LAYER_1
 66
     1
 10
0.0
 20
0.0
 30
0.0
 70
     1
  0
VERTEX
  5
1CC
  8
LAYER_1
 10
68.04415620805065
 20
28.72524395514621
 30
0.0
 42
0.4142135623730951
  0
VERTEX
  5
1CD
  8
LAYER_1
 10
67.88415620805065
 20
28.56524395514622
 30
0.0
 42
0.4142135623730951
  0
VERTEX
  5
1CE
  8
LAYER_1
 10
68.04415620805065
 20
28.40524395514622
 30
0.0
 42
0.4142135623730951
  0
VERTEX
  5
1CF
  8
LAYER_1
 10
68.20415620805065
 20
28.56524395514622
 30
0.0
 42
0.4142135623730951
  0
SEQEND
  5
220
  8
LAYER_1
  0
POLYLINE
  5
AB
  8
LAYER_1
 66
     1
 10
0.0
 20
0.0
 30
0.0
 70
     1
  0
VERTEX
  5
1D0
  8
LAYER_1
 10
8.46081082957052
 20
32.37998519055987
 30
0.0
 42
0.4142135623730951
  0
VERTEX
  5
1D1
  8
LAYER_1
 10
8.33581082957052
 20
32.25498519055987
 30
0.0
 42
0.4142135623730951
  0
VERTEX
  5
1D2
  8
LAYER_1
 10
8.46081082957052
 20
32.12998519055987
 30
0.0
 42
0.4142135623730951
  0
VERTEX
  5
1D3
  8
LAYER_1
 10
8.58581082957052
 20
32.25498519055987
 30
0.0
 42
0.4142135623730951
  0
SEQEND
  5
221
  8
LAYER_1
  0
POLYLINE
  5
AC
  8
LAYER_1
 66
     1
 10
0.0
 20
0.0
 30
0.0
 70
     1
  0
VERTEX
  5
1D4
  8
LAYER_1
 10
20.46081082957055
 20
32.37998519055987
 30
0.0
 42
0.4142135623730951
  0
VERTEX
  5
1D5
  8
LAYER_1
 10
20.33581082957055
 20
32.25498519055987
 30
0.0
 42
0.4142135623730951
  0
VERTEX
  5
1D6
  8
LAYER_1
 10
20.46081082957055
 20
32.12998519055987
 30
0.0
 42
0.4142135623730951
  0
VERTEX
  5
1D7
  8
LAYER_1
 10
20.58581082957055
 20
32.25498519055987
 30
0.0
 42
0.4142135623730951
  0
SEQEND
  5
222
  8
LAYER_1
  0
POLYLINE
  5
AD
  8
LAYER_1
 66
     1
 10
0.0
 20
0.0
 30
0.0
 70
     1
  0
VERTEX
  5
1D8
  8
LAYER_1
 10
8.460776275025225
 20
32.41501649074414
 30
0.0
 42
0.4142135623730951
  0
VERTEX
  5
1D9
  8
LAYER_1
 10
8.300776275025228
 20
32.25501649074415
 30
0.0
 42
0.4142135623730951
  0
VERTEX
  5
1DA
  8
LAYER_1
 10
8.460776275025225
 20
32.09501649074415
 30
0.0
 42
0.4142135623730951
  0
VERTEX
  5
1DB
  8
LAYER_1
 10
8.620776275025236
 20
32.25501649074415
 30
0.0
 42
0.4142135623730951
  0
SEQEND
  5
223
  8
LAYER_1
  0
POLYLINE
  5
AE
  8
LAYER_1
 66
     1
 10
0.0
 20
0.0
 30
0.0
 70
     1
  0
VERTEX
  5
1DC
  8
LAYER_1
 10
20.46077627502528
 20
32.41501649074414
 30
0.0
 42
0.4142135623730951
  0
VERTEX
  5
1DD
  8
LAYER_1
 10
20.30077627502529
 20
32.25501649074415
 30
0.0
 42
0.4142135623730951
  0
VERTEX
  5
1DE
  8
LAYER_1
 10
20.46077627502528
 20
32.09501649074415
 30
0.0
 42
0.4142135623730951
  0
VERTEX
  5
1DF
  8
LAYER_1
 10
20.62077627502528
 20
32.25501649074415
 30
0.0
 42
0.4142135623730951
  0
SEQEND
  5
224
  8
LAYER_1
  0
ENDSEC
  0
EOF
