  0
SECTION
  2
HEADER
  9
$ACADVER
  1
AC1018
  9
$ACADMAINTVER
 70
     0
  9
$DWGCODEPAGE
  3
ANSI_1252
  9
$INSBASE
 10
0.0
 20
0.0
 30
0.0
  9
$EXTMIN
 10
1.000000000000000E+20
 20
1.000000000000000E+20
 30
1.000000000000000E+20
  9
$EXTMAX
 10
-1.000000000000000E+20
 20
-1.000000000000000E+20
 30
-1.000000000000000E+20
  9
$LIMMIN
 10
0.0
 20
0.0
  9
$LIMMAX
 10
12.0
 20
9.0
  9
$ORTHOMODE
 70
     0
  9
$REGENMODE
 70
     1
  9
$FILLMODE
 70
     1
  9
$QTEXTMODE
 70
     0
  9
$MIRRTEXT
 70
     1
  9
$LTSCALE
 40
1.0
  9
$ATTMODE
 70
     1
  9
$TEXTSIZE
 40
0.2
  9
$TRACEWID
 40
0.05
  9
$TEXTSTYLE
  7
Standard
  9
$CLAYER
  8
0
  9
$CELTYPE
  6
ByLayer
  9
$CECOLOR
 62
   256
  9
$CELTSCALE
 40
1.0
  9
$DISPSILH
 70
     0
  9
$DIMSCALE
 40
1.0
  9
$DIMASZ
 40
0.18
  9
$DIMEXO
 40
0.0625
  9
$DIMDLI
 40
0.38
  9
$DIMRND
 40
0.0
  9
$DIMDLE
 40
0.0
  9
$DIMEXE
 40
0.18
  9
$DIMTP
 40
0.0
  9
$DIMTM
 40
0.0
  9
$DIMTXT
 40
0.18
  9
$DIMCEN
 40
0.09
  9
$DIMTSZ
 40
0.0
  9
$DIMTOL
 70
     0
  9
$DIMLIM
 70
     0
  9
$DIMTIH
 70
     1
  9
$DIMTOH
 70
     1
  9
$DIMSE1
 70
     0
  9
$DIMSE2
 70
     0
  9
$DIMTAD
 70
     0
  9
$DIMZIN
 70
     0
  9
$DIMBLK
  1

  9
$DIMASO
 70
     1
  9
$DIMSHO
 70
     1
  9
$DIMPOST
  1

  9
$DIMAPOST
  1

  9
$DIMALT
 70
     0
  9
$DIMALTD
 70
     2
  9
$DIMALTF
 40
25.4
  9
$DIMLFAC
 40
1.0
  9
$DIMTOFL
 70
     0
  9
$DIMTVP
 40
0.0
  9
$DIMTIX
 70
     0
  9
$DIMSOXD
 70
     0
  9
$DIMSAH
 70
     0
  9
$DIMBLK1
  1

  9
$DIMBLK2
  1

  9
$DIMSTYLE
  2
Standard
  9
$DIMCLRD
 70
     0
  9
$DIMCLRE
 70
     0
  9
$DIMCLRT
 70
     0
  9
$DIMTFAC
 40
1.0
  9
$DIMGAP
 40
0.09
  9
$DIMJUST
 70
     0
  9
$DIMSD1
 70
     0
  9
$DIMSD2
 70
     0
  9
$DIMTOLJ
 70
     1
  9
$DIMTZIN
 70
     0
  9
$DIMALTZ
 70
     0
  9
$DIMALTTZ
 70
     0
  9
$DIMUPT
 70
     0
  9
$DIMDEC
 70
     4
  9
$DIMTDEC
 70
     4
  9
$DIMALTU
 70
     2
  9
$DIMALTTD
 70
     2
  9
$DIMTXSTY
  7
Standard
  9
$DIMAUNIT
 70
     0
  9
$DIMADEC
 70
     0
  9
$DIMALTRND
 40
0.0
  9
$DIMAZIN
 70
     0
  9
$DIMDSEP
 70
    46
  9
$DIMATFIT
 70
     3
  9
$DIMFRAC
 70
     0
  9
$DIMLDRBLK
  1

  9
$DIMLUNIT
 70
     2
  9
$DIMLWD
 70
    -2
  9
$DIMLWE
 70
    -2
  9
$DIMTMOVE
 70
     0
  9
$LUNITS
 70
     2
  9
$LUPREC
 70
     4
  9
$SKETCHINC
 40
0.1
  9
$FILLETRAD
 40
0.5
  9
$AUNITS
 70
     0
  9
$AUPREC
 70
     0
  9
$MENU
  1
.
  9
$ELEVATION
 40
0.0
  9
$PELEVATION
 40
0.0
  9
$THICKNESS
 40
0.0
  9
$LIMCHECK
 70
     0
  9
$CHAMFERA
 40
0.5
  9
$CHAMFERB
 40
0.5
  9
$CHAMFERC
 40
1.0
  9
$CHAMFERD
 40
0.0
  9
$SKPOLY
 70
     0
  9
$TDCREATE
 40
2457134.130286794
  9
$TDUCREATE
 40
2457134.046953461
  9
$TDUPDATE
 40
2457134.130286805
  9
$TDUUPDATE
 40
2457134.046953472
  9
$TDINDWG
 40
0.0000000116
  9
$TDUSRTIMER
 40
0.0000000116
  9
$USRTIMER
 70
     1
  9
$ANGBASE
 50
0.0
  9
$ANGDIR
 70
     0
  9
$PDMODE
 70
     0
  9
$PDSIZE
 40
0.0
  9
$PLINEWID
 40
0.0
  9
$SPLFRAME
 70
     0
  9
$SPLINETYPE
 70
     6
  9
$SPLINESEGS
 70
     8
  9
$HANDSEED
  5
7E
  9
$SURFTAB1
 70
     6
  9
$SURFTAB2
 70
     6
  9
$SURFTYPE
 70
     6
  9
$SURFU
 70
     6
  9
$SURFV
 70
     6
  9
$UCSBASE
  2

  9
$UCSNAME
  2

  9
$UCSORG
 10
0.0
 20
0.0
 30
0.0
  9
$UCSXDIR
 10
1.0
 20
0.0
 30
0.0
  9
$UCSYDIR
 10
0.0
 20
1.0
 30
0.0
  9
$UCSORTHOREF
  2

  9
$UCSORTHOVIEW
 70
     0
  9
$UCSORGTOP
 10
0.0
 20
0.0
 30
0.0
  9
$UCSORGBOTTOM
 10
0.0
 20
0.0
 30
0.0
  9
$UCSORGLEFT
 10
0.0
 20
0.0
 30
0.0
  9
$UCSORGRIGHT
 10
0.0
 20
0.0
 30
0.0
  9
$UCSORGFRONT
 10
0.0
 20
0.0
 30
0.0
  9
$UCSORGBACK
 10
0.0
 20
0.0
 30
0.0
  9
$PUCSBASE
  2

  9
$PUCSNAME
  2

  9
$PUCSORG
 10
0.0
 20
0.0
 30
0.0
  9
$PUCSXDIR
 10
1.0
 20
0.0
 30
0.0
  9
$PUCSYDIR
 10
0.0
 20
1.0
 30
0.0
  9
$PUCSORTHOREF
  2

  9
$PUCSORTHOVIEW
 70
     0
  9
$PUCSORGTOP
 10
0.0
 20
0.0
 30
0.0
  9
$PUCSORGBOTTOM
 10
0.0
 20
0.0
 30
0.0
  9
$PUCSORGLEFT
 10
0.0
 20
0.0
 30
0.0
  9
$PUCSORGRIGHT
 10
0.0
 20
0.0
 30
0.0
  9
$PUCSORGFRONT
 10
0.0
 20
0.0
 30
0.0
  9
$PUCSORGBACK
 10
0.0
 20
0.0
 30
0.0
  9
$USERI1
 70
     0
  9
$USERI2
 70
     0
  9
$USERI3
 70
     0
  9
$USERI4
 70
     0
  9
$USERI5
 70
     0
  9
$USERR1
 40
0.0
  9
$USERR2
 40
0.0
  9
$USERR3
 40
0.0
  9
$USERR4
 40
0.0
  9
$USERR5
 40
0.0
  9
$WORLDVIEW
 70
     1
  9
$SHADEDGE
 70
     3
  9
$SHADEDIF
 70
    70
  9
$TILEMODE
 70
     1
  9
$MAXACTVP
 70
    64
  9
$PINSBASE
 10
0.0
 20
0.0
 30
0.0
  9
$PLIMCHECK
 70
     0
  9
$PEXTMIN
 10
1.000000000000000E+20
 20
1.000000000000000E+20
 30
1.000000000000000E+20
  9
$PEXTMAX
 10
-1.000000000000000E+20
 20
-1.000000000000000E+20
 30
-1.000000000000000E+20
  9
$PLIMMIN
 10
0.0
 20
0.0
  9
$PLIMMAX
 10
12.0
 20
9.0
  9
$UNITMODE
 70
     0
  9
$VISRETAIN
 70
     1
  9
$PLINEGEN
 70
     0
  9
$PSLTSCALE
 70
     1
  9
$TREEDEPTH
 70
  3020
  9
$CMLSTYLE
  2
Standard
  9
$CMLJUST
 70
     0
  9
$CMLSCALE
 40
1.0
  9
$PROXYGRAPHICS
 70
     1
  9
$MEASUREMENT
 70
     0
  9
$CELWEIGHT
370
    -1
  9
$ENDCAPS
280
     0
  9
$JOINSTYLE
280
     0
  9
$LWDISPLAY
290
     1
  9
$INSUNITS
 70
     1
  9
$HYPERLINKBASE
  1

  9
$STYLESHEET
  1

  9
$XEDIT
290
     1
  9
$CEPSNTYPE
380
     0
  9
$PSTYLEMODE
290
     1
  9
$FINGERPRINTGUID
  2
{32C09304-C758-4993-8562-5AA534A07B3E}
  9
$VERSIONGUID
  2
{FAEB1C32-E019-11D5-929B-00C0DF256EC4}
  9
$EXTNAMES
290
     1
  9
$PSVPSCALE
 40
0.0
  9
$OLESTARTUP
290
     0
  9
$SORTENTS
280
   127
  9
$INDEXCTL
280
     0
  9
$HIDETEXT
280
     1
  9
$XCLIPFRAME
290
     0
  9
$HALOGAP
280
     0
  9
$OBSCOLOR
 70
   257
  9
$OBSLTYPE
280
     0
  9
$INTERSECTIONDISPLAY
280
     0
  9
$INTERSECTIONCOLOR
 70
   257
  9
$DIMASSOC
280
     2
  9
$PROJECTNAME
  1

  0
ENDSEC
  0
SECTION
  2
CLASSES
  0
CLASS
  1
ACDBDICTIONARYWDFLT
  2
AcDbDictionaryWithDefault
  3
ObjectDBX Classes
 90
        0
 91
        3
280
     0
281
     0
  0
CLASS
  1
VISUALSTYLE
  2
AcDbVisualStyle
  3
ObjectDBX Classes
 90
     4095
 91
        3
280
     0
281
     0
  0
ENDSEC
  0
SECTION
  2
TABLES
  0
TABLE
  2
VPORT
  5
8
330
0
100
AcDbSymbolTable
 70
     1
  0
VPORT
  5
29
330
8
100
AcDbSymbolTableRecord
100
AcDbViewportTableRecord
  2
*Active
 70
     0
 10
0.0
 20
0.0
 11
1.0
 21
1.0
 12
0.0
 22
0.0
 13
0.0
 23
0.0
 14
0.5
 24
0.5
 15
0.5
 25
0.5
 16
0.0
 26
0.0
 36
1.0
 17
105.0008259828644
 27
148.5000657452101
 37
0.0
 40
297.0001314904201
 41
0.7070759562020681
 42
50.0
 43
0.0
 44
0.0
 50
0.0
 51
0.0
 71
     0
 72
   100
 73
     1
 74
     3
 75
     0
 76
     0
 77
     0
 78
     0
281
     0
 65
     1
110
0.0
120
0.0
130
0.0
111
1.0
121
0.0
131
0.0
112
0.0
122
1.0
132
0.0
 79
     0
146
0.0
  0
ENDTAB
  0
TABLE
  2
LTYPE
  5
5
330
0
100
AcDbSymbolTable
 70
     1
  0
LTYPE
  5
14
330
5
100
AcDbSymbolTableRecord
100
AcDbLinetypeTableRecord
  2
ByBlock
 70
     0
  3

 72
    65
 73
     0
 40
0.0
  0
LTYPE
  5
15
330
5
100
AcDbSymbolTableRecord
100
AcDbLinetypeTableRecord
  2
ByLayer
 70
     0
  3

 72
    65
 73
     0
 40
0.0
  0
LTYPE
  5
16
330
5
100
AcDbSymbolTableRecord
100
AcDbLinetypeTableRecord
  2
Continuous
 70
     0
  3
Solid line
 72
    65
 73
     0
 40
0.0
  0
ENDTAB
  0
TABLE
  2
LAYER
  5
2
330
0
100
AcDbSymbolTable
 70
     2
  0
LAYER
  5
10
330
2
100
AcDbSymbolTableRecord
100
AcDbLayerTableRecord
  2
0
 70
     0
 62
     7
  6
Continuous
370
    -3
390
F
  0
LAYER
  5
3B
330
2
100
AcDbSymbolTableRecord
100
AcDbLayerTableRecord
  2
Layer 1
 70
     0
 62
     7
  6
Continuous
370
    -3
390
F
  0
ENDTAB
  0
TABLE
  2
STYLE
  5
3
330
0
100
AcDbSymbolTable
 70
     1
  0
STYLE
  5
11
330
3
100
AcDbSymbolTableRecord
100
AcDbTextStyleTableRecord
  2
Standard
 70
     0
 40
0.0
 41
1.0
 50
0.0
 71
     0
 42
0.2
  3
txt
  4

  0
ENDTAB
  0
TABLE
  2
VIEW
  5
6
330
0
100
AcDbSymbolTable
 70
     0
  0
ENDTAB
  0
TABLE
  2
UCS
  5
7
330
0
100
AcDbSymbolTable
 70
     0
  0
ENDTAB
  0
TABLE
  2
APPID
  5
9
330
0
100
AcDbSymbolTable
 70
     1
  0
APPID
  5
12
330
9
100
AcDbSymbolTableRecord
100
AcDbRegAppTableRecord
  2
ACAD
 70
     0
  0
ENDTAB
  0
TABLE
  2
DIMSTYLE
  5
A
330
0
100
AcDbSymbolTable
 70
     1
100
AcDbDimStyleTable
  0
DIMSTYLE
105
27
330
A
100
AcDbSymbolTableRecord
100
AcDbDimStyleTableRecord
  2
Standard
 70
     0
340
11
  0
ENDTAB
  0
TABLE
  2
BLOCK_RECORD
  5
1
330
0
100
AcDbSymbolTable
 70
     2
  0
BLOCK_RECORD
  5
1F
330
1
100
AcDbSymbolTableRecord
100
AcDbBlockTableRecord
  2
*Model_Space
340
22
  0
BLOCK_RECORD
  5
1B
330
1
100
AcDbSymbolTableRecord
100
AcDbBlockTableRecord
  2
*Paper_Space
340
1E
  0
BLOCK_RECORD
  5
23
330
1
100
AcDbSymbolTableRecord
100
AcDbBlockTableRecord
  2
*Paper_Space0
340
26
  0
BLOCK_RECORD
  5
3C
330
1
100
AcDbSymbolTableRecord
100
AcDbBlockTableRecord
  2
block 2
340
0
102
{BLKREFS
331
3D
102
}
  0
ENDTAB
  0
ENDSEC
  0
SECTION
  2
BLOCKS
  0
BLOCK
  5
20
330
1F
100
AcDbEntity
  8
0
100
AcDbBlockBegin
  2
*Model_Space
 70
     0
 71
     0
 10
0.0
 20
0.0
 30
0.0
  3
*Model_Space
  1

  0
ENDBLK
  5
21
330
1F
100
AcDbEntity
  8
0
100
AcDbBlockEnd
  0
BLOCK
  5
1C
330
1B
100
AcDbEntity
 67
     1
  8
0
100
AcDbBlockBegin
  2
*Paper_Space
 70
     0
 71
     0
 10
0.0
 20
0.0
 30
0.0
  3
*Paper_Space
  1

  0
ENDBLK
  5
1D
330
1B
100
AcDbEntity
 67
     1
  8
0
100
AcDbBlockEnd
  0
BLOCK
  5
24
330
23
100
AcDbEntity
  8
0
100
AcDbBlockBegin
  2
*Paper_Space0
 70
     0
 71
     0
 10
0.0
 20
0.0
 30
0.0
  3
*Paper_Space0
  1

  0
ENDBLK
  5
25
330
23
100
AcDbEntity
  8
0
100
AcDbBlockEnd
  0
BLOCK
  5
3E
330
3C
100
AcDbEntity
  8
0
100
AcDbBlockBegin
  2
block 2
 70
     0
 71
     0
 10
0.0
 20
0.0
 30
0.0
  3
block 2
  1

  0
SPLINE
  5
40
330
3C
100
AcDbEntity
  8
Layer 1
370
     0
100
AcDbSpline
210
0.0
220
0.0
230
1.0
 70
    11
 71
     3
 72
    17
 73
    13
 74
     0
 42
0.0000000001
 43
0.0000000001
 40
0.0
 40
0.0
 40
0.0
 40
0.0
 40
1.0
 40
1.0
 40
1.0
 40
2.0
 40
2.0
 40
2.0
 40
3.0
 40
3.0
 40
3.0
 40
4.0
 40
4.0
 40
4.0
 40
4.0
 10
53.05963811607537
 20
192.7089951775172
 30
0.0
 10
67.89301349214134
 20
192.7089951775172
 30
0.0
 10
82.72621661343304
 20
192.7089951775172
 30
0.0
 10
97.55941973472473
 20
192.7089951775172
 30
0.0
 10
97.55941973472473
 20
179.1456542520886
 30
0.0
 10
97.55941973472473
 20
165.58231332666
 30
0.0
 10
97.55941973472473
 20
152.0191446560056
 30
0.0
 10
82.72621661343304
 20
152.0191446560056
 30
0.0
 10
67.89301349214134
 20
152.0191446560056
 30
0.0
 10
53.05981037084963
 20
152.0191446560056
 30
0.0
 10
53.05981037084963
 20
165.58231332666
 30
0.0
 10
53.05981037084963
 20
179.1456542520886
 30
0.0
 10
53.05963811607537
 20
192.7089951775172
 30
0.0
  0
SPLINE
  5
41
330
3C
100
AcDbEntity
  8
Layer 1
370
     0
100
AcDbSpline
210
0.0
220
0.0
230
1.0
 70
    11
 71
     3
 72
   437
 73
   433
 74
     0
 42
0.0000000001
 43
0.0000000001
 40
0.0
 40
0.0
 40
0.0
 40
0.0
 40
1.0
 40
1.0
 40
1.0
 40
2.0
 40
2.0
 40
2.0
 40
3.0
 40
3.0
 40
3.0
 40
4.0
 40
4.0
 40
4.0
 40
5.0
 40
5.0
 40
5.0
 40
6.0
 40
6.0
 40
6.0
 40
7.0
 40
7.0
 40
7.0
 40
8.0
 40
8.0
 40
8.0
 40
9.0
 40
9.0
 40
9.0
 40
10.0
 40
10.0
 40
10.0
 40
11.0
 40
11.0
 40
11.0
 40
12.0
 40
12.0
 40
12.0
 40
13.0
 40
13.0
 40
13.0
 40
14.0
 40
14.0
 40
14.0
 40
15.0
 40
15.0
 40
15.0
 40
16.0
 40
16.0
 40
16.0
 40
17.0
 40
17.0
 40
17.0
 40
18.0
 40
18.0
 40
18.0
 40
19.0
 40
19.0
 40
19.0
 40
20.0
 40
20.0
 40
20.0
 40
21.0
 40
21.0
 40
21.0
 40
22.0
 40
22.0
 40
22.0
 40
23.0
 40
23.0
 40
23.0
 40
24.0
 40
24.0
 40
24.0
 40
25.0
 40
25.0
 40
25.0
 40
26.0
 40
26.0
 40
26.0
 40
27.0
 40
27.0
 40
27.0
 40
28.0
 40
28.0
 40
28.0
 40
29.0
 40
29.0
 40
29.0
 40
30.0
 40
30.0
 40
30.0
 40
31.0
 40
31.0
 40
31.0
 40
32.0
 40
32.0
 40
32.0
 40
33.0
 40
33.0
 40
33.0
 40
34.0
 40
34.0
 40
34.0
 40
35.0
 40
35.0
 40
35.0
 40
36.0
 40
36.0
 40
36.0
 40
37.0
 40
37.0
 40
37.0
 40
38.0
 40
38.0
 40
38.0
 40
39.0
 40
39.0
 40
39.0
 40
40.0
 40
40.0
 40
40.0
 40
41.0
 40
41.0
 40
41.0
 40
42.0
 40
42.0
 40
42.0
 40
43.0
 40
43.0
 40
43.0
 40
44.0
 40
44.0
 40
44.0
 40
45.0
 40
45.0
 40
45.0
 40
46.0
 40
46.0
 40
46.0
 40
47.0
 40
47.0
 40
47.0
 40
48.0
 40
48.0
 40
48.0
 40
49.0
 40
49.0
 40
49.0
 40
50.0
 40
50.0
 40
50.0
 40
51.0
 40
51.0
 40
51.0
 40
52.0
 40
52.0
 40
52.0
 40
53.0
 40
53.0
 40
53.0
 40
54.0
 40
54.0
 40
54.0
 40
55.0
 40
55.0
 40
55.0
 40
56.0
 40
56.0
 40
56.0
 40
57.0
 40
57.0
 40
57.0
 40
58.0
 40
58.0
 40
58.0
 40
59.0
 40
59.0
 40
59.0
 40
60.0
 40
60.0
 40
60.0
 40
61.0
 40
61.0
 40
61.0
 40
62.0
 40
62.0
 40
62.0
 40
63.0
 40
63.0
 40
63.0
 40
64.0
 40
64.0
 40
64.0
 40
65.0
 40
65.0
 40
65.0
 40
66.0
 40
66.0
 40
66.0
 40
67.0
 40
67.0
 40
67.0
 40
68.0
 40
68.0
 40
68.0
 40
69.0
 40
69.0
 40
69.0
 40
70.0
 40
70.0
 40
70.0
 40
71.0
 40
71.0
 40
71.0
 40
72.0
 40
72.0
 40
72.0
 40
73.0
 40
73.0
 40
73.0
 40
74.0
 40
74.0
 40
74.0
 40
75.0
 40
75.0
 40
75.0
 40
76.0
 40
76.0
 40
76.0
 40
77.0
 40
77.0
 40
77.0
 40
78.0
 40
78.0
 40
78.0
 40
79.0
 40
79.0
 40
79.0
 40
80.0
 40
80.0
 40
80.0
 40
81.0
 40
81.0
 40
81.0
 40
82.0
 40
82.0
 40
82.0
 40
83.0
 40
83.0
 40
83.0
 40
84.0
 40
84.0
 40
84.0
 40
85.0
 40
85.0
 40
85.0
 40
86.0
 40
86.0
 40
86.0
 40
87.0
 40
87.0
 40
87.0
 40
88.0
 40
88.0
 40
88.0
 40
89.0
 40
89.0
 40
89.0
 40
90.0
 40
90.0
 40
90.0
 40
91.0
 40
91.0
 40
91.0
 40
92.0
 40
92.0
 40
92.0
 40
93.0
 40
93.0
 40
93.0
 40
94.0
 40
94.0
 40
94.0
 40
95.0
 40
95.0
 40
95.0
 40
96.0
 40
96.0
 40
96.0
 40
97.0
 40
97.0
 40
97.0
 40
98.0
 40
98.0
 40
98.0
 40
99.0
 40
99.0
 40
99.0
 40
100.0
 40
100.0
 40
100.0
 40
101.0
 40
101.0
 40
101.0
 40
102.0
 40
102.0
 40
102.0
 40
103.0
 40
103.0
 40
103.0
 40
104.0
 40
104.0
 40
104.0
 40
105.0
 40
105.0
 40
105.0
 40
106.0
 40
106.0
 40
106.0
 40
107.0
 40
107.0
 40
107.0
 40
108.0
 40
108.0
 40
108.0
 40
109.0
 40
109.0
 40
109.0
 40
110.0
 40
110.0
 40
110.0
 40
111.0
 40
111.0
 40
111.0
 40
112.0
 40
112.0
 40
112.0
 40
113.0
 40
113.0
 40
113.0
 40
114.0
 40
114.0
 40
114.0
 40
115.0
 40
115.0
 40
115.0
 40
116.0
 40
116.0
 40
116.0
 40
117.0
 40
117.0
 40
117.0
 40
118.0
 40
118.0
 40
118.0
 40
119.0
 40
119.0
 40
119.0
 40
120.0
 40
120.0
 40
120.0
 40
121.0
 40
121.0
 40
121.0
 40
122.0
 40
122.0
 40
122.0
 40
123.0
 40
123.0
 40
123.0
 40
124.0
 40
124.0
 40
124.0
 40
125.0
 40
125.0
 40
125.0
 40
126.0
 40
126.0
 40
126.0
 40
127.0
 40
127.0
 40
127.0
 40
128.0
 40
128.0
 40
128.0
 40
129.0
 40
129.0
 40
129.0
 40
130.0
 40
130.0
 40
130.0
 40
131.0
 40
131.0
 40
131.0
 40
132.0
 40
132.0
 40
132.0
 40
133.0
 40
133.0
 40
133.0
 40
134.0
 40
134.0
 40
134.0
 40
135.0
 40
135.0
 40
135.0
 40
136.0
 40
136.0
 40
136.0
 40
137.0
 40
137.0
 40
137.0
 40
138.0
 40
138.0
 40
138.0
 40
139.0
 40
139.0
 40
139.0
 40
140.0
 40
140.0
 40
140.0
 40
141.0
 40
141.0
 40
141.0
 40
142.0
 40
142.0
 40
142.0
 40
143.0
 40
143.0
 40
143.0
 40
144.0
 40
144.0
 40
144.0
 40
144.0
 10
57.86744112051578
 20
182.5313218402179
 30
0.0
 10
57.86744112051578
 20
182.4608696375445
 30
0.0
 10
57.86744112051578
 20
182.4069538932004
 30
0.0
 10
57.86744112051578
 20
182.3530381488562
 30
0.0
 10
57.86744112051578
 20
180.3972574418799
 30
0.0
 10
57.86399602503053
 20
178.4416489896778
 30
0.0
 10
57.87088621600103
 20
176.4858682827015
 30
0.0
 10
57.87209199942087
 20
176.1601345045711
 30
0.0
 10
57.90051403717418
 20
175.8319891596011
 30
0.0
 10
57.9477118453221
 20
175.5095282221816
 30
0.0
 10
58.02057561483514
 20
175.0115396697888
 30
0.0
 10
58.18387314083598
 20
174.5414563908265
 30
0.0
 10
58.45362411733104
 20
174.110647200396
 30
0.0
 10
58.75730928435581
 20
173.6259222656213
 30
0.0
 10
59.12662352037459
 20
173.2028645400326
 30
0.0
 10
59.59153915610906
 20
172.8678290040921
 30
0.0
 10
59.88661158442071
 20
172.6550943578779
 30
0.0
 10
60.19305282783368
 20
172.4566568579275
 30
0.0
 10
60.54324678390933
 20
172.3489976240135
 30
0.0
 10
60.83659666447836
 20
172.2589083770742
 30
0.0
 10
61.13614771692082
 20
172.187250390981
 30
0.0
 10
61.43604327891182
 20
172.121621321987
 30
0.0
 10
61.56557886915722
 20
172.0931992842337
 30
0.0
 10
61.70303817901869
 20
172.0959553606218
 30
0.0
 10
61.83705239339491
 20
172.0926825199109
 30
0.0
 10
63.04455836097497
 20
172.0628824439634
 30
0.0
 10
64.25378687629767
 20
172.1543497290969
 30
0.0
 10
65.45957029613511
 20
172.0398003042123
 30
0.0
 10
65.91277260721972
 20
171.9969088654209
 30
0.0
 10
66.31412623125134
 20
171.8181084097365
 30
0.0
 10
66.65329588177418
 20
171.5168348095513
 30
0.0
 10
67.15093992461851
 20
171.0748290587938
 30
0.0
 10
67.38813474877797
 20
170.5041489916622
 30
0.0
 10
67.3893405321978
 20
169.8480305564963
 30
0.0
 10
67.39554170407126
 20
166.5503851580152
 30
0.0
 10
67.38951278697206
 20
163.2527397595341
 30
0.0
 10
67.3967474874911
 20
159.9552666158272
 30
0.0
 10
67.39743650658815
 20
159.6522704678994
 30
0.0
 10
67.45359156299772
 20
159.3485853008747
 30
0.0
 10
67.49631074701482
 20
159.0471394459153
 30
0.0
 10
67.53971895012896
 20
158.7417317311479
 30
0.0
 10
67.6484117126886
 20
158.4499321435472
 30
0.0
 10
67.81825492011141
 20
158.1991291922211
 30
0.0
 10
68.15397947514901
 20
157.7032076971194
 30
0.0
 10
68.56928573589587
 20
157.284284086113
 30
0.0
 10
69.14668373922375
 20
157.0668985609937
 30
0.0
 10
69.44296195095524
 20
156.9554497220459
 30
0.0
 10
69.73855114358967
 20
156.8493407811002
 30
0.0
 10
70.06600746946266
 20
156.849857545423
 30
0.0
 10
73.28320988836323
 20
156.853819405231
 30
0.0
 10
76.50041230726379
 20
156.8520968574884
 30
0.0
 10
79.71761472616436
 20
156.8533026409082
 30
0.0
 10
79.80925426607199
 20
156.8533026409082
 30
0.0
 10
79.9010660607539
 20
156.8662217489779
 30
0.0
 10
79.99236109111303
 20
156.8769015449822
 30
0.0
 10
80.63848874937163
 20
156.9523491361091
 30
0.0
 10
81.15146346712534
 20
157.4827215860633
 30
0.0
 10
81.29271238202058
 20
158.0880248628218
 30
0.0
 10
81.31424422880339
 20
158.180697931375
 30
0.0
 10
81.31837834338569
 20
158.2785386431561
 30
0.0
 10
81.34835067410737
 20
158.3679388709983
 30
0.0
 10
81.44395207382304
 20
158.6523315033057
 30
0.0
 10
81.61327851692307
 20
158.8812580983005
 30
0.0
 10
81.85047334108252
 20
159.0715996238606
 30
0.0
 10
82.24786510530609
 20
159.3904432110205
 30
0.0
 10
82.68625350580413
 20
159.5246296801709
 30
0.0
 10
83.19216577781307
 20
159.4467705222043
 30
0.0
 10
83.38199053905034
 20
159.4174872105797
 30
0.0
 10
83.57508814099859
 20
159.394749580377
 30
0.0
 10
83.76663544997848
 20
159.3944050708285
 30
0.0
 10
86.63674449874013
 20
159.3911322301175
 30
0.0
 10
89.5066812927275
 20
159.3930270326344
 30
0.0
 10
92.37679034148914
 20
159.3911322301175
 30
0.0
 10
92.76591387654811
 20
159.3909599753432
 30
0.0
 10
93.11421303010687
 20
159.4862168655104
 30
0.0
 10
93.42409936900509
 20
159.7363307977395
 30
0.0
 10
93.80805526083618
 20
160.0462171366378
 30
0.0
 10
94.01803383066216
 20
160.4411973340217
 30
0.0
 10
94.01889510453347
 20
160.9276448165389
 30
0.0
 10
94.02423500253562
 20
164.326920531835
 30
0.0
 10
94.02285696434151
 20
167.7260239923567
 30
0.0
 10
94.02010088795332
 20
171.1252997076527
 30
0.0
 10
94.0197563784048
 20
171.5261365673615
 30
0.0
 10
93.86731090318249
 20
171.8711628802093
 30
0.0
 10
93.59428708597643
 20
172.1667520728437
 30
0.0
 10
93.25580645455064
 20
172.5329657229258
 30
0.0
 10
92.82069089476359
 20
172.6797267905974
 30
0.0
 10
92.34406193437927
 20
172.6828273765342
 30
0.0
 10
90.73554685231612
 20
172.6935071725384
 30
0.0
 10
89.1268595154787
 20
172.6869614911164
 30
0.0
 10
87.51834443341556
 20
172.6866169815679
 30
0.0
 10
87.47700328759255
 20
172.6866169815679
 30
0.0
 10
87.43583439654383
 20
172.6833441408569
 30
0.0
 10
87.39122041000984
 20
172.6812770835658
 30
0.0
 10
87.39122041000984
 20
172.4735378258052
 30
0.0
 10
87.39122041000984
 20
172.2737222876607
 30
0.0
 10
87.39122041000984
 20
172.066499794223
 30
0.0
 10
87.45099281667892
 20
172.066499794223
 30
0.0
 10
87.50146346553784
 20
172.066499794223
 30
0.0
 10
87.55193411439674
 20
172.066499794223
 30
0.0
 10
89.1943833869896
 20
172.066499794223
 30
0.0
 10
90.83683265958246
 20
172.06718881332
 30
0.0
 10
92.47928193217533
 20
172.0659830299002
 30
0.0
 10
92.98674449715263
 20
172.0658107751259
 30
0.0
 10
93.42582191674772
 20
171.6265611007566
 30
0.0
 10
93.42616642629623
 20
171.1215101026189
 30
0.0
 10
93.42754446449034
 20
169.1529825423472
 30
0.0
 10
93.42668319061903
 20
167.1846272368497
 30
0.0
 10
93.42668319061903
 20
165.2162719313522
 30
0.0
 10
93.42668319061903
 20
165.1709689257212
 30
0.0
 10
93.42668319061903
 20
165.1258381748644
 30
0.0
 10
93.42668319061903
 20
165.0739894878114
 30
0.0
 10
93.37914087292258
 20
165.0710611566489
 30
0.0
 10
93.34624021103845
 20
165.0676160611636
 30
0.0
 10
93.3133395491543
 20
165.0672715516151
 30
0.0
 10
90.48457164621567
 20
165.0355766731508
 30
0.0
 10
87.65494246940571
 20
165.130833563318
 30
0.0
 10
84.8265190760156
 20
165.0176621766275
 30
0.0
 10
84.56038544978004
 20
165.0069823806233
 30
0.0
 10
84.29321829489892
 20
165.0162841384334
 30
0.0
 10
84.02656790434058
 20
165.0162841384334
 30
0.0
 10
83.98660479671169
 20
165.0162841384334
 30
0.0
 10
83.94681394385705
 20
165.0162841384334
 30
0.0
 10
83.91115720558471
 20
165.0162841384334
 30
0.0
 10
83.91115720558471
 20
164.5773789736126
 30
0.0
 10
83.91115720558471
 20
164.1603501651231
 30
0.0
 10
83.91115720558471
 20
163.7433213566336
 30
0.0
 10
84.54092066028838
 20
163.7433213566336
 30
0.0
 10
85.16103784763335
 20
163.7433213566336
 30
0.0
 10
85.79786374808178
 20
163.7433213566336
 30
0.0
 10
85.79786374808178
 20
163.9891289195062
 30
0.0
 10
85.79786374808178
 20
164.2275295270855
 30
0.0
 10
85.79786374808178
 20
164.4593844532428
 30
0.0
 10
88.3489569549093
 20
164.4593844532428
 30
0.0
 10
90.88334144863333
 20
164.4593844532428
 30
0.0
 10
93.42065427351984
 20
164.4593844532428
 30
0.0
 10
93.42306584035951
 20
164.4311346702638
 30
0.0
 10
93.42616642629623
 20
164.4104640973522
 30
0.0
 10
93.42616642629623
 20
164.3897935244408
 30
0.0
 10
93.42651093584476
 20
163.2256957599748
 30
0.0
 10
93.43684622230052
 20
162.0614257407346
 30
0.0
 10
93.42168780216542
 20
160.897500231043
 30
0.0
 10
93.41531437551771
 20
160.4029567741354
 30
0.0
 10
92.99501272631723
 20
159.9902343350024
 30
0.0
 10
92.48221026333779
 20
159.9893730611311
 30
0.0
 10
89.52752412041326
 20
159.9848944370003
 30
0.0
 10
86.57283797748875
 20
159.9871337490657
 30
0.0
 10
83.61815183456422
 20
159.9878227681628
 30
0.0
 10
83.57250431938465
 20
159.9878227681628
 30
0.0
 10
83.52565102078526
 20
159.9916123731965
 30
0.0
 10
83.4813815437998
 20
160.0022921692008
 30
0.0
 10
82.93946802397
 20
160.1321722689947
 30
0.0
 10
82.40823430014447
 20
160.0849744608468
 30
0.0
 10
81.91954750556178
 20
159.8279703376472
 30
0.0
 10
81.53007946095428
 20
159.6229871562748
 30
0.0
 10
81.17506237119929
 20
159.3492743199717
 30
0.0
 10
80.96112194156528
 20
158.9484374602629
 30
0.0
 10
80.85673554836221
 20
158.7531005462492
 30
0.0
 10
80.77112492555375
 20
158.5360595306785
 30
0.0
 10
80.73305662044174
 20
158.3190185151078
 30
0.0
 10
80.64589570466492
 20
157.8217189818119
 30
0.0
 10
80.26486814399628
 20
157.4493041598564
 30
0.0
 10
79.77049694186293
 20
157.4486151407594
 30
0.0
 10
77.37460528664593
 20
157.4455145548227
 30
0.0
 10
74.97871363142893
 20
157.4472371025653
 30
0.0
 10
72.58264972143768
 20
157.4472371025653
 30
0.0
 10
72.5375189705809
 20
157.4472371025653
 30
0.0
 10
72.49204371017561
 20
157.4472371025653
 30
0.0
 10
72.44174531609096
 20
157.4472371025653
 30
0.0
 10
72.44174531609096
 20
158.4912732893702
 30
0.0
 10
72.44174531609096
 20
159.5210123299114
 30
0.0
 10
72.44174531609096
 20
160.5624646951024
 30
0.0
 10
72.55922307213798
 20
160.5624646951024
 30
0.0
 10
72.66739907037481
 20
160.5624646951024
 30
0.0
 10
72.77781438067707
 20
160.5624646951024
 30
0.0
 10
72.77781438067707
 20
161.4180541588642
 30
0.0
 10
72.77781438067707
 20
162.2612412788791
 30
0.0
 10
72.77781438067707
 20
163.1028781059257
 30
0.0
 10
72.3506225405061
 20
163.1028781059257
 30
0.0
 10
71.9335937320166
 20
163.1028781059257
 30
0.0
 10
71.51380884713892
 20
163.1028781059257
 30
0.0
 10
71.51380884713892
 20
162.2540065783601
 30
0.0
 10
71.51380884713892
 20
161.4137477895077
 30
0.0
 10
71.51380884713892
 20
160.5567802875518
 30
0.0
 10
71.6231906287956
 20
160.5567802875518
 30
0.0
 10
71.72602672903031
 20
160.5567802875518
 30
0.0
 10
71.82920733881353
 20
160.5567802875518
 30
0.0
 10
71.82920733881353
 20
159.5136053746181
 30
0.0
 10
71.82920733881353
 20
158.4869669200137
 30
0.0
 10
71.82920733881353
 20
157.4546440578586
 30
0.0
 10
71.80164657493154
 20
157.4517157266961
 30
0.0
 10
71.78132051156857
 20
157.4477538668881
 30
0.0
 10
71.76116670297985
 20
157.4477538668881
 30
0.0
 10
71.15155705686489
 20
157.4474093573396
 30
0.0
 10
70.54194741074993
 20
157.4474093573396
 30
0.0
 10
69.93233776463498
 20
157.4475816121138
 30
0.0
 10
69.90718856759266
 20
157.4475816121138
 30
0.0
 10
69.8808335871305
 20
157.4474093573396
 30
0.0
 10
69.85706242828226
 20
157.4544718030843
 30
0.0
 10
69.52168238279319
 20
157.5547240817051
 30
0.0
 10
69.19129772575774
 20
157.6615220417478
 30
0.0
 10
68.9039767622879
 20
157.8764960000274
 30
0.0
 10
68.64697263908826
 20
158.0687323281043
 30
0.0
 10
68.44629582707246
 20
158.3042046045212
 30
0.0
 10
68.28868270862228
 20
158.5798122433412
 30
0.0
 10
68.06440699253251
 20
158.9716918547883
 30
0.0
 10
67.99378253508489
 20
159.408529962318
 30
0.0
 10
67.99240449689079
 20
159.8451958150734
 30
0.0
 10
67.98293048430635
 20
163.1300943602592
 30
0.0
 10
67.98758136321145
 20
166.4149929054449
 30
0.0
 10
67.98620332501734
 20
169.6998914506306
 30
0.0
 10
67.98620332501734
 20
169.8423461489457
 30
0.0
 10
67.97552352901306
 20
169.9851453568093
 30
0.0
 10
67.96139863752354
 20
170.1270832908016
 30
0.0
 10
67.91368406505283
 20
170.6121527351247
 30
0.0
 10
67.7774305386112
 20
171.0665608296292
 30
0.0
 10
67.48149683642824
 20
171.4627468104329
 30
0.0
 10
67.2327609423932
 20
171.7957152890823
 30
0.0
 10
66.94199488343811
 20
172.0885484053286
 30
0.0
 10
66.58181015045524
 20
172.2962876630891
 30
0.0
 10
66.09243433677551
 20
172.5784409833311
 30
0.0
 10
65.54604219281488
 20
172.6714585614328
 30
0.0
 10
64.99241534833523
 20
172.6826551217599
 30
0.0
 10
63.86810843672395
 20
172.7052204971883
 30
0.0
 10
62.74328476078988
 20
172.6976412871207
 30
0.0
 10
61.61915010395285
 20
172.7174505861609
 30
0.0
 10
61.39384085921751
 20
172.7215847007432
 30
0.0
 10
61.16456975467414
 20
172.7753281903131
 30
0.0
 10
60.9461507009093
 20
172.8373399090476
 30
0.0
 10
60.53687335726162
 20
172.9534396269005
 30
0.0
 10
60.17754989815006
 20
173.1677245660831
 30
0.0
 10
59.83906926672427
 20
173.4274847656709
 30
0.0
 10
59.40395370693721
 20
173.7614867729659
 30
0.0
 10
59.07873669312963
 20
174.1810994030693
 30
0.0
 10
58.82603893928655
 20
174.658589637325
 30
0.0
 10
58.55249835775771
 20
175.1756984696609
 30
0.0
 10
58.48807507218354
 20
175.7460340272441
 30
0.0
 10
58.46602646107794
 20
176.3186088968926
 30
0.0
 10
58.44862872887743
 20
176.7707776793316
 30
0.0
 10
58.46240911081843
 20
177.2243244999648
 30
0.0
 10
58.46275362036695
 20
177.6771823015009
 30
0.0
 10
58.46275362036695
 20
177.7176621734525
 30
0.0
 10
58.4661987158522
 20
177.7581420454042
 30
0.0
 10
58.46809351836909
 20
177.7996554460015
 30
0.0
 10
60.68673501086999
 20
177.7996554460015
 30
0.0
 10
62.89056259278431
 20
177.7996554460015
 30
0.0
 10
65.09507919379568
 20
177.7996554460015
 30
0.0
 10
65.10369193250881
 20
177.7572807715329
 30
0.0
 10
65.11075437825356
 20
177.7216240332606
 30
0.0
 10
65.11764456922407
 20
177.6876898427309
 30
0.0
 10
66.42281899381096
 20
177.6876898427309
 30
0.0
 10
67.72041420833031
 20
177.6876898427309
 30
0.0
 10
69.01766491330115
 20
177.6876898427309
 30
0.0
 10
69.01766491330115
 20
177.9632974815509
 30
0.0
 10
69.01766491330115
 20
178.2308091459805
 30
0.0
 10
69.01766491330115
 20
178.5031439440895
 30
0.0
 10
67.73264429730295
 20
178.5031439440895
 30
0.0
 10
66.45864798685756
 20
178.5033161988638
 30
0.0
 10
65.18465167641217
 20
178.5024549249925
 30
0.0
 10
65.16088051756395
 20
178.5024549249925
 30
0.0
 10
65.11730005967554
 20
178.4928086576338
 30
0.0
 10
65.11678329535275
 20
178.4850571927919
 30
0.0
 10
65.10730928276831
 20
178.3670626724221
 30
0.0
 10
65.01842581924888
 20
178.4028916654687
 30
0.0
 10
64.9553805718688
 20
178.4028916654687
 30
0.0
 10
62.84302027508786
 20
178.4015136272746
 30
0.0
 10
60.73065997830692
 20
178.4018581368232
 30
0.0
 10
58.61829968152598
 20
178.4018581368232
 30
0.0
 10
58.5695515804097
 20
178.4018581368232
 30
0.0
 10
58.52063122451915
 20
178.4016858820489
 30
0.0
 10
58.47016057566024
 20
178.4016858820489
 30
0.0
 10
58.47016057566024
 20
179.7867865218936
 30
0.0
 10
58.47016057566024
 20
181.1519056079239
 30
0.0
 10
58.47016057566024
 20
182.5337334070576
 30
0.0
 10
58.80037297792143
 20
182.5337334070576
 30
0.0
 10
59.12335067966361
 20
182.5337334070576
 30
0.0
 10
59.45786945128137
 20
182.5337334070576
 30
0.0
 10
59.45786945128137
 20
182.8699747264179
 30
0.0
 10
59.45786945128137
 20
183.1898518422234
 30
0.0
 10
59.45786945128137
 20
183.5111069962229
 30
0.0
 10
60.55909422314148
 20
183.5111069962229
 30
0.0
 10
61.64826116080322
 20
183.5111069962229
 30
0.0
 10
62.73915064620758
 20
183.5111069962229
 30
0.0
 10
62.74294025124135
 20
183.4261853925115
 30
0.0
 10
62.7463853467266
 20
183.3517713300301
 30
0.0
 10
62.75000269698612
 20
183.274256681612
 30
0.0
 10
63.09296195254274
 20
183.274256681612
 30
0.0
 10
63.42524141209508
 20
183.274256681612
 30
0.0
 10
63.76596135558629
 20
183.274256681612
 30
0.0
 10
63.76975096062007
 20
183.3578002471293
 30
0.0
 10
63.77319605610531
 20
183.4353148955474
 30
0.0
 10
63.77715791591335
 20
183.5216145374529
 30
0.0
 10
63.84071992761621
 20
183.5216145374529
 30
0.0
 10
63.8908460669266
 20
183.5216145374529
 30
0.0
 10
63.94097220623699
 20
183.5216145374529
 30
0.0
 10
65.61304930000298
 20
183.5216145374529
 30
0.0
 10
67.28529864854326
 20
183.5221313017757
 30
0.0
 10
68.95737574230927
 20
183.5200642444846
 30
0.0
 10
69.05280488725069
 20
183.5198919897103
 30
0.0
 10
69.1253241472152
 20
183.5462469701725
 30
0.0
 10
69.19164223530626
 20
183.6156656442002
 30
0.0
 10
69.33771428388086
 20
183.7688001385196
 30
0.0
 10
69.49257132594283
 20
183.9133218941259
 30
0.0
 10
69.63795435542038
 20
184.066973152768
 30
0.0
 10
69.70099960280045
 20
184.1336357504076
 30
0.0
 10
69.76662867179445
 20
184.1589572022241
 30
0.0
 10
69.85895723079915
 20
184.1586126926756
 30
0.0
 10
71.0697360390902
 20
184.1555121067389
 30
0.0
 10
72.280342592607
 20
184.1551675971904
 30
0.0
 10
73.49112140089805
 20
184.1593017117727
 30
0.0
 10
73.58810083880783
 20
184.1596462213212
 30
0.0
 10
73.69352076065648
 20
184.1815225776525
 30
0.0
 10
73.78050942165905
 20
184.2235527425726
 30
0.0
 10
74.15860865116521
 20
184.4063150580651
 30
0.0
 10
74.362558303892
 20
184.7184407090287
 30
0.0
 10
74.35652938679281
 20
185.1347804984212
 30
0.0
 10
74.35222301743626
 20
185.4401882131886
 30
0.0
 10
74.7225707821006
 20
185.7755682586777
 30
0.0
 10
75.01660968176668
 20
185.7585150360257
 30
0.0
 10
75.01660968176668
 20
185.6598130503733
 30
0.0
 10
75.01660968176668
 20
185.5602497908495
 30
0.0
 10
75.01660968176668
 20
185.4591362383574
 30
0.0
 10
75.6498182319556
 20
185.4591362383574
 30
0.0
 10
76.26993541930058
 20
185.4591362383574
 30
0.0
 10
76.90676131974901
 20
185.4591362383574
 30
0.0
 10
76.90676131974901
 20
185.6618801076644
 30
0.0
 10
76.90676131974901
 20
185.8580782955494
 30
0.0
 10
76.90676131974901
 20
186.0615111839534
 30
0.0
 10
76.98617077068401
 20
186.0615111839534
 30
0.0
 10
77.04956052761261
 20
186.0647840246644
 30
0.0
 10
77.11226126544416
 20
186.0606499100821
 30
0.0
 10
77.17875160830948
 20
186.0561712859513
 30
0.0
 10
77.24455293207775
 20
186.0434244326558
 30
0.0
 10
77.31069876539455
 20
186.0360174773625
 30
0.0
 10
77.8092040821102
 20
185.9807236948243
 30
0.0
 10
78.18988713323031
 20
185.5542208737504
 30
0.0
 10
78.18850909503621
 20
185.0579548691001
 30
0.0
 10
78.18437498045391
 20
183.5298827666175
 30
0.0
 10
78.18695880206785
 20
182.0016384093607
 30
0.0
 10
78.18695880206785
 20
180.4735663068782
 30
0.0
 10
78.18695880206785
 20
180.4206840911796
 30
0.0
 10
78.18695880206785
 20
180.3676296207067
 30
0.0
 10
78.18695880206785
 20
180.302861825584
 30
0.0
 10
77.50775822715084
 20
180.302861825584
 30
0.0
 10
76.8494004799196
 20
180.302861825584
 30
0.0
 10
76.18690861810606
 20
180.302861825584
 30
0.0
 10
76.18690861810606
 20
180.0939167844036
 30
0.0
 10
76.18690861810606
 20
179.8970295774216
 30
0.0
 10
76.18690861810606
 20
179.6953192367602
 30
0.0
 10
76.20844046488887
 20
179.691874141275
 30
0.0
 10
76.22428790412101
 20
179.6870510075956
 30
0.0
 10
76.24030759812743
 20
179.6872232623699
 30
0.0
 10
76.97531871990547
 20
179.6949747272117
 30
0.0
 10
77.7105020964578
 20
179.699108841794
 30
0.0
 10
78.44534096346159
 20
179.7137504976063
 30
0.0
 10
78.71974281886173
 20
179.7190903956084
 30
0.0
 10
78.78209904714475
 20
179.7960882797038
 30
0.0
 10
78.78209904714475
 20
180.0663560205216
 30
0.0
 10
78.78209904714475
 20
181.7256862609922
 30
0.0
 10
78.78227130191902
 20
183.3851887562371
 30
0.0
 10
78.7819267923705
 20
185.0445189967076
 30
0.0
 10
78.78175453759623
 20
185.6170938663562
 30
0.0
 10
78.53060707672152
 20
186.0568603050483
 30
0.0
 10
78.06569144098705
 20
186.3789767329191
 30
0.0
 10
77.76183401918802
 20
186.5892998122937
 30
0.0
 10
77.41008977014401
 20
186.6346028179247
 30
0.0
 10
77.05335013264639
 20
186.6566514290303
 30
0.0
 10
77.00735810791831
 20
186.6595797601927
 30
0.0
 10
76.92949894995165
 20
186.6511392762539
 30
0.0
 10
76.92123072078705
 20
186.6707763205198
 30
0.0
 10
76.88299016090079
 20
186.7632771342988
 30
0.0
 10
76.80960962706496
 20
186.731237746286
 30
0.0
 10
76.7493204560731
 20
186.7315822558345
 30
0.0
 10
76.26683483336384
 20
186.7338215678999
 30
0.0
 10
75.78434921065461
 20
186.7327880392543
 30
0.0
 10
75.3016913331711
 20
186.7327880392543
 30
0.0
 10
75.20953502894068
 20
186.7327880392543
 30
0.0
 10
75.1175509794845
 20
186.7327880392543
 30
0.0
 10
75.01385360537849
 20
186.7327880392543
 30
0.0
 10
75.01385360537849
 20
186.6120374424963
 30
0.0
 10
75.01385360537849
 20
186.5036891894852
 30
0.0
 10
75.01385360537849
 20
186.3956854460226
 30
0.0
 10
74.89947643526818
 20
186.3641628223326
 30
0.0
 10
74.79405651341955
 20
186.3412529373557
 30
0.0
 10
74.69294296092747
 20
186.3059407086319
 30
0.0
 10
74.14103866419043
 20
186.1131876162321
 30
0.0
 10
73.80014646592497
 20
185.7533473927978
 30
0.0
 10
73.76517874674968
 20
185.14322098236
 30
0.0
 10
73.75053709093737
 20
184.8903509737427
 30
0.0
 10
73.60791013784802
 20
184.7439344156196
 30
0.0
 10
73.33867592567574
 20
184.7465182372335
 30
0.0
 10
72.14081622545439
 20
184.7582315618834
 30
0.0
 10
70.94278427045874
 20
184.7504800970416
 30
0.0
 10
69.74475231546312
 20
184.752719409107
 30
0.0
 10
69.56595185977865
 20
184.7530639186555
 30
0.0
 10
69.4197075564298
 20
184.6938082763092
 30
0.0
 10
69.29654539283212
 20
184.5649617051608
 30
0.0
 10
69.17665606994542
 20
184.4395602294977
 30
0.0
 10
69.04832626311986
 20
184.322254728225
 30
0.0
 10
68.9301594879758
 20
184.1953029595935
 30
0.0
 10
68.87279864814639
 20
184.1339802599561
 30
0.0
 10
68.81182045805747
 20
184.1150322347872
 30
0.0
 10
68.73017169505704
 20
184.1152044895615
 30
0.0
 10
67.12579072757619
 20
184.1170992920784
 30
0.0
 10
65.52158201486961
 20
184.1165825277556
 30
0.0
 10
63.91720104738876
 20
184.1165825277556
 30
0.0
 10
63.87224255130625
 20
184.1165825277556
 30
0.0
 10
63.82728405522374
 20
184.1165825277556
 30
0.0
 10
63.76596135558629
 20
184.1165825277556
 30
0.0
 10
63.76596135558629
 20
184.3212211995794
 30
0.0
 10
63.76596135558629
 20
184.5088066487513
 30
0.0
 10
63.76596135558629
 20
184.6915689642438
 30
0.0
 10
63.41680092815622
 20
184.6915689642438
 30
0.0
 10
63.08452146860387
 20
184.6915689642438
 30
0.0
 10
62.74018417485315
 20
184.6915689642438
 30
0.0
 10
62.74018417485315
 20
184.498126852747
 30
0.0
 10
62.74018417485315
 20
184.3138142442861
 30
0.0
 10
62.74018417485315
 20
184.1270900689856
 30
0.0
 10
61.6391316577673
 20
184.1270900689856
 30
0.0
 10
60.55030922965409
 20
184.1270900689856
 30
0.0
 10
59.44942896734251
 20
184.1270900689856
 30
0.0
 10
59.44942896734251
 20
184.4486897325337
 30
0.0
 10
59.44942896734251
 20
184.759954109626
 30
0.0
 10
59.44942896734251
 20
185.0708739771698
 30
0.0
 10
58.59401175835497
 20
185.0708739771698
 30
0.0
 10
57.75065238356581
 20
185.0708739771698
 30
0.0
 10
56.91159937813321
 20
185.0708739771698
 30
0.0
 10
56.91159937813321
 20
184.2195908827645
 30
0.0
 10
56.91159937813321
 20
183.3793320939121
 30
0.0
 10
56.91159937813321
 20
182.5313218402179
 30
0.0
 10
57.22906492709899
 20
182.5313218402179
 30
0.0
 10
57.53740097302884
 20
182.5313218402179
 30
0.0
 10
57.86744112051578
 20
182.5313218402179
 30
0.0
  0
SPLINE
  5
42
330
3C
100
AcDbEntity
  8
Layer 1
370
     0
100
AcDbSpline
210
0.0
220
0.0
230
1.0
 70
    11
 71
     3
 72
   140
 73
   136
 74
     0
 42
0.0000000001
 43
0.0000000001
 40
0.0
 40
0.0
 40
0.0
 40
0.0
 40
1.0
 40
1.0
 40
1.0
 40
2.0
 40
2.0
 40
2.0
 40
3.0
 40
3.0
 40
3.0
 40
4.0
 40
4.0
 40
4.0
 40
5.0
 40
5.0
 40
5.0
 40
6.0
 40
6.0
 40
6.0
 40
7.0
 40
7.0
 40
7.0
 40
8.0
 40
8.0
 40
8.0
 40
9.0
 40
9.0
 40
9.0
 40
10.0
 40
10.0
 40
10.0
 40
11.0
 40
11.0
 40
11.0
 40
12.0
 40
12.0
 40
12.0
 40
13.0
 40
13.0
 40
13.0
 40
14.0
 40
14.0
 40
14.0
 40
15.0
 40
15.0
 40
15.0
 40
16.0
 40
16.0
 40
16.0
 40
17.0
 40
17.0
 40
17.0
 40
18.0
 40
18.0
 40
18.0
 40
19.0
 40
19.0
 40
19.0
 40
20.0
 40
20.0
 40
20.0
 40
21.0
 40
21.0
 40
21.0
 40
22.0
 40
22.0
 40
22.0
 40
23.0
 40
23.0
 40
23.0
 40
24.0
 40
24.0
 40
24.0
 40
25.0
 40
25.0
 40
25.0
 40
26.0
 40
26.0
 40
26.0
 40
27.0
 40
27.0
 40
27.0
 40
28.0
 40
28.0
 40
28.0
 40
29.0
 40
29.0
 40
29.0
 40
30.0
 40
30.0
 40
30.0
 40
31.0
 40
31.0
 40
31.0
 40
32.0
 40
32.0
 40
32.0
 40
33.0
 40
33.0
 40
33.0
 40
34.0
 40
34.0
 40
34.0
 40
35.0
 40
35.0
 40
35.0
 40
36.0
 40
36.0
 40
36.0
 40
37.0
 40
37.0
 40
37.0
 40
38.0
 40
38.0
 40
38.0
 40
39.0
 40
39.0
 40
39.0
 40
40.0
 40
40.0
 40
40.0
 40
41.0
 40
41.0
 40
41.0
 40
42.0
 40
42.0
 40
42.0
 40
43.0
 40
43.0
 40
43.0
 40
44.0
 40
44.0
 40
44.0
 40
45.0
 40
45.0
 40
45.0
 40
45.0
 10
76.28095972485337
 20
155.7963473460336
 30
0.0
 10
76.20930173876017
 20
155.7963473460336
 30
0.0
 10
76.15883108990127
 20
155.7963473460336
 30
0.0
 10
76.10836044104236
 20
155.7963473460336
 30
0.0
 10
75.35905217300052
 20
155.7963473460336
 30
0.0
 10
74.60974390495868
 20
155.7934190148711
 30
0.0
 10
73.86043563691683
 20
155.7968641103564
 30
0.0
 10
72.4438123733821
 20
155.8032375370041
 30
0.0
 10
71.02718910984737
 20
155.8082329254577
 30
0.0
 10
69.61073810108691
 20
155.826836441078
 30
0.0
 10
69.38956297093387
 20
155.8297647722405
 30
0.0
 10
69.16614852871541
 20
155.888503650264
 30
0.0
 10
68.9494520226932
 20
155.9432806684795
 30
0.0
 10
68.46352130449871
 20
156.0657538129801
 30
0.0
 10
68.02513290400067
 20
156.2872734526817
 30
0.0
 10
67.62067869403234
 20
156.5861354860271
 30
0.0
 10
67.09444035866042
 20
156.9752590210861
 30
0.0
 10
66.71599661960573
 20
157.4828938408376
 30
0.0
 10
66.44486760491657
 20
158.0649427230706
 30
0.0
 10
66.1847628957802
 20
158.6232204464553
 30
0.0
 10
66.08743894832189
 20
159.2300740161821
 30
0.0
 10
66.08588865535353
 20
159.8420952291367
 30
0.0
 10
66.07813719051173
 20
162.8264091932344
 30
0.0
 10
66.08244355986828
 20
165.810723157332
 30
0.0
 10
66.08175454077123
 20
168.795209376204
 30
0.0
 10
66.08175454077123
 20
168.8492973753224
 30
0.0
 10
66.08485512670795
 20
168.9078639985717
 30
0.0
 10
66.06659612063613
 20
168.9569566092365
 30
0.0
 10
65.97840167621374
 20
169.194840452493
 30
0.0
 10
65.90329859463529
 20
169.4408202701398
 30
0.0
 10
65.78599309336253
 20
169.6638902028097
 30
0.0
 10
65.60081921103036
 20
170.015806706628
 30
0.0
 10
65.31608206917446
 20
170.2812513137665
 30
0.0
 10
64.96829967993848
 20
170.4772772468772
 30
0.0
 10
64.57090791571491
 20
170.7012084534184
 30
0.0
 10
64.13406980818523
 20
170.7714884013176
 30
0.0
 10
63.68930798103948
 20
170.7785508470623
 30
0.0
 10
62.9401719677719
 20
170.790780936035
 30
0.0
 10
62.1906914449558
 20
170.7751057515771
 30
0.0
 10
61.44155543168822
 20
170.7854410380328
 30
0.0
 10
61.15388995866986
 20
170.7894028978409
 30
0.0
 10
60.86450193790888
 20
170.8167914069486
 30
0.0
 10
60.5801093056015
 20
170.8605441196113
 30
0.0
 10
59.82615015865458
 20
170.9762993279157
 30
0.0
 10
59.17554387626515
 20
171.3247707362487
 30
0.0
 10
58.59952391113137
 20
171.8093234162491
 30
0.0
 10
58.15045571462905
 20
172.1870781362067
 30
0.0
 10
57.82678899378983
 20
172.6705972875615
 30
0.0
 10
57.57943113794889
 20
173.1975246420305
 30
0.0
 10
57.30589055642006
 20
173.7795735242634
 30
0.0
 10
57.20270994663682
 20
174.4084757050958
 30
0.0
 10
57.19633651998911
 20
175.04512935077
 30
0.0
 10
57.17721624004598
 20
176.9654255742482
 30
0.0
 10
57.17566594707761
 20
178.8858940525008
 30
0.0
 10
57.16688095359023
 20
180.8063625307533
 30
0.0
 10
57.16670869881597
 20
180.847531421802
 30
0.0
 10
57.16326360333071
 20
180.8885280580765
 30
0.0
 10
57.16136880081383
 20
180.9315917516421
 30
0.0
 10
56.73279892244874
 20
180.9315917516421
 30
0.0
 10
56.3128417827968
 20
180.9315917516421
 30
0.0
 10
55.89495170043599
 20
180.9315917516421
 30
0.0
 10
55.89495170043599
 20
180.3013115326156
 30
0.0
 10
55.89495170043599
 20
179.6810220904964
 30
0.0
 10
55.89495170043599
 20
179.0486748141788
 30
0.0
 10
56.12990721253003
 20
179.0486748141788
 30
0.0
 10
56.35659449545947
 20
179.0486748141788
 30
0.0
 10
56.59757892465269
 20
179.0486748141788
 30
0.0
 10
56.59757892465269
 20
178.9830457451848
 30
0.0
 10
56.59671765078138
 20
178.9293022556149
 30
0.0
 10
56.59757892465269
 20
178.875558766045
 30
0.0
 10
56.62513968853469
 20
177.4139770064278
 30
0.0
 10
56.53453367727262
 20
175.9506726990679
 30
0.0
 10
56.65166692377112
 20
174.490641232419
 30
0.0
 10
56.67440455397377
 20
174.2055595810146
 30
0.0
 10
56.71591795457103
 20
173.9168605793506
 30
0.0
 10
56.79257132911783
 20
173.642114214402
 30
0.0
 10
56.93537053698144
 20
173.1298285157453
 30
0.0
 10
57.1527560621007
 20
172.6444145618736
 30
0.0
 10
57.46470945829007
 20
172.2108492950549
 30
0.0
 10
57.92996960357306
 20
171.5642048724735
 30
0.0
 10
58.51064044761193
 20
171.0465792758148
 30
0.0
 10
59.22704805376963
 20
170.6879448358002
 30
0.0
 10
59.89195148242285
 20
170.3549763571509
 30
0.0
 10
60.59647350915644
 20
170.1894395190846
 30
0.0
 10
61.33889158622778
 20
170.1873724617934
 30
0.0
 10
62.11782767544277
 20
170.1853054045023
 30
0.0
 10
62.89693601943202
 20
170.1965019648294
 30
0.0
 10
63.67552759909848
 20
170.1815157994685
 30
0.0
 10
63.92633055042467
 20
170.1765204110149
 30
0.0
 10
64.18075085201038
 20
170.1257052526075
 30
0.0
 10
64.42466361236606
 20
170.0624877504531
 30
0.0
 10
64.7665893392771
 20
169.973776541708
 30
0.0
 10
65.03255071073839
 20
169.7510511185866
 30
0.0
 10
65.2194471408132
 20
169.4611463335028
 30
0.0
 10
65.38360594068536
 20
169.2067260319171
 30
0.0
 10
65.49298772234204
 20
168.929051335806
 30
0.0
 10
65.49195419369646
 20
168.6046955958697
 30
0.0
 10
65.48403047408038
 20
165.7008246113526
 30
0.0
 10
65.48592527659727
 20
162.7967813720612
 30
0.0
 10
65.48954262685679
 20
159.8927381327699
 30
0.0
 10
65.48988713640532
 20
159.629016073374
 30
0.0
 10
65.49936114898975
 20
159.3616766637186
 30
0.0
 10
65.54363062597521
 20
159.1026054832278
 30
0.0
 10
65.63682045885122
 20
158.5558688297187
 30
0.0
 10
65.78392603607138
 20
158.0270466727328
 30
0.0
 10
66.05453828643776
 20
157.5314696871797
 30
0.0
 10
66.34616561926416
 20
156.9976521417402
 30
0.0
 10
66.73597817342018
 20
156.5554741362084
 30
0.0
 10
67.19710420412086
 20
156.1718627539258
 30
0.0
 10
67.53592934509518
 20
155.8902261980066
 30
0.0
 10
67.91471759369841
 20
155.6702568512734
 30
0.0
 10
68.33071287354232
 20
155.5179836308254
 30
0.0
 10
68.94583467243368
 20
155.2928466408643
 30
0.0
 10
69.57800969397702
 20
155.1938001456634
 30
0.0
 10
70.23516165778844
 20
155.1974174959229
 30
0.0
 10
72.19507647934707
 20
155.2080972919271
 30
0.0
 10
74.15516355567996
 20
155.2012071009567
 30
0.0
 10
76.11507837723859
 20
155.2012071009567
 30
0.0
 10
76.16813284771145
 20
155.2012071009567
 30
0.0
 10
76.22101506341002
 20
155.2012071009567
 30
0.0
 10
76.28578285853273
 20
155.2012071009567
 30
0.0
 10
76.28578285853273
 20
155.0725327845826
 30
0.0
 10
76.28578285853273
 20
154.9643567863457
 30
0.0
 10
76.28578285853273
 20
154.8566975524317
 30
0.0
 10
76.9210584660128
 20
154.8566975524317
 30
0.0
 10
77.54427623929449
 20
154.8566975524317
 30
0.0
 10
78.16301538844536
 20
154.8566975524317
 30
0.0
 10
78.16301538844536
 20
155.284750666474
 30
0.0
 10
78.16301538844536
 20
155.7017794749634
 30
0.0
 10
78.16301538844536
 20
156.1186360286787
 30
0.0
 10
77.53342418851595
 20
156.1186360286787
 30
0.0
 10
76.91313474639672
 20
156.1186360286787
 30
0.0
 10
76.28095972485337
 20
156.1186360286787
 30
0.0
 10
76.28095972485337
 20
156.0113213043132
 30
0.0
 10
76.28095972485337
 20
155.9115857900152
 30
0.0
 10
76.28095972485337
 20
155.7963473460336
 30
0.0
  0
SPLINE
  5
43
330
3C
100
AcDbEntity
  8
Layer 1
370
     0
100
AcDbSpline
210
0.0
220
0.0
230
1.0
 70
    11
 71
     3
 72
   125
 73
   121
 74
     0
 42
0.0000000001
 43
0.0000000001
 40
0.0
 40
0.0
 40
0.0
 40
0.0
 40
1.0
 40
1.0
 40
1.0
 40
2.0
 40
2.0
 40
2.0
 40
3.0
 40
3.0
 40
3.0
 40
4.0
 40
4.0
 40
4.0
 40
5.0
 40
5.0
 40
5.0
 40
6.0
 40
6.0
 40
6.0
 40
7.0
 40
7.0
 40
7.0
 40
8.0
 40
8.0
 40
8.0
 40
9.0
 40
9.0
 40
9.0
 40
10.0
 40
10.0
 40
10.0
 40
11.0
 40
11.0
 40
11.0
 40
12.0
 40
12.0
 40
12.0
 40
13.0
 40
13.0
 40
13.0
 40
14.0
 40
14.0
 40
14.0
 40
15.0
 40
15.0
 40
15.0
 40
16.0
 40
16.0
 40
16.0
 40
17.0
 40
17.0
 40
17.0
 40
18.0
 40
18.0
 40
18.0
 40
19.0
 40
19.0
 40
19.0
 40
20.0
 40
20.0
 40
20.0
 40
21.0
 40
21.0
 40
21.0
 40
22.0
 40
22.0
 40
22.0
 40
23.0
 40
23.0
 40
23.0
 40
24.0
 40
24.0
 40
24.0
 40
25.0
 40
25.0
 40
25.0
 40
26.0
 40
26.0
 40
26.0
 40
27.0
 40
27.0
 40
27.0
 40
28.0
 40
28.0
 40
28.0
 40
29.0
 40
29.0
 40
29.0
 40
30.0
 40
30.0
 40
30.0
 40
31.0
 40
31.0
 40
31.0
 40
32.0
 40
32.0
 40
32.0
 40
33.0
 40
33.0
 40
33.0
 40
34.0
 40
34.0
 40
34.0
 40
35.0
 40
35.0
 40
35.0
 40
36.0
 40
36.0
 40
36.0
 40
37.0
 40
37.0
 40
37.0
 40
38.0
 40
38.0
 40
38.0
 40
39.0
 40
39.0
 40
39.0
 40
40.0
 40
40.0
 40
40.0
 40
40.0
 10
62.74449054420971
 20
175.8018445741051
 30
0.0
 10
62.78548718048419
 20
175.6254556852603
 30
0.0
 10
62.80374618655601
 20
175.4647419808734
 30
0.0
 10
62.86196830025673
 20
175.3200479704929
 30
0.0
 10
62.9186401209891
 20
175.179660329469
 30
0.0
 10
63.01062417044526
 20
175.0518472869662
 30
0.0
 10
63.09709606712504
 20
174.9254122826575
 30
0.0
 10
63.26469996248244
 20
174.6801214841078
 30
0.0
 10
63.49793292683385
 20
174.6227606442783
 30
0.0
 10
63.79352211946829
 20
174.6248277015695
 30
0.0
 10
65.7448242023138
 20
174.638263573962
 30
0.0
 10
67.69647079470784
 20
174.6398138669303
 30
0.0
 10
69.6479451323276
 20
174.6253444658923
 30
0.0
 10
70.04809297293937
 20
174.6222438799556
 30
0.0
 10
70.52437742377516
 20
175.0837144202048
 30
0.0
 10
70.5352294745537
 20
175.4669812929388
 30
0.0
 10
70.54315319416978
 20
175.7515461800205
 30
0.0
 10
70.58535561386408
 20
175.8381903314745
 30
0.0
 10
70.90178763418427
 20
175.8934841140128
 30
0.0
 10
70.96879474137239
 20
175.9053696934369
 30
0.0
 10
71.04183076565968
 20
175.8774644200063
 30
0.0
 10
71.11211071355878
 20
175.8772921652321
 30
0.0
 10
71.71327987573488
 20
175.8757418722637
 30
0.0
 10
72.3142767831367
 20
175.8748805983924
 30
0.0
 10
72.91544594531281
 20
175.8776366747806
 30
0.0
 10
73.04946015968903
 20
175.8781534391034
 30
0.0
 10
73.18347437406524
 20
175.9007188145318
 30
0.0
 10
73.31731633366721
 20
175.900202050209
 30
0.0
 10
73.58189966693439
 20
175.8989962667891
 30
0.0
 10
73.7412353331272
 20
175.7766953770628
 30
0.0
 10
73.74140758790146
 20
175.5770520936925
 30
0.0
 10
73.7426133713213
 20
174.0784355576089
 30
0.0
 10
73.74244111654703
 20
172.5799912762995
 30
0.0
 10
73.74157984267572
 20
171.0813747402158
 30
0.0
 10
73.74140758790146
 20
170.9278957363479
 30
0.0
 10
73.59723034184375
 20
170.7866468214526
 30
0.0
 10
73.44426810229866
 20
170.7818236877733
 30
0.0
 10
73.19174260322984
 20
170.7738999681572
 30
0.0
 10
72.93904484938678
 20
170.7675265415095
 30
0.0
 10
72.68669160509222
 20
170.7559854716339
 30
0.0
 10
72.31996119068738
 20
170.7392767585305
 30
0.0
 10
71.9795857567447
 20
170.4536783428032
 30
0.0
 10
71.89294160529066
 20
170.094527138466
 30
0.0
 10
71.84643281623978
 20
169.901601791292
 30
0.0
 10
71.84471026849715
 20
169.6959295908225
 30
0.0
 10
71.83937037049502
 20
169.4955972883553
 30
0.0
 10
71.83110214133042
 20
169.1924288856533
 30
0.0
 10
71.8371310584296
 20
168.8887437186285
 30
0.0
 10
71.8371310584296
 20
168.5690388575973
 30
0.0
 10
71.71930879283407
 20
168.5690388575973
 30
0.0
 10
71.61630043782509
 20
168.5690388575973
 30
0.0
 10
71.51518688533301
 20
168.5690388575973
 30
0.0
 10
71.51518688533301
 20
167.7120713556414
 30
0.0
 10
71.51518688533301
 20
166.871812566789
 30
0.0
 10
71.51518688533301
 20
166.0282809372256
 30
0.0
 10
71.94065617776137
 20
166.0282809372256
 30
0.0
 10
72.35768498625086
 20
166.0282809372256
 30
0.0
 10
72.77798663545134
 20
166.0282809372256
 30
0.0
 10
72.77798663545134
 20
166.878358248211
 30
0.0
 10
72.77798663545134
 20
167.7217176230001
 30
0.0
 10
72.77798663545134
 20
168.5771348319877
 30
0.0
 10
72.66016436985579
 20
168.5771348319877
 30
0.0
 10
72.55198837161895
 20
168.5771348319877
 30
0.0
 10
72.43847247537997
 20
168.5771348319877
 30
0.0
 10
72.4360609085403
 20
168.6219210732959
 30
0.0
 10
72.43244355828078
 20
168.6548217351801
 30
0.0
 10
72.43244355828078
 20
168.6878946518385
 30
0.0
 10
72.43227130350652
 20
169.0518689898551
 30
0.0
 10
72.4140122974347
 20
169.4173936208401
 30
0.0
 10
72.43985051357407
 20
169.7794731563399
 30
0.0
 10
72.45518118848344
 20
169.9963419171363
 30
0.0
 10
72.46327716287377
 20
170.132595443578
 30
0.0
 10
72.78608260984167
 20
170.1665296341077
 30
0.0
 10
73.02413870787244
 20
170.1915065763757
 30
0.0
 10
73.26581215616272
 20
170.1839273663082
 30
0.0
 10
73.50593531148463
 20
170.1863389331479
 30
0.0
 10
73.9047051139023
 20
170.1903007929559
 30
0.0
 10
74.33672008775262
 20
170.6204209642893
 30
0.0
 10
74.3368923425269
 20
171.0198797858041
 30
0.0
 10
74.33740910684968
 20
172.5606987415821
 30
0.0
 10
74.33809812594673
 20
174.10151769736
 30
0.0
 10
74.33448077568721
 20
175.6425089079123
 30
0.0
 10
74.33430852091296
 20
175.7313923714318
 30
0.0
 10
74.31312118367866
 20
175.8278550450187
 30
0.0
 10
74.27470836901813
 20
175.9079535150508
 30
0.0
 10
74.08574488165218
 20
176.3025892028862
 30
0.0
 10
73.75949433919902
 20
176.4953422952859
 30
0.0
 10
73.32885740354278
 20
176.4946532761888
 30
0.0
 10
72.48790959559331
 20
176.4932752379947
 30
0.0
 10
71.64696178764382
 20
176.4767387796655
 30
0.0
 10
70.80601397969433
 20
176.4729491746318
 30
0.0
 10
70.3827839993314
 20
176.4710543721149
 30
0.0
 10
69.96110431193681
 20
176.0448960605895
 30
0.0
 10
69.95404186619204
 20
175.6240776470662
 30
0.0
 10
69.94973549683549
 20
175.3715521479974
 30
0.0
 10
69.79901256935581
 20
175.2204847109692
 30
0.0
 10
69.53425698131436
 20
175.2218627491633
 30
0.0
 10
67.60396998092887
 20
175.2311645069735
 30
0.0
 10
65.67368298054339
 20
175.2266858828426
 30
0.0
 10
63.74322372538364
 20
175.227547156714
 30
0.0
 10
63.69413111471883
 20
175.227547156714
 30
0.0
 10
63.63677027488942
 20
175.2244465707772
 30
0.0
 10
63.59715167680905
 20
175.2470119462056
 30
0.0
 10
63.46951088908054
 20
175.3198757157186
 30
0.0
 10
63.34996607574237
 20
175.6356187169418
 30
0.0
 10
63.38476154014339
 20
175.8013278097823
 30
0.0
 10
63.65123967592747
 20
175.8013278097823
 30
0.0
 10
63.92030163332549
 20
175.8013278097823
 30
0.0
 10
64.19332545053153
 20
175.8013278097823
 30
0.0
 10
64.19332545053153
 20
176.2333427836327
 30
0.0
 10
64.19332545053153
 20
176.6534721780588
 30
0.0
 10
64.19332545053153
 20
177.0730848081623
 30
0.0
 10
63.56356199582786
 20
177.0730848081623
 30
0.0
 10
62.94327255370863
 20
177.0730848081623
 30
0.0
 10
62.31884899700709
 20
177.0730848081623
 30
0.0
 10
62.31884899700709
 20
176.6479600252825
 30
0.0
 10
62.31884899700709
 20
176.230931216793
 30
0.0
 10
62.31884899700709
 20
175.8018445741051
 30
0.0
 10
62.46698810287284
 20
175.8018445741051
 30
0.0
 10
62.60927054641365
 20
175.8018445741051
 30
0.0
 10
62.74449054420971
 20
175.8018445741051
 30
0.0
  0
SPLINE
  5
44
330
3C
100
AcDbEntity
  8
Layer 1
370
     0
100
AcDbSpline
210
0.0
220
0.0
230
1.0
 70
    11
 71
     3
 72
    95
 73
    91
 74
     0
 42
0.0000000001
 43
0.0000000001
 40
0.0
 40
0.0
 40
0.0
 40
0.0
 40
1.0
 40
1.0
 40
1.0
 40
2.0
 40
2.0
 40
2.0
 40
3.0
 40
3.0
 40
3.0
 40
4.0
 40
4.0
 40
4.0
 40
5.0
 40
5.0
 40
5.0
 40
6.0
 40
6.0
 40
6.0
 40
7.0
 40
7.0
 40
7.0
 40
8.0
 40
8.0
 40
8.0
 40
9.0
 40
9.0
 40
9.0
 40
10.0
 40
10.0
 40
10.0
 40
11.0
 40
11.0
 40
11.0
 40
12.0
 40
12.0
 40
12.0
 40
13.0
 40
13.0
 40
13.0
 40
14.0
 40
14.0
 40
14.0
 40
15.0
 40
15.0
 40
15.0
 40
16.0
 40
16.0
 40
16.0
 40
17.0
 40
17.0
 40
17.0
 40
18.0
 40
18.0
 40
18.0
 40
19.0
 40
19.0
 40
19.0
 40
20.0
 40
20.0
 40
20.0
 40
21.0
 40
21.0
 40
21.0
 40
22.0
 40
22.0
 40
22.0
 40
23.0
 40
23.0
 40
23.0
 40
24.0
 40
24.0
 40
24.0
 40
25.0
 40
25.0
 40
25.0
 40
26.0
 40
26.0
 40
26.0
 40
27.0
 40
27.0
 40
27.0
 40
28.0
 40
28.0
 40
28.0
 40
29.0
 40
29.0
 40
29.0
 40
30.0
 40
30.0
 40
30.0
 40
30.0
 10
92.46567380500859
 20
175.2268581376169
 30
0.0
 10
92.40969100337328
 20
175.2268581376169
 30
0.0
 10
92.35990937361142
 20
175.2268581376169
 30
0.0
 10
92.31012774384955
 20
175.2268581376169
 30
0.0
 10
91.34515649843108
 20
175.2268581376169
 30
0.0
 10
90.3801852530126
 20
175.2301309783279
 30
0.0
 10
89.41521400759412
 20
175.2258246089713
 30
0.0
 10
88.48968910548174
 20
175.2218627491633
 30
0.0
 10
87.56416420336937
 20
175.2166951059354
 30
0.0
 10
86.63898381080554
 20
175.1982638450893
 30
0.0
 10
86.23952498929081
 20
175.1903401254733
 30
0.0
 10
85.85367429494283
 20
174.7950154185408
 30
0.0
 10
85.83283146725708
 20
174.3886664060556
 30
0.0
 10
85.81922334009033
 20
174.1221882702716
 30
0.0
 10
85.69382186442725
 20
173.9506225151061
 30
0.0
 10
85.39289277379066
 20
173.9514837889774
 30
0.0
 10
82.54879419594266
 20
173.9604410372391
 30
0.0
 10
79.7045233633204
 20
173.9576849608509
 30
0.0
 10
76.86025253069813
 20
173.955790158334
 30
0.0
 10
76.51470945352757
 20
173.9554456487855
 30
0.0
 10
76.16864961203423
 20
173.9494167316863
 30
0.0
 10
75.82379555396072
 20
173.9280571396777
 30
0.0
 10
75.58350014386454
 20
173.9132432290911
 30
0.0
 10
75.39453665649859
 20
173.7802625433605
 30
0.0
 10
75.23933510488808
 20
173.6000840494819
 30
0.0
 10
75.05553926075001
 20
173.3870048937192
 30
0.0
 10
75.01368135060422
 20
173.128278222777
 30
0.0
 10
75.01316458628143
 20
172.8612833226701
 30
0.0
 10
75.01075301944176
 20
171.4899630647664
 30
0.0
 10
75.01213105763586
 20
170.1186428068627
 30
0.0
 10
75.01213105763586
 20
168.747322548959
 30
0.0
 10
75.01213105763586
 20
168.6935790593891
 30
0.0
 10
75.01213105763586
 20
168.6400078245935
 30
0.0
 10
75.01213105763586
 20
168.5699001314686
 30
0.0
 10
74.6831244387945
 20
168.5699001314686
 30
0.0
 10
74.36858722099119
 20
168.5699001314686
 30
0.0
 10
74.05473902228493
 20
168.5699001314686
 30
0.0
 10
74.05473902228493
 20
167.713104884287
 30
0.0
 10
74.05473902228493
 20
166.8728460954346
 30
0.0
 10
74.05473902228493
 20
166.0320705422594
 30
0.0
 10
74.48261988155296
 20
166.0320705422594
 30
0.0
 10
74.90257702120492
 20
166.0320705422594
 30
0.0
 10
75.32770180408474
 20
166.0320705422594
 30
0.0
 10
75.32770180408474
 20
166.63100039237
 30
0.0
 10
75.32597925634212
 20
167.2190781917022
 30
0.0
 10
75.33045788047295
 20
167.8073282458086
 30
0.0
 10
75.33097464479573
 20
167.8631387926696
 30
0.0
 10
75.35801864435494
 20
167.9291123712122
 30
0.0
 10
75.3940198921758
 20
167.9726928291006
 30
0.0
 10
75.52682832313218
 20
168.1328897691647
 30
0.0
 10
75.60951061477819
 20
168.30566130775
 30
0.0
 10
75.60864934090687
 20
168.5201185017068
 30
0.0
 10
75.60503199064736
 20
169.3920721690235
 30
0.0
 10
75.6070990479385
 20
170.263853581566
 30
0.0
 10
75.6070990479385
 20
171.1358072488827
 30
0.0
 10
75.6070990479385
 20
171.7199231884068
 30
0.0
 10
75.59590248761144
 20
172.3042113827052
 30
0.0
 10
75.61140541729507
 20
172.8879828126808
 30
0.0
 10
75.62019041078246
 20
173.2150946290053
 30
0.0
 10
75.67686223151482
 20
173.304839366396
 30
0.0
 10
75.96848956434121
 20
173.3472140408646
 30
0.0
 10
76.08183320580594
 20
173.3637504991938
 30
0.0
 10
76.20086125482132
 20
173.3361897353118
 30
0.0
 10
76.31730548222276
 20
173.3372232639574
 30
0.0
 10
77.08607853975626
 20
173.3441134549279
 30
0.0
 10
77.85485159728977
 20
173.3596163846115
 30
0.0
 10
78.62379690959753
 20
173.3606499132571
 30
0.0
 10
80.92615422239
 20
173.3639227539681
 30
0.0
 10
83.22868378995672
 20
173.3678846137761
 30
0.0
 10
85.53104110274919
 20
173.355999034352
 30
0.0
 10
85.92378198806767
 20
173.3539319770608
 30
0.0
 10
86.4090236871651
 20
173.8095458549851
 30
0.0
 10
86.40643986555118
 20
174.1929849824934
 30
0.0
 10
86.4054063369056
 20
174.3580050562369
 30
0.0
 10
86.43916827266105
 20
174.534566199856
 30
0.0
 10
86.63846704648275
 20
174.5939940969765
 30
0.0
 10
86.71339787328694
 20
174.6163872176306
 30
0.0
 10
86.79418536241604
 20
174.6306843638944
 30
0.0
 10
86.87204452038269
 20
174.6296508352488
 30
0.0
 10
87.08650171433949
 20
174.6272392684092
 30
0.0
 10
87.30078665352202
 20
174.6077744789175
 30
0.0
 10
87.51524384747883
 20
174.6076022241432
 30
0.0
 10
89.11928030541115
 20
174.6055351668521
 30
0.0
 10
90.72348901811775
 20
174.6063964407234
 30
0.0
 10
92.32752547605007
 20
174.6063964407234
 30
0.0
 10
92.37248397213257
 20
174.6063964407234
 30
0.0
 10
92.41744246821509
 20
174.6063964407234
 30
0.0
 10
92.46567380500859
 20
174.6063964407234
 30
0.0
 10
92.46567380500859
 20
174.8198201060346
 30
0.0
 10
92.46567380500859
 20
175.0167073130167
 30
0.0
 10
92.46567380500859
 20
175.2268581376169
 30
0.0
  0
SPLINE
  5
45
330
3C
100
AcDbEntity
  8
Layer 1
370
     0
100
AcDbSpline
210
0.0
220
0.0
230
1.0
 70
    11
 71
     3
 72
    83
 73
    79
 74
     0
 42
0.0000000001
 43
0.0000000001
 40
0.0
 40
0.0
 40
0.0
 40
0.0
 40
1.0
 40
1.0
 40
1.0
 40
2.0
 40
2.0
 40
2.0
 40
3.0
 40
3.0
 40
3.0
 40
4.0
 40
4.0
 40
4.0
 40
5.0
 40
5.0
 40
5.0
 40
6.0
 40
6.0
 40
6.0
 40
7.0
 40
7.0
 40
7.0
 40
8.0
 40
8.0
 40
8.0
 40
9.0
 40
9.0
 40
9.0
 40
10.0
 40
10.0
 40
10.0
 40
11.0
 40
11.0
 40
11.0
 40
12.0
 40
12.0
 40
12.0
 40
13.0
 40
13.0
 40
13.0
 40
14.0
 40
14.0
 40
14.0
 40
15.0
 40
15.0
 40
15.0
 40
16.0
 40
16.0
 40
16.0
 40
17.0
 40
17.0
 40
17.0
 40
18.0
 40
18.0
 40
18.0
 40
19.0
 40
19.0
 40
19.0
 40
20.0
 40
20.0
 40
20.0
 40
21.0
 40
21.0
 40
21.0
 40
22.0
 40
22.0
 40
22.0
 40
23.0
 40
23.0
 40
23.0
 40
24.0
 40
24.0
 40
24.0
 40
25.0
 40
25.0
 40
25.0
 40
26.0
 40
26.0
 40
26.0
 40
26.0
 10
92.46584605978285
 20
162.5272026503404
 30
0.0
 10
92.39797767872342
 20
162.5272026503404
 30
0.0
 10
92.34320066050796
 20
162.5272026503404
 30
0.0
 10
92.28859589706674
 20
162.5272026503404
 30
0.0
 10
88.93186711101356
 20
162.5272026503404
 30
0.0
 10
85.57496607018612
 20
162.5277194146632
 30
0.0
 10
82.21823728413294
 20
162.5259968669206
 30
0.0
 10
81.91920299601325
 20
162.5258246121463
 30
0.0
 10
81.62016870789357
 20
162.5094604085914
 30
0.0
 10
81.32113441977388
 20
162.5018811985238
 30
0.0
 10
80.9587103747256
 20
162.4927516954879
 30
0.0
 10
80.59628632967733
 20
162.4846557210976
 30
0.0
 10
80.23386228462904
 20
162.4765597467073
 30
0.0
 10
80.1890760433208
 20
162.4755262180617
 30
0.0
 10
80.14446205678681
 20
162.476387491933
 30
0.0
 10
80.0879624908287
 20
162.476387491933
 30
0.0
 10
80.0879624908287
 20
162.3582207167889
 30
0.0
 10
80.0879624908287
 20
162.2584852024909
 30
0.0
 10
80.0879624908287
 20
162.1565103761276
 30
0.0
 10
79.3426160825949
 20
162.1565103761276
 30
0.0
 10
78.60932750855947
 20
162.1565103761276
 30
0.0
 10
77.86398110032567
 20
162.1565103761276
 30
0.0
 10
77.86398110032567
 20
162.4781100396756
 30
0.0
 10
77.86398110032567
 20
162.7893744167679
 30
0.0
 10
77.86398110032567
 20
163.100466539086
 30
0.0
 10
77.43179387170109
 20
163.100466539086
 30
0.0
 10
77.01183673204913
 20
163.100466539086
 30
0.0
 10
76.59601370697948
 20
163.100466539086
 30
0.0
 10
76.59601370697948
 20
162.2491834446808
 30
0.0
 10
76.59601370697948
 20
161.4089246558283
 30
0.0
 10
76.59601370697948
 20
160.5566080327775
 30
0.0
 10
76.70487872431336
 20
160.5566080327775
 30
0.0
 10
76.80461423861135
 20
160.5566080327775
 30
0.0
 10
76.90676131974901
 20
160.5566080327775
 30
0.0
 10
76.90676131974901
 20
160.1752359625604
 30
0.0
 10
76.90676131974901
 20
159.8060939813159
 30
0.0
 10
76.90676131974901
 20
159.424894165873
 30
0.0
 10
76.69523245695467
 20
159.424894165873
 30
0.0
 10
76.49386662584182
 20
159.424894165873
 30
0.0
 10
76.29301755905175
 20
159.424894165873
 30
0.0
 10
76.29301755905175
 20
158.9925346824741
 30
0.0
 10
76.29301755905175
 20
158.5725775428221
 30
0.0
 10
76.29301755905175
 20
158.1569267725268
 30
0.0
 10
76.92398679717526
 20
158.1569267725268
 30
0.0
 10
77.54427623929449
 20
158.1569267725268
 30
0.0
 10
78.16473793618799
 20
158.1569267725268
 30
0.0
 10
78.16473793618799
 20
158.5832573388264
 30
0.0
 10
78.16473793618799
 20
159.0002861473159
 30
0.0
 10
78.16473793618799
 20
159.4338514141346
 30
0.0
 10
77.94442407990626
 20
159.4338514141346
 30
0.0
 10
77.73134492414356
 20
159.4338514141346
 30
0.0
 10
77.5208495899948
 20
159.4338514141346
 30
0.0
 10
77.5208495899948
 20
159.8167737773201
 30
0.0
 10
77.5208495899948
 20
160.1829874274022
 30
0.0
 10
77.5208495899948
 20
160.5657375358134
 30
0.0
 10
77.64073891288149
 20
160.5657375358134
 30
0.0
 10
77.7518432422808
 20
160.5657375358134
 30
0.0
 10
77.87466089632996
 20
160.5657375358134
 30
0.0
 10
77.87466089632996
 20
160.9019788551738
 30
0.0
 10
77.87466089632996
 20
161.2218559709793
 30
0.0
 10
77.87466089632996
 20
161.5436278893016
 30
0.0
 10
78.61725122817555
 20
161.5436278893016
 30
0.0
 10
79.34743921627425
 20
161.5436278893016
 30
0.0
 10
80.09433591747641
 20
161.5436278893016
 30
0.0
 10
80.09433591747641
 20
161.4254611141575
 30
0.0
 10
80.09433591747641
 20
161.3140122752097
 30
0.0
 10
80.09433591747641
 20
161.2034247101332
 30
0.0
 10
80.73098956315059
 20
161.2034247101332
 30
0.0
 10
81.35127900526982
 20
161.2034247101332
 30
0.0
 10
81.98810490571826
 20
161.2034247101332
 30
0.0
 10
81.98810490571826
 20
161.4492322730057
 30
0.0
 10
81.98810490571826
 20
161.6876328805851
 30
0.0
 10
81.98810490571826
 20
161.9194878067424
 30
0.0
 10
85.48969995692619
 20
161.9194878067424
 30
0.0
 10
88.97458629503066
 20
161.9194878067424
 30
0.0
 10
92.46584605978285
 20
161.9194878067424
 30
0.0
 10
92.46584605978285
 20
162.11740854237
 30
0.0
 10
92.46584605978285
 20
162.314295749352
 30
0.0
 10
92.46584605978285
 20
162.5272026503404
 30
0.0
  0
SPLINE
  5
46
330
3C
100
AcDbEntity
  8
Layer 1
370
     0
100
AcDbSpline
210
0.0
220
0.0
230
1.0
 70
    11
 71
     3
 72
    89
 73
    85
 74
     0
 42
0.0000000001
 43
0.0000000001
 40
0.0
 40
0.0
 40
0.0
 40
0.0
 40
1.0
 40
1.0
 40
1.0
 40
2.0
 40
2.0
 40
2.0
 40
3.0
 40
3.0
 40
3.0
 40
4.0
 40
4.0
 40
4.0
 40
5.0
 40
5.0
 40
5.0
 40
6.0
 40
6.0
 40
6.0
 40
7.0
 40
7.0
 40
7.0
 40
8.0
 40
8.0
 40
8.0
 40
9.0
 40
9.0
 40
9.0
 40
10.0
 40
10.0
 40
10.0
 40
11.0
 40
11.0
 40
11.0
 40
12.0
 40
12.0
 40
12.0
 40
13.0
 40
13.0
 40
13.0
 40
14.0
 40
14.0
 40
14.0
 40
15.0
 40
15.0
 40
15.0
 40
16.0
 40
16.0
 40
16.0
 40
17.0
 40
17.0
 40
17.0
 40
18.0
 40
18.0
 40
18.0
 40
19.0
 40
19.0
 40
19.0
 40
20.0
 40
20.0
 40
20.0
 40
21.0
 40
21.0
 40
21.0
 40
22.0
 40
22.0
 40
22.0
 40
23.0
 40
23.0
 40
23.0
 40
24.0
 40
24.0
 40
24.0
 40
25.0
 40
25.0
 40
25.0
 40
26.0
 40
26.0
 40
26.0
 40
27.0
 40
27.0
 40
27.0
 40
28.0
 40
28.0
 40
28.0
 40
28.0
 10
92.46619056933137
 20
170.1468925898418
 30
0.0
 10
92.3962551309808
 20
170.1468925898418
 30
0.0
 10
92.34130585799106
 20
170.1468925898418
 30
0.0
 10
92.2865288397756
 20
170.1468925898418
 30
0.0
 10
89.3867919698408
 20
170.1468925898418
 30
0.0
 10
86.48705509990602
 20
170.1458590611962
 30
0.0
 10
83.58731822997123
 20
170.1505099401013
 30
0.0
 10
83.4538207799178
 20
170.1506821948755
 30
0.0
 10
83.31033255295715
 20
170.1803100160487
 30
0.0
 10
83.18889293710208
 20
170.2350870342642
 30
0.0
 10
82.77617049796916
 20
170.4207776809191
 30
0.0
 10
82.62751462778063
 20
170.778378592288
 30
0.0
 10
82.59065210608846
 20
171.2043646490392
 30
0.0
 10
82.55912948239842
 20
171.5685112418301
 30
0.0
 10
82.42201468208548
 20
171.8875270837642
 30
0.0
 10
82.17190074985633
 20
172.1600341366475
 30
0.0
 10
81.82411836062036
 20
172.5386501304765
 30
0.0
 10
81.37625594753789
 20
172.6804158096945
 30
0.0
 10
80.88601885998683
 20
172.6833441408569
 30
0.0
 10
79.36638724144314
 20
172.6929904082156
 30
0.0
 10
77.84658336812517
 20
172.6869614911164
 30
0.0
 10
76.32695174958145
 20
172.6869614911164
 30
0.0
 10
76.28182099872468
 20
172.6869614911164
 30
0.0
 10
76.23669024786791
 20
172.6869614911164
 30
0.0
 10
76.19104273268836
 20
172.6869614911164
 30
0.0
 10
76.19104273268836
 20
172.4714707685141
 30
0.0
 10
76.19104273268836
 20
172.2714829755953
 30
0.0
 10
76.19104273268836
 20
172.0596096032525
 30
0.0
 10
76.43685029556093
 20
172.0596096032525
 30
0.0
 10
76.67197806242923
 20
172.0596096032525
 30
0.0
 10
76.90968965091147
 20
172.0596096032525
 30
0.0
 10
76.90968965091147
 20
170.8939615458182
 30
0.0
 10
76.90968965091147
 20
169.7403713225823
 30
0.0
 10
76.90968965091147
 20
168.5702446410172
 30
0.0
 10
76.80013561448052
 20
168.5702446410172
 30
0.0
 10
76.69712725947156
 20
168.5702446410172
 30
0.0
 10
76.59463566878537
 20
168.5702446410172
 30
0.0
 10
76.59463566878537
 20
167.7132771390613
 30
0.0
 10
76.59463566878537
 20
166.8728460954346
 30
0.0
 10
76.59463566878537
 20
166.0322427970336
 30
0.0
 10
77.0225165280534
 20
166.0322427970336
 30
0.0
 10
77.44247366770536
 20
166.0322427970336
 30
0.0
 10
77.85846894754927
 20
166.0322427970336
 30
0.0
 10
77.85846894754927
 20
166.8833536366646
 30
0.0
 10
77.85846894754927
 20
167.7237846802913
 30
0.0
 10
77.85846894754927
 20
168.5761013033421
 30
0.0
 10
77.74116344627652
 20
168.5761013033421
 30
0.0
 10
77.63298744803967
 20
168.5761013033421
 30
0.0
 10
77.52239988296316
 20
168.5761013033421
 30
0.0
 10
77.52239988296316
 20
169.7448499467131
 30
0.0
 10
77.52239988296316
 20
170.9013685011115
 30
0.0
 10
77.52239988296316
 20
172.0918212460396
 30
0.0
 10
77.86932099832781
 20
172.0918212460396
 30
0.0
 10
78.20590682723672
 20
172.0918212460396
 30
0.0
 10
78.5426649109199
 20
172.0918212460396
 30
0.0
 10
79.23271753661544
 20
172.0918212460396
 30
0.0
 10
79.92277016231098
 20
172.0957831058476
 30
0.0
 10
80.61265053323226
 20
172.0895819339741
 30
0.0
 10
80.82125106486413
 20
172.0876871314572
 30
0.0
 10
81.03071287036732
 20
172.06718881332
 30
0.0
 10
81.23759085425658
 20
172.0391112851152
 30
0.0
 10
81.57848305252205
 20
171.9929470056129
 30
0.0
 10
81.9176527030449
 20
171.6461981450225
 30
0.0
 10
81.97174070216332
 20
171.3039279085629
 30
0.0
 10
82.00085175901368
 20
171.1187540262307
 30
0.0
 10
82.01153155501795
 20
170.9287570102192
 30
0.0
 10
82.06200220387686
 20
170.7497842997605
 30
0.0
 10
82.12401392261137
 20
170.5298149530273
 30
0.0
 10
82.21944306755279
 20
170.3244872621064
 30
0.0
 10
82.37102726890377
 20
170.1406914179683
 30
0.0
 10
82.66885577360362
 20
169.7799899206626
 30
0.0
 10
83.04368216239881
 20
169.564326943286
 30
0.0
 10
83.50394691922818
 20
169.5567477332185
 30
0.0
 10
84.83995494840806
 20
169.5346991221129
 30
0.0
 10
86.17630748713648
 20
169.5310817718533
 30
0.0
 10
87.51248777109063
 20
169.5276366763681
 30
0.0
 10
89.11686873857148
 20
169.5233303070115
 30
0.0
 10
90.72124970605233
 20
169.5266031477225
 30
0.0
 10
92.32563067353318
 20
169.5266031477225
 30
0.0
 10
92.37076142438995
 20
169.5266031477225
 30
0.0
 10
92.41589217524673
 20
169.5266031477225
 30
0.0
 10
92.46619056933137
 20
169.5266031477225
 30
0.0
 10
92.46619056933137
 20
169.7386487748396
 30
0.0
 10
92.46619056933137
 20
169.9355359818217
 30
0.0
 10
92.46619056933137
 20
170.1468925898418
 30
0.0
  0
SPLINE
  5
47
330
3C
100
AcDbEntity
  8
Layer 1
370
     0
100
AcDbSpline
210
0.0
220
0.0
230
1.0
 70
    11
 71
     3
 72
   104
 73
   100
 74
     0
 42
0.0000000001
 43
0.0000000001
 40
0.0
 40
0.0
 40
0.0
 40
0.0
 40
1.0
 40
1.0
 40
1.0
 40
2.0
 40
2.0
 40
2.0
 40
3.0
 40
3.0
 40
3.0
 40
4.0
 40
4.0
 40
4.0
 40
5.0
 40
5.0
 40
5.0
 40
6.0
 40
6.0
 40
6.0
 40
7.0
 40
7.0
 40
7.0
 40
8.0
 40
8.0
 40
8.0
 40
9.0
 40
9.0
 40
9.0
 40
10.0
 40
10.0
 40
10.0
 40
11.0
 40
11.0
 40
11.0
 40
12.0
 40
12.0
 40
12.0
 40
13.0
 40
13.0
 40
13.0
 40
14.0
 40
14.0
 40
14.0
 40
15.0
 40
15.0
 40
15.0
 40
16.0
 40
16.0
 40
16.0
 40
17.0
 40
17.0
 40
17.0
 40
18.0
 40
18.0
 40
18.0
 40
19.0
 40
19.0
 40
19.0
 40
20.0
 40
20.0
 40
20.0
 40
21.0
 40
21.0
 40
21.0
 40
22.0
 40
22.0
 40
22.0
 40
23.0
 40
23.0
 40
23.0
 40
24.0
 40
24.0
 40
24.0
 40
25.0
 40
25.0
 40
25.0
 40
26.0
 40
26.0
 40
26.0
 40
27.0
 40
27.0
 40
27.0
 40
28.0
 40
28.0
 40
28.0
 40
29.0
 40
29.0
 40
29.0
 40
30.0
 40
30.0
 40
30.0
 40
31.0
 40
31.0
 40
31.0
 40
32.0
 40
32.0
 40
32.0
 40
33.0
 40
33.0
 40
33.0
 40
33.0
 10
72.5595675816865
 20
183.5236815947441
 30
0.0
 10
72.27379691118503
 20
183.5236815947441
 30
0.0
 10
72.00904132314358
 20
183.5236815947441
 30
0.0
 10
71.74824759491017
 20
183.5236815947441
 30
0.0
 10
71.74824759491017
 20
182.8716972741606
 30
0.0
 10
71.74824759491017
 20
182.2284979470644
 30
0.0
 10
71.74824759491017
 20
181.5766858812551
 30
0.0
 10
71.68571911185288
 20
181.5766858812551
 30
0.0
 10
71.63128660318593
 20
181.5766858812551
 30
0.0
 10
71.57668183974472
 20
181.5766858812551
 30
0.0
 10
68.93136527139563
 20
181.5766858812551
 30
0.0
 10
66.28604870304655
 20
181.5777194099007
 30
0.0
 10
63.64090438947172
 20
181.5728962762214
 30
0.0
 10
63.5344509389775
 20
181.5727240214471
 30
0.0
 10
63.41146103015408
 20
181.5413736525313
 30
0.0
 10
63.32516138824857
 20
181.482118010185
 30
0.0
 10
63.08503823292666
 20
181.3169256816673
 30
0.0
 10
62.91846786621483
 20
181.0885158509952
 30
0.0
 10
62.84491507760475
 20
180.8008503779769
 30
0.0
 10
62.81011961320372
 20
180.665113615858
 30
0.0
 10
62.77928600861074
 20
180.5283433250936
 30
0.0
 10
62.74345701556414
 20
180.3793429453566
 30
0.0
 10
62.60703123434825
 20
180.3793429453566
 30
0.0
 10
62.46492104558169
 20
180.3793429453566
 30
0.0
 10
62.32315536636366
 20
180.3793429453566
 30
0.0
 10
62.32315536636366
 20
179.947155716732
 30
0.0
 10
62.32315536636366
 20
179.52719857708
 30
0.0
 10
62.32315536636366
 20
179.1112032972361
 30
0.0
 10
62.95412460448716
 20
179.1112032972361
 30
0.0
 10
63.57424179183214
 20
179.1112032972361
 30
0.0
 10
64.19522025304842
 20
179.1112032972361
 30
0.0
 10
64.19522025304842
 20
179.5373616087615
 30
0.0
 10
64.19522025304842
 20
179.954390417251
 30
0.0
 10
64.19522025304842
 20
180.3870944101984
 30
0.0
 10
63.91582300919466
 20
180.3870944101984
 30
0.0
 10
63.64348821108566
 20
180.3870944101984
 30
0.0
 10
63.33187932444481
 20
180.3870944101984
 30
0.0
 10
63.38493379491766
 20
180.5316161658046
 30
0.0
 10
63.42506915732082
 20
180.651333233917
 30
0.0
 10
63.472439220243
 20
180.7679497160927
 30
0.0
 10
63.54323593246489
 20
180.9427883119692
 30
0.0
 10
63.67277152271028
 20
180.9867132794061
 30
0.0
 10
63.86104599097919
 20
180.9863687698576
 30
0.0
 10
66.43436006368655
 20
180.9794785788871
 30
0.0
 10
69.00784639116819
 20
180.9817178909525
 30
0.0
 10
71.58116046387555
 20
180.9817178909525
 30
0.0
 10
71.63834904893069
 20
180.9817178909525
 30
0.0
 10
71.69553763398584
 20
180.9817178909525
 30
0.0
 10
71.752726219041
 20
180.9817178909525
 30
0.0
 10
71.752726219041
 20
180.747106888407
 30
0.0
 10
71.752726219041
 20
180.5333387135472
 30
0.0
 10
71.752726219041
 20
180.3032063351325
 30
0.0
 10
71.48986543351643
 20
180.3032063351325
 30
0.0
 10
71.23458385805941
 20
180.3032063351325
 30
0.0
 10
70.9820583589906
 20
180.3032063351325
 30
0.0
 10
70.9820583589906
 20
180.0894381602728
 30
0.0
 10
70.9820583589906
 20
179.8925509532908
 30
0.0
 10
70.9820583589906
 20
179.6932521794691
 30
0.0
 10
71.71241860186356
 20
179.6932521794691
 30
0.0
 10
72.43416610602341
 20
179.6932521794691
 30
0.0
 10
73.15901419611997
 20
179.6932521794691
 30
0.0
 10
73.15901419611997
 20
179.9001301633583
 30
0.0
 10
73.15901419611997
 20
180.0999457015028
 30
0.0
 10
73.15901419611997
 20
180.3118190738457
 30
0.0
 10
72.88874645530213
 20
180.3118190738457
 30
0.0
 10
72.62812498184297
 20
180.3118190738457
 30
0.0
 10
72.36629772496399
 20
180.3118190738457
 30
0.0
 10
72.36629772496399
 20
180.8626898419371
 30
0.0
 10
72.36629772496399
 20
181.4015027758302
 30
0.0
 10
72.36629772496399
 20
181.9404879644975
 30
0.0
 10
72.43399385124914
 20
181.9456556077254
 30
0.0
 10
72.49169920062708
 20
181.949961977082
 30
0.0
 10
72.56525198923717
 20
181.9553018750841
 30
0.0
 10
72.56525198923717
 20
182.1248005729584
 30
0.0
 10
72.56525198923717
 20
182.2870645703136
 30
0.0
 10
72.56525198923717
 20
182.4643147330298
 30
0.0
 10
73.3870795172435
 20
182.4643147330298
 30
0.0
 10
74.19237058692066
 20
182.4643147330298
 30
0.0
 10
75.01437036970127
 20
182.4643147330298
 30
0.0
 10
75.01437036970127
 20
182.3632011805377
 30
0.0
 10
75.01437036970127
 20
182.2601928255287
 30
0.0
 10
75.01437036970127
 20
182.1577012348425
 30
0.0
 10
75.65102401537544
 20
182.1577012348425
 30
0.0
 10
76.27131345749467
 20
182.1577012348425
 30
0.0
 10
76.89177515438817
 20
182.1577012348425
 30
0.0
 10
76.89177515438817
 20
182.5855820941105
 30
0.0
 10
76.89177515438817
 20
183.0057114885368
 30
0.0
 10
76.89177515438817
 20
183.421879023155
 30
0.0
 10
76.26097817103893
 20
183.421879023155
 30
0.0
 10
75.64086098369395
 20
183.421879023155
 30
0.0
 10
75.00868596215061
 20
183.421879023155
 30
0.0
 10
75.00868596215061
 20
183.3049180314307
 30
0.0
 10
75.00868596215061
 20
183.1967420331939
 30
0.0
 10
75.00868596215061
 20
183.0694457550139
 30
0.0
 10
74.18840872711263
 20
183.0694457550139
 30
0.0
 10
73.38001707149876
 20
183.0694457550139
 30
0.0
 10
72.5595675816865
 20
183.0694457550139
 30
0.0
 10
72.5595675816865
 20
183.2167235870083
 30
0.0
 10
72.5595675816865
 20
183.3672742597138
 30
0.0
 10
72.5595675816865
 20
183.5236815947441
 30
0.0
  0
SPLINE
  5
48
330
3C
100
AcDbEntity
  8
Layer 1
370
     0
100
AcDbSpline
210
0.0
220
0.0
230
1.0
 70
    11
 71
     3
 72
    95
 73
    91
 74
     0
 42
0.0000000001
 43
0.0000000001
 40
0.0
 40
0.0
 40
0.0
 40
0.0
 40
1.0
 40
1.0
 40
1.0
 40
2.0
 40
2.0
 40
2.0
 40
3.0
 40
3.0
 40
3.0
 40
4.0
 40
4.0
 40
4.0
 40
5.0
 40
5.0
 40
5.0
 40
6.0
 40
6.0
 40
6.0
 40
7.0
 40
7.0
 40
7.0
 40
8.0
 40
8.0
 40
8.0
 40
9.0
 40
9.0
 40
9.0
 40
10.0
 40
10.0
 40
10.0
 40
11.0
 40
11.0
 40
11.0
 40
12.0
 40
12.0
 40
12.0
 40
13.0
 40
13.0
 40
13.0
 40
14.0
 40
14.0
 40
14.0
 40
15.0
 40
15.0
 40
15.0
 40
16.0
 40
16.0
 40
16.0
 40
17.0
 40
17.0
 40
17.0
 40
18.0
 40
18.0
 40
18.0
 40
19.0
 40
19.0
 40
19.0
 40
20.0
 40
20.0
 40
20.0
 40
21.0
 40
21.0
 40
21.0
 40
22.0
 40
22.0
 40
22.0
 40
23.0
 40
23.0
 40
23.0
 40
24.0
 40
24.0
 40
24.0
 40
25.0
 40
25.0
 40
25.0
 40
26.0
 40
26.0
 40
26.0
 40
27.0
 40
27.0
 40
27.0
 40
28.0
 40
28.0
 40
28.0
 40
29.0
 40
29.0
 40
29.0
 40
30.0
 40
30.0
 40
30.0
 40
30.0
 10
73.16194252728243
 20
172.6995360896376
 30
0.0
 10
72.34752195456937
 20
172.6866169815679
 30
0.0
 10
71.54498696128043
 20
172.6850666885996
 30
0.0
 10
70.74331324186278
 20
172.6557833769749
 30
0.0
 10
70.38795164255926
 20
172.6428642689053
 30
0.0
 10
70.08064912527497
 20
172.4795667429044
 30
0.0
 10
69.81658255633057
 20
172.2341036895804
 30
0.0
 10
69.45105792534557
 20
171.8944172747347
 30
0.0
 10
69.30360783857688
 20
171.4615410270131
 30
0.0
 10
69.30085176218869
 20
170.9837062832089
 30
0.0
 10
69.29137774960424
 20
169.3838039398589
 30
0.0
 10
69.29499509986375
 20
167.7839015965089
 30
0.0
 10
69.29930146922031
 20
166.1839992531589
 30
0.0
 10
69.30016274309163
 20
165.9049465188536
 30
0.0
 10
69.38008895834943
 20
165.6401909308122
 30
0.0
 10
69.5285725737637
 20
165.4014458136844
 30
0.0
 10
69.93457707670039
 20
164.748944728778
 30
0.0
 10
70.5214490926127
 20
164.4268283009072
 30
0.0
 10
71.29211695266308
 20
164.4468098547216
 30
0.0
 10
71.56565753419193
 20
164.4540445552407
 30
0.0
 10
71.83937037049502
 20
164.4690307206015
 30
0.0
 10
72.11291095202385
 20
164.4709255231184
 30
0.0
 10
72.68014592367024
 20
164.4747151281522
 30
0.0
 10
73.24720864054237
 20
164.4707532683441
 30
0.0
 10
73.81444361218875
 20
164.472648070861
 30
0.0
 10
74.02631698453162
 20
164.4735093447323
 30
0.0
 10
74.18186304569065
 20
164.3706732444976
 30
0.0
 10
74.30071883993176
 20
164.2096150305622
 30
0.0
 10
74.4292209015316
 20
164.0354654537828
 30
0.0
 10
74.45023598399162
 20
163.8399562849949
 30
0.0
 10
74.40923934771713
 20
163.6265326196836
 30
0.0
 10
74.37719995970431
 20
163.4601345077461
 30
0.0
 10
74.37737221447858
 20
163.2873629691608
 30
0.0
 10
74.36221379434348
 20
163.1063232014109
 30
0.0
 10
74.25558808907499
 20
163.1063232014109
 30
0.0
 10
74.15585257477701
 20
163.1063232014109
 30
0.0
 10
74.05370549363936
 20
163.1063232014109
 30
0.0
 10
74.05370549363936
 20
162.2540065783601
 30
0.0
 10
74.05370549363936
 20
161.4137477895077
 30
0.0
 10
74.05370549363936
 20
160.5702161599443
 30
0.0
 10
74.4805528242618
 20
160.5702161599443
 30
0.0
 10
74.90050996391376
 20
160.5702161599443
 30
0.0
 10
75.31960582969441
 20
160.5702161599443
 30
0.0
 10
75.31960582969441
 20
161.4202934709297
 30
0.0
 10
75.31960582969441
 20
162.2605522597821
 30
0.0
 10
75.31960582969441
 20
163.1173475069637
 30
0.0
 10
75.20057778067903
 20
163.1173475069637
 30
0.0
 10
75.08930119650546
 20
163.1173475069637
 30
0.0
 10
74.96476099471367
 20
163.1173475069637
 30
0.0
 10
74.97354598820107
 20
163.2430934921753
 30
0.0
 10
74.97182344045844
 20
163.3531642929291
 30
0.0
 10
74.99042695607879
 20
163.4596177434233
 30
0.0
 10
75.08378904372906
 20
163.9924017602172
 30
0.0
 10
74.98887666311042
 20
164.4592121984685
 30
0.0
 10
74.53670788067139
 20
164.8068223329302
 30
0.0
 10
74.31518824096982
 20
164.9771823046759
 30
0.0
 10
74.0769598881648
 20
165.0765733094253
 30
0.0
 10
73.78533255533839
 20
165.0712334114232
 30
0.0
 10
73.07460935673136
 20
165.0583143033535
 30
0.0
 10
72.36336939380152
 20
165.0670992968409
 30
0.0
 10
71.65230168564595
 20
165.0669270420666
 30
0.0
 10
71.61009926595165
 20
165.0669270420666
 30
0.0
 10
71.56686331761176
 20
165.0698553732291
 30
0.0
 10
71.52552217178877
 20
165.0631374370328
 30
0.0
 10
71.1171061020124
 20
164.9959580750705
 30
0.0
 10
70.72539874533949
 20
165.0421223545728
 30
0.0
 10
70.39535859785255
 20
165.3032605923547
 30
0.0
 10
70.09081215695646
 20
165.544245021548
 30
0.0
 10
69.8899630901664
 20
165.8541313604462
 30
0.0
 10
69.89099661881198
 20
166.2677150734504
 30
0.0
 10
69.89426945952296
 20
167.740665648169
 30
0.0
 10
69.8913411283605
 20
169.2136162228876
 30
0.0
 10
69.89340818565165
 20
170.6863945428319
 30
0.0
 10
69.89358044042591
 20
170.8541706929635
 30
0.0
 10
69.9018486695905
 20
171.0226358621923
 30
0.0
 10
69.91959091133955
 20
171.1893784836784
 30
0.0
 10
69.95163029935237
 20
171.4934081602516
 30
0.0
 10
70.09942489566959
 20
171.732497786928
 30
0.0
 10
70.35367294248103
 20
171.9035467777707
 30
0.0
 10
70.57295327011718
 20
172.0513413740879
 30
0.0
 10
70.81548799227878
 20
172.0761460615817
 30
0.0
 10
71.07645397528644
 20
172.0709784183538
 30
0.0
 10
71.73653427026031
 20
172.0575425459613
 30
0.0
 10
72.39695907478271
 20
172.0663275394487
 30
0.0
 10
73.05721162453084
 20
172.0666720489972
 30
0.0
 10
73.09011228641498
 20
172.0666720489972
 30
0.0
 10
73.12284069352485
 20
172.0699448897082
 30
0.0
 10
73.16194252728243
 20
172.0721842017736
 30
0.0
 10
73.16194252728243
 20
172.2763061092747
 30
0.0
 10
73.16194252728243
 20
172.4731933162567
 30
0.0
 10
73.16194252728243
 20
172.6995360896376
 30
0.0
  0
SPLINE
  5
49
330
3C
100
AcDbEntity
  8
Layer 1
370
     0
100
AcDbSpline
210
0.0
220
0.0
230
1.0
 70
    11
 71
     3
 72
    80
 73
    76
 74
     0
 42
0.0000000001
 43
0.0000000001
 40
0.0
 40
0.0
 40
0.0
 40
0.0
 40
1.0
 40
1.0
 40
1.0
 40
2.0
 40
2.0
 40
2.0
 40
3.0
 40
3.0
 40
3.0
 40
4.0
 40
4.0
 40
4.0
 40
5.0
 40
5.0
 40
5.0
 40
6.0
 40
6.0
 40
6.0
 40
7.0
 40
7.0
 40
7.0
 40
8.0
 40
8.0
 40
8.0
 40
9.0
 40
9.0
 40
9.0
 40
10.0
 40
10.0
 40
10.0
 40
11.0
 40
11.0
 40
11.0
 40
12.0
 40
12.0
 40
12.0
 40
13.0
 40
13.0
 40
13.0
 40
14.0
 40
14.0
 40
14.0
 40
15.0
 40
15.0
 40
15.0
 40
16.0
 40
16.0
 40
16.0
 40
17.0
 40
17.0
 40
17.0
 40
18.0
 40
18.0
 40
18.0
 40
19.0
 40
19.0
 40
19.0
 40
20.0
 40
20.0
 40
20.0
 40
21.0
 40
21.0
 40
21.0
 40
22.0
 40
22.0
 40
22.0
 40
23.0
 40
23.0
 40
23.0
 40
24.0
 40
24.0
 40
24.0
 40
25.0
 40
25.0
 40
25.0
 40
25.0
 10
92.46774086229973
 20
185.3866169783929
 30
0.0
 10
92.39987248124031
 20
185.3866169783929
 30
0.0
 10
92.34543997257336
 20
185.3866169783929
 30
0.0
 10
92.29100746390642
 20
185.3866169783929
 30
0.0
 10
89.46740720419565
 20
185.3866169783929
 30
0.0
 10
86.64397919925915
 20
185.3878227618128
 30
0.0
 10
83.82055119432265
 20
185.3843776663275
 30
0.0
 10
83.60333792397765
 20
185.384033156779
 30
0.0
 10
83.38457436066427
 20
185.3635348386418
 30
0.0
 10
83.16960040238469
 20
185.3314954506289
 30
0.0
 10
82.72156573452794
 20
185.2644883434408
 30
0.0
 10
82.31418319339716
 20
185.0936116073725
 30
0.0
 10
81.94331866441
 20
184.8295450384281
 30
0.0
 10
81.46565617538012
 20
184.4895141140339
 30
0.0
 10
81.10030379916937
 20
184.0635280572827
 30
0.0
 10
80.91599119070851
 20
183.5018052384127
 30
0.0
 10
80.79575735827329
 20
183.135763843105
 30
0.0
 10
80.7346069134101
 20
182.7542195181135
 30
0.0
 10
80.72978377973075
 20
182.3697468619597
 30
0.0
 10
80.72013751237205
 20
181.5784084289978
 30
0.0
 10
80.72823348676239
 20
180.7867254864873
 30
0.0
 10
80.72513290082567
 20
179.995042543977
 30
0.0
 10
80.72478839127714
 20
179.9047810422634
 30
0.0
 10
80.71135251888467
 20
179.8110744450646
 30
0.0
 10
80.68448077409971
 20
179.7247748031591
 30
0.0
 10
80.55081106927203
 20
179.2951713961484
 30
0.0
 10
80.15324705027419
 20
179.0288655151386
 30
0.0
 10
79.69091523615366
 20
179.0333441392694
 30
0.0
 10
78.57349851551288
 20
179.0438516804995
 30
0.0
 10
77.45590954009784
 20
179.0367892347547
 30
0.0
 10
76.33832056468279
 20
179.0367892347547
 30
0.0
 10
76.28905569924372
 20
179.0367892347547
 30
0.0
 10
76.23979083380463
 20
179.0367892347547
 30
0.0
 10
76.18708087288032
 20
179.0367892347547
 30
0.0
 10
76.18708087288032
 20
178.8235378242177
 30
0.0
 10
76.18708087288032
 20
178.6266506172357
 30
0.0
 10
76.18708087288032
 20
178.4163275378612
 30
0.0
 10
76.2427191649671
 20
178.4163275378612
 30
0.0
 10
76.29250079472897
 20
178.4158107735384
 30
0.0
 10
76.34228242449082
 20
178.4163275378612
 30
0.0
 10
77.0900403995643
 20
178.4247680218001
 30
0.0
 10
77.83779837463777
 20
178.434586543933
 30
0.0
 10
78.58555634971125
 20
178.441132225355
 30
0.0
 10
78.9495306877279
 20
178.444405066066
 30
0.0
 10
79.3136772805188
 20
178.4445773208402
 30
0.0
 10
79.67765161853545
 20
178.4409599705807
 30
0.0
 10
80.06694740836868
 20
178.437170365547
 30
0.0
 10
80.4154188167017
 20
178.5358723511994
 30
0.0
 10
80.7249606460514
 20
178.786330792977
 30
0.0
 10
81.10426565897741
 20
179.0932888007128
 30
0.0
 10
81.30459796144468
 20
179.4836181191916
 30
0.0
 10
81.32044540067683
 20
179.9652424680295
 30
0.0
 10
81.35179576959261
 20
180.9185003887982
 30
0.0
 10
81.25757240807103
 20
181.8748588955035
 30
0.0
 10
81.37780624050625
 20
182.8253607398839
 30
0.0
 10
81.40760631645365
 20
183.061005271075
 30
0.0
 10
81.4785752834498
 20
183.2973388213632
 30
0.0
 10
81.56849227561483
 20
183.5181694419677
 30
0.0
 10
81.73420136845535
 20
183.9257242378727
 30
0.0
 10
82.06493053503932
 20
184.1935804118509
 30
0.0
 10
82.41736380318038
 20
184.4368041531096
 30
0.0
 10
82.81320527443559
 20
184.7100002250899
 30
0.0
 10
83.27123071919955
 20
184.7811414468603
 30
0.0
 10
83.72822263531795
 20
184.7849310518941
 30
0.0
 10
84.98809405427382
 20
184.7956108478983
 30
0.0
 10
86.24813772800394
 20
184.7706339056303
 30
0.0
 10
87.50818140173406
 20
184.767188810145
 30
0.0
 10
89.11669648379721
 20
184.7628824407884
 30
0.0
 10
90.72538382063463
 20
184.7661552814994
 30
0.0
 10
92.33389890269778
 20
184.7661552814994
 30
0.0
 10
92.3783406344575
 20
184.7661552814994
 30
0.0
 10
92.42261011144296
 20
184.7661552814994
 30
0.0
 10
92.46774086229973
 20
184.7661552814994
 30
0.0
 10
92.46774086229973
 20
184.981129239779
 30
0.0
 10
92.46774086229973
 20
185.1750881155986
 30
0.0
 10
92.46774086229973
 20
185.3866169783929
 30
0.0
  0
SPLINE
  5
4A
330
3C
100
AcDbEntity
  8
Layer 1
370
     0
100
AcDbSpline
210
0.0
220
0.0
230
1.0
 70
    11
 71
     3
 72
    74
 73
    70
 74
     0
 42
0.0000000001
 43
0.0000000001
 40
0.0
 40
0.0
 40
0.0
 40
0.0
 40
1.0
 40
1.0
 40
1.0
 40
2.0
 40
2.0
 40
2.0
 40
3.0
 40
3.0
 40
3.0
 40
4.0
 40
4.0
 40
4.0
 40
5.0
 40
5.0
 40
5.0
 40
6.0
 40
6.0
 40
6.0
 40
7.0
 40
7.0
 40
7.0
 40
8.0
 40
8.0
 40
8.0
 40
9.0
 40
9.0
 40
9.0
 40
10.0
 40
10.0
 40
10.0
 40
11.0
 40
11.0
 40
11.0
 40
12.0
 40
12.0
 40
12.0
 40
13.0
 40
13.0
 40
13.0
 40
14.0
 40
14.0
 40
14.0
 40
15.0
 40
15.0
 40
15.0
 40
16.0
 40
16.0
 40
16.0
 40
17.0
 40
17.0
 40
17.0
 40
18.0
 40
18.0
 40
18.0
 40
19.0
 40
19.0
 40
19.0
 40
20.0
 40
20.0
 40
20.0
 40
21.0
 40
21.0
 40
21.0
 40
22.0
 40
22.0
 40
22.0
 40
23.0
 40
23.0
 40
23.0
 40
23.0
 10
92.46584605978285
 20
182.8467203318925
 30
0.0
 10
92.39797767872342
 20
182.8467203318925
 30
0.0
 10
92.34337291528222
 20
182.8467203318925
 30
0.0
 10
92.28859589706674
 20
182.8467203318925
 30
0.0
 10
89.71545407913364
 20
182.8467203318925
 30
0.0
 10
87.14231226120053
 20
182.846375822344
 30
0.0
 10
84.56917044326744
 20
182.847064841441
 30
0.0
 10
84.23723549326361
 20
182.8472370962153
 30
0.0
 10
83.91115720558471
 20
182.8138196700084
 30
0.0
 10
83.58990205158517
 20
182.7226968944235
 30
0.0
 10
82.87935110775238
 20
182.5209865537621
 30
0.0
 10
82.42701007053908
 20
182.0493529818314
 30
0.0
 10
82.1458902789427
 20
181.3828992602098
 30
0.0
 10
82.02186684147371
 20
181.0886881057695
 30
0.0
 10
82.00653616656435
 20
180.7805243146139
 30
0.0
 10
82.00033499469089
 20
180.4730495425553
 30
0.0
 10
81.98862167004104
 20
179.8935844819363
 30
0.0
 10
81.99706215397991
 20
179.3136026569945
 30
0.0
 10
81.99688989920564
 20
178.733793086827
 30
0.0
 10
81.99671764443138
 20
178.2051431846154
 30
0.0
 10
81.56022404645023
 20
177.7669270388916
 30
0.0
 10
81.03346894675552
 20
177.7669270388916
 30
0.0
 10
79.46750079393522
 20
177.7665825293431
 30
0.0
 10
77.90170489588915
 20
177.7667547841174
 30
0.0
 10
76.33573674306885
 20
177.7667547841174
 30
0.0
 10
76.2868163871783
 20
177.7667547841174
 30
0.0
 10
76.23772377651349
 20
177.7667547841174
 30
0.0
 10
76.18794214675162
 20
177.7667547841174
 30
0.0
 10
76.18794214675162
 20
177.5517808258378
 30
0.0
 10
76.18794214675162
 20
177.3548936188557
 30
0.0
 10
76.18794214675162
 20
177.1464653419981
 30
0.0
 10
76.24495847703251
 20
177.1464653419981
 30
0.0
 10
76.29474010679438
 20
177.1461208324496
 30
0.0
 10
76.3446939913305
 20
177.1464653419981
 30
0.0
 10
77.73978540808241
 20
177.154905825937
 30
0.0
 10
79.13487682483434
 20
177.1633463098758
 30
0.0
 10
80.53014049636053
 20
177.1716145390404
 30
0.0
 10
80.71204153798172
 20
177.172648067686
 30
0.0
 10
80.8939425796029
 20
177.1710977747177
 30
0.0
 10
81.07601587599837
 20
177.171959048589
 30
0.0
 10
81.34611136204195
 20
177.1733370867831
 30
0.0
 10
81.60363224956437
 20
177.2460286015218
 30
0.0
 10
81.82480737971741
 20
177.389172318934
 30
0.0
 10
82.32107338436765
 20
177.710082963385
 30
0.0
 10
82.59581974931632
 20
178.1660413508578
 30
0.0
 10
82.59254690860534
 20
178.7722059014875
 30
0.0
 10
82.58961857744288
 20
179.3223876504819
 30
0.0
 10
82.5891018131201
 20
179.8725693994763
 30
0.0
 10
82.59289141815387
 20
180.4227511484707
 30
0.0
 10
82.59547523976781
 20
180.7800075502911
 30
0.0
 10
82.63767765946211
 20
181.1274454299786
 30
0.0
 10
82.83422035689561
 20
181.4430161764274
 30
0.0
 10
82.96771780694904
 20
181.6574733703843
 30
0.0
 10
83.13222111636972
 20
181.8378241190371
 30
0.0
 10
83.34185517664717
 20
181.9728718620589
 30
0.0
 10
83.65656464922475
 20
182.1756157313658
 30
0.0
 10
84.01519908923926
 20
182.2474459722333
 30
0.0
 10
84.38020695590149
 20
182.2481349913303
 30
0.0
 10
85.41976451857562
 20
182.2496852842987
 30
0.0
 10
86.45949433602402
 20
182.2300482400328
 30
0.0
 10
87.49905189869816
 20
182.2272921636446
 30
0.0
 10
89.11566295515165
 20
182.2231580490623
 30
0.0
 10
90.7324462663794
 20
182.226258634999
 30
0.0
 10
92.34905732283288
 20
182.2264308897733
 30
0.0
 10
92.38609209929932
 20
182.2264308897733
 30
0.0
 10
92.42295462099149
 20
182.2300482400328
 30
0.0
 10
92.46584605978285
 20
182.2321152973239
 30
0.0
 10
92.46584605978285
 20
182.436926223922
 30
0.0
 10
92.46584605978285
 20
182.633813430904
 30
0.0
 10
92.46584605978285
 20
182.8467203318925
 30
0.0
  0
SPLINE
  5
4B
330
3C
100
AcDbEntity
  8
Layer 1
370
     0
100
AcDbSpline
210
0.0
220
0.0
230
1.0
 70
    11
 71
     3
 72
    74
 73
    70
 74
     0
 42
0.0000000001
 43
0.0000000001
 40
0.0
 40
0.0
 40
0.0
 40
0.0
 40
1.0
 40
1.0
 40
1.0
 40
2.0
 40
2.0
 40
2.0
 40
3.0
 40
3.0
 40
3.0
 40
4.0
 40
4.0
 40
4.0
 40
5.0
 40
5.0
 40
5.0
 40
6.0
 40
6.0
 40
6.0
 40
7.0
 40
7.0
 40
7.0
 40
8.0
 40
8.0
 40
8.0
 40
9.0
 40
9.0
 40
9.0
 40
10.0
 40
10.0
 40
10.0
 40
11.0
 40
11.0
 40
11.0
 40
12.0
 40
12.0
 40
12.0
 40
13.0
 40
13.0
 40
13.0
 40
14.0
 40
14.0
 40
14.0
 40
15.0
 40
15.0
 40
15.0
 40
16.0
 40
16.0
 40
16.0
 40
17.0
 40
17.0
 40
17.0
 40
18.0
 40
18.0
 40
18.0
 40
19.0
 40
19.0
 40
19.0
 40
20.0
 40
20.0
 40
20.0
 40
21.0
 40
21.0
 40
21.0
 40
22.0
 40
22.0
 40
22.0
 40
23.0
 40
23.0
 40
23.0
 40
23.0
 10
92.47221948643056
 20
180.3066514306178
 30
0.0
 10
92.41520315614967
 20
180.3066514306178
 30
0.0
 10
92.3774793605862
 20
180.3066514306178
 30
0.0
 10
92.3397555650227
 20
180.3066514306178
 30
0.0
 10
89.88047415287711
 20
180.3066514306178
 30
0.0
 10
87.42136499550577
 20
180.3078572140376
 30
0.0
 10
84.96208358336018
 20
180.3040676090039
 30
0.0
 10
84.80481497445852
 20
180.3038953542296
 30
0.0
 10
84.64375676052309
 20
180.281846743124
 30
0.0
 10
84.49096677575226
 20
180.243778438012
 30
0.0
 10
84.09254148288312
 20
180.1445596880368
 30
0.0
 10
83.78282739875915
 20
179.9089151568457
 30
0.0
 10
83.54821639621365
 20
179.5762911877448
 30
0.0
 10
83.34598929122947
 20
179.2894869885978
 30
0.0
 10
83.28294404384941
 20
178.9554849813028
 30
0.0
 10
83.27019719055399
 20
178.6156263116829
 30
0.0
 10
83.25572778951593
 20
178.2309814007548
 30
0.0
 10
83.26709660461725
 20
177.8454752159553
 30
0.0
 10
83.266924349843
 20
177.4603135407044
 30
0.0
 10
83.26640758552021
 20
176.9333861862354
 30
0.0
 10
82.82853594934495
 20
176.4968925882543
 30
0.0
 10
82.2997137923591
 20
176.4968925882543
 30
0.0
 10
80.31447751898388
 20
176.49672033348
 30
0.0
 10
78.32941350038293
 20
176.49672033348
 30
0.0
 10
76.3441772270077
 20
176.49672033348
 30
0.0
 10
76.29129501130913
 20
176.49672033348
 30
0.0
 10
76.2385850503848
 20
176.49672033348
 30
0.0
 10
76.18949243971998
 20
176.49672033348
 30
0.0
 10
76.18949243971998
 20
176.2786457892637
 30
0.0
 10
76.18949243971998
 20
176.0815863275074
 30
0.0
 10
76.18949243971998
 20
175.8764308913608
 30
0.0
 10
76.24426945793546
 20
175.8764308913608
 30
0.0
 10
76.29043373743781
 20
175.875914127038
 30
0.0
 10
76.3364257621659
 20
175.8764308913608
 30
0.0
 10
77.09262422117824
 20
175.8848713752996
 30
0.0
 10
77.84865042541631
 20
175.8981349929178
 30
0.0
 10
78.60484888442865
 20
175.9007188145318
 30
0.0
 10
79.79857447006772
 20
175.9048529291141
 30
0.0
 10
80.99212780093252
 20
175.9045084195656
 30
0.0
 10
82.1858533865716
 20
175.900202050209
 30
0.0
 10
82.58806828447452
 20
175.8988240120149
 30
0.0
 10
82.95014781997428
 20
175.9887410041799
 30
0.0
 10
83.26985268100546
 20
176.2500514967361
 30
0.0
 10
83.63951142657277
 20
176.5521863707925
 30
0.0
 10
83.84018823858857
 20
176.9345919696553
 30
0.0
 10
83.85965302808023
 20
177.4060532868117
 30
0.0
 10
83.87877330802337
 20
177.869590884352
 30
0.0
 10
83.86878253111614
 20
178.3343342653123
 30
0.0
 10
83.891003396996
 20
178.7976996080784
 30
0.0
 10
83.90581730758258
 20
179.1081027112994
 30
0.0
 10
84.06859806926063
 20
179.3470200832014
 30
0.0
 10
84.32353513516912
 20
179.5253037745631
 30
0.0
 10
84.52455645673345
 20
179.6658636703613
 30
0.0
 10
84.75572236379371
 20
179.7080660900556
 30
0.0
 10
84.98809405427382
 20
179.7082383448299
 30
0.0
 10
85.83317597680559
 20
179.7085828543784
 30
0.0
 10
86.67825789933738
 20
179.6894625744353
 30
0.0
 10
87.52333982186917
 20
179.6873955171441
 30
0.0
 10
89.1232421652192
 20
179.6836059121104
 30
0.0
 10
90.72331676334348
 20
179.6863619884986
 30
0.0
 10
92.3232191066935
 20
179.6863619884986
 30
0.0
 10
92.3686943670988
 20
179.6863619884986
 30
0.0
 10
92.41399737272984
 20
179.6863619884986
 30
0.0
 10
92.46636282410563
 20
179.6863619884986
 30
0.0
 10
92.46894664571957
 20
179.7275308795473
 30
0.0
 10
92.47187497688203
 20
179.7562974268491
 30
0.0
 10
92.4720472316563
 20
179.785063974151
 30
0.0
 10
92.47256399597909
 20
179.9535291433797
 30
0.0
 10
92.47221948643056
 20
180.1221665673827
 30
0.0
 10
92.47221948643056
 20
180.3066514306178
 30
0.0
  0
SPLINE
  5
4C
330
3C
100
AcDbEntity
  8
Layer 1
370
     0
100
AcDbSpline
210
0.0
220
0.0
230
1.0
 70
    11
 71
     3
 72
    65
 73
    61
 74
     0
 42
0.0000000001
 43
0.0000000001
 40
0.0
 40
0.0
 40
0.0
 40
0.0
 40
1.0
 40
1.0
 40
1.0
 40
2.0
 40
2.0
 40
2.0
 40
3.0
 40
3.0
 40
3.0
 40
4.0
 40
4.0
 40
4.0
 40
5.0
 40
5.0
 40
5.0
 40
6.0
 40
6.0
 40
6.0
 40
7.0
 40
7.0
 40
7.0
 40
8.0
 40
8.0
 40
8.0
 40
9.0
 40
9.0
 40
9.0
 40
10.0
 40
10.0
 40
10.0
 40
11.0
 40
11.0
 40
11.0
 40
12.0
 40
12.0
 40
12.0
 40
13.0
 40
13.0
 40
13.0
 40
14.0
 40
14.0
 40
14.0
 40
15.0
 40
15.0
 40
15.0
 40
16.0
 40
16.0
 40
16.0
 40
17.0
 40
17.0
 40
17.0
 40
18.0
 40
18.0
 40
18.0
 40
19.0
 40
19.0
 40
19.0
 40
20.0
 40
20.0
 40
20.0
 40
20.0
 10
83.89944388093487
 20
167.0277031374966
 30
0.0
 10
86.76748587240536
 20
167.0094441314247
 30
0.0
 10
89.61451278141583
 20
166.9913573801272
 30
0.0
 10
92.46584605978285
 20
166.9732706288296
 30
0.0
 10
92.46584605978285
 20
167.1996134022105
 30
0.0
 10
92.46584605978285
 20
167.3965006091925
 30
0.0
 10
92.46584605978285
 20
167.6090630006325
 30
0.0
 10
90.24083114063424
 20
167.6090630006325
 30
0.0
 10
88.02218964813335
 20
167.6090630006325
 30
0.0
 10
85.78701169730326
 20
167.6090630006325
 30
0.0
 10
85.78701169730326
 20
167.854181544408
 30
0.0
 10
85.78701169730326
 20
168.0839694132742
 30
0.0
 10
85.78701169730326
 20
168.3091064032352
 30
0.0
 10
85.15035805162908
 20
168.3091064032352
 30
0.0
 10
84.53024086428411
 20
168.3091064032352
 30
0.0
 10
83.89841035228929
 20
168.3091064032352
 30
0.0
 10
83.89841035228929
 20
168.2005858954498
 30
0.0
 10
83.89841035228929
 20
168.1008503811519
 30
0.0
 10
83.89841035228929
 20
167.98802350401
 30
0.0
 10
83.5745713766758
 20
167.98802350401
 30
0.0
 10
83.26244572571217
 20
167.989401542204
 30
0.0
 10
82.9504923295228
 20
167.9876789944614
 30
0.0
 10
82.51399873154165
 20
167.9852674276217
 30
0.0
 10
82.09473061098674
 20
167.9058579766867
 30
0.0
 10
81.70905217141302
 20
167.6915730375042
 30
0.0
 10
81.21536998837672
 20
167.4171711821041
 30
0.0
 10
80.91444089774015
 20
166.999108844969
 30
0.0
 10
80.8048868613092
 20
166.4473768030062
 30
0.0
 10
80.76199542251784
 20
166.2315415708553
 30
0.0
 10
80.74011906618651
 20
166.0115722241221
 30
0.0
 10
80.70618487565679
 20
165.7764444572538
 30
0.0
 10
80.50860864957771
 20
165.7764444572538
 30
0.0
 10
80.30414223252814
 20
165.7764444572538
 30
0.0
 10
80.09950356070429
 20
165.7764444572538
 30
0.0
 10
80.09950356070429
 20
165.3428791904351
 30
0.0
 10
80.09950356070429
 20
164.9260226367199
 30
0.0
 10
80.09950356070429
 20
164.5076157900363
 30
0.0
 10
80.73012828927928
 20
164.5076157900363
 30
0.0
 10
81.3531738077867
 20
164.5076157900363
 30
0.0
 10
81.97380775945447
 20
164.5076157900363
 30
0.0
 10
81.97380775945447
 20
164.9349798849815
 30
0.0
 10
81.97380775945447
 20
165.3518364386968
 30
0.0
 10
81.97380775945447
 20
165.7805785718361
 30
0.0
 10
81.75573321523815
 20
165.7805785718361
 30
0.0
 10
81.54592690018644
 20
165.7805785718361
 30
0.0
 10
81.30855982125273
 20
165.7805785718361
 30
0.0
 10
81.33112519668111
 20
165.9466321742252
 30
0.0
 10
81.3495564575272
 20
166.0980441208019
 30
0.0
 10
81.37281085205264
 20
166.2485947935073
 30
0.0
 10
81.4501532456965
 20
166.7502006961597
 30
0.0
 10
81.7274834322591
 20
167.0895426014568
 30
0.0
 10
82.20394013786915
 20
167.2664482546244
 30
0.0
 10
82.45784367513207
 20
167.360671616146
 30
0.0
 10
82.72018769633385
 20
167.3971896282896
 30
0.0
 10
82.99028318237744
 20
167.3937445328044
 30
0.0
 10
83.28931747049712
 20
167.3901271825448
 30
0.0
 10
83.58852401339107
 20
167.3930555137073
 30
0.0
 10
83.89944388093487
 20
167.3930555137073
 30
0.0
 10
83.89944388093487
 20
167.2705823692067
 30
0.0
 10
83.89944388093487
 20
167.1622341161955
 30
0.0
 10
83.89944388093487
 20
167.0277031374966
 30
0.0
  0
SPLINE
  5
4D
330
3C
100
AcDbEntity
  8
Layer 1
370
     0
100
AcDbSpline
210
0.0
220
0.0
230
1.0
 70
    11
 71
     3
 72
    65
 73
    61
 74
     0
 42
0.0000000001
 43
0.0000000001
 40
0.0
 40
0.0
 40
0.0
 40
0.0
 40
1.0
 40
1.0
 40
1.0
 40
2.0
 40
2.0
 40
2.0
 40
3.0
 40
3.0
 40
3.0
 40
4.0
 40
4.0
 40
4.0
 40
5.0
 40
5.0
 40
5.0
 40
6.0
 40
6.0
 40
6.0
 40
7.0
 40
7.0
 40
7.0
 40
8.0
 40
8.0
 40
8.0
 40
9.0
 40
9.0
 40
9.0
 40
10.0
 40
10.0
 40
10.0
 40
11.0
 40
11.0
 40
11.0
 40
12.0
 40
12.0
 40
12.0
 40
13.0
 40
13.0
 40
13.0
 40
14.0
 40
14.0
 40
14.0
 40
15.0
 40
15.0
 40
15.0
 40
16.0
 40
16.0
 40
16.0
 40
17.0
 40
17.0
 40
17.0
 40
18.0
 40
18.0
 40
18.0
 40
19.0
 40
19.0
 40
19.0
 40
20.0
 40
20.0
 40
20.0
 40
20.0
 10
92.46584605978285
 20
177.1464653419981
 30
0.0
 10
92.46584605978285
 20
177.3593722429866
 30
0.0
 10
92.46584605978285
 20
177.5562594499686
 30
0.0
 10
92.46584605978285
 20
177.7667547841174
 30
0.0
 10
92.40572914356524
 20
177.7667547841174
 30
0.0
 10
92.35181339922107
 20
177.7667547841174
 30
0.0
 10
92.29806990965118
 20
177.7667547841174
 30
0.0
 10
90.0926920347685
 20
177.7667547841174
 30
0.0
 10
87.88714190511155
 20
177.765893510246
 30
0.0
 10
85.68176403022886
 20
177.7686495866342
 30
0.0
 10
85.51691621125967
 20
177.7689940961828
 30
0.0
 10
85.36894936016819
 20
177.7331651031362
 30
0.0
 10
85.22459985933621
 20
177.6566839833636
 30
0.0
 10
84.89542098572059
 20
177.4818453874872
 30
0.0
 10
84.65805390678688
 20
177.2346597864205
 30
0.0
 10
84.56055770455431
 20
176.8646565313047
 30
0.0
 10
84.50285235517637
 20
176.6464097323141
 30
0.0
 10
84.51818303008574
 20
176.431091264486
 30
0.0
 10
84.53092988338116
 20
176.2083658413646
 30
0.0
 10
84.56004094023152
 20
175.7014200407101
 30
0.0
 10
84.13629419554579
 20
175.2294419592309
 30
0.0
 10
83.58783499429401
 20
175.2285806853595
 30
0.0
 10
81.17506237119929
 20
175.2246188255515
 30
0.0
 10
78.76228974810456
 20
175.2268581376169
 30
0.0
 10
76.34934487023558
 20
175.2268581376169
 30
0.0
 10
76.29611814498847
 20
175.2268581376169
 30
0.0
 10
76.2427191649671
 20
175.2268581376169
 30
0.0
 10
76.1875976372031
 20
175.2268581376169
 30
0.0
 10
76.1875976372031
 20
175.0124009436601
 30
0.0
 10
76.1875976372031
 20
174.8155137366781
 30
0.0
 10
76.1875976372031
 20
174.6063964407234
 30
0.0
 10
76.24426945793546
 20
174.6063964407234
 30
0.0
 10
76.29405108769733
 20
174.6058796764006
 30
0.0
 10
76.34400497223345
 20
174.6065686954977
 30
0.0
 10
77.09589706188922
 20
174.6148369246623
 30
0.0
 10
77.84796140631926
 20
174.6289618161518
 30
0.0
 10
78.59985349597504
 20
174.6306843638944
 30
0.0
 10
80.24660913792447
 20
174.6343017141539
 30
0.0
 10
81.89319252509962
 20
174.6315456377657
 30
0.0
 10
83.53994816704905
 20
174.6320624020885
 30
0.0
 10
83.90650632667963
 20
174.6322346568628
 30
0.0
 10
84.23396265255262
 20
174.7355875214203
 30
0.0
 10
84.52593449492755
 20
174.969681759643
 30
0.0
 10
84.9257378259908
 20
175.2902478945455
 30
0.0
 10
85.12624238323234
 20
175.6996974929674
 30
0.0
 10
85.1305487525889
 20
176.2075045674933
 30
0.0
 10
85.1314100264602
 20
176.3244655592175
 30
0.0
 10
85.10626082941788
 20
176.441598805716
 30
0.0
 10
85.10815563193476
 20
176.5585597974402
 30
0.0
 10
85.11349552993691
 20
176.889805728347
 30
0.0
 10
85.4216593210925
 20
177.1819498254962
 30
0.0
 10
85.72775605495696
 20
177.1738538511059
 30
0.0
 10
86.32720266939043
 20
177.158178666648
 30
0.0
 10
86.92699379337242
 20
177.1488769088378
 30
0.0
 10
87.52661266258016
 20
177.1474988706437
 30
0.0
 10
89.12238089134789
 20
177.1440537751584
 30
0.0
 10
90.71832137488987
 20
177.1464653419981
 30
0.0
 10
92.31408960365759
 20
177.1464653419981
 30
0.0
 10
92.3604261379342
 20
177.1464653419981
 30
0.0
 10
92.40659041743655
 20
177.1464653419981
 30
0.0
 10
92.46584605978285
 20
177.1464653419981
 30
0.0
  0
SPLINE
  5
4E
330
3C
100
AcDbEntity
  8
Layer 1
370
     0
100
AcDbSpline
210
0.0
220
0.0
230
1.0
 70
    11
 71
     3
 72
    65
 73
    61
 74
     0
 42
0.0000000001
 43
0.0000000001
 40
0.0
 40
0.0
 40
0.0
 40
0.0
 40
1.0
 40
1.0
 40
1.0
 40
2.0
 40
2.0
 40
2.0
 40
3.0
 40
3.0
 40
3.0
 40
4.0
 40
4.0
 40
4.0
 40
5.0
 40
5.0
 40
5.0
 40
6.0
 40
6.0
 40
6.0
 40
7.0
 40
7.0
 40
7.0
 40
8.0
 40
8.0
 40
8.0
 40
9.0
 40
9.0
 40
9.0
 40
10.0
 40
10.0
 40
10.0
 40
11.0
 40
11.0
 40
11.0
 40
12.0
 40
12.0
 40
12.0
 40
13.0
 40
13.0
 40
13.0
 40
14.0
 40
14.0
 40
14.0
 40
15.0
 40
15.0
 40
15.0
 40
16.0
 40
16.0
 40
16.0
 40
17.0
 40
17.0
 40
17.0
 40
18.0
 40
18.0
 40
18.0
 40
19.0
 40
19.0
 40
19.0
 40
20.0
 40
20.0
 40
20.0
 40
20.0
 10
56.90815428264796
 20
186.3495211665203
 30
0.0
 10
57.76305472731271
 20
186.3495211665203
 30
0.0
 10
58.60331351616514
 20
186.3495211665203
 30
0.0
 10
59.45545788444169
 20
186.3495211665203
 30
0.0
 10
59.45545788444169
 20
186.6776665114903
 30
0.0
 10
59.45545788444169
 20
186.9973713725215
 30
0.0
 10
59.45545788444169
 20
187.3246554436202
 30
0.0
 10
59.50816784536602
 20
187.3272392652342
 30
0.0
 10
59.54933673641475
 20
187.3312011250422
 30
0.0
 10
59.59050562746349
 20
187.3312011250422
 30
0.0
 10
60.3353352713745
 20
187.3315456345907
 30
0.0
 10
61.08016491528551
 20
187.3315456345907
 30
0.0
 10
61.82499455919653
 20
187.3312011250422
 30
0.0
 10
61.86289060953428
 20
187.3312011250422
 30
0.0
 10
61.90474851968006
 20
187.3365410230443
 30
0.0
 10
61.93730467201568
 20
187.3222438767806
 30
0.0
 10
61.96589896454325
 20
187.3096692782594
 30
0.0
 10
62.00207246713838
 20
187.2743570495356
 30
0.0
 10
62.003795014881
 20
187.2469685404278
 30
0.0
 10
62.01120197017428
 20
187.1303520582521
 30
0.0
 10
62.00689560081772
 20
187.0128743022051
 30
0.0
 10
62.00689560081772
 20
186.8922959602214
 30
0.0
 10
61.9307589905937
 20
186.8864392978965
 30
0.0
 10
61.86978080050478
 20
186.8817884189914
 30
0.0
 10
61.81328123454669
 20
186.8774820496348
 30
0.0
 10
61.81328123454669
 20
186.3963744651197
 30
0.0
 10
61.81328123454669
 20
185.928702752997
 30
0.0
 10
61.81328123454669
 20
185.4591362383574
 30
0.0
 10
62.15434568758641
 20
185.4591362383574
 30
0.0
 10
62.48662514713876
 20
185.4591362383574
 30
0.0
 10
62.82131617353078
 20
185.4591362383574
 30
0.0
 10
62.82131617353078
 20
185.9373154917101
 30
0.0
 10
62.82131617353078
 20
186.4080877897695
 30
0.0
 10
62.82131617353078
 20
186.880238126023
 30
0.0
 10
62.74552407285529
 20
186.8843722406053
 30
0.0
 10
62.67955049431276
 20
186.8879895908648
 30
0.0
 10
62.60255261021742
 20
186.8921237054471
 30
0.0
 10
62.60255261021742
 20
187.0323390916968
 30
0.0
 10
62.59704045744102
 20
187.163080465362
 30
0.0
 10
62.60410290318578
 20
187.2929605651559
 30
0.0
 10
62.61288789667317
 20
187.456430345931
 30
0.0
 10
62.54329696787112
 20
187.5818318215941
 30
0.0
 10
62.44046086763642
 20
187.7001708515125
 30
0.0
 10
62.28956568538247
 20
187.8734591544205
 30
0.0
 10
62.08992240201224
 20
187.9239298032794
 30
0.0
 10
61.87598197237823
 20
187.924963331925
 30
0.0
 10
61.12271184452835
 20
187.928925191733
 30
0.0
 10
60.36926946190421
 20
187.9265136248934
 30
0.0
 10
59.61599933405434
 20
187.9265136248934
 30
0.0
 10
59.56638995906674
 20
187.9265136248934
 30
0.0
 10
59.51695283885341
 20
187.9265136248934
 30
0.0
 10
59.45115151508513
 20
187.9265136248934
 30
0.0
 10
59.45115151508513
 20
188.2551757341862
 30
0.0
 10
59.45115151508513
 20
188.5697129519895
 30
0.0
 10
59.45115151508513
 20
188.8842501697928
 30
0.0
 10
58.5943562679035
 20
188.8842501697928
 30
0.0
 10
57.75409747905106
 20
188.8842501697928
 30
0.0
 10
56.90815428264796
 20
188.8842501697928
 30
0.0
 10
56.90815428264796
 20
188.0364121708728
 30
0.0
 10
56.90815428264796
 20
187.1963256367947
 30
0.0
 10
56.90815428264796
 20
186.3495211665203
 30
0.0
  0
SPLINE
  5
4F
330
3C
100
AcDbEntity
  8
Layer 1
370
     0
100
AcDbSpline
210
0.0
220
0.0
230
1.0
 70
    11
 71
     3
 72
    41
 73
    37
 74
     0
 42
0.0000000001
 43
0.0000000001
 40
0.0
 40
0.0
 40
0.0
 40
0.0
 40
1.0
 40
1.0
 40
1.0
 40
2.0
 40
2.0
 40
2.0
 40
3.0
 40
3.0
 40
3.0
 40
4.0
 40
4.0
 40
4.0
 40
5.0
 40
5.0
 40
5.0
 40
6.0
 40
6.0
 40
6.0
 40
7.0
 40
7.0
 40
7.0
 40
8.0
 40
8.0
 40
8.0
 40
9.0
 40
9.0
 40
9.0
 40
10.0
 40
10.0
 40
10.0
 40
11.0
 40
11.0
 40
11.0
 40
12.0
 40
12.0
 40
12.0
 40
12.0
 10
72.54837102135944
 20
185.3542330808316
 30
0.0
 10
72.54837102135944
 20
185.8878783714968
 30
0.0
 10
72.54837102135944
 20
186.4092935731894
 30
0.0
 10
72.54837102135944
 20
186.9267469150739
 30
0.0
 10
72.27293563731371
 20
186.9267469150739
 30
0.0
 10
72.00818004927227
 20
186.9267469150739
 30
0.0
 10
71.73171113658097
 20
186.9267469150739
 30
0.0
 10
71.73171113658097
 20
186.7672389941068
 30
0.0
 10
71.73171113658097
 20
186.6166883214014
 30
0.0
 10
71.73171113658097
 20
186.4632093175335
 30
0.0
 10
69.3866346397714
 20
186.4632093175335
 30
0.0
 10
67.05344372238595
 20
186.4632093175335
 30
0.0
 10
64.70836722557638
 20
186.4632093175335
 30
0.0
 10
64.70836722557638
 20
186.6061807801714
 30
0.0
 10
64.70836722557638
 20
186.7398504849991
 30
0.0
 10
64.70836722557638
 20
186.8750704827951
 30
0.0
 10
64.36075709111468
 20
186.8750704827951
 30
0.0
 10
64.02554930039986
 20
186.8750704827951
 30
0.0
 10
63.69240856697621
 20
186.8750704827951
 30
0.0
 10
63.69240856697621
 20
186.3970634842167
 30
0.0
 10
63.69240856697621
 20
185.9292195173198
 30
0.0
 10
63.69240856697621
 20
185.4589639835832
 30
0.0
 10
64.03330076524168
 20
185.4589639835832
 30
0.0
 10
64.36575247956829
 20
185.4589639835832
 30
0.0
 10
64.71456839744984
 20
185.4589639835832
 30
0.0
 10
64.71456839744984
 20
185.5934949622822
 30
0.0
 10
64.71456839744984
 20
185.7218247691077
 30
0.0
 10
64.71456839744984
 20
185.8508435950303
 30
0.0
 10
67.06119518722775
 20
185.8508435950303
 30
0.0
 10
69.39128551867648
 20
185.8508435950303
 30
0.0
 10
71.73791230845441
 20
185.8508435950303
 30
0.0
 10
71.73791230845441
 20
185.6816894067046
 30
0.0
 10
71.73791230845441
 20
185.5194254093493
 30
0.0
 10
71.73791230845441
 20
185.3542330808316
 30
0.0
 10
72.01610376888834
 20
185.3542330808316
 30
0.0
 10
72.27775877099306
 20
185.3542330808316
 30
0.0
 10
72.54837102135944
 20
185.3542330808316
 30
0.0
  0
SPLINE
  5
50
330
3C
100
AcDbEntity
  8
Layer 1
370
     0
100
AcDbSpline
210
0.0
220
0.0
230
1.0
 70
    11
 71
     3
 72
    62
 73
    58
 74
     0
 42
0.0000000001
 43
0.0000000001
 40
0.0
 40
0.0
 40
0.0
 40
0.0
 40
1.0
 40
1.0
 40
1.0
 40
2.0
 40
2.0
 40
2.0
 40
3.0
 40
3.0
 40
3.0
 40
4.0
 40
4.0
 40
4.0
 40
5.0
 40
5.0
 40
5.0
 40
6.0
 40
6.0
 40
6.0
 40
7.0
 40
7.0
 40
7.0
 40
8.0
 40
8.0
 40
8.0
 40
9.0
 40
9.0
 40
9.0
 40
10.0
 40
10.0
 40
10.0
 40
11.0
 40
11.0
 40
11.0
 40
12.0
 40
12.0
 40
12.0
 40
13.0
 40
13.0
 40
13.0
 40
14.0
 40
14.0
 40
14.0
 40
15.0
 40
15.0
 40
15.0
 40
16.0
 40
16.0
 40
16.0
 40
17.0
 40
17.0
 40
17.0
 40
18.0
 40
18.0
 40
18.0
 40
19.0
 40
19.0
 40
19.0
 40
19.0
 10
68.99906139768079
 20
177.1171820303735
 30
0.0
 10
69.00233423839178
 20
177.1278618263778
 30
0.0
 10
69.00560707910277
 20
177.138541622382
 30
0.0
 10
69.00887991981375
 20
177.1492214183863
 30
0.0
 10
67.71162921484293
 20
177.1492214183863
 30
0.0
 10
66.41420625509784
 20
177.1492214183863
 30
0.0
 10
65.11730005967554
 20
177.1492214183863
 30
0.0
 10
65.11730005967554
 20
176.8736137795663
 30
0.0
 10
65.11730005967554
 20
176.6061021151367
 30
0.0
 10
65.11730005967554
 20
176.3382459411585
 30
0.0
 10
66.42247448426244
 20
176.3382459411585
 30
0.0
 10
67.71679685807081
 20
176.3382459411585
 30
0.0
 10
69.01559785600999
 20
176.3382459411585
 30
0.0
 10
69.02558863291722
 20
176.3795870869815
 30
0.0
 10
69.0348903907274
 20
176.417999901642
 30
0.0
 10
69.04539793195741
 20
176.4605468308849
 30
0.0
 10
69.20507810769874
 20
176.4605468308849
 30
0.0
 10
69.35735132814678
 20
176.4655422193385
 30
0.0
 10
69.50910778427203
 20
176.4588242831422
 30
0.0
 10
69.60987682721559
 20
176.4543456590114
 30
0.0
 10
69.68463539924551
 20
176.4867295565728
 30
0.0
 10
69.75439858282182
 20
176.5587320522145
 30
0.0
 10
69.9307874716666
 20
176.7413221129327
 30
0.0
 10
70.10976018212534
 20
176.9216728615856
 30
0.0
 10
70.29476180968325
 20
177.0953056740422
 30
0.0
 10
70.3381700127974
 20
177.1359578007681
 30
0.0
 10
70.40931123456781
 20
177.1676526792324
 30
0.0
 10
70.46787785781706
 20
177.1679971887809
 30
0.0
 10
70.67372231306074
 20
177.1692029722008
 30
0.0
 10
70.87973902307868
 20
177.1485323992893
 30
0.0
 10
71.08558347832236
 20
177.1474988706437
 30
0.0
 10
71.74152965871393
 20
177.144398284707
 30
0.0
 10
72.39764809387975
 20
177.1462930872239
 30
0.0
 10
73.05359427427133
 20
177.1468098515466
 30
0.0
 10
73.08994003164071
 20
177.1468098515466
 30
0.0
 10
73.12611353423584
 20
177.1518052400002
 30
0.0
 10
73.16056448908833
 20
177.1545613163885
 30
0.0
 10
73.16056448908833
 20
177.3628173384718
 30
0.0
 10
73.16056448908833
 20
177.5597045454538
 30
0.0
 10
73.16056448908833
 20
177.7565917524359
 30
0.0
 10
73.14075519004815
 20
177.7608981217924
 30
0.0
 10
73.12869735584977
 20
177.7655490006975
 30
0.0
 10
73.11681177642566
 20
177.7655490006975
 30
0.0
 10
72.18146835218033
 20
177.7662380197946
 30
0.0
 10
71.246124927935
 20
177.7686495866342
 30
0.0
 10
70.31078150368967
 20
177.7627929243093
 30
0.0
 10
70.22534313565548
 20
177.7622761599865
 30
0.0
 10
70.12354056406635
 20
177.7281697146825
 30
0.0
 10
70.05825600462086
 20
177.6745984798869
 30
0.0
 10
69.89254691178034
 20
177.5385172082196
 30
0.0
 10
69.73252222649049
 20
177.3921006500964
 30
0.0
 10
69.59041203772392
 20
177.2317314552581
 30
0.0
 10
69.46742212890051
 20
177.0927218524282
 30
0.0
 10
69.33271889542723
 20
177.0220973949806
 30
0.0
 10
69.15064559903179
 20
177.0572373689301
 30
0.0
 10
69.09828014765598
 20
177.0674004006116
 30
0.0
 10
69.04953204653971
 20
177.0966837122363
 30
0.0
 10
68.99906139768079
 20
177.1171820303735
 30
0.0
  0
SPLINE
  5
51
330
3C
100
AcDbEntity
  8
Layer 1
370
     0
100
AcDbSpline
210
0.0
220
0.0
230
1.0
 70
    11
 71
     3
 72
    59
 73
    55
 74
     0
 42
0.0000000001
 43
0.0000000001
 40
0.0
 40
0.0
 40
0.0
 40
0.0
 40
1.0
 40
1.0
 40
1.0
 40
2.0
 40
2.0
 40
2.0
 40
3.0
 40
3.0
 40
3.0
 40
4.0
 40
4.0
 40
4.0
 40
5.0
 40
5.0
 40
5.0
 40
6.0
 40
6.0
 40
6.0
 40
7.0
 40
7.0
 40
7.0
 40
8.0
 40
8.0
 40
8.0
 40
9.0
 40
9.0
 40
9.0
 40
10.0
 40
10.0
 40
10.0
 40
11.0
 40
11.0
 40
11.0
 40
12.0
 40
12.0
 40
12.0
 40
13.0
 40
13.0
 40
13.0
 40
14.0
 40
14.0
 40
14.0
 40
15.0
 40
15.0
 40
15.0
 40
16.0
 40
16.0
 40
16.0
 40
17.0
 40
17.0
 40
17.0
 40
18.0
 40
18.0
 40
18.0
 40
18.0
 10
68.99751110471243
 20
179.8112466998389
 30
0.0
 10
69.00095620019768
 20
179.8214097315204
 30
0.0
 10
69.00440129568292
 20
179.8315727632018
 30
0.0
 10
69.00784639116819
 20
179.8415635401091
 30
0.0
 10
67.71094019574588
 20
179.8415635401091
 30
0.0
 10
66.41403400032358
 20
179.8415635401091
 30
0.0
 10
65.11695555012702
 20
179.8415635401091
 30
0.0
 10
65.11695555012702
 20
179.5659559012891
 30
0.0
 10
65.11695555012702
 20
179.2984442368594
 30
0.0
 10
65.11695555012702
 20
179.0340331583665
 30
0.0
 10
66.42471379632785
 20
179.0340331583665
 30
0.0
 10
67.72179224652442
 20
179.0340331583665
 30
0.0
 10
69.01732040375262
 20
179.0340331583665
 30
0.0
 10
69.02679441633705
 20
179.0770968519321
 30
0.0
 10
69.03454588117887
 20
179.1122368258817
 30
0.0
 10
69.04350312944051
 20
179.1528889526076
 30
0.0
 10
69.10982121753158
 20
179.1528889526076
 30
0.0
 10
69.1694213694264
 20
179.1463432711857
 30
0.0
 10
69.22712671880433
 20
179.1542669908017
 30
0.0
 10
69.35614554472694
 20
179.1720092325507
 30
0.0
 10
69.44830184895737
 20
179.1248114244028
 30
0.0
 10
69.53597952905697
 20
179.0292100246872
 30
0.0
 10
69.69600421434683
 20
178.8547159383592
 30
0.0
 10
69.86584742176966
 20
178.6890068455187
 30
0.0
 10
70.03844670558067
 20
178.5269151029377
 30
0.0
 10
70.08306069211466
 20
178.4848849380177
 30
0.0
 10
70.15213485659392
 20
178.4469888876799
 30
0.0
 10
70.21104598939169
 20
178.4452663399373
 30
0.0
 10
70.71713051617489
 20
178.4307969388992
 30
0.0
 10
71.22321504295809
 20
178.4220119454119
 30
0.0
 10
71.72947182451556
 20
178.4171888117325
 30
0.0
 10
72.16097003404309
 20
178.4130546971502
 30
0.0
 10
72.59246824357064
 20
178.4163275378612
 30
0.0
 10
73.02396645309818
 20
178.4163275378612
 30
0.0
 10
73.06892494918068
 20
178.4163275378612
 30
0.0
 10
73.1138834452632
 20
178.4163275378612
 30
0.0
 10
73.16211478205669
 20
178.4163275378612
 30
0.0
 10
73.16211478205669
 20
178.6295789483982
 30
0.0
 10
73.16211478205669
 20
178.8264661553802
 30
0.0
 10
73.16211478205669
 20
179.0367892347547
 30
0.0
 10
73.11078285932648
 20
179.0367892347547
 30
0.0
 10
73.06530759892118
 20
179.0367892347547
 30
0.0
 10
73.01983233851588
 20
179.0367892347547
 30
0.0
 10
72.29636228661342
 20
179.0367892347547
 30
0.0
 10
71.5722032156139
 20
179.0583210815375
 30
0.0
 10
70.84993894713126
 20
179.0278319864931
 30
0.0
 10
70.48096922066101
 20
179.0123290568094
 30
0.0
 10
70.22086451152465
 20
179.1149929022699
 30
0.0
 10
69.97333440090945
 20
179.3904282863156
 30
0.0
 10
69.6295138714815
 20
179.7731783947268
 30
0.0
 10
69.73407251945885
 20
179.7494072358786
 30
0.0
 10
69.1487507965149
 20
179.7507852740727
 30
0.0
 10
69.09828014765598
 20
179.7507852740727
 30
0.0
 10
69.04798175357134
 20
179.7902316173789
 30
0.0
 10
68.99751110471243
 20
179.8112466998389
 30
0.0
  0
SPLINE
  5
52
330
3C
100
AcDbEntity
  8
Layer 1
370
     0
100
AcDbSpline
210
0.0
220
0.0
230
1.0
 70
    11
 71
     3
 72
    17
 73
    13
 74
     0
 42
0.0000000001
 43
0.0000000001
 40
0.0
 40
0.0
 40
0.0
 40
0.0
 40
1.0
 40
1.0
 40
1.0
 40
2.0
 40
2.0
 40
2.0
 40
3.0
 40
3.0
 40
3.0
 40
4.0
 40
4.0
 40
4.0
 40
4.0
 10
60.46142576613465
 20
179.0569430433434
 30
0.0
 10
60.46142576613465
 20
179.6911851221779
 30
0.0
 10
60.46142576613465
 20
180.3107855452001
 30
0.0
 10
60.46142576613465
 20
180.9315917516421
 30
0.0
 10
60.03388941641514
 20
180.9315917516421
 30
0.0
 10
59.61427678631171
 20
180.9315917516421
 30
0.0
 10
59.19604219440238
 20
180.9315917516421
 30
0.0
 10
59.19604219440238
 20
180.3018282969385
 30
0.0
 10
59.19604219440238
 20
179.6822278739162
 30
0.0
 10
59.19604219440238
 20
179.0569430433434
 30
0.0
 10
59.6203057034109
 20
179.0569430433434
 30
0.0
 10
60.03699000235186
 20
179.0569430433434
 30
0.0
 10
60.46142576613465
 20
179.0569430433434
 30
0.0
  0
SPLINE
  5
53
330
3C
100
AcDbEntity
  8
Layer 1
370
     0
100
AcDbSpline
210
0.0
220
0.0
230
1.0
 70
    11
 71
     3
 72
    17
 73
    13
 74
     0
 42
0.0000000001
 43
0.0000000001
 40
0.0
 40
0.0
 40
0.0
 40
0.0
 40
1.0
 40
1.0
 40
1.0
 40
2.0
 40
2.0
 40
2.0
 40
3.0
 40
3.0
 40
3.0
 40
4.0
 40
4.0
 40
4.0
 40
4.0
 10
70.9793022826024
 20
174.613975650791
 30
0.0
 10
71.71517467825177
 20
174.613975650791
 30
0.0
 10
72.43623316331455
 20
174.613975650791
 30
0.0
 10
73.15849743179719
 20
174.613975650791
 30
0.0
 10
73.15849743179719
 20
174.8215426537773
 30
0.0
 10
73.15849743179719
 20
175.0211859371475
 30
0.0
 10
73.15849743179719
 20
175.2192789275494
 30
0.0
 10
72.42710366027865
 20
175.2192789275494
 30
0.0
 10
71.70604517521585
 20
175.2192789275494
 30
0.0
 10
70.9793022826024
 20
175.2192789275494
 30
0.0
 10
70.9793022826024
 20
175.0149847652741
 30
0.0
 10
70.9793022826024
 20
174.8182698130663
 30
0.0
 10
70.9793022826024
 20
174.613975650791
 30
0.0
  0
SPLINE
  5
54
330
3C
100
AcDbEntity
  8
Layer 1
370
     0
100
AcDbSpline
210
0.0
220
0.0
230
1.0
 70
    11
 71
     3
 72
    17
 73
    13
 74
     0
 42
0.0000000001
 43
0.0000000001
 40
0.0
 40
0.0
 40
0.0
 40
0.0
 40
1.0
 40
1.0
 40
1.0
 40
2.0
 40
2.0
 40
2.0
 40
3.0
 40
3.0
 40
3.0
 40
4.0
 40
4.0
 40
4.0
 40
4.0
 10
70.97947453737666
 20
173.3437689453793
 30
0.0
 10
71.71465791392897
 20
173.3437689453793
 30
0.0
 10
72.43571639899177
 20
173.3437689453793
 30
0.0
 10
73.15866968657144
 20
173.3437689453793
 30
0.0
 10
73.15866968657144
 20
173.5509914388171
 30
0.0
 10
73.15866968657144
 20
173.7508069769616
 30
0.0
 10
73.15866968657144
 20
173.9495889864605
 30
0.0
 10
72.42762042460143
 20
173.9495889864605
 30
0.0
 10
71.70656193953864
 20
173.9495889864605
 30
0.0
 10
70.97947453737666
 20
173.9495889864605
 30
0.0
 10
70.97947453737666
 20
173.7454670789595
 30
0.0
 10
70.97947453737666
 20
173.5487521267517
 30
0.0
 10
70.97947453737666
 20
173.3437689453793
 30
0.0
  0
SPLINE
  5
55
330
3C
100
AcDbEntity
  8
Layer 1
370
     0
100
AcDbSpline
210
0.0
220
0.0
230
1.0
 70
    11
 71
     3
 72
   437
 73
   433
 74
     0
 42
0.0000000001
 43
0.0000000001
 40
0.0
 40
0.0
 40
0.0
 40
0.0
 40
1.0
 40
1.0
 40
1.0
 40
2.0
 40
2.0
 40
2.0
 40
3.0
 40
3.0
 40
3.0
 40
4.0
 40
4.0
 40
4.0
 40
5.0
 40
5.0
 40
5.0
 40
6.0
 40
6.0
 40
6.0
 40
7.0
 40
7.0
 40
7.0
 40
8.0
 40
8.0
 40
8.0
 40
9.0
 40
9.0
 40
9.0
 40
10.0
 40
10.0
 40
10.0
 40
11.0
 40
11.0
 40
11.0
 40
12.0
 40
12.0
 40
12.0
 40
13.0
 40
13.0
 40
13.0
 40
14.0
 40
14.0
 40
14.0
 40
15.0
 40
15.0
 40
15.0
 40
16.0
 40
16.0
 40
16.0
 40
17.0
 40
17.0
 40
17.0
 40
18.0
 40
18.0
 40
18.0
 40
19.0
 40
19.0
 40
19.0
 40
20.0
 40
20.0
 40
20.0
 40
21.0
 40
21.0
 40
21.0
 40
22.0
 40
22.0
 40
22.0
 40
23.0
 40
23.0
 40
23.0
 40
24.0
 40
24.0
 40
24.0
 40
25.0
 40
25.0
 40
25.0
 40
26.0
 40
26.0
 40
26.0
 40
27.0
 40
27.0
 40
27.0
 40
28.0
 40
28.0
 40
28.0
 40
29.0
 40
29.0
 40
29.0
 40
30.0
 40
30.0
 40
30.0
 40
31.0
 40
31.0
 40
31.0
 40
32.0
 40
32.0
 40
32.0
 40
33.0
 40
33.0
 40
33.0
 40
34.0
 40
34.0
 40
34.0
 40
35.0
 40
35.0
 40
35.0
 40
36.0
 40
36.0
 40
36.0
 40
37.0
 40
37.0
 40
37.0
 40
38.0
 40
38.0
 40
38.0
 40
39.0
 40
39.0
 40
39.0
 40
40.0
 40
40.0
 40
40.0
 40
41.0
 40
41.0
 40
41.0
 40
42.0
 40
42.0
 40
42.0
 40
43.0
 40
43.0
 40
43.0
 40
44.0
 40
44.0
 40
44.0
 40
45.0
 40
45.0
 40
45.0
 40
46.0
 40
46.0
 40
46.0
 40
47.0
 40
47.0
 40
47.0
 40
48.0
 40
48.0
 40
48.0
 40
49.0
 40
49.0
 40
49.0
 40
50.0
 40
50.0
 40
50.0
 40
51.0
 40
51.0
 40
51.0
 40
52.0
 40
52.0
 40
52.0
 40
53.0
 40
53.0
 40
53.0
 40
54.0
 40
54.0
 40
54.0
 40
55.0
 40
55.0
 40
55.0
 40
56.0
 40
56.0
 40
56.0
 40
57.0
 40
57.0
 40
57.0
 40
58.0
 40
58.0
 40
58.0
 40
59.0
 40
59.0
 40
59.0
 40
60.0
 40
60.0
 40
60.0
 40
61.0
 40
61.0
 40
61.0
 40
62.0
 40
62.0
 40
62.0
 40
63.0
 40
63.0
 40
63.0
 40
64.0
 40
64.0
 40
64.0
 40
65.0
 40
65.0
 40
65.0
 40
66.0
 40
66.0
 40
66.0
 40
67.0
 40
67.0
 40
67.0
 40
68.0
 40
68.0
 40
68.0
 40
69.0
 40
69.0
 40
69.0
 40
70.0
 40
70.0
 40
70.0
 40
71.0
 40
71.0
 40
71.0
 40
72.0
 40
72.0
 40
72.0
 40
73.0
 40
73.0
 40
73.0
 40
74.0
 40
74.0
 40
74.0
 40
75.0
 40
75.0
 40
75.0
 40
76.0
 40
76.0
 40
76.0
 40
77.0
 40
77.0
 40
77.0
 40
78.0
 40
78.0
 40
78.0
 40
79.0
 40
79.0
 40
79.0
 40
80.0
 40
80.0
 40
80.0
 40
81.0
 40
81.0
 40
81.0
 40
82.0
 40
82.0
 40
82.0
 40
83.0
 40
83.0
 40
83.0
 40
84.0
 40
84.0
 40
84.0
 40
85.0
 40
85.0
 40
85.0
 40
86.0
 40
86.0
 40
86.0
 40
87.0
 40
87.0
 40
87.0
 40
88.0
 40
88.0
 40
88.0
 40
89.0
 40
89.0
 40
89.0
 40
90.0
 40
90.0
 40
90.0
 40
91.0
 40
91.0
 40
91.0
 40
92.0
 40
92.0
 40
92.0
 40
93.0
 40
93.0
 40
93.0
 40
94.0
 40
94.0
 40
94.0
 40
95.0
 40
95.0
 40
95.0
 40
96.0
 40
96.0
 40
96.0
 40
97.0
 40
97.0
 40
97.0
 40
98.0
 40
98.0
 40
98.0
 40
99.0
 40
99.0
 40
99.0
 40
100.0
 40
100.0
 40
100.0
 40
101.0
 40
101.0
 40
101.0
 40
102.0
 40
102.0
 40
102.0
 40
103.0
 40
103.0
 40
103.0
 40
104.0
 40
104.0
 40
104.0
 40
105.0
 40
105.0
 40
105.0
 40
106.0
 40
106.0
 40
106.0
 40
107.0
 40
107.0
 40
107.0
 40
108.0
 40
108.0
 40
108.0
 40
109.0
 40
109.0
 40
109.0
 40
110.0
 40
110.0
 40
110.0
 40
111.0
 40
111.0
 40
111.0
 40
112.0
 40
112.0
 40
112.0
 40
113.0
 40
113.0
 40
113.0
 40
114.0
 40
114.0
 40
114.0
 40
115.0
 40
115.0
 40
115.0
 40
116.0
 40
116.0
 40
116.0
 40
117.0
 40
117.0
 40
117.0
 40
118.0
 40
118.0
 40
118.0
 40
119.0
 40
119.0
 40
119.0
 40
120.0
 40
120.0
 40
120.0
 40
121.0
 40
121.0
 40
121.0
 40
122.0
 40
122.0
 40
122.0
 40
123.0
 40
123.0
 40
123.0
 40
124.0
 40
124.0
 40
124.0
 40
125.0
 40
125.0
 40
125.0
 40
126.0
 40
126.0
 40
126.0
 40
127.0
 40
127.0
 40
127.0
 40
128.0
 40
128.0
 40
128.0
 40
129.0
 40
129.0
 40
129.0
 40
130.0
 40
130.0
 40
130.0
 40
131.0
 40
131.0
 40
131.0
 40
132.0
 40
132.0
 40
132.0
 40
133.0
 40
133.0
 40
133.0
 40
134.0
 40
134.0
 40
134.0
 40
135.0
 40
135.0
 40
135.0
 40
136.0
 40
136.0
 40
136.0
 40
137.0
 40
137.0
 40
137.0
 40
138.0
 40
138.0
 40
138.0
 40
139.0
 40
139.0
 40
139.0
 40
140.0
 40
140.0
 40
140.0
 40
141.0
 40
141.0
 40
141.0
 40
142.0
 40
142.0
 40
142.0
 40
143.0
 40
143.0
 40
143.0
 40
144.0
 40
144.0
 40
144.0
 40
144.0
 10
57.86744112051578
 20
182.5313218402179
 30
0.0
 10
57.53740097302884
 20
182.5313218402179
 30
0.0
 10
57.22906492709899
 20
182.5313218402179
 30
0.0
 10
56.91159937813321
 20
182.5313218402179
 30
0.0
 10
56.91159937813321
 20
183.3793320939121
 30
0.0
 10
56.91159937813321
 20
184.2195908827645
 30
0.0
 10
56.91159937813321
 20
185.0708739771698
 30
0.0
 10
57.75065238356581
 20
185.0708739771698
 30
0.0
 10
58.59401175835497
 20
185.0708739771698
 30
0.0
 10
59.44942896734251
 20
185.0708739771698
 30
0.0
 10
59.44942896734251
 20
184.759954109626
 30
0.0
 10
59.44942896734251
 20
184.4486897325337
 30
0.0
 10
59.44942896734251
 20
184.1270900689856
 30
0.0
 10
60.55030922965409
 20
184.1270900689856
 30
0.0
 10
61.6391316577673
 20
184.1270900689856
 30
0.0
 10
62.74018417485315
 20
184.1270900689856
 30
0.0
 10
62.74018417485315
 20
184.3138142442861
 30
0.0
 10
62.74018417485315
 20
184.498126852747
 30
0.0
 10
62.74018417485315
 20
184.6915689642438
 30
0.0
 10
63.08452146860387
 20
184.6915689642438
 30
0.0
 10
63.41680092815622
 20
184.6915689642438
 30
0.0
 10
63.76596135558629
 20
184.6915689642438
 30
0.0
 10
63.76596135558629
 20
184.5088066487513
 30
0.0
 10
63.76596135558629
 20
184.3212211995794
 30
0.0
 10
63.76596135558629
 20
184.1165825277556
 30
0.0
 10
63.82728405522374
 20
184.1165825277556
 30
0.0
 10
63.87224255130625
 20
184.1165825277556
 30
0.0
 10
63.91720104738876
 20
184.1165825277556
 30
0.0
 10
65.52158201486961
 20
184.1165825277556
 30
0.0
 10
67.12579072757619
 20
184.1170992920784
 30
0.0
 10
68.73017169505704
 20
184.1152044895615
 30
0.0
 10
68.81182045805747
 20
184.1150322347872
 30
0.0
 10
68.87279864814639
 20
184.1339802599561
 30
0.0
 10
68.9301594879758
 20
184.1953029595935
 30
0.0
 10
69.04832626311986
 20
184.322254728225
 30
0.0
 10
69.17665606994542
 20
184.4395602294977
 30
0.0
 10
69.29654539283212
 20
184.5649617051608
 30
0.0
 10
69.4197075564298
 20
184.6938082763092
 30
0.0
 10
69.56595185977865
 20
184.7530639186555
 30
0.0
 10
69.74475231546312
 20
184.752719409107
 30
0.0
 10
70.94278427045874
 20
184.7504800970416
 30
0.0
 10
72.14081622545439
 20
184.7582315618834
 30
0.0
 10
73.33867592567574
 20
184.7465182372335
 30
0.0
 10
73.60791013784802
 20
184.7439344156196
 30
0.0
 10
73.75053709093737
 20
184.8903509737427
 30
0.0
 10
73.76517874674968
 20
185.14322098236
 30
0.0
 10
73.80014646592497
 20
185.7533473927978
 30
0.0
 10
74.14103866419043
 20
186.1131876162321
 30
0.0
 10
74.69294296092747
 20
186.3059407086319
 30
0.0
 10
74.79405651341955
 20
186.3412529373557
 30
0.0
 10
74.89947643526818
 20
186.3641628223326
 30
0.0
 10
75.01385360537849
 20
186.3956854460226
 30
0.0
 10
75.01385360537849
 20
186.5036891894852
 30
0.0
 10
75.01385360537849
 20
186.6120374424963
 30
0.0
 10
75.01385360537849
 20
186.7327880392543
 30
0.0
 10
75.1175509794845
 20
186.7327880392543
 30
0.0
 10
75.20953502894068
 20
186.7327880392543
 30
0.0
 10
75.3016913331711
 20
186.7327880392543
 30
0.0
 10
75.78434921065461
 20
186.7327880392543
 30
0.0
 10
76.26683483336384
 20
186.7338215678999
 30
0.0
 10
76.7493204560731
 20
186.7315822558345
 30
0.0
 10
76.80960962706496
 20
186.731237746286
 30
0.0
 10
76.88299016090079
 20
186.7632771342988
 30
0.0
 10
76.92123072078705
 20
186.6707763205198
 30
0.0
 10
76.92949894995165
 20
186.6511392762539
 30
0.0
 10
77.00735810791831
 20
186.6595797601927
 30
0.0
 10
77.05335013264639
 20
186.6566514290303
 30
0.0
 10
77.41008977014401
 20
186.6346028179247
 30
0.0
 10
77.76183401918802
 20
186.5892998122937
 30
0.0
 10
78.06569144098705
 20
186.3789767329191
 30
0.0
 10
78.53060707672152
 20
186.0568603050483
 30
0.0
 10
78.78175453759623
 20
185.6170938663562
 30
0.0
 10
78.7819267923705
 20
185.0445189967076
 30
0.0
 10
78.78227130191902
 20
183.3851887562371
 30
0.0
 10
78.78209904714475
 20
181.7256862609922
 30
0.0
 10
78.78209904714475
 20
180.0663560205216
 30
0.0
 10
78.78209904714475
 20
179.7960882797038
 30
0.0
 10
78.71974281886173
 20
179.7190903956084
 30
0.0
 10
78.44534096346159
 20
179.7137504976063
 30
0.0
 10
77.7105020964578
 20
179.699108841794
 30
0.0
 10
76.97531871990547
 20
179.6949747272117
 30
0.0
 10
76.24030759812743
 20
179.6872232623699
 30
0.0
 10
76.22428790412101
 20
179.6870510075956
 30
0.0
 10
76.20844046488887
 20
179.691874141275
 30
0.0
 10
76.18690861810606
 20
179.6953192367602
 30
0.0
 10
76.18690861810606
 20
179.8970295774216
 30
0.0
 10
76.18690861810606
 20
180.0939167844036
 30
0.0
 10
76.18690861810606
 20
180.302861825584
 30
0.0
 10
76.8494004799196
 20
180.302861825584
 30
0.0
 10
77.50775822715084
 20
180.302861825584
 30
0.0
 10
78.18695880206785
 20
180.302861825584
 30
0.0
 10
78.18695880206785
 20
180.3676296207067
 30
0.0
 10
78.18695880206785
 20
180.4206840911796
 30
0.0
 10
78.18695880206785
 20
180.4735663068782
 30
0.0
 10
78.18695880206785
 20
182.0016384093607
 30
0.0
 10
78.18437498045391
 20
183.5298827666175
 30
0.0
 10
78.18850909503621
 20
185.0579548691001
 30
0.0
 10
78.18988713323031
 20
185.5542208737504
 30
0.0
 10
77.8092040821102
 20
185.9807236948243
 30
0.0
 10
77.31069876539455
 20
186.0360174773625
 30
0.0
 10
77.24455293207775
 20
186.0434244326558
 30
0.0
 10
77.17875160830948
 20
186.0561712859513
 30
0.0
 10
77.11226126544416
 20
186.0606499100821
 30
0.0
 10
77.04956052761261
 20
186.0647840246644
 30
0.0
 10
76.98617077068401
 20
186.0615111839534
 30
0.0
 10
76.90676131974901
 20
186.0615111839534
 30
0.0
 10
76.90676131974901
 20
185.8580782955494
 30
0.0
 10
76.90676131974901
 20
185.6618801076644
 30
0.0
 10
76.90676131974901
 20
185.4591362383574
 30
0.0
 10
76.26993541930058
 20
185.4591362383574
 30
0.0
 10
75.6498182319556
 20
185.4591362383574
 30
0.0
 10
75.01660968176668
 20
185.4591362383574
 30
0.0
 10
75.01660968176668
 20
185.5602497908495
 30
0.0
 10
75.01660968176668
 20
185.6598130503733
 30
0.0
 10
75.01660968176668
 20
185.7585150360257
 30
0.0
 10
74.7225707821006
 20
185.7755682586777
 30
0.0
 10
74.35222301743626
 20
185.4401882131886
 30
0.0
 10
74.35652938679281
 20
185.1347804984212
 30
0.0
 10
74.362558303892
 20
184.7184407090287
 30
0.0
 10
74.15860865116521
 20
184.4063150580651
 30
0.0
 10
73.78050942165905
 20
184.2235527425726
 30
0.0
 10
73.69352076065648
 20
184.1815225776525
 30
0.0
 10
73.58810083880783
 20
184.1596462213212
 30
0.0
 10
73.49112140089805
 20
184.1593017117727
 30
0.0
 10
72.280342592607
 20
184.1551675971904
 30
0.0
 10
71.0697360390902
 20
184.1555121067389
 30
0.0
 10
69.85895723079915
 20
184.1586126926756
 30
0.0
 10
69.76662867179445
 20
184.1589572022241
 30
0.0
 10
69.70099960280045
 20
184.1336357504076
 30
0.0
 10
69.63795435542038
 20
184.066973152768
 30
0.0
 10
69.49257132594283
 20
183.9133218941259
 30
0.0
 10
69.33771428388086
 20
183.7688001385196
 30
0.0
 10
69.19164223530626
 20
183.6156656442002
 30
0.0
 10
69.1253241472152
 20
183.5462469701725
 30
0.0
 10
69.05280488725069
 20
183.5198919897103
 30
0.0
 10
68.95737574230927
 20
183.5200642444846
 30
0.0
 10
67.28529864854326
 20
183.5221313017757
 30
0.0
 10
65.61304930000298
 20
183.5216145374529
 30
0.0
 10
63.94097220623699
 20
183.5216145374529
 30
0.0
 10
63.8908460669266
 20
183.5216145374529
 30
0.0
 10
63.84071992761621
 20
183.5216145374529
 30
0.0
 10
63.77715791591335
 20
183.5216145374529
 30
0.0
 10
63.77319605610531
 20
183.4353148955474
 30
0.0
 10
63.76975096062007
 20
183.3578002471293
 30
0.0
 10
63.76596135558629
 20
183.274256681612
 30
0.0
 10
63.42524141209508
 20
183.274256681612
 30
0.0
 10
63.09296195254274
 20
183.274256681612
 30
0.0
 10
62.75000269698612
 20
183.274256681612
 30
0.0
 10
62.7463853467266
 20
183.3517713300301
 30
0.0
 10
62.74294025124135
 20
183.4261853925115
 30
0.0
 10
62.73915064620758
 20
183.5111069962229
 30
0.0
 10
61.64826116080322
 20
183.5111069962229
 30
0.0
 10
60.55909422314148
 20
183.5111069962229
 30
0.0
 10
59.45786945128137
 20
183.5111069962229
 30
0.0
 10
59.45786945128137
 20
183.1898518422234
 30
0.0
 10
59.45786945128137
 20
182.8699747264179
 30
0.0
 10
59.45786945128137
 20
182.5337334070576
 30
0.0
 10
59.12335067966361
 20
182.5337334070576
 30
0.0
 10
58.80037297792143
 20
182.5337334070576
 30
0.0
 10
58.47016057566024
 20
182.5337334070576
 30
0.0
 10
58.47016057566024
 20
181.1519056079239
 30
0.0
 10
58.47016057566024
 20
179.7867865218936
 30
0.0
 10
58.47016057566024
 20
178.4016858820489
 30
0.0
 10
58.52063122451915
 20
178.4016858820489
 30
0.0
 10
58.5695515804097
 20
178.4018581368232
 30
0.0
 10
58.61829968152598
 20
178.4018581368232
 30
0.0
 10
60.73065997830692
 20
178.4018581368232
 30
0.0
 10
62.84302027508786
 20
178.4015136272746
 30
0.0
 10
64.9553805718688
 20
178.4028916654687
 30
0.0
 10
65.01842581924888
 20
178.4028916654687
 30
0.0
 10
65.10730928276831
 20
178.3670626724221
 30
0.0
 10
65.11678329535275
 20
178.4850571927919
 30
0.0
 10
65.11730005967554
 20
178.4928086576338
 30
0.0
 10
65.16088051756395
 20
178.5024549249925
 30
0.0
 10
65.18465167641217
 20
178.5024549249925
 30
0.0
 10
66.45864798685756
 20
178.5033161988638
 30
0.0
 10
67.73264429730295
 20
178.5031439440895
 30
0.0
 10
69.01766491330115
 20
178.5031439440895
 30
0.0
 10
69.01766491330115
 20
178.2308091459805
 30
0.0
 10
69.01766491330115
 20
177.9632974815509
 30
0.0
 10
69.01766491330115
 20
177.6876898427309
 30
0.0
 10
67.72041420833031
 20
177.6876898427309
 30
0.0
 10
66.42281899381096
 20
177.6876898427309
 30
0.0
 10
65.11764456922407
 20
177.6876898427309
 30
0.0
 10
65.11075437825356
 20
177.7216240332606
 30
0.0
 10
65.10369193250881
 20
177.7572807715329
 30
0.0
 10
65.09507919379568
 20
177.7996554460015
 30
0.0
 10
62.89056259278431
 20
177.7996554460015
 30
0.0
 10
60.68673501086999
 20
177.7996554460015
 30
0.0
 10
58.46809351836909
 20
177.7996554460015
 30
0.0
 10
58.4661987158522
 20
177.7581420454042
 30
0.0
 10
58.46275362036695
 20
177.7176621734525
 30
0.0
 10
58.46275362036695
 20
177.6771823015009
 30
0.0
 10
58.46240911081843
 20
177.2243244999648
 30
0.0
 10
58.44862872887743
 20
176.7707776793316
 30
0.0
 10
58.46602646107794
 20
176.3186088968926
 30
0.0
 10
58.48807507218354
 20
175.7460340272441
 30
0.0
 10
58.55249835775771
 20
175.1756984696609
 30
0.0
 10
58.82603893928655
 20
174.658589637325
 30
0.0
 10
59.07873669312963
 20
174.1810994030693
 30
0.0
 10
59.40395370693721
 20
173.7614867729659
 30
0.0
 10
59.83906926672427
 20
173.4274847656709
 30
0.0
 10
60.17754989815006
 20
173.1677245660831
 30
0.0
 10
60.53687335726162
 20
172.9534396269005
 30
0.0
 10
60.9461507009093
 20
172.8373399090476
 30
0.0
 10
61.16456975467414
 20
172.7753281903131
 30
0.0
 10
61.39384085921751
 20
172.7215847007432
 30
0.0
 10
61.61915010395285
 20
172.7174505861609
 30
0.0
 10
62.74328476078988
 20
172.6976412871207
 30
0.0
 10
63.86810843672395
 20
172.7052204971883
 30
0.0
 10
64.99241534833523
 20
172.6826551217599
 30
0.0
 10
65.54604219281488
 20
172.6714585614328
 30
0.0
 10
66.09243433677551
 20
172.5784409833311
 30
0.0
 10
66.58181015045524
 20
172.2962876630891
 30
0.0
 10
66.94199488343811
 20
172.0885484053286
 30
0.0
 10
67.2327609423932
 20
171.7957152890823
 30
0.0
 10
67.48149683642824
 20
171.4627468104329
 30
0.0
 10
67.7774305386112
 20
171.0665608296292
 30
0.0
 10
67.91368406505283
 20
170.6121527351247
 30
0.0
 10
67.96139863752354
 20
170.1270832908016
 30
0.0
 10
67.97552352901306
 20
169.9851453568093
 30
0.0
 10
67.98620332501734
 20
169.8423461489457
 30
0.0
 10
67.98620332501734
 20
169.6998914506306
 30
0.0
 10
67.98758136321145
 20
166.4149929054449
 30
0.0
 10
67.98293048430635
 20
163.1300943602592
 30
0.0
 10
67.99240449689079
 20
159.8451958150734
 30
0.0
 10
67.99378253508489
 20
159.408529962318
 30
0.0
 10
68.06440699253251
 20
158.9716918547883
 30
0.0
 10
68.28868270862228
 20
158.5798122433412
 30
0.0
 10
68.44629582707246
 20
158.3042046045212
 30
0.0
 10
68.64697263908826
 20
158.0687323281043
 30
0.0
 10
68.9039767622879
 20
157.8764960000274
 30
0.0
 10
69.19129772575774
 20
157.6615220417478
 30
0.0
 10
69.52168238279319
 20
157.5547240817051
 30
0.0
 10
69.85706242828226
 20
157.4544718030843
 30
0.0
 10
69.8808335871305
 20
157.4474093573396
 30
0.0
 10
69.90718856759266
 20
157.4475816121138
 30
0.0
 10
69.93233776463498
 20
157.4475816121138
 30
0.0
 10
70.54194741074993
 20
157.4474093573396
 30
0.0
 10
71.15155705686489
 20
157.4474093573396
 30
0.0
 10
71.76116670297985
 20
157.4477538668881
 30
0.0
 10
71.78132051156857
 20
157.4477538668881
 30
0.0
 10
71.80164657493154
 20
157.4517157266961
 30
0.0
 10
71.82920733881353
 20
157.4546440578586
 30
0.0
 10
71.82920733881353
 20
158.4869669200137
 30
0.0
 10
71.82920733881353
 20
159.5136053746181
 30
0.0
 10
71.82920733881353
 20
160.5567802875518
 30
0.0
 10
71.72602672903031
 20
160.5567802875518
 30
0.0
 10
71.6231906287956
 20
160.5567802875518
 30
0.0
 10
71.51380884713892
 20
160.5567802875518
 30
0.0
 10
71.51380884713892
 20
161.4137477895077
 30
0.0
 10
71.51380884713892
 20
162.2540065783601
 30
0.0
 10
71.51380884713892
 20
163.1028781059257
 30
0.0
 10
71.9335937320166
 20
163.1028781059257
 30
0.0
 10
72.3506225405061
 20
163.1028781059257
 30
0.0
 10
72.77781438067707
 20
163.1028781059257
 30
0.0
 10
72.77781438067707
 20
162.2612412788791
 30
0.0
 10
72.77781438067707
 20
161.4180541588642
 30
0.0
 10
72.77781438067707
 20
160.5624646951024
 30
0.0
 10
72.66739907037481
 20
160.5624646951024
 30
0.0
 10
72.55922307213798
 20
160.5624646951024
 30
0.0
 10
72.44174531609096
 20
160.5624646951024
 30
0.0
 10
72.44174531609096
 20
159.5210123299114
 30
0.0
 10
72.44174531609096
 20
158.4912732893702
 30
0.0
 10
72.44174531609096
 20
157.4472371025653
 30
0.0
 10
72.49204371017561
 20
157.4472371025653
 30
0.0
 10
72.5375189705809
 20
157.4472371025653
 30
0.0
 10
72.58264972143768
 20
157.4472371025653
 30
0.0
 10
74.97871363142893
 20
157.4472371025653
 30
0.0
 10
77.37460528664593
 20
157.4455145548227
 30
0.0
 10
79.77049694186293
 20
157.4486151407594
 30
0.0
 10
80.26486814399628
 20
157.4493041598564
 30
0.0
 10
80.64589570466492
 20
157.8217189818119
 30
0.0
 10
80.73305662044174
 20
158.3190185151078
 30
0.0
 10
80.77112492555375
 20
158.5360595306785
 30
0.0
 10
80.85673554836221
 20
158.7531005462492
 30
0.0
 10
80.96112194156528
 20
158.9484374602629
 30
0.0
 10
81.17506237119929
 20
159.3492743199717
 30
0.0
 10
81.53007946095428
 20
159.6229871562748
 30
0.0
 10
81.91954750556178
 20
159.8279703376472
 30
0.0
 10
82.40823430014447
 20
160.0849744608468
 30
0.0
 10
82.93946802397
 20
160.1321722689947
 30
0.0
 10
83.4813815437998
 20
160.0022921692008
 30
0.0
 10
83.52565102078526
 20
159.9916123731965
 30
0.0
 10
83.57250431938465
 20
159.9878227681628
 30
0.0
 10
83.61815183456422
 20
159.9878227681628
 30
0.0
 10
86.57283797748875
 20
159.9871337490657
 30
0.0
 10
89.52752412041326
 20
159.9848944370003
 30
0.0
 10
92.48221026333779
 20
159.9893730611311
 30
0.0
 10
92.99501272631723
 20
159.9902343350024
 30
0.0
 10
93.41531437551771
 20
160.4029567741354
 30
0.0
 10
93.42168780216542
 20
160.897500231043
 30
0.0
 10
93.43684622230052
 20
162.0614257407346
 30
0.0
 10
93.42651093584476
 20
163.2256957599748
 30
0.0
 10
93.42616642629623
 20
164.3897935244408
 30
0.0
 10
93.42616642629623
 20
164.4104640973522
 30
0.0
 10
93.42306584035951
 20
164.4311346702638
 30
0.0
 10
93.42065427351984
 20
164.4593844532428
 30
0.0
 10
90.88334144863333
 20
164.4593844532428
 30
0.0
 10
88.3489569549093
 20
164.4593844532428
 30
0.0
 10
85.79786374808178
 20
164.4593844532428
 30
0.0
 10
85.79786374808178
 20
164.2275295270855
 30
0.0
 10
85.79786374808178
 20
163.9891289195062
 30
0.0
 10
85.79786374808178
 20
163.7433213566336
 30
0.0
 10
85.16103784763335
 20
163.7433213566336
 30
0.0
 10
84.54092066028838
 20
163.7433213566336
 30
0.0
 10
83.91115720558471
 20
163.7433213566336
 30
0.0
 10
83.91115720558471
 20
164.1603501651231
 30
0.0
 10
83.91115720558471
 20
164.5773789736126
 30
0.0
 10
83.91115720558471
 20
165.0162841384334
 30
0.0
 10
83.94681394385705
 20
165.0162841384334
 30
0.0
 10
83.98660479671169
 20
165.0162841384334
 30
0.0
 10
84.02656790434058
 20
165.0162841384334
 30
0.0
 10
84.29321829489892
 20
165.0162841384334
 30
0.0
 10
84.56038544978004
 20
165.0069823806233
 30
0.0
 10
84.8265190760156
 20
165.0176621766275
 30
0.0
 10
87.65494246940571
 20
165.130833563318
 30
0.0
 10
90.48457164621567
 20
165.0355766731508
 30
0.0
 10
93.3133395491543
 20
165.0672715516151
 30
0.0
 10
93.34624021103845
 20
165.0676160611636
 30
0.0
 10
93.37914087292258
 20
165.0710611566489
 30
0.0
 10
93.42668319061903
 20
165.0739894878114
 30
0.0
 10
93.42668319061903
 20
165.1258381748644
 30
0.0
 10
93.42668319061903
 20
165.1709689257212
 30
0.0
 10
93.42668319061903
 20
165.2162719313522
 30
0.0
 10
93.42668319061903
 20
167.1846272368497
 30
0.0
 10
93.42754446449034
 20
169.1529825423472
 30
0.0
 10
93.42616642629623
 20
171.1215101026189
 30
0.0
 10
93.42582191674772
 20
171.6265611007566
 30
0.0
 10
92.98674449715263
 20
172.0658107751259
 30
0.0
 10
92.47928193217533
 20
172.0659830299002
 30
0.0
 10
90.83683265958246
 20
172.06718881332
 30
0.0
 10
89.1943833869896
 20
172.066499794223
 30
0.0
 10
87.55193411439674
 20
172.066499794223
 30
0.0
 10
87.50146346553784
 20
172.066499794223
 30
0.0
 10
87.45099281667892
 20
172.066499794223
 30
0.0
 10
87.39122041000984
 20
172.066499794223
 30
0.0
 10
87.39122041000984
 20
172.2737222876607
 30
0.0
 10
87.39122041000984
 20
172.4735378258052
 30
0.0
 10
87.39122041000984
 20
172.6812770835658
 30
0.0
 10
87.43583439654383
 20
172.6833441408569
 30
0.0
 10
87.47700328759255
 20
172.6866169815679
 30
0.0
 10
87.51834443341556
 20
172.6866169815679
 30
0.0
 10
89.1268595154787
 20
172.6869614911164
 30
0.0
 10
90.73554685231612
 20
172.6935071725384
 30
0.0
 10
92.34406193437927
 20
172.6828273765342
 30
0.0
 10
92.82069089476359
 20
172.6797267905974
 30
0.0
 10
93.25580645455064
 20
172.5329657229258
 30
0.0
 10
93.59428708597643
 20
172.1667520728437
 30
0.0
 10
93.86731090318249
 20
171.8711628802093
 30
0.0
 10
94.0197563784048
 20
171.5261365673615
 30
0.0
 10
94.02010088795332
 20
171.1252997076527
 30
0.0
 10
94.02285696434151
 20
167.7260239923567
 30
0.0
 10
94.02423500253562
 20
164.326920531835
 30
0.0
 10
94.01889510453347
 20
160.9276448165389
 30
0.0
 10
94.01803383066216
 20
160.4411973340217
 30
0.0
 10
93.80805526083618
 20
160.0462171366378
 30
0.0
 10
93.42409936900509
 20
159.7363307977395
 30
0.0
 10
93.11421303010687
 20
159.4862168655104
 30
0.0
 10
92.76591387654811
 20
159.3909599753432
 30
0.0
 10
92.37679034148914
 20
159.3911322301175
 30
0.0
 10
89.5066812927275
 20
159.3930270326344
 30
0.0
 10
86.63674449874013
 20
159.3911322301175
 30
0.0
 10
83.76663544997848
 20
159.3944050708285
 30
0.0
 10
83.57508814099859
 20
159.394749580377
 30
0.0
 10
83.38199053905034
 20
159.4174872105797
 30
0.0
 10
83.19216577781307
 20
159.4467705222043
 30
0.0
 10
82.68625350580413
 20
159.5246296801709
 30
0.0
 10
82.24786510530609
 20
159.3904432110205
 30
0.0
 10
81.85047334108252
 20
159.0715996238606
 30
0.0
 10
81.61327851692307
 20
158.8812580983005
 30
0.0
 10
81.44395207382304
 20
158.6523315033057
 30
0.0
 10
81.34835067410737
 20
158.3679388709983
 30
0.0
 10
81.31837834338569
 20
158.2785386431561
 30
0.0
 10
81.31424422880339
 20
158.180697931375
 30
0.0
 10
81.29271238202058
 20
158.0880248628218
 30
0.0
 10
81.15146346712534
 20
157.4827215860633
 30
0.0
 10
80.63848874937163
 20
156.9523491361091
 30
0.0
 10
79.99236109111303
 20
156.8769015449822
 30
0.0
 10
79.9010660607539
 20
156.8662217489779
 30
0.0
 10
79.80925426607199
 20
156.8533026409082
 30
0.0
 10
79.71761472616436
 20
156.8533026409082
 30
0.0
 10
76.50041230726379
 20
156.8520968574884
 30
0.0
 10
73.28320988836323
 20
156.853819405231
 30
0.0
 10
70.06600746946266
 20
156.849857545423
 30
0.0
 10
69.73855114358967
 20
156.8493407811002
 30
0.0
 10
69.44296195095524
 20
156.9554497220459
 30
0.0
 10
69.14668373922375
 20
157.0668985609937
 30
0.0
 10
68.56928573589587
 20
157.284284086113
 30
0.0
 10
68.15397947514901
 20
157.7032076971194
 30
0.0
 10
67.81825492011141
 20
158.1991291922211
 30
0.0
 10
67.6484117126886
 20
158.4499321435472
 30
0.0
 10
67.53971895012896
 20
158.7417317311479
 30
0.0
 10
67.49631074701482
 20
159.0471394459153
 30
0.0
 10
67.45359156299772
 20
159.3485853008747
 30
0.0
 10
67.39743650658815
 20
159.6522704678994
 30
0.0
 10
67.3967474874911
 20
159.9552666158272
 30
0.0
 10
67.38951278697206
 20
163.2527397595341
 30
0.0
 10
67.39554170407126
 20
166.5503851580152
 30
0.0
 10
67.3893405321978
 20
169.8480305564963
 30
0.0
 10
67.38813474877797
 20
170.5041489916622
 30
0.0
 10
67.15093992461851
 20
171.0748290587938
 30
0.0
 10
66.65329588177418
 20
171.5168348095513
 30
0.0
 10
66.31412623125134
 20
171.8181084097365
 30
0.0
 10
65.91277260721972
 20
171.9969088654209
 30
0.0
 10
65.45957029613511
 20
172.0398003042123
 30
0.0
 10
64.25378687629767
 20
172.1543497290969
 30
0.0
 10
63.04455836097497
 20
172.0628824439634
 30
0.0
 10
61.83705239339491
 20
172.0926825199109
 30
0.0
 10
61.70303817901869
 20
172.0959553606218
 30
0.0
 10
61.56557886915722
 20
172.0931992842337
 30
0.0
 10
61.43604327891182
 20
172.121621321987
 30
0.0
 10
61.13614771692082
 20
172.187250390981
 30
0.0
 10
60.83659666447836
 20
172.2589083770742
 30
0.0
 10
60.54324678390933
 20
172.3489976240135
 30
0.0
 10
60.19305282783368
 20
172.4566568579275
 30
0.0
 10
59.88661158442071
 20
172.6550943578779
 30
0.0
 10
59.59153915610906
 20
172.8678290040921
 30
0.0
 10
59.12662352037459
 20
173.2028645400326
 30
0.0
 10
58.75730928435581
 20
173.6259222656213
 30
0.0
 10
58.45362411733104
 20
174.110647200396
 30
0.0
 10
58.18387314083598
 20
174.5414563908265
 30
0.0
 10
58.02057561483514
 20
175.0115396697888
 30
0.0
 10
57.9477118453221
 20
175.5095282221816
 30
0.0
 10
57.90051403717418
 20
175.8319891596011
 30
0.0
 10
57.87209199942087
 20
176.1601345045711
 30
0.0
 10
57.87088621600103
 20
176.4858682827015
 30
0.0
 10
57.86399602503053
 20
178.4416489896778
 30
0.0
 10
57.86744112051578
 20
180.3972574418799
 30
0.0
 10
57.86744112051578
 20
182.3530381488562
 30
0.0
 10
57.86744112051578
 20
182.4069538932004
 30
0.0
 10
57.86744112051578
 20
182.4608696375445
 30
0.0
 10
57.86744112051578
 20
182.5313218402179
 30
0.0
  0
HATCH
  5
56
330
3C
100
AcDbEntity
  8
Layer 1
 62
     7
420
 16777215
100
AcDbHatch
 10
0.0
 20
0.0
 30
0.0
210
0.0
220
0.0
230
1.0
  2
SOLID
 70
     1
 71
     0
 91
        1
 92
        1
 93
        1
 72
     4
 94
        3
 73
     0
 74
     1
 95
      437
 96
      433
 40
0.0
 40
0.0
 40
0.0
 40
0.0
 40
1.0
 40
1.0
 40
1.0
 40
2.0
 40
2.0
 40
2.0
 40
3.0
 40
3.0
 40
3.0
 40
4.0
 40
4.0
 40
4.0
 40
5.0
 40
5.0
 40
5.0
 40
6.0
 40
6.0
 40
6.0
 40
7.0
 40
7.0
 40
7.0
 40
8.0
 40
8.0
 40
8.0
 40
9.0
 40
9.0
 40
9.0
 40
10.0
 40
10.0
 40
10.0
 40
11.0
 40
11.0
 40
11.0
 40
12.0
 40
12.0
 40
12.0
 40
13.0
 40
13.0
 40
13.0
 40
14.0
 40
14.0
 40
14.0
 40
15.0
 40
15.0
 40
15.0
 40
16.0
 40
16.0
 40
16.0
 40
17.0
 40
17.0
 40
17.0
 40
18.0
 40
18.0
 40
18.0
 40
19.0
 40
19.0
 40
19.0
 40
20.0
 40
20.0
 40
20.0
 40
21.0
 40
21.0
 40
21.0
 40
22.0
 40
22.0
 40
22.0
 40
23.0
 40
23.0
 40
23.0
 40
24.0
 40
24.0
 40
24.0
 40
25.0
 40
25.0
 40
25.0
 40
26.0
 40
26.0
 40
26.0
 40
27.0
 40
27.0
 40
27.0
 40
28.0
 40
28.0
 40
28.0
 40
29.0
 40
29.0
 40
29.0
 40
30.0
 40
30.0
 40
30.0
 40
31.0
 40
31.0
 40
31.0
 40
32.0
 40
32.0
 40
32.0
 40
33.0
 40
33.0
 40
33.0
 40
34.0
 40
34.0
 40
34.0
 40
35.0
 40
35.0
 40
35.0
 40
36.0
 40
36.0
 40
36.0
 40
37.0
 40
37.0
 40
37.0
 40
38.0
 40
38.0
 40
38.0
 40
39.0
 40
39.0
 40
39.0
 40
40.0
 40
40.0
 40
40.0
 40
41.0
 40
41.0
 40
41.0
 40
42.0
 40
42.0
 40
42.0
 40
43.0
 40
43.0
 40
43.0
 40
44.0
 40
44.0
 40
44.0
 40
45.0
 40
45.0
 40
45.0
 40
46.0
 40
46.0
 40
46.0
 40
47.0
 40
47.0
 40
47.0
 40
48.0
 40
48.0
 40
48.0
 40
49.0
 40
49.0
 40
49.0
 40
50.0
 40
50.0
 40
50.0
 40
51.0
 40
51.0
 40
51.0
 40
52.0
 40
52.0
 40
52.0
 40
53.0
 40
53.0
 40
53.0
 40
54.0
 40
54.0
 40
54.0
 40
55.0
 40
55.0
 40
55.0
 40
56.0
 40
56.0
 40
56.0
 40
57.0
 40
57.0
 40
57.0
 40
58.0
 40
58.0
 40
58.0
 40
59.0
 40
59.0
 40
59.0
 40
60.0
 40
60.0
 40
60.0
 40
61.0
 40
61.0
 40
61.0
 40
62.0
 40
62.0
 40
62.0
 40
63.0
 40
63.0
 40
63.0
 40
64.0
 40
64.0
 40
64.0
 40
65.0
 40
65.0
 40
65.0
 40
66.0
 40
66.0
 40
66.0
 40
67.0
 40
67.0
 40
67.0
 40
68.0
 40
68.0
 40
68.0
 40
69.0
 40
69.0
 40
69.0
 40
70.0
 40
70.0
 40
70.0
 40
71.0
 40
71.0
 40
71.0
 40
72.0
 40
72.0
 40
72.0
 40
73.0
 40
73.0
 40
73.0
 40
74.0
 40
74.0
 40
74.0
 40
75.0
 40
75.0
 40
75.0
 40
76.0
 40
76.0
 40
76.0
 40
77.0
 40
77.0
 40
77.0
 40
78.0
 40
78.0
 40
78.0
 40
79.0
 40
79.0
 40
79.0
 40
80.0
 40
80.0
 40
80.0
 40
81.0
 40
81.0
 40
81.0
 40
82.0
 40
82.0
 40
82.0
 40
83.0
 40
83.0
 40
83.0
 40
84.0
 40
84.0
 40
84.0
 40
85.0
 40
85.0
 40
85.0
 40
86.0
 40
86.0
 40
86.0
 40
87.0
 40
87.0
 40
87.0
 40
88.0
 40
88.0
 40
88.0
 40
89.0
 40
89.0
 40
89.0
 40
90.0
 40
90.0
 40
90.0
 40
91.0
 40
91.0
 40
91.0
 40
92.0
 40
92.0
 40
92.0
 40
93.0
 40
93.0
 40
93.0
 40
94.0
 40
94.0
 40
94.0
 40
95.0
 40
95.0
 40
95.0
 40
96.0
 40
96.0
 40
96.0
 40
97.0
 40
97.0
 40
97.0
 40
98.0
 40
98.0
 40
98.0
 40
99.0
 40
99.0
 40
99.0
 40
100.0
 40
100.0
 40
100.0
 40
101.0
 40
101.0
 40
101.0
 40
102.0
 40
102.0
 40
102.0
 40
103.0
 40
103.0
 40
103.0
 40
104.0
 40
104.0
 40
104.0
 40
105.0
 40
105.0
 40
105.0
 40
106.0
 40
106.0
 40
106.0
 40
107.0
 40
107.0
 40
107.0
 40
108.0
 40
108.0
 40
108.0
 40
109.0
 40
109.0
 40
109.0
 40
110.0
 40
110.0
 40
110.0
 40
111.0
 40
111.0
 40
111.0
 40
112.0
 40
112.0
 40
112.0
 40
113.0
 40
113.0
 40
113.0
 40
114.0
 40
114.0
 40
114.0
 40
115.0
 40
115.0
 40
115.0
 40
116.0
 40
116.0
 40
116.0
 40
117.0
 40
117.0
 40
117.0
 40
118.0
 40
118.0
 40
118.0
 40
119.0
 40
119.0
 40
119.0
 40
120.0
 40
120.0
 40
120.0
 40
121.0
 40
121.0
 40
121.0
 40
122.0
 40
122.0
 40
122.0
 40
123.0
 40
123.0
 40
123.0
 40
124.0
 40
124.0
 40
124.0
 40
125.0
 40
125.0
 40
125.0
 40
126.0
 40
126.0
 40
126.0
 40
127.0
 40
127.0
 40
127.0
 40
128.0
 40
128.0
 40
128.0
 40
129.0
 40
129.0
 40
129.0
 40
130.0
 40
130.0
 40
130.0
 40
131.0
 40
131.0
 40
131.0
 40
132.0
 40
132.0
 40
132.0
 40
133.0
 40
133.0
 40
133.0
 40
134.0
 40
134.0
 40
134.0
 40
135.0
 40
135.0
 40
135.0
 40
136.0
 40
136.0
 40
136.0
 40
137.0
 40
137.0
 40
137.0
 40
138.0
 40
138.0
 40
138.0
 40
139.0
 40
139.0
 40
139.0
 40
140.0
 40
140.0
 40
140.0
 40
141.0
 40
141.0
 40
141.0
 40
142.0
 40
142.0
 40
142.0
 40
143.0
 40
143.0
 40
143.0
 40
144.0
 40
144.0
 40
144.0
 40
144.0
 10
57.86744112051578
 20
182.5313218402179
 10
57.53740097302884
 20
182.5313218402179
 10
57.22906492709899
 20
182.5313218402179
 10
56.91159937813321
 20
182.5313218402179
 10
56.91159937813321
 20
183.3793320939121
 10
56.91159937813321
 20
184.2195908827645
 10
56.91159937813321
 20
185.0708739771698
 10
57.75065238356581
 20
185.0708739771698
 10
58.59401175835497
 20
185.0708739771698
 10
59.44942896734251
 20
185.0708739771698
 10
59.44942896734251
 20
184.759954109626
 10
59.44942896734251
 20
184.4486897325337
 10
59.44942896734251
 20
184.1270900689856
 10
60.55030922965409
 20
184.1270900689856
 10
61.6391316577673
 20
184.1270900689856
 10
62.74018417485315
 20
184.1270900689856
 10
62.74018417485315
 20
184.3138142442861
 10
62.74018417485315
 20
184.498126852747
 10
62.74018417485315
 20
184.6915689642438
 10
63.08452146860387
 20
184.6915689642438
 10
63.41680092815622
 20
184.6915689642438
 10
63.76596135558629
 20
184.6915689642438
 10
63.76596135558629
 20
184.5088066487513
 10
63.76596135558629
 20
184.3212211995794
 10
63.76596135558629
 20
184.1165825277556
 10
63.82728405522374
 20
184.1165825277556
 10
63.87224255130625
 20
184.1165825277556
 10
63.91720104738876
 20
184.1165825277556
 10
65.52158201486961
 20
184.1165825277556
 10
67.12579072757619
 20
184.1170992920784
 10
68.73017169505704
 20
184.1152044895615
 10
68.81182045805747
 20
184.1150322347872
 10
68.87279864814639
 20
184.1339802599561
 10
68.9301594879758
 20
184.1953029595935
 10
69.04832626311986
 20
184.322254728225
 10
69.17665606994542
 20
184.4395602294977
 10
69.29654539283212
 20
184.5649617051608
 10
69.4197075564298
 20
184.6938082763092
 10
69.56595185977865
 20
184.7530639186555
 10
69.74475231546312
 20
184.752719409107
 10
70.94278427045874
 20
184.7504800970416
 10
72.14081622545439
 20
184.7582315618834
 10
73.33867592567574
 20
184.7465182372335
 10
73.60791013784802
 20
184.7439344156196
 10
73.75053709093737
 20
184.8903509737427
 10
73.76517874674968
 20
185.14322098236
 10
73.80014646592497
 20
185.7533473927978
 10
74.14103866419043
 20
186.1131876162321
 10
74.69294296092747
 20
186.3059407086319
 10
74.79405651341955
 20
186.3412529373557
 10
74.89947643526818
 20
186.3641628223326
 10
75.01385360537849
 20
186.3956854460226
 10
75.01385360537849
 20
186.5036891894852
 10
75.01385360537849
 20
186.6120374424963
 10
75.01385360537849
 20
186.7327880392543
 10
75.1175509794845
 20
186.7327880392543
 10
75.20953502894068
 20
186.7327880392543
 10
75.3016913331711
 20
186.7327880392543
 10
75.78434921065461
 20
186.7327880392543
 10
76.26683483336384
 20
186.7338215678999
 10
76.7493204560731
 20
186.7315822558345
 10
76.80960962706496
 20
186.731237746286
 10
76.88299016090079
 20
186.7632771342988
 10
76.92123072078705
 20
186.6707763205198
 10
76.92949894995165
 20
186.6511392762539
 10
77.00735810791831
 20
186.6595797601927
 10
77.05335013264639
 20
186.6566514290303
 10
77.41008977014401
 20
186.6346028179247
 10
77.76183401918802
 20
186.5892998122937
 10
78.06569144098705
 20
186.3789767329191
 10
78.53060707672152
 20
186.0568603050483
 10
78.78175453759623
 20
185.6170938663562
 10
78.7819267923705
 20
185.0445189967076
 10
78.78227130191902
 20
183.3851887562371
 10
78.78209904714475
 20
181.7256862609922
 10
78.78209904714475
 20
180.0663560205216
 10
78.78209904714475
 20
179.7960882797038
 10
78.71974281886173
 20
179.7190903956084
 10
78.44534096346159
 20
179.7137504976063
 10
77.7105020964578
 20
179.699108841794
 10
76.97531871990547
 20
179.6949747272117
 10
76.24030759812743
 20
179.6872232623699
 10
76.22428790412101
 20
179.6870510075956
 10
76.20844046488887
 20
179.691874141275
 10
76.18690861810606
 20
179.6953192367602
 10
76.18690861810606
 20
179.8970295774216
 10
76.18690861810606
 20
180.0939167844036
 10
76.18690861810606
 20
180.302861825584
 10
76.8494004799196
 20
180.302861825584
 10
77.50775822715084
 20
180.302861825584
 10
78.18695880206785
 20
180.302861825584
 10
78.18695880206785
 20
180.3676296207067
 10
78.18695880206785
 20
180.4206840911796
 10
78.18695880206785
 20
180.4735663068782
 10
78.18695880206785
 20
182.0016384093607
 10
78.18437498045391
 20
183.5298827666175
 10
78.18850909503621
 20
185.0579548691001
 10
78.18988713323031
 20
185.5542208737504
 10
77.8092040821102
 20
185.9807236948243
 10
77.31069876539455
 20
186.0360174773625
 10
77.24455293207775
 20
186.0434244326558
 10
77.17875160830948
 20
186.0561712859513
 10
77.11226126544416
 20
186.0606499100821
 10
77.04956052761261
 20
186.0647840246644
 10
76.98617077068401
 20
186.0615111839534
 10
76.90676131974901
 20
186.0615111839534
 10
76.90676131974901
 20
185.8580782955494
 10
76.90676131974901
 20
185.6618801076644
 10
76.90676131974901
 20
185.4591362383574
 10
76.26993541930058
 20
185.4591362383574
 10
75.6498182319556
 20
185.4591362383574
 10
75.01660968176668
 20
185.4591362383574
 10
75.01660968176668
 20
185.5602497908495
 10
75.01660968176668
 20
185.6598130503733
 10
75.01660968176668
 20
185.7585150360257
 10
74.7225707821006
 20
185.7755682586777
 10
74.35222301743626
 20
185.4401882131886
 10
74.35652938679281
 20
185.1347804984212
 10
74.362558303892
 20
184.7184407090287
 10
74.15860865116521
 20
184.4063150580651
 10
73.78050942165905
 20
184.2235527425726
 10
73.69352076065648
 20
184.1815225776525
 10
73.58810083880783
 20
184.1596462213212
 10
73.49112140089805
 20
184.1593017117727
 10
72.280342592607
 20
184.1551675971904
 10
71.0697360390902
 20
184.1555121067389
 10
69.85895723079915
 20
184.1586126926756
 10
69.76662867179445
 20
184.1589572022241
 10
69.70099960280045
 20
184.1336357504076
 10
69.63795435542038
 20
184.066973152768
 10
69.49257132594283
 20
183.9133218941259
 10
69.33771428388086
 20
183.7688001385196
 10
69.19164223530626
 20
183.6156656442002
 10
69.1253241472152
 20
183.5462469701725
 10
69.05280488725069
 20
183.5198919897103
 10
68.95737574230927
 20
183.5200642444846
 10
67.28529864854326
 20
183.5221313017757
 10
65.61304930000298
 20
183.5216145374529
 10
63.94097220623699
 20
183.5216145374529
 10
63.8908460669266
 20
183.5216145374529
 10
63.84071992761621
 20
183.5216145374529
 10
63.77715791591335
 20
183.5216145374529
 10
63.77319605610531
 20
183.4353148955474
 10
63.76975096062007
 20
183.3578002471293
 10
63.76596135558629
 20
183.274256681612
 10
63.42524141209508
 20
183.274256681612
 10
63.09296195254274
 20
183.274256681612
 10
62.75000269698612
 20
183.274256681612
 10
62.7463853467266
 20
183.3517713300301
 10
62.74294025124135
 20
183.4261853925115
 10
62.73915064620758
 20
183.5111069962229
 10
61.64826116080322
 20
183.5111069962229
 10
60.55909422314148
 20
183.5111069962229
 10
59.45786945128137
 20
183.5111069962229
 10
59.45786945128137
 20
183.1898518422234
 10
59.45786945128137
 20
182.8699747264179
 10
59.45786945128137
 20
182.5337334070576
 10
59.12335067966361
 20
182.5337334070576
 10
58.80037297792143
 20
182.5337334070576
 10
58.47016057566024
 20
182.5337334070576
 10
58.47016057566024
 20
181.1519056079239
 10
58.47016057566024
 20
179.7867865218936
 10
58.47016057566024
 20
178.4016858820489
 10
58.52063122451915
 20
178.4016858820489
 10
58.5695515804097
 20
178.4018581368232
 10
58.61829968152598
 20
178.4018581368232
 10
60.73065997830692
 20
178.4018581368232
 10
62.84302027508786
 20
178.4015136272746
 10
64.9553805718688
 20
178.4028916654687
 10
65.01842581924888
 20
178.4028916654687
 10
65.10730928276831
 20
178.3670626724221
 10
65.11678329535275
 20
178.4850571927919
 10
65.11730005967554
 20
178.4928086576338
 10
65.16088051756395
 20
178.5024549249925
 10
65.18465167641217
 20
178.5024549249925
 10
66.45864798685756
 20
178.5033161988638
 10
67.73264429730295
 20
178.5031439440895
 10
69.01766491330115
 20
178.5031439440895
 10
69.01766491330115
 20
178.2308091459805
 10
69.01766491330115
 20
177.9632974815509
 10
69.01766491330115
 20
177.6876898427309
 10
67.72041420833031
 20
177.6876898427309
 10
66.42281899381096
 20
177.6876898427309
 10
65.11764456922407
 20
177.6876898427309
 10
65.11075437825356
 20
177.7216240332606
 10
65.10369193250881
 20
177.7572807715329
 10
65.09507919379568
 20
177.7996554460015
 10
62.89056259278431
 20
177.7996554460015
 10
60.68673501086999
 20
177.7996554460015
 10
58.46809351836909
 20
177.7996554460015
 10
58.4661987158522
 20
177.7581420454042
 10
58.46275362036695
 20
177.7176621734525
 10
58.46275362036695
 20
177.6771823015009
 10
58.46240911081843
 20
177.2243244999648
 10
58.44862872887743
 20
176.7707776793316
 10
58.46602646107794
 20
176.3186088968926
 10
58.48807507218354
 20
175.7460340272441
 10
58.55249835775771
 20
175.1756984696609
 10
58.82603893928655
 20
174.658589637325
 10
59.07873669312963
 20
174.1810994030693
 10
59.40395370693721
 20
173.7614867729659
 10
59.83906926672427
 20
173.4274847656709
 10
60.17754989815006
 20
173.1677245660831
 10
60.53687335726162
 20
172.9534396269005
 10
60.9461507009093
 20
172.8373399090476
 10
61.16456975467414
 20
172.7753281903131
 10
61.39384085921751
 20
172.7215847007432
 10
61.61915010395285
 20
172.7174505861609
 10
62.74328476078988
 20
172.6976412871207
 10
63.86810843672395
 20
172.7052204971883
 10
64.99241534833523
 20
172.6826551217599
 10
65.54604219281488
 20
172.6714585614328
 10
66.09243433677551
 20
172.5784409833311
 10
66.58181015045524
 20
172.2962876630891
 10
66.94199488343811
 20
172.0885484053286
 10
67.2327609423932
 20
171.7957152890823
 10
67.48149683642824
 20
171.4627468104329
 10
67.7774305386112
 20
171.0665608296292
 10
67.91368406505283
 20
170.6121527351247
 10
67.96139863752354
 20
170.1270832908016
 10
67.97552352901306
 20
169.9851453568093
 10
67.98620332501734
 20
169.8423461489457
 10
67.98620332501734
 20
169.6998914506306
 10
67.98758136321145
 20
166.4149929054449
 10
67.98293048430635
 20
163.1300943602592
 10
67.99240449689079
 20
159.8451958150734
 10
67.99378253508489
 20
159.408529962318
 10
68.06440699253251
 20
158.9716918547883
 10
68.28868270862228
 20
158.5798122433412
 10
68.44629582707246
 20
158.3042046045212
 10
68.64697263908826
 20
158.0687323281043
 10
68.9039767622879
 20
157.8764960000274
 10
69.19129772575774
 20
157.6615220417478
 10
69.52168238279319
 20
157.5547240817051
 10
69.85706242828226
 20
157.4544718030843
 10
69.8808335871305
 20
157.4474093573396
 10
69.90718856759266
 20
157.4475816121138
 10
69.93233776463498
 20
157.4475816121138
 10
70.54194741074993
 20
157.4474093573396
 10
71.15155705686489
 20
157.4474093573396
 10
71.76116670297985
 20
157.4477538668881
 10
71.78132051156857
 20
157.4477538668881
 10
71.80164657493154
 20
157.4517157266961
 10
71.82920733881353
 20
157.4546440578586
 10
71.82920733881353
 20
158.4869669200137
 10
71.82920733881353
 20
159.5136053746181
 10
71.82920733881353
 20
160.5567802875518
 10
71.72602672903031
 20
160.5567802875518
 10
71.6231906287956
 20
160.5567802875518
 10
71.51380884713892
 20
160.5567802875518
 10
71.51380884713892
 20
161.4137477895077
 10
71.51380884713892
 20
162.2540065783601
 10
71.51380884713892
 20
163.1028781059257
 10
71.9335937320166
 20
163.1028781059257
 10
72.3506225405061
 20
163.1028781059257
 10
72.77781438067707
 20
163.1028781059257
 10
72.77781438067707
 20
162.2612412788791
 10
72.77781438067707
 20
161.4180541588642
 10
72.77781438067707
 20
160.5624646951024
 10
72.66739907037481
 20
160.5624646951024
 10
72.55922307213798
 20
160.5624646951024
 10
72.44174531609096
 20
160.5624646951024
 10
72.44174531609096
 20
159.5210123299114
 10
72.44174531609096
 20
158.4912732893702
 10
72.44174531609096
 20
157.4472371025653
 10
72.49204371017561
 20
157.4472371025653
 10
72.5375189705809
 20
157.4472371025653
 10
72.58264972143768
 20
157.4472371025653
 10
74.97871363142893
 20
157.4472371025653
 10
77.37460528664593
 20
157.4455145548227
 10
79.77049694186293
 20
157.4486151407594
 10
80.26486814399628
 20
157.4493041598564
 10
80.64589570466492
 20
157.8217189818119
 10
80.73305662044174
 20
158.3190185151078
 10
80.77112492555375
 20
158.5360595306785
 10
80.85673554836221
 20
158.7531005462492
 10
80.96112194156528
 20
158.9484374602629
 10
81.17506237119929
 20
159.3492743199717
 10
81.53007946095428
 20
159.6229871562748
 10
81.91954750556178
 20
159.8279703376472
 10
82.40823430014447
 20
160.0849744608468
 10
82.93946802397
 20
160.1321722689947
 10
83.4813815437998
 20
160.0022921692008
 10
83.52565102078526
 20
159.9916123731965
 10
83.57250431938465
 20
159.9878227681628
 10
83.61815183456422
 20
159.9878227681628
 10
86.57283797748875
 20
159.9871337490657
 10
89.52752412041326
 20
159.9848944370003
 10
92.48221026333779
 20
159.9893730611311
 10
92.99501272631723
 20
159.9902343350024
 10
93.41531437551771
 20
160.4029567741354
 10
93.42168780216542
 20
160.897500231043
 10
93.43684622230052
 20
162.0614257407346
 10
93.42651093584476
 20
163.2256957599748
 10
93.42616642629623
 20
164.3897935244408
 10
93.42616642629623
 20
164.4104640973522
 10
93.42306584035951
 20
164.4311346702638
 10
93.42065427351984
 20
164.4593844532428
 10
90.88334144863333
 20
164.4593844532428
 10
88.3489569549093
 20
164.4593844532428
 10
85.79786374808178
 20
164.4593844532428
 10
85.79786374808178
 20
164.2275295270855
 10
85.79786374808178
 20
163.9891289195062
 10
85.79786374808178
 20
163.7433213566336
 10
85.16103784763335
 20
163.7433213566336
 10
84.54092066028838
 20
163.7433213566336
 10
83.91115720558471
 20
163.7433213566336
 10
83.91115720558471
 20
164.1603501651231
 10
83.91115720558471
 20
164.5773789736126
 10
83.91115720558471
 20
165.0162841384334
 10
83.94681394385705
 20
165.0162841384334
 10
83.98660479671169
 20
165.0162841384334
 10
84.02656790434058
 20
165.0162841384334
 10
84.29321829489892
 20
165.0162841384334
 10
84.56038544978004
 20
165.0069823806233
 10
84.8265190760156
 20
165.0176621766275
 10
87.65494246940571
 20
165.130833563318
 10
90.48457164621567
 20
165.0355766731508
 10
93.3133395491543
 20
165.0672715516151
 10
93.34624021103845
 20
165.0676160611636
 10
93.37914087292258
 20
165.0710611566489
 10
93.42668319061903
 20
165.0739894878114
 10
93.42668319061903
 20
165.1258381748644
 10
93.42668319061903
 20
165.1709689257212
 10
93.42668319061903
 20
165.2162719313522
 10
93.42668319061903
 20
167.1846272368497
 10
93.42754446449034
 20
169.1529825423472
 10
93.42616642629623
 20
171.1215101026189
 10
93.42582191674772
 20
171.6265611007566
 10
92.98674449715263
 20
172.0658107751259
 10
92.47928193217533
 20
172.0659830299002
 10
90.83683265958246
 20
172.06718881332
 10
89.1943833869896
 20
172.066499794223
 10
87.55193411439674
 20
172.066499794223
 10
87.50146346553784
 20
172.066499794223
 10
87.45099281667892
 20
172.066499794223
 10
87.39122041000984
 20
172.066499794223
 10
87.39122041000984
 20
172.2737222876607
 10
87.39122041000984
 20
172.4735378258052
 10
87.39122041000984
 20
172.6812770835658
 10
87.43583439654383
 20
172.6833441408569
 10
87.47700328759255
 20
172.6866169815679
 10
87.51834443341556
 20
172.6866169815679
 10
89.1268595154787
 20
172.6869614911164
 10
90.73554685231612
 20
172.6935071725384
 10
92.34406193437927
 20
172.6828273765342
 10
92.82069089476359
 20
172.6797267905974
 10
93.25580645455064
 20
172.5329657229258
 10
93.59428708597643
 20
172.1667520728437
 10
93.86731090318249
 20
171.8711628802093
 10
94.0197563784048
 20
171.5261365673615
 10
94.02010088795332
 20
171.1252997076527
 10
94.02285696434151
 20
167.7260239923567
 10
94.02423500253562
 20
164.326920531835
 10
94.01889510453347
 20
160.9276448165389
 10
94.01803383066216
 20
160.4411973340217
 10
93.80805526083618
 20
160.0462171366378
 10
93.42409936900509
 20
159.7363307977395
 10
93.11421303010687
 20
159.4862168655104
 10
92.76591387654811
 20
159.3909599753432
 10
92.37679034148914
 20
159.3911322301175
 10
89.5066812927275
 20
159.3930270326344
 10
86.63674449874013
 20
159.3911322301175
 10
83.76663544997848
 20
159.3944050708285
 10
83.57508814099859
 20
159.394749580377
 10
83.38199053905034
 20
159.4174872105797
 10
83.19216577781307
 20
159.4467705222043
 10
82.68625350580413
 20
159.5246296801709
 10
82.24786510530609
 20
159.3904432110205
 10
81.85047334108252
 20
159.0715996238606
 10
81.61327851692307
 20
158.8812580983005
 10
81.44395207382304
 20
158.6523315033057
 10
81.34835067410737
 20
158.3679388709983
 10
81.31837834338569
 20
158.2785386431561
 10
81.31424422880339
 20
158.180697931375
 10
81.29271238202058
 20
158.0880248628218
 10
81.15146346712534
 20
157.4827215860633
 10
80.63848874937163
 20
156.9523491361091
 10
79.99236109111303
 20
156.8769015449822
 10
79.9010660607539
 20
156.8662217489779
 10
79.80925426607199
 20
156.8533026409082
 10
79.71761472616436
 20
156.8533026409082
 10
76.50041230726379
 20
156.8520968574884
 10
73.28320988836323
 20
156.853819405231
 10
70.06600746946266
 20
156.849857545423
 10
69.73855114358967
 20
156.8493407811002
 10
69.44296195095524
 20
156.9554497220459
 10
69.14668373922375
 20
157.0668985609937
 10
68.56928573589587
 20
157.284284086113
 10
68.15397947514901
 20
157.7032076971194
 10
67.81825492011141
 20
158.1991291922211
 10
67.6484117126886
 20
158.4499321435472
 10
67.53971895012896
 20
158.7417317311479
 10
67.49631074701482
 20
159.0471394459153
 10
67.45359156299772
 20
159.3485853008747
 10
67.39743650658815
 20
159.6522704678994
 10
67.3967474874911
 20
159.9552666158272
 10
67.38951278697206
 20
163.2527397595341
 10
67.39554170407126
 20
166.5503851580152
 10
67.3893405321978
 20
169.8480305564963
 10
67.38813474877797
 20
170.5041489916622
 10
67.15093992461851
 20
171.0748290587938
 10
66.65329588177418
 20
171.5168348095513
 10
66.31412623125134
 20
171.8181084097365
 10
65.91277260721972
 20
171.9969088654209
 10
65.45957029613511
 20
172.0398003042123
 10
64.25378687629767
 20
172.1543497290969
 10
63.04455836097497
 20
172.0628824439634
 10
61.83705239339491
 20
172.0926825199109
 10
61.70303817901869
 20
172.0959553606218
 10
61.56557886915722
 20
172.0931992842337
 10
61.43604327891182
 20
172.121621321987
 10
61.13614771692082
 20
172.187250390981
 10
60.83659666447836
 20
172.2589083770742
 10
60.54324678390933
 20
172.3489976240135
 10
60.19305282783368
 20
172.4566568579275
 10
59.88661158442071
 20
172.6550943578779
 10
59.59153915610906
 20
172.8678290040921
 10
59.12662352037459
 20
173.2028645400326
 10
58.75730928435581
 20
173.6259222656213
 10
58.45362411733104
 20
174.110647200396
 10
58.18387314083598
 20
174.5414563908265
 10
58.02057561483514
 20
175.0115396697888
 10
57.9477118453221
 20
175.5095282221816
 10
57.90051403717418
 20
175.8319891596011
 10
57.87209199942087
 20
176.1601345045711
 10
57.87088621600103
 20
176.4858682827015
 10
57.86399602503053
 20
178.4416489896778
 10
57.86744112051578
 20
180.3972574418799
 10
57.86744112051578
 20
182.3530381488562
 10
57.86744112051578
 20
182.4069538932004
 10
57.86744112051578
 20
182.4608696375445
 10
57.86744112051578
 20
182.5313218402179
 97
        0
 75
     0
 76
     1
 98
        0
  0
SPLINE
  5
57
330
3C
100
AcDbEntity
  8
Layer 1
370
     0
100
AcDbSpline
210
0.0
220
0.0
230
1.0
 70
    11
 71
     3
 72
   140
 73
   136
 74
     0
 42
0.0000000001
 43
0.0000000001
 40
0.0
 40
0.0
 40
0.0
 40
0.0
 40
1.0
 40
1.0
 40
1.0
 40
2.0
 40
2.0
 40
2.0
 40
3.0
 40
3.0
 40
3.0
 40
4.0
 40
4.0
 40
4.0
 40
5.0
 40
5.0
 40
5.0
 40
6.0
 40
6.0
 40
6.0
 40
7.0
 40
7.0
 40
7.0
 40
8.0
 40
8.0
 40
8.0
 40
9.0
 40
9.0
 40
9.0
 40
10.0
 40
10.0
 40
10.0
 40
11.0
 40
11.0
 40
11.0
 40
12.0
 40
12.0
 40
12.0
 40
13.0
 40
13.0
 40
13.0
 40
14.0
 40
14.0
 40
14.0
 40
15.0
 40
15.0
 40
15.0
 40
16.0
 40
16.0
 40
16.0
 40
17.0
 40
17.0
 40
17.0
 40
18.0
 40
18.0
 40
18.0
 40
19.0
 40
19.0
 40
19.0
 40
20.0
 40
20.0
 40
20.0
 40
21.0
 40
21.0
 40
21.0
 40
22.0
 40
22.0
 40
22.0
 40
23.0
 40
23.0
 40
23.0
 40
24.0
 40
24.0
 40
24.0
 40
25.0
 40
25.0
 40
25.0
 40
26.0
 40
26.0
 40
26.0
 40
27.0
 40
27.0
 40
27.0
 40
28.0
 40
28.0
 40
28.0
 40
29.0
 40
29.0
 40
29.0
 40
30.0
 40
30.0
 40
30.0
 40
31.0
 40
31.0
 40
31.0
 40
32.0
 40
32.0
 40
32.0
 40
33.0
 40
33.0
 40
33.0
 40
34.0
 40
34.0
 40
34.0
 40
35.0
 40
35.0
 40
35.0
 40
36.0
 40
36.0
 40
36.0
 40
37.0
 40
37.0
 40
37.0
 40
38.0
 40
38.0
 40
38.0
 40
39.0
 40
39.0
 40
39.0
 40
40.0
 40
40.0
 40
40.0
 40
41.0
 40
41.0
 40
41.0
 40
42.0
 40
42.0
 40
42.0
 40
43.0
 40
43.0
 40
43.0
 40
44.0
 40
44.0
 40
44.0
 40
45.0
 40
45.0
 40
45.0
 40
45.0
 10
76.28095972485337
 20
155.7963473460336
 30
0.0
 10
76.28095972485337
 20
155.9115857900152
 30
0.0
 10
76.28095972485337
 20
156.0113213043132
 30
0.0
 10
76.28095972485337
 20
156.1186360286787
 30
0.0
 10
76.91313474639672
 20
156.1186360286787
 30
0.0
 10
77.53342418851595
 20
156.1186360286787
 30
0.0
 10
78.16301538844536
 20
156.1186360286787
 30
0.0
 10
78.16301538844536
 20
155.7017794749634
 30
0.0
 10
78.16301538844536
 20
155.284750666474
 30
0.0
 10
78.16301538844536
 20
154.8566975524317
 30
0.0
 10
77.54427623929449
 20
154.8566975524317
 30
0.0
 10
76.9210584660128
 20
154.8566975524317
 30
0.0
 10
76.28578285853273
 20
154.8566975524317
 30
0.0
 10
76.28578285853273
 20
154.9643567863457
 30
0.0
 10
76.28578285853273
 20
155.0725327845826
 30
0.0
 10
76.28578285853273
 20
155.2012071009567
 30
0.0
 10
76.22101506341002
 20
155.2012071009567
 30
0.0
 10
76.16813284771145
 20
155.2012071009567
 30
0.0
 10
76.11507837723859
 20
155.2012071009567
 30
0.0
 10
74.15516355567996
 20
155.2012071009567
 30
0.0
 10
72.19507647934707
 20
155.2080972919271
 30
0.0
 10
70.23516165778844
 20
155.1974174959229
 30
0.0
 10
69.57800969397702
 20
155.1938001456634
 30
0.0
 10
68.94583467243368
 20
155.2928466408643
 30
0.0
 10
68.33071287354232
 20
155.5179836308254
 30
0.0
 10
67.91471759369841
 20
155.6702568512734
 30
0.0
 10
67.53592934509518
 20
155.8902261980066
 30
0.0
 10
67.19710420412086
 20
156.1718627539258
 30
0.0
 10
66.73597817342018
 20
156.5554741362084
 30
0.0
 10
66.34616561926416
 20
156.9976521417402
 30
0.0
 10
66.05453828643776
 20
157.5314696871797
 30
0.0
 10
65.78392603607138
 20
158.0270466727328
 30
0.0
 10
65.63682045885122
 20
158.5558688297187
 30
0.0
 10
65.54363062597521
 20
159.1026054832278
 30
0.0
 10
65.49936114898975
 20
159.3616766637186
 30
0.0
 10
65.48988713640532
 20
159.629016073374
 30
0.0
 10
65.48954262685679
 20
159.8927381327699
 30
0.0
 10
65.48592527659727
 20
162.7967813720612
 30
0.0
 10
65.48403047408038
 20
165.7008246113526
 30
0.0
 10
65.49195419369646
 20
168.6046955958697
 30
0.0
 10
65.49298772234204
 20
168.929051335806
 30
0.0
 10
65.38360594068536
 20
169.2067260319171
 30
0.0
 10
65.2194471408132
 20
169.4611463335028
 30
0.0
 10
65.03255071073839
 20
169.7510511185866
 30
0.0
 10
64.7665893392771
 20
169.973776541708
 30
0.0
 10
64.42466361236606
 20
170.0624877504531
 30
0.0
 10
64.18075085201038
 20
170.1257052526075
 30
0.0
 10
63.92633055042467
 20
170.1765204110149
 30
0.0
 10
63.67552759909848
 20
170.1815157994685
 30
0.0
 10
62.89693601943202
 20
170.1965019648294
 30
0.0
 10
62.11782767544277
 20
170.1853054045023
 30
0.0
 10
61.33889158622778
 20
170.1873724617934
 30
0.0
 10
60.59647350915644
 20
170.1894395190846
 30
0.0
 10
59.89195148242285
 20
170.3549763571509
 30
0.0
 10
59.22704805376963
 20
170.6879448358002
 30
0.0
 10
58.51064044761193
 20
171.0465792758148
 30
0.0
 10
57.92996960357306
 20
171.5642048724735
 30
0.0
 10
57.46470945829007
 20
172.2108492950549
 30
0.0
 10
57.1527560621007
 20
172.6444145618736
 30
0.0
 10
56.93537053698144
 20
173.1298285157453
 30
0.0
 10
56.79257132911783
 20
173.642114214402
 30
0.0
 10
56.71591795457103
 20
173.9168605793506
 30
0.0
 10
56.67440455397377
 20
174.2055595810146
 30
0.0
 10
56.65166692377112
 20
174.490641232419
 30
0.0
 10
56.53453367727262
 20
175.9506726990679
 30
0.0
 10
56.62513968853469
 20
177.4139770064278
 30
0.0
 10
56.59757892465269
 20
178.875558766045
 30
0.0
 10
56.59671765078138
 20
178.9293022556149
 30
0.0
 10
56.59757892465269
 20
178.9830457451848
 30
0.0
 10
56.59757892465269
 20
179.0486748141788
 30
0.0
 10
56.35659449545947
 20
179.0486748141788
 30
0.0
 10
56.12990721253003
 20
179.0486748141788
 30
0.0
 10
55.89495170043599
 20
179.0486748141788
 30
0.0
 10
55.89495170043599
 20
179.6810220904964
 30
0.0
 10
55.89495170043599
 20
180.3013115326156
 30
0.0
 10
55.89495170043599
 20
180.9315917516421
 30
0.0
 10
56.3128417827968
 20
180.9315917516421
 30
0.0
 10
56.73279892244874
 20
180.9315917516421
 30
0.0
 10
57.16136880081383
 20
180.9315917516421
 30
0.0
 10
57.16326360333071
 20
180.8885280580765
 30
0.0
 10
57.16670869881597
 20
180.847531421802
 30
0.0
 10
57.16688095359023
 20
180.8063625307533
 30
0.0
 10
57.17566594707761
 20
178.8858940525008
 30
0.0
 10
57.17721624004598
 20
176.9654255742482
 30
0.0
 10
57.19633651998911
 20
175.04512935077
 30
0.0
 10
57.20270994663682
 20
174.4084757050958
 30
0.0
 10
57.30589055642006
 20
173.7795735242634
 30
0.0
 10
57.57943113794889
 20
173.1975246420305
 30
0.0
 10
57.82678899378983
 20
172.6705972875615
 30
0.0
 10
58.15045571462905
 20
172.1870781362067
 30
0.0
 10
58.59952391113137
 20
171.8093234162491
 30
0.0
 10
59.17554387626515
 20
171.3247707362487
 30
0.0
 10
59.82615015865458
 20
170.9762993279157
 30
0.0
 10
60.5801093056015
 20
170.8605441196113
 30
0.0
 10
60.86450193790888
 20
170.8167914069486
 30
0.0
 10
61.15388995866986
 20
170.7894028978409
 30
0.0
 10
61.44155543168822
 20
170.7854410380328
 30
0.0
 10
62.1906914449558
 20
170.7751057515771
 30
0.0
 10
62.9401719677719
 20
170.790780936035
 30
0.0
 10
63.68930798103948
 20
170.7785508470623
 30
0.0
 10
64.13406980818523
 20
170.7714884013176
 30
0.0
 10
64.57090791571491
 20
170.7012084534184
 30
0.0
 10
64.96829967993848
 20
170.4772772468772
 30
0.0
 10
65.31608206917446
 20
170.2812513137665
 30
0.0
 10
65.60081921103036
 20
170.015806706628
 30
0.0
 10
65.78599309336253
 20
169.6638902028097
 30
0.0
 10
65.90329859463529
 20
169.4408202701398
 30
0.0
 10
65.97840167621374
 20
169.194840452493
 30
0.0
 10
66.06659612063613
 20
168.9569566092365
 30
0.0
 10
66.08485512670795
 20
168.9078639985717
 30
0.0
 10
66.08175454077123
 20
168.8492973753224
 30
0.0
 10
66.08175454077123
 20
168.795209376204
 30
0.0
 10
66.08244355986828
 20
165.810723157332
 30
0.0
 10
66.07813719051173
 20
162.8264091932344
 30
0.0
 10
66.08588865535353
 20
159.8420952291367
 30
0.0
 10
66.08743894832189
 20
159.2300740161821
 30
0.0
 10
66.1847628957802
 20
158.6232204464553
 30
0.0
 10
66.44486760491657
 20
158.0649427230706
 30
0.0
 10
66.71599661960573
 20
157.4828938408376
 30
0.0
 10
67.09444035866042
 20
156.9752590210861
 30
0.0
 10
67.62067869403234
 20
156.5861354860271
 30
0.0
 10
68.02513290400067
 20
156.2872734526817
 30
0.0
 10
68.46352130449871
 20
156.0657538129801
 30
0.0
 10
68.9494520226932
 20
155.9432806684795
 30
0.0
 10
69.16614852871541
 20
155.888503650264
 30
0.0
 10
69.38956297093387
 20
155.8297647722405
 30
0.0
 10
69.61073810108691
 20
155.826836441078
 30
0.0
 10
71.02718910984737
 20
155.8082329254577
 30
0.0
 10
72.4438123733821
 20
155.8032375370041
 30
0.0
 10
73.86043563691683
 20
155.7968641103564
 30
0.0
 10
74.60974390495868
 20
155.7934190148711
 30
0.0
 10
75.35905217300052
 20
155.7963473460336
 30
0.0
 10
76.10836044104236
 20
155.7963473460336
 30
0.0
 10
76.15883108990127
 20
155.7963473460336
 30
0.0
 10
76.20930173876017
 20
155.7963473460336
 30
0.0
 10
76.28095972485337
 20
155.7963473460336
 30
0.0
  0
HATCH
  5
58
330
3C
100
AcDbEntity
  8
Layer 1
 62
     7
420
 16777215
100
AcDbHatch
 10
0.0
 20
0.0
 30
0.0
210
0.0
220
0.0
230
1.0
  2
SOLID
 70
     1
 71
     0
 91
        1
 92
        1
 93
        1
 72
     4
 94
        3
 73
     0
 74
     1
 95
      140
 96
      136
 40
0.0
 40
0.0
 40
0.0
 40
0.0
 40
1.0
 40
1.0
 40
1.0
 40
2.0
 40
2.0
 40
2.0
 40
3.0
 40
3.0
 40
3.0
 40
4.0
 40
4.0
 40
4.0
 40
5.0
 40
5.0
 40
5.0
 40
6.0
 40
6.0
 40
6.0
 40
7.0
 40
7.0
 40
7.0
 40
8.0
 40
8.0
 40
8.0
 40
9.0
 40
9.0
 40
9.0
 40
10.0
 40
10.0
 40
10.0
 40
11.0
 40
11.0
 40
11.0
 40
12.0
 40
12.0
 40
12.0
 40
13.0
 40
13.0
 40
13.0
 40
14.0
 40
14.0
 40
14.0
 40
15.0
 40
15.0
 40
15.0
 40
16.0
 40
16.0
 40
16.0
 40
17.0
 40
17.0
 40
17.0
 40
18.0
 40
18.0
 40
18.0
 40
19.0
 40
19.0
 40
19.0
 40
20.0
 40
20.0
 40
20.0
 40
21.0
 40
21.0
 40
21.0
 40
22.0
 40
22.0
 40
22.0
 40
23.0
 40
23.0
 40
23.0
 40
24.0
 40
24.0
 40
24.0
 40
25.0
 40
25.0
 40
25.0
 40
26.0
 40
26.0
 40
26.0
 40
27.0
 40
27.0
 40
27.0
 40
28.0
 40
28.0
 40
28.0
 40
29.0
 40
29.0
 40
29.0
 40
30.0
 40
30.0
 40
30.0
 40
31.0
 40
31.0
 40
31.0
 40
32.0
 40
32.0
 40
32.0
 40
33.0
 40
33.0
 40
33.0
 40
34.0
 40
34.0
 40
34.0
 40
35.0
 40
35.0
 40
35.0
 40
36.0
 40
36.0
 40
36.0
 40
37.0
 40
37.0
 40
37.0
 40
38.0
 40
38.0
 40
38.0
 40
39.0
 40
39.0
 40
39.0
 40
40.0
 40
40.0
 40
40.0
 40
41.0
 40
41.0
 40
41.0
 40
42.0
 40
42.0
 40
42.0
 40
43.0
 40
43.0
 40
43.0
 40
44.0
 40
44.0
 40
44.0
 40
45.0
 40
45.0
 40
45.0
 40
45.0
 10
76.28095972485337
 20
155.7963473460336
 10
76.28095972485337
 20
155.9115857900152
 10
76.28095972485337
 20
156.0113213043132
 10
76.28095972485337
 20
156.1186360286787
 10
76.91313474639672
 20
156.1186360286787
 10
77.53342418851595
 20
156.1186360286787
 10
78.16301538844536
 20
156.1186360286787
 10
78.16301538844536
 20
155.7017794749634
 10
78.16301538844536
 20
155.284750666474
 10
78.16301538844536
 20
154.8566975524317
 10
77.54427623929449
 20
154.8566975524317
 10
76.9210584660128
 20
154.8566975524317
 10
76.28578285853273
 20
154.8566975524317
 10
76.28578285853273
 20
154.9643567863457
 10
76.28578285853273
 20
155.0725327845826
 10
76.28578285853273
 20
155.2012071009567
 10
76.22101506341002
 20
155.2012071009567
 10
76.16813284771145
 20
155.2012071009567
 10
76.11507837723859
 20
155.2012071009567
 10
74.15516355567996
 20
155.2012071009567
 10
72.19507647934707
 20
155.2080972919271
 10
70.23516165778844
 20
155.1974174959229
 10
69.57800969397702
 20
155.1938001456634
 10
68.94583467243368
 20
155.2928466408643
 10
68.33071287354232
 20
155.5179836308254
 10
67.91471759369841
 20
155.6702568512734
 10
67.53592934509518
 20
155.8902261980066
 10
67.19710420412086
 20
156.1718627539258
 10
66.73597817342018
 20
156.5554741362084
 10
66.34616561926416
 20
156.9976521417402
 10
66.05453828643776
 20
157.5314696871797
 10
65.78392603607138
 20
158.0270466727328
 10
65.63682045885122
 20
158.5558688297187
 10
65.54363062597521
 20
159.1026054832278
 10
65.49936114898975
 20
159.3616766637186
 10
65.48988713640532
 20
159.629016073374
 10
65.48954262685679
 20
159.8927381327699
 10
65.48592527659727
 20
162.7967813720612
 10
65.48403047408038
 20
165.7008246113526
 10
65.49195419369646
 20
168.6046955958697
 10
65.49298772234204
 20
168.929051335806
 10
65.38360594068536
 20
169.2067260319171
 10
65.2194471408132
 20
169.4611463335028
 10
65.03255071073839
 20
169.7510511185866
 10
64.7665893392771
 20
169.973776541708
 10
64.42466361236606
 20
170.0624877504531
 10
64.18075085201038
 20
170.1257052526075
 10
63.92633055042467
 20
170.1765204110149
 10
63.67552759909848
 20
170.1815157994685
 10
62.89693601943202
 20
170.1965019648294
 10
62.11782767544277
 20
170.1853054045023
 10
61.33889158622778
 20
170.1873724617934
 10
60.59647350915644
 20
170.1894395190846
 10
59.89195148242285
 20
170.3549763571509
 10
59.22704805376963
 20
170.6879448358002
 10
58.51064044761193
 20
171.0465792758148
 10
57.92996960357306
 20
171.5642048724735
 10
57.46470945829007
 20
172.2108492950549
 10
57.1527560621007
 20
172.6444145618736
 10
56.93537053698144
 20
173.1298285157453
 10
56.79257132911783
 20
173.642114214402
 10
56.71591795457103
 20
173.9168605793506
 10
56.67440455397377
 20
174.2055595810146
 10
56.65166692377112
 20
174.490641232419
 10
56.53453367727262
 20
175.9506726990679
 10
56.62513968853469
 20
177.4139770064278
 10
56.59757892465269
 20
178.875558766045
 10
56.59671765078138
 20
178.9293022556149
 10
56.59757892465269
 20
178.9830457451848
 10
56.59757892465269
 20
179.0486748141788
 10
56.35659449545947
 20
179.0486748141788
 10
56.12990721253003
 20
179.0486748141788
 10
55.89495170043599
 20
179.0486748141788
 10
55.89495170043599
 20
179.6810220904964
 10
55.89495170043599
 20
180.3013115326156
 10
55.89495170043599
 20
180.9315917516421
 10
56.3128417827968
 20
180.9315917516421
 10
56.73279892244874
 20
180.9315917516421
 10
57.16136880081383
 20
180.9315917516421
 10
57.16326360333071
 20
180.8885280580765
 10
57.16670869881597
 20
180.847531421802
 10
57.16688095359023
 20
180.8063625307533
 10
57.17566594707761
 20
178.8858940525008
 10
57.17721624004598
 20
176.9654255742482
 10
57.19633651998911
 20
175.04512935077
 10
57.20270994663682
 20
174.4084757050958
 10
57.30589055642006
 20
173.7795735242634
 10
57.57943113794889
 20
173.1975246420305
 10
57.82678899378983
 20
172.6705972875615
 10
58.15045571462905
 20
172.1870781362067
 10
58.59952391113137
 20
171.8093234162491
 10
59.17554387626515
 20
171.3247707362487
 10
59.82615015865458
 20
170.9762993279157
 10
60.5801093056015
 20
170.8605441196113
 10
60.86450193790888
 20
170.8167914069486
 10
61.15388995866986
 20
170.7894028978409
 10
61.44155543168822
 20
170.7854410380328
 10
62.1906914449558
 20
170.7751057515771
 10
62.9401719677719
 20
170.790780936035
 10
63.68930798103948
 20
170.7785508470623
 10
64.13406980818523
 20
170.7714884013176
 10
64.57090791571491
 20
170.7012084534184
 10
64.96829967993848
 20
170.4772772468772
 10
65.31608206917446
 20
170.2812513137665
 10
65.60081921103036
 20
170.015806706628
 10
65.78599309336253
 20
169.6638902028097
 10
65.90329859463529
 20
169.4408202701398
 10
65.97840167621374
 20
169.194840452493
 10
66.06659612063613
 20
168.9569566092365
 10
66.08485512670795
 20
168.9078639985717
 10
66.08175454077123
 20
168.8492973753224
 10
66.08175454077123
 20
168.795209376204
 10
66.08244355986828
 20
165.810723157332
 10
66.07813719051173
 20
162.8264091932344
 10
66.08588865535353
 20
159.8420952291367
 10
66.08743894832189
 20
159.2300740161821
 10
66.1847628957802
 20
158.6232204464553
 10
66.44486760491657
 20
158.0649427230706
 10
66.71599661960573
 20
157.4828938408376
 10
67.09444035866042
 20
156.9752590210861
 10
67.62067869403234
 20
156.5861354860271
 10
68.02513290400067
 20
156.2872734526817
 10
68.46352130449871
 20
156.0657538129801
 10
68.9494520226932
 20
155.9432806684795
 10
69.16614852871541
 20
155.888503650264
 10
69.38956297093387
 20
155.8297647722405
 10
69.61073810108691
 20
155.826836441078
 10
71.02718910984737
 20
155.8082329254577
 10
72.4438123733821
 20
155.8032375370041
 10
73.86043563691683
 20
155.7968641103564
 10
74.60974390495868
 20
155.7934190148711
 10
75.35905217300052
 20
155.7963473460336
 10
76.10836044104236
 20
155.7963473460336
 10
76.15883108990127
 20
155.7963473460336
 10
76.20930173876017
 20
155.7963473460336
 10
76.28095972485337
 20
155.7963473460336
 97
        0
 75
     0
 76
     1
 98
        0
  0
SPLINE
  5
59
330
3C
100
AcDbEntity
  8
Layer 1
370
     0
100
AcDbSpline
210
0.0
220
0.0
230
1.0
 70
    11
 71
     3
 72
   125
 73
   121
 74
     0
 42
0.0000000001
 43
0.0000000001
 40
0.0
 40
0.0
 40
0.0
 40
0.0
 40
1.0
 40
1.0
 40
1.0
 40
2.0
 40
2.0
 40
2.0
 40
3.0
 40
3.0
 40
3.0
 40
4.0
 40
4.0
 40
4.0
 40
5.0
 40
5.0
 40
5.0
 40
6.0
 40
6.0
 40
6.0
 40
7.0
 40
7.0
 40
7.0
 40
8.0
 40
8.0
 40
8.0
 40
9.0
 40
9.0
 40
9.0
 40
10.0
 40
10.0
 40
10.0
 40
11.0
 40
11.0
 40
11.0
 40
12.0
 40
12.0
 40
12.0
 40
13.0
 40
13.0
 40
13.0
 40
14.0
 40
14.0
 40
14.0
 40
15.0
 40
15.0
 40
15.0
 40
16.0
 40
16.0
 40
16.0
 40
17.0
 40
17.0
 40
17.0
 40
18.0
 40
18.0
 40
18.0
 40
19.0
 40
19.0
 40
19.0
 40
20.0
 40
20.0
 40
20.0
 40
21.0
 40
21.0
 40
21.0
 40
22.0
 40
22.0
 40
22.0
 40
23.0
 40
23.0
 40
23.0
 40
24.0
 40
24.0
 40
24.0
 40
25.0
 40
25.0
 40
25.0
 40
26.0
 40
26.0
 40
26.0
 40
27.0
 40
27.0
 40
27.0
 40
28.0
 40
28.0
 40
28.0
 40
29.0
 40
29.0
 40
29.0
 40
30.0
 40
30.0
 40
30.0
 40
31.0
 40
31.0
 40
31.0
 40
32.0
 40
32.0
 40
32.0
 40
33.0
 40
33.0
 40
33.0
 40
34.0
 40
34.0
 40
34.0
 40
35.0
 40
35.0
 40
35.0
 40
36.0
 40
36.0
 40
36.0
 40
37.0
 40
37.0
 40
37.0
 40
38.0
 40
38.0
 40
38.0
 40
39.0
 40
39.0
 40
39.0
 40
40.0
 40
40.0
 40
40.0
 40
40.0
 10
62.74449054420971
 20
175.8018445741051
 30
0.0
 10
62.60927054641365
 20
175.8018445741051
 30
0.0
 10
62.46698810287284
 20
175.8018445741051
 30
0.0
 10
62.31884899700709
 20
175.8018445741051
 30
0.0
 10
62.31884899700709
 20
176.230931216793
 30
0.0
 10
62.31884899700709
 20
176.6479600252825
 30
0.0
 10
62.31884899700709
 20
177.0730848081623
 30
0.0
 10
62.94327255370863
 20
177.0730848081623
 30
0.0
 10
63.56356199582786
 20
177.0730848081623
 30
0.0
 10
64.19332545053153
 20
177.0730848081623
 30
0.0
 10
64.19332545053153
 20
176.6534721780588
 30
0.0
 10
64.19332545053153
 20
176.2333427836327
 30
0.0
 10
64.19332545053153
 20
175.8013278097823
 30
0.0
 10
63.92030163332549
 20
175.8013278097823
 30
0.0
 10
63.65123967592747
 20
175.8013278097823
 30
0.0
 10
63.38476154014339
 20
175.8013278097823
 30
0.0
 10
63.34996607574237
 20
175.6356187169418
 30
0.0
 10
63.46951088908054
 20
175.3198757157186
 30
0.0
 10
63.59715167680905
 20
175.2470119462056
 30
0.0
 10
63.63677027488942
 20
175.2244465707772
 30
0.0
 10
63.69413111471883
 20
175.227547156714
 30
0.0
 10
63.74322372538364
 20
175.227547156714
 30
0.0
 10
65.67368298054339
 20
175.2266858828426
 30
0.0
 10
67.60396998092887
 20
175.2311645069735
 30
0.0
 10
69.53425698131436
 20
175.2218627491633
 30
0.0
 10
69.79901256935581
 20
175.2204847109692
 30
0.0
 10
69.94973549683549
 20
175.3715521479974
 30
0.0
 10
69.95404186619204
 20
175.6240776470662
 30
0.0
 10
69.96110431193681
 20
176.0448960605895
 30
0.0
 10
70.3827839993314
 20
176.4710543721149
 30
0.0
 10
70.80601397969433
 20
176.4729491746318
 30
0.0
 10
71.64696178764382
 20
176.4767387796655
 30
0.0
 10
72.48790959559331
 20
176.4932752379947
 30
0.0
 10
73.32885740354278
 20
176.4946532761888
 30
0.0
 10
73.75949433919902
 20
176.4953422952859
 30
0.0
 10
74.08574488165218
 20
176.3025892028862
 30
0.0
 10
74.27470836901813
 20
175.9079535150508
 30
0.0
 10
74.31312118367866
 20
175.8278550450187
 30
0.0
 10
74.33430852091296
 20
175.7313923714318
 30
0.0
 10
74.33448077568721
 20
175.6425089079123
 30
0.0
 10
74.33809812594673
 20
174.10151769736
 30
0.0
 10
74.33740910684968
 20
172.5606987415821
 30
0.0
 10
74.3368923425269
 20
171.0198797858041
 30
0.0
 10
74.33672008775262
 20
170.6204209642893
 30
0.0
 10
73.9047051139023
 20
170.1903007929559
 30
0.0
 10
73.50593531148463
 20
170.1863389331479
 30
0.0
 10
73.26581215616272
 20
170.1839273663082
 30
0.0
 10
73.02413870787244
 20
170.1915065763757
 30
0.0
 10
72.78608260984167
 20
170.1665296341077
 30
0.0
 10
72.46327716287377
 20
170.132595443578
 30
0.0
 10
72.45518118848344
 20
169.9963419171363
 30
0.0
 10
72.43985051357407
 20
169.7794731563399
 30
0.0
 10
72.4140122974347
 20
169.4173936208401
 30
0.0
 10
72.43227130350652
 20
169.0518689898551
 30
0.0
 10
72.43244355828078
 20
168.6878946518385
 30
0.0
 10
72.43244355828078
 20
168.6548217351801
 30
0.0
 10
72.4360609085403
 20
168.6219210732959
 30
0.0
 10
72.43847247537997
 20
168.5771348319877
 30
0.0
 10
72.55198837161895
 20
168.5771348319877
 30
0.0
 10
72.66016436985579
 20
168.5771348319877
 30
0.0
 10
72.77798663545134
 20
168.5771348319877
 30
0.0
 10
72.77798663545134
 20
167.7217176230001
 30
0.0
 10
72.77798663545134
 20
166.878358248211
 30
0.0
 10
72.77798663545134
 20
166.0282809372256
 30
0.0
 10
72.35768498625086
 20
166.0282809372256
 30
0.0
 10
71.94065617776137
 20
166.0282809372256
 30
0.0
 10
71.51518688533301
 20
166.0282809372256
 30
0.0
 10
71.51518688533301
 20
166.871812566789
 30
0.0
 10
71.51518688533301
 20
167.7120713556414
 30
0.0
 10
71.51518688533301
 20
168.5690388575973
 30
0.0
 10
71.61630043782509
 20
168.5690388575973
 30
0.0
 10
71.71930879283407
 20
168.5690388575973
 30
0.0
 10
71.8371310584296
 20
168.5690388575973
 30
0.0
 10
71.8371310584296
 20
168.8887437186285
 30
0.0
 10
71.83110214133042
 20
169.1924288856533
 30
0.0
 10
71.83937037049502
 20
169.4955972883553
 30
0.0
 10
71.84471026849715
 20
169.6959295908225
 30
0.0
 10
71.84643281623978
 20
169.901601791292
 30
0.0
 10
71.89294160529066
 20
170.094527138466
 30
0.0
 10
71.9795857567447
 20
170.4536783428032
 30
0.0
 10
72.31996119068738
 20
170.7392767585305
 30
0.0
 10
72.68669160509222
 20
170.7559854716339
 30
0.0
 10
72.93904484938678
 20
170.7675265415095
 30
0.0
 10
73.19174260322984
 20
170.7738999681572
 30
0.0
 10
73.44426810229866
 20
170.7818236877733
 30
0.0
 10
73.59723034184375
 20
170.7866468214526
 30
0.0
 10
73.74140758790146
 20
170.9278957363479
 30
0.0
 10
73.74157984267572
 20
171.0813747402158
 30
0.0
 10
73.74244111654703
 20
172.5799912762995
 30
0.0
 10
73.7426133713213
 20
174.0784355576089
 30
0.0
 10
73.74140758790146
 20
175.5770520936925
 30
0.0
 10
73.7412353331272
 20
175.7766953770628
 30
0.0
 10
73.58189966693439
 20
175.8989962667891
 30
0.0
 10
73.31731633366721
 20
175.900202050209
 30
0.0
 10
73.18347437406524
 20
175.9007188145318
 30
0.0
 10
73.04946015968903
 20
175.8781534391034
 30
0.0
 10
72.91544594531281
 20
175.8776366747806
 30
0.0
 10
72.3142767831367
 20
175.8748805983924
 30
0.0
 10
71.71327987573488
 20
175.8757418722637
 30
0.0
 10
71.11211071355878
 20
175.8772921652321
 30
0.0
 10
71.04183076565968
 20
175.8774644200063
 30
0.0
 10
70.96879474137239
 20
175.9053696934369
 30
0.0
 10
70.90178763418427
 20
175.8934841140128
 30
0.0
 10
70.58535561386408
 20
175.8381903314745
 30
0.0
 10
70.54315319416978
 20
175.7515461800205
 30
0.0
 10
70.5352294745537
 20
175.4669812929388
 30
0.0
 10
70.52437742377516
 20
175.0837144202048
 30
0.0
 10
70.04809297293937
 20
174.6222438799556
 30
0.0
 10
69.6479451323276
 20
174.6253444658923
 30
0.0
 10
67.69647079470784
 20
174.6398138669303
 30
0.0
 10
65.7448242023138
 20
174.638263573962
 30
0.0
 10
63.79352211946829
 20
174.6248277015695
 30
0.0
 10
63.49793292683385
 20
174.6227606442783
 30
0.0
 10
63.26469996248244
 20
174.6801214841078
 30
0.0
 10
63.09709606712504
 20
174.9254122826575
 30
0.0
 10
63.01062417044526
 20
175.0518472869662
 30
0.0
 10
62.9186401209891
 20
175.179660329469
 30
0.0
 10
62.86196830025673
 20
175.3200479704929
 30
0.0
 10
62.80374618655601
 20
175.4647419808734
 30
0.0
 10
62.78548718048419
 20
175.6254556852603
 30
0.0
 10
62.74449054420971
 20
175.8018445741051
 30
0.0
  0
HATCH
  5
5A
330
3C
100
AcDbEntity
  8
Layer 1
 62
     7
420
 16777215
100
AcDbHatch
 10
0.0
 20
0.0
 30
0.0
210
0.0
220
0.0
230
1.0
  2
SOLID
 70
     1
 71
     0
 91
        1
 92
        1
 93
        1
 72
     4
 94
        3
 73
     0
 74
     1
 95
      125
 96
      121
 40
0.0
 40
0.0
 40
0.0
 40
0.0
 40
1.0
 40
1.0
 40
1.0
 40
2.0
 40
2.0
 40
2.0
 40
3.0
 40
3.0
 40
3.0
 40
4.0
 40
4.0
 40
4.0
 40
5.0
 40
5.0
 40
5.0
 40
6.0
 40
6.0
 40
6.0
 40
7.0
 40
7.0
 40
7.0
 40
8.0
 40
8.0
 40
8.0
 40
9.0
 40
9.0
 40
9.0
 40
10.0
 40
10.0
 40
10.0
 40
11.0
 40
11.0
 40
11.0
 40
12.0
 40
12.0
 40
12.0
 40
13.0
 40
13.0
 40
13.0
 40
14.0
 40
14.0
 40
14.0
 40
15.0
 40
15.0
 40
15.0
 40
16.0
 40
16.0
 40
16.0
 40
17.0
 40
17.0
 40
17.0
 40
18.0
 40
18.0
 40
18.0
 40
19.0
 40
19.0
 40
19.0
 40
20.0
 40
20.0
 40
20.0
 40
21.0
 40
21.0
 40
21.0
 40
22.0
 40
22.0
 40
22.0
 40
23.0
 40
23.0
 40
23.0
 40
24.0
 40
24.0
 40
24.0
 40
25.0
 40
25.0
 40
25.0
 40
26.0
 40
26.0
 40
26.0
 40
27.0
 40
27.0
 40
27.0
 40
28.0
 40
28.0
 40
28.0
 40
29.0
 40
29.0
 40
29.0
 40
30.0
 40
30.0
 40
30.0
 40
31.0
 40
31.0
 40
31.0
 40
32.0
 40
32.0
 40
32.0
 40
33.0
 40
33.0
 40
33.0
 40
34.0
 40
34.0
 40
34.0
 40
35.0
 40
35.0
 40
35.0
 40
36.0
 40
36.0
 40
36.0
 40
37.0
 40
37.0
 40
37.0
 40
38.0
 40
38.0
 40
38.0
 40
39.0
 40
39.0
 40
39.0
 40
40.0
 40
40.0
 40
40.0
 40
40.0
 10
62.74449054420971
 20
175.8018445741051
 10
62.60927054641365
 20
175.8018445741051
 10
62.46698810287284
 20
175.8018445741051
 10
62.31884899700709
 20
175.8018445741051
 10
62.31884899700709
 20
176.230931216793
 10
62.31884899700709
 20
176.6479600252825
 10
62.31884899700709
 20
177.0730848081623
 10
62.94327255370863
 20
177.0730848081623
 10
63.56356199582786
 20
177.0730848081623
 10
64.19332545053153
 20
177.0730848081623
 10
64.19332545053153
 20
176.6534721780588
 10
64.19332545053153
 20
176.2333427836327
 10
64.19332545053153
 20
175.8013278097823
 10
63.92030163332549
 20
175.8013278097823
 10
63.65123967592747
 20
175.8013278097823
 10
63.38476154014339
 20
175.8013278097823
 10
63.34996607574237
 20
175.6356187169418
 10
63.46951088908054
 20
175.3198757157186
 10
63.59715167680905
 20
175.2470119462056
 10
63.63677027488942
 20
175.2244465707772
 10
63.69413111471883
 20
175.227547156714
 10
63.74322372538364
 20
175.227547156714
 10
65.67368298054339
 20
175.2266858828426
 10
67.60396998092887
 20
175.2311645069735
 10
69.53425698131436
 20
175.2218627491633
 10
69.79901256935581
 20
175.2204847109692
 10
69.94973549683549
 20
175.3715521479974
 10
69.95404186619204
 20
175.6240776470662
 10
69.96110431193681
 20
176.0448960605895
 10
70.3827839993314
 20
176.4710543721149
 10
70.80601397969433
 20
176.4729491746318
 10
71.64696178764382
 20
176.4767387796655
 10
72.48790959559331
 20
176.4932752379947
 10
73.32885740354278
 20
176.4946532761888
 10
73.75949433919902
 20
176.4953422952859
 10
74.08574488165218
 20
176.3025892028862
 10
74.27470836901813
 20
175.9079535150508
 10
74.31312118367866
 20
175.8278550450187
 10
74.33430852091296
 20
175.7313923714318
 10
74.33448077568721
 20
175.6425089079123
 10
74.33809812594673
 20
174.10151769736
 10
74.33740910684968
 20
172.5606987415821
 10
74.3368923425269
 20
171.0198797858041
 10
74.33672008775262
 20
170.6204209642893
 10
73.9047051139023
 20
170.1903007929559
 10
73.50593531148463
 20
170.1863389331479
 10
73.26581215616272
 20
170.1839273663082
 10
73.02413870787244
 20
170.1915065763757
 10
72.78608260984167
 20
170.1665296341077
 10
72.46327716287377
 20
170.132595443578
 10
72.45518118848344
 20
169.9963419171363
 10
72.43985051357407
 20
169.7794731563399
 10
72.4140122974347
 20
169.4173936208401
 10
72.43227130350652
 20
169.0518689898551
 10
72.43244355828078
 20
168.6878946518385
 10
72.43244355828078
 20
168.6548217351801
 10
72.4360609085403
 20
168.6219210732959
 10
72.43847247537997
 20
168.5771348319877
 10
72.55198837161895
 20
168.5771348319877
 10
72.66016436985579
 20
168.5771348319877
 10
72.77798663545134
 20
168.5771348319877
 10
72.77798663545134
 20
167.7217176230001
 10
72.77798663545134
 20
166.878358248211
 10
72.77798663545134
 20
166.0282809372256
 10
72.35768498625086
 20
166.0282809372256
 10
71.94065617776137
 20
166.0282809372256
 10
71.51518688533301
 20
166.0282809372256
 10
71.51518688533301
 20
166.871812566789
 10
71.51518688533301
 20
167.7120713556414
 10
71.51518688533301
 20
168.5690388575973
 10
71.61630043782509
 20
168.5690388575973
 10
71.71930879283407
 20
168.5690388575973
 10
71.8371310584296
 20
168.5690388575973
 10
71.8371310584296
 20
168.8887437186285
 10
71.83110214133042
 20
169.1924288856533
 10
71.83937037049502
 20
169.4955972883553
 10
71.84471026849715
 20
169.6959295908225
 10
71.84643281623978
 20
169.901601791292
 10
71.89294160529066
 20
170.094527138466
 10
71.9795857567447
 20
170.4536783428032
 10
72.31996119068738
 20
170.7392767585305
 10
72.68669160509222
 20
170.7559854716339
 10
72.93904484938678
 20
170.7675265415095
 10
73.19174260322984
 20
170.7738999681572
 10
73.44426810229866
 20
170.7818236877733
 10
73.59723034184375
 20
170.7866468214526
 10
73.74140758790146
 20
170.9278957363479
 10
73.74157984267572
 20
171.0813747402158
 10
73.74244111654703
 20
172.5799912762995
 10
73.7426133713213
 20
174.0784355576089
 10
73.74140758790146
 20
175.5770520936925
 10
73.7412353331272
 20
175.7766953770628
 10
73.58189966693439
 20
175.8989962667891
 10
73.31731633366721
 20
175.900202050209
 10
73.18347437406524
 20
175.9007188145318
 10
73.04946015968903
 20
175.8781534391034
 10
72.91544594531281
 20
175.8776366747806
 10
72.3142767831367
 20
175.8748805983924
 10
71.71327987573488
 20
175.8757418722637
 10
71.11211071355878
 20
175.8772921652321
 10
71.04183076565968
 20
175.8774644200063
 10
70.96879474137239
 20
175.9053696934369
 10
70.90178763418427
 20
175.8934841140128
 10
70.58535561386408
 20
175.8381903314745
 10
70.54315319416978
 20
175.7515461800205
 10
70.5352294745537
 20
175.4669812929388
 10
70.52437742377516
 20
175.0837144202048
 10
70.04809297293937
 20
174.6222438799556
 10
69.6479451323276
 20
174.6253444658923
 10
67.69647079470784
 20
174.6398138669303
 10
65.7448242023138
 20
174.638263573962
 10
63.79352211946829
 20
174.6248277015695
 10
63.49793292683385
 20
174.6227606442783
 10
63.26469996248244
 20
174.6801214841078
 10
63.09709606712504
 20
174.9254122826575
 10
63.01062417044526
 20
175.0518472869662
 10
62.9186401209891
 20
175.179660329469
 10
62.86196830025673
 20
175.3200479704929
 10
62.80374618655601
 20
175.4647419808734
 10
62.78548718048419
 20
175.6254556852603
 10
62.74449054420971
 20
175.8018445741051
 97
        0
 75
     0
 76
     1
 98
        0
  0
SPLINE
  5
5B
330
3C
100
AcDbEntity
  8
Layer 1
370
     0
100
AcDbSpline
210
0.0
220
0.0
230
1.0
 70
    11
 71
     3
 72
    95
 73
    91
 74
     0
 42
0.0000000001
 43
0.0000000001
 40
0.0
 40
0.0
 40
0.0
 40
0.0
 40
1.0
 40
1.0
 40
1.0
 40
2.0
 40
2.0
 40
2.0
 40
3.0
 40
3.0
 40
3.0
 40
4.0
 40
4.0
 40
4.0
 40
5.0
 40
5.0
 40
5.0
 40
6.0
 40
6.0
 40
6.0
 40
7.0
 40
7.0
 40
7.0
 40
8.0
 40
8.0
 40
8.0
 40
9.0
 40
9.0
 40
9.0
 40
10.0
 40
10.0
 40
10.0
 40
11.0
 40
11.0
 40
11.0
 40
12.0
 40
12.0
 40
12.0
 40
13.0
 40
13.0
 40
13.0
 40
14.0
 40
14.0
 40
14.0
 40
15.0
 40
15.0
 40
15.0
 40
16.0
 40
16.0
 40
16.0
 40
17.0
 40
17.0
 40
17.0
 40
18.0
 40
18.0
 40
18.0
 40
19.0
 40
19.0
 40
19.0
 40
20.0
 40
20.0
 40
20.0
 40
21.0
 40
21.0
 40
21.0
 40
22.0
 40
22.0
 40
22.0
 40
23.0
 40
23.0
 40
23.0
 40
24.0
 40
24.0
 40
24.0
 40
25.0
 40
25.0
 40
25.0
 40
26.0
 40
26.0
 40
26.0
 40
27.0
 40
27.0
 40
27.0
 40
28.0
 40
28.0
 40
28.0
 40
29.0
 40
29.0
 40
29.0
 40
30.0
 40
30.0
 40
30.0
 40
30.0
 10
92.46567380500859
 20
175.2268581376169
 30
0.0
 10
92.46567380500859
 20
175.0167073130167
 30
0.0
 10
92.46567380500859
 20
174.8198201060346
 30
0.0
 10
92.46567380500859
 20
174.6063964407234
 30
0.0
 10
92.41744246821509
 20
174.6063964407234
 30
0.0
 10
92.37248397213257
 20
174.6063964407234
 30
0.0
 10
92.32752547605007
 20
174.6063964407234
 30
0.0
 10
90.72348901811775
 20
174.6063964407234
 30
0.0
 10
89.11928030541115
 20
174.6055351668521
 30
0.0
 10
87.51524384747883
 20
174.6076022241432
 30
0.0
 10
87.30078665352202
 20
174.6077744789175
 30
0.0
 10
87.08650171433949
 20
174.6272392684092
 30
0.0
 10
86.87204452038269
 20
174.6296508352488
 30
0.0
 10
86.79418536241604
 20
174.6306843638944
 30
0.0
 10
86.71339787328694
 20
174.6163872176306
 30
0.0
 10
86.63846704648275
 20
174.5939940969765
 30
0.0
 10
86.43916827266105
 20
174.534566199856
 30
0.0
 10
86.4054063369056
 20
174.3580050562369
 30
0.0
 10
86.40643986555118
 20
174.1929849824934
 30
0.0
 10
86.4090236871651
 20
173.8095458549851
 30
0.0
 10
85.92378198806767
 20
173.3539319770608
 30
0.0
 10
85.53104110274919
 20
173.355999034352
 30
0.0
 10
83.22868378995672
 20
173.3678846137761
 30
0.0
 10
80.92615422239
 20
173.3639227539681
 30
0.0
 10
78.62379690959753
 20
173.3606499132571
 30
0.0
 10
77.85485159728977
 20
173.3596163846115
 30
0.0
 10
77.08607853975626
 20
173.3441134549279
 30
0.0
 10
76.31730548222276
 20
173.3372232639574
 30
0.0
 10
76.20086125482132
 20
173.3361897353118
 30
0.0
 10
76.08183320580594
 20
173.3637504991938
 30
0.0
 10
75.96848956434121
 20
173.3472140408646
 30
0.0
 10
75.67686223151482
 20
173.304839366396
 30
0.0
 10
75.62019041078246
 20
173.2150946290053
 30
0.0
 10
75.61140541729507
 20
172.8879828126808
 30
0.0
 10
75.59590248761144
 20
172.3042113827052
 30
0.0
 10
75.6070990479385
 20
171.7199231884068
 30
0.0
 10
75.6070990479385
 20
171.1358072488827
 30
0.0
 10
75.6070990479385
 20
170.263853581566
 30
0.0
 10
75.60503199064736
 20
169.3920721690235
 30
0.0
 10
75.60864934090687
 20
168.5201185017068
 30
0.0
 10
75.60951061477819
 20
168.30566130775
 30
0.0
 10
75.52682832313218
 20
168.1328897691647
 30
0.0
 10
75.3940198921758
 20
167.9726928291006
 30
0.0
 10
75.35801864435494
 20
167.9291123712122
 30
0.0
 10
75.33097464479573
 20
167.8631387926696
 30
0.0
 10
75.33045788047295
 20
167.8073282458086
 30
0.0
 10
75.32597925634212
 20
167.2190781917022
 30
0.0
 10
75.32770180408474
 20
166.63100039237
 30
0.0
 10
75.32770180408474
 20
166.0320705422594
 30
0.0
 10
74.90257702120492
 20
166.0320705422594
 30
0.0
 10
74.48261988155296
 20
166.0320705422594
 30
0.0
 10
74.05473902228493
 20
166.0320705422594
 30
0.0
 10
74.05473902228493
 20
166.8728460954346
 30
0.0
 10
74.05473902228493
 20
167.713104884287
 30
0.0
 10
74.05473902228493
 20
168.5699001314686
 30
0.0
 10
74.36858722099119
 20
168.5699001314686
 30
0.0
 10
74.6831244387945
 20
168.5699001314686
 30
0.0
 10
75.01213105763586
 20
168.5699001314686
 30
0.0
 10
75.01213105763586
 20
168.6400078245935
 30
0.0
 10
75.01213105763586
 20
168.6935790593891
 30
0.0
 10
75.01213105763586
 20
168.747322548959
 30
0.0
 10
75.01213105763586
 20
170.1186428068627
 30
0.0
 10
75.01075301944176
 20
171.4899630647664
 30
0.0
 10
75.01316458628143
 20
172.8612833226701
 30
0.0
 10
75.01368135060422
 20
173.128278222777
 30
0.0
 10
75.05553926075001
 20
173.3870048937192
 30
0.0
 10
75.23933510488808
 20
173.6000840494819
 30
0.0
 10
75.39453665649859
 20
173.7802625433605
 30
0.0
 10
75.58350014386454
 20
173.9132432290911
 30
0.0
 10
75.82379555396072
 20
173.9280571396777
 30
0.0
 10
76.16864961203423
 20
173.9494167316863
 30
0.0
 10
76.51470945352757
 20
173.9554456487855
 30
0.0
 10
76.86025253069813
 20
173.955790158334
 30
0.0
 10
79.7045233633204
 20
173.9576849608509
 30
0.0
 10
82.54879419594266
 20
173.9604410372391
 30
0.0
 10
85.39289277379066
 20
173.9514837889774
 30
0.0
 10
85.69382186442725
 20
173.9506225151061
 30
0.0
 10
85.81922334009033
 20
174.1221882702716
 30
0.0
 10
85.83283146725708
 20
174.3886664060556
 30
0.0
 10
85.85367429494283
 20
174.7950154185408
 30
0.0
 10
86.23952498929081
 20
175.1903401254733
 30
0.0
 10
86.63898381080554
 20
175.1982638450893
 30
0.0
 10
87.56416420336937
 20
175.2166951059354
 30
0.0
 10
88.48968910548174
 20
175.2218627491633
 30
0.0
 10
89.41521400759412
 20
175.2258246089713
 30
0.0
 10
90.3801852530126
 20
175.2301309783279
 30
0.0
 10
91.34515649843108
 20
175.2268581376169
 30
0.0
 10
92.31012774384955
 20
175.2268581376169
 30
0.0
 10
92.35990937361142
 20
175.2268581376169
 30
0.0
 10
92.40969100337328
 20
175.2268581376169
 30
0.0
 10
92.46567380500859
 20
175.2268581376169
 30
0.0
  0
HATCH
  5
5C
330
3C
100
AcDbEntity
  8
Layer 1
 62
     7
420
 16777215
100
AcDbHatch
 10
0.0
 20
0.0
 30
0.0
210
0.0
220
0.0
230
1.0
  2
SOLID
 70
     1
 71
     0
 91
        1
 92
        1
 93
        1
 72
     4
 94
        3
 73
     0
 74
     1
 95
       95
 96
       91
 40
0.0
 40
0.0
 40
0.0
 40
0.0
 40
1.0
 40
1.0
 40
1.0
 40
2.0
 40
2.0
 40
2.0
 40
3.0
 40
3.0
 40
3.0
 40
4.0
 40
4.0
 40
4.0
 40
5.0
 40
5.0
 40
5.0
 40
6.0
 40
6.0
 40
6.0
 40
7.0
 40
7.0
 40
7.0
 40
8.0
 40
8.0
 40
8.0
 40
9.0
 40
9.0
 40
9.0
 40
10.0
 40
10.0
 40
10.0
 40
11.0
 40
11.0
 40
11.0
 40
12.0
 40
12.0
 40
12.0
 40
13.0
 40
13.0
 40
13.0
 40
14.0
 40
14.0
 40
14.0
 40
15.0
 40
15.0
 40
15.0
 40
16.0
 40
16.0
 40
16.0
 40
17.0
 40
17.0
 40
17.0
 40
18.0
 40
18.0
 40
18.0
 40
19.0
 40
19.0
 40
19.0
 40
20.0
 40
20.0
 40
20.0
 40
21.0
 40
21.0
 40
21.0
 40
22.0
 40
22.0
 40
22.0
 40
23.0
 40
23.0
 40
23.0
 40
24.0
 40
24.0
 40
24.0
 40
25.0
 40
25.0
 40
25.0
 40
26.0
 40
26.0
 40
26.0
 40
27.0
 40
27.0
 40
27.0
 40
28.0
 40
28.0
 40
28.0
 40
29.0
 40
29.0
 40
29.0
 40
30.0
 40
30.0
 40
30.0
 40
30.0
 10
92.46567380500859
 20
175.2268581376169
 10
92.46567380500859
 20
175.0167073130167
 10
92.46567380500859
 20
174.8198201060346
 10
92.46567380500859
 20
174.6063964407234
 10
92.41744246821509
 20
174.6063964407234
 10
92.37248397213257
 20
174.6063964407234
 10
92.32752547605007
 20
174.6063964407234
 10
90.72348901811775
 20
174.6063964407234
 10
89.11928030541115
 20
174.6055351668521
 10
87.51524384747883
 20
174.6076022241432
 10
87.30078665352202
 20
174.6077744789175
 10
87.08650171433949
 20
174.6272392684092
 10
86.87204452038269
 20
174.6296508352488
 10
86.79418536241604
 20
174.6306843638944
 10
86.71339787328694
 20
174.6163872176306
 10
86.63846704648275
 20
174.5939940969765
 10
86.43916827266105
 20
174.534566199856
 10
86.4054063369056
 20
174.3580050562369
 10
86.40643986555118
 20
174.1929849824934
 10
86.4090236871651
 20
173.8095458549851
 10
85.92378198806767
 20
173.3539319770608
 10
85.53104110274919
 20
173.355999034352
 10
83.22868378995672
 20
173.3678846137761
 10
80.92615422239
 20
173.3639227539681
 10
78.62379690959753
 20
173.3606499132571
 10
77.85485159728977
 20
173.3596163846115
 10
77.08607853975626
 20
173.3441134549279
 10
76.31730548222276
 20
173.3372232639574
 10
76.20086125482132
 20
173.3361897353118
 10
76.08183320580594
 20
173.3637504991938
 10
75.96848956434121
 20
173.3472140408646
 10
75.67686223151482
 20
173.304839366396
 10
75.62019041078246
 20
173.2150946290053
 10
75.61140541729507
 20
172.8879828126808
 10
75.59590248761144
 20
172.3042113827052
 10
75.6070990479385
 20
171.7199231884068
 10
75.6070990479385
 20
171.1358072488827
 10
75.6070990479385
 20
170.263853581566
 10
75.60503199064736
 20
169.3920721690235
 10
75.60864934090687
 20
168.5201185017068
 10
75.60951061477819
 20
168.30566130775
 10
75.52682832313218
 20
168.1328897691647
 10
75.3940198921758
 20
167.9726928291006
 10
75.35801864435494
 20
167.9291123712122
 10
75.33097464479573
 20
167.8631387926696
 10
75.33045788047295
 20
167.8073282458086
 10
75.32597925634212
 20
167.2190781917022
 10
75.32770180408474
 20
166.63100039237
 10
75.32770180408474
 20
166.0320705422594
 10
74.90257702120492
 20
166.0320705422594
 10
74.48261988155296
 20
166.0320705422594
 10
74.05473902228493
 20
166.0320705422594
 10
74.05473902228493
 20
166.8728460954346
 10
74.05473902228493
 20
167.713104884287
 10
74.05473902228493
 20
168.5699001314686
 10
74.36858722099119
 20
168.5699001314686
 10
74.6831244387945
 20
168.5699001314686
 10
75.01213105763586
 20
168.5699001314686
 10
75.01213105763586
 20
168.6400078245935
 10
75.01213105763586
 20
168.6935790593891
 10
75.01213105763586
 20
168.747322548959
 10
75.01213105763586
 20
170.1186428068627
 10
75.01075301944176
 20
171.4899630647664
 10
75.01316458628143
 20
172.8612833226701
 10
75.01368135060422
 20
173.128278222777
 10
75.05553926075001
 20
173.3870048937192
 10
75.23933510488808
 20
173.6000840494819
 10
75.39453665649859
 20
173.7802625433605
 10
75.58350014386454
 20
173.9132432290911
 10
75.82379555396072
 20
173.9280571396777
 10
76.16864961203423
 20
173.9494167316863
 10
76.51470945352757
 20
173.9554456487855
 10
76.86025253069813
 20
173.955790158334
 10
79.7045233633204
 20
173.9576849608509
 10
82.54879419594266
 20
173.9604410372391
 10
85.39289277379066
 20
173.9514837889774
 10
85.69382186442725
 20
173.9506225151061
 10
85.81922334009033
 20
174.1221882702716
 10
85.83283146725708
 20
174.3886664060556
 10
85.85367429494283
 20
174.7950154185408
 10
86.23952498929081
 20
175.1903401254733
 10
86.63898381080554
 20
175.1982638450893
 10
87.56416420336937
 20
175.2166951059354
 10
88.48968910548174
 20
175.2218627491633
 10
89.41521400759412
 20
175.2258246089713
 10
90.3801852530126
 20
175.2301309783279
 10
91.34515649843108
 20
175.2268581376169
 10
92.31012774384955
 20
175.2268581376169
 10
92.35990937361142
 20
175.2268581376169
 10
92.40969100337328
 20
175.2268581376169
 10
92.46567380500859
 20
175.2268581376169
 97
        0
 75
     0
 76
     1
 98
        0
  0
SPLINE
  5
5D
330
3C
100
AcDbEntity
  8
Layer 1
370
     0
100
AcDbSpline
210
0.0
220
0.0
230
1.0
 70
    11
 71
     3
 72
    83
 73
    79
 74
     0
 42
0.0000000001
 43
0.0000000001
 40
0.0
 40
0.0
 40
0.0
 40
0.0
 40
1.0
 40
1.0
 40
1.0
 40
2.0
 40
2.0
 40
2.0
 40
3.0
 40
3.0
 40
3.0
 40
4.0
 40
4.0
 40
4.0
 40
5.0
 40
5.0
 40
5.0
 40
6.0
 40
6.0
 40
6.0
 40
7.0
 40
7.0
 40
7.0
 40
8.0
 40
8.0
 40
8.0
 40
9.0
 40
9.0
 40
9.0
 40
10.0
 40
10.0
 40
10.0
 40
11.0
 40
11.0
 40
11.0
 40
12.0
 40
12.0
 40
12.0
 40
13.0
 40
13.0
 40
13.0
 40
14.0
 40
14.0
 40
14.0
 40
15.0
 40
15.0
 40
15.0
 40
16.0
 40
16.0
 40
16.0
 40
17.0
 40
17.0
 40
17.0
 40
18.0
 40
18.0
 40
18.0
 40
19.0
 40
19.0
 40
19.0
 40
20.0
 40
20.0
 40
20.0
 40
21.0
 40
21.0
 40
21.0
 40
22.0
 40
22.0
 40
22.0
 40
23.0
 40
23.0
 40
23.0
 40
24.0
 40
24.0
 40
24.0
 40
25.0
 40
25.0
 40
25.0
 40
26.0
 40
26.0
 40
26.0
 40
26.0
 10
92.46584605978285
 20
162.5272026503404
 30
0.0
 10
92.46584605978285
 20
162.314295749352
 30
0.0
 10
92.46584605978285
 20
162.11740854237
 30
0.0
 10
92.46584605978285
 20
161.9194878067424
 30
0.0
 10
88.97458629503066
 20
161.9194878067424
 30
0.0
 10
85.48969995692619
 20
161.9194878067424
 30
0.0
 10
81.98810490571826
 20
161.9194878067424
 30
0.0
 10
81.98810490571826
 20
161.6876328805851
 30
0.0
 10
81.98810490571826
 20
161.4492322730057
 30
0.0
 10
81.98810490571826
 20
161.2034247101332
 30
0.0
 10
81.35127900526982
 20
161.2034247101332
 30
0.0
 10
80.73098956315059
 20
161.2034247101332
 30
0.0
 10
80.09433591747641
 20
161.2034247101332
 30
0.0
 10
80.09433591747641
 20
161.3140122752097
 30
0.0
 10
80.09433591747641
 20
161.4254611141575
 30
0.0
 10
80.09433591747641
 20
161.5436278893016
 30
0.0
 10
79.34743921627425
 20
161.5436278893016
 30
0.0
 10
78.61725122817555
 20
161.5436278893016
 30
0.0
 10
77.87466089632996
 20
161.5436278893016
 30
0.0
 10
77.87466089632996
 20
161.2218559709793
 30
0.0
 10
77.87466089632996
 20
160.9019788551738
 30
0.0
 10
77.87466089632996
 20
160.5657375358134
 30
0.0
 10
77.7518432422808
 20
160.5657375358134
 30
0.0
 10
77.64073891288149
 20
160.5657375358134
 30
0.0
 10
77.5208495899948
 20
160.5657375358134
 30
0.0
 10
77.5208495899948
 20
160.1829874274022
 30
0.0
 10
77.5208495899948
 20
159.8167737773201
 30
0.0
 10
77.5208495899948
 20
159.4338514141346
 30
0.0
 10
77.73134492414356
 20
159.4338514141346
 30
0.0
 10
77.94442407990626
 20
159.4338514141346
 30
0.0
 10
78.16473793618799
 20
159.4338514141346
 30
0.0
 10
78.16473793618799
 20
159.0002861473159
 30
0.0
 10
78.16473793618799
 20
158.5832573388264
 30
0.0
 10
78.16473793618799
 20
158.1569267725268
 30
0.0
 10
77.54427623929449
 20
158.1569267725268
 30
0.0
 10
76.92398679717526
 20
158.1569267725268
 30
0.0
 10
76.29301755905175
 20
158.1569267725268
 30
0.0
 10
76.29301755905175
 20
158.5725775428221
 30
0.0
 10
76.29301755905175
 20
158.9925346824741
 30
0.0
 10
76.29301755905175
 20
159.424894165873
 30
0.0
 10
76.49386662584182
 20
159.424894165873
 30
0.0
 10
76.69523245695467
 20
159.424894165873
 30
0.0
 10
76.90676131974901
 20
159.424894165873
 30
0.0
 10
76.90676131974901
 20
159.8060939813159
 30
0.0
 10
76.90676131974901
 20
160.1752359625604
 30
0.0
 10
76.90676131974901
 20
160.5566080327775
 30
0.0
 10
76.80461423861135
 20
160.5566080327775
 30
0.0
 10
76.70487872431336
 20
160.5566080327775
 30
0.0
 10
76.59601370697948
 20
160.5566080327775
 30
0.0
 10
76.59601370697948
 20
161.4089246558283
 30
0.0
 10
76.59601370697948
 20
162.2491834446808
 30
0.0
 10
76.59601370697948
 20
163.100466539086
 30
0.0
 10
77.01183673204913
 20
163.100466539086
 30
0.0
 10
77.43179387170109
 20
163.100466539086
 30
0.0
 10
77.86398110032567
 20
163.100466539086
 30
0.0
 10
77.86398110032567
 20
162.7893744167679
 30
0.0
 10
77.86398110032567
 20
162.4781100396756
 30
0.0
 10
77.86398110032567
 20
162.1565103761276
 30
0.0
 10
78.60932750855947
 20
162.1565103761276
 30
0.0
 10
79.3426160825949
 20
162.1565103761276
 30
0.0
 10
80.0879624908287
 20
162.1565103761276
 30
0.0
 10
80.0879624908287
 20
162.2584852024909
 30
0.0
 10
80.0879624908287
 20
162.3582207167889
 30
0.0
 10
80.0879624908287
 20
162.476387491933
 30
0.0
 10
80.14446205678681
 20
162.476387491933
 30
0.0
 10
80.1890760433208
 20
162.4755262180617
 30
0.0
 10
80.23386228462904
 20
162.4765597467073
 30
0.0
 10
80.59628632967733
 20
162.4846557210976
 30
0.0
 10
80.9587103747256
 20
162.4927516954879
 30
0.0
 10
81.32113441977388
 20
162.5018811985238
 30
0.0
 10
81.62016870789357
 20
162.5094604085914
 30
0.0
 10
81.91920299601325
 20
162.5258246121463
 30
0.0
 10
82.21823728413294
 20
162.5259968669206
 30
0.0
 10
85.57496607018612
 20
162.5277194146632
 30
0.0
 10
88.93186711101356
 20
162.5272026503404
 30
0.0
 10
92.28859589706674
 20
162.5272026503404
 30
0.0
 10
92.34320066050796
 20
162.5272026503404
 30
0.0
 10
92.39797767872342
 20
162.5272026503404
 30
0.0
 10
92.46584605978285
 20
162.5272026503404
 30
0.0
  0
HATCH
  5
5E
330
3C
100
AcDbEntity
  8
Layer 1
 62
     7
420
 16777215
100
AcDbHatch
 10
0.0
 20
0.0
 30
0.0
210
0.0
220
0.0
230
1.0
  2
SOLID
 70
     1
 71
     0
 91
        1
 92
        1
 93
        1
 72
     4
 94
        3
 73
     0
 74
     1
 95
       83
 96
       79
 40
0.0
 40
0.0
 40
0.0
 40
0.0
 40
1.0
 40
1.0
 40
1.0
 40
2.0
 40
2.0
 40
2.0
 40
3.0
 40
3.0
 40
3.0
 40
4.0
 40
4.0
 40
4.0
 40
5.0
 40
5.0
 40
5.0
 40
6.0
 40
6.0
 40
6.0
 40
7.0
 40
7.0
 40
7.0
 40
8.0
 40
8.0
 40
8.0
 40
9.0
 40
9.0
 40
9.0
 40
10.0
 40
10.0
 40
10.0
 40
11.0
 40
11.0
 40
11.0
 40
12.0
 40
12.0
 40
12.0
 40
13.0
 40
13.0
 40
13.0
 40
14.0
 40
14.0
 40
14.0
 40
15.0
 40
15.0
 40
15.0
 40
16.0
 40
16.0
 40
16.0
 40
17.0
 40
17.0
 40
17.0
 40
18.0
 40
18.0
 40
18.0
 40
19.0
 40
19.0
 40
19.0
 40
20.0
 40
20.0
 40
20.0
 40
21.0
 40
21.0
 40
21.0
 40
22.0
 40
22.0
 40
22.0
 40
23.0
 40
23.0
 40
23.0
 40
24.0
 40
24.0
 40
24.0
 40
25.0
 40
25.0
 40
25.0
 40
26.0
 40
26.0
 40
26.0
 40
26.0
 10
92.46584605978285
 20
162.5272026503404
 10
92.46584605978285
 20
162.314295749352
 10
92.46584605978285
 20
162.11740854237
 10
92.46584605978285
 20
161.9194878067424
 10
88.97458629503066
 20
161.9194878067424
 10
85.48969995692619
 20
161.9194878067424
 10
81.98810490571826
 20
161.9194878067424
 10
81.98810490571826
 20
161.6876328805851
 10
81.98810490571826
 20
161.4492322730057
 10
81.98810490571826
 20
161.2034247101332
 10
81.35127900526982
 20
161.2034247101332
 10
80.73098956315059
 20
161.2034247101332
 10
80.09433591747641
 20
161.2034247101332
 10
80.09433591747641
 20
161.3140122752097
 10
80.09433591747641
 20
161.4254611141575
 10
80.09433591747641
 20
161.5436278893016
 10
79.34743921627425
 20
161.5436278893016
 10
78.61725122817555
 20
161.5436278893016
 10
77.87466089632996
 20
161.5436278893016
 10
77.87466089632996
 20
161.2218559709793
 10
77.87466089632996
 20
160.9019788551738
 10
77.87466089632996
 20
160.5657375358134
 10
77.7518432422808
 20
160.5657375358134
 10
77.64073891288149
 20
160.5657375358134
 10
77.5208495899948
 20
160.5657375358134
 10
77.5208495899948
 20
160.1829874274022
 10
77.5208495899948
 20
159.8167737773201
 10
77.5208495899948
 20
159.4338514141346
 10
77.73134492414356
 20
159.4338514141346
 10
77.94442407990626
 20
159.4338514141346
 10
78.16473793618799
 20
159.4338514141346
 10
78.16473793618799
 20
159.0002861473159
 10
78.16473793618799
 20
158.5832573388264
 10
78.16473793618799
 20
158.1569267725268
 10
77.54427623929449
 20
158.1569267725268
 10
76.92398679717526
 20
158.1569267725268
 10
76.29301755905175
 20
158.1569267725268
 10
76.29301755905175
 20
158.5725775428221
 10
76.29301755905175
 20
158.9925346824741
 10
76.29301755905175
 20
159.424894165873
 10
76.49386662584182
 20
159.424894165873
 10
76.69523245695467
 20
159.424894165873
 10
76.90676131974901
 20
159.424894165873
 10
76.90676131974901
 20
159.8060939813159
 10
76.90676131974901
 20
160.1752359625604
 10
76.90676131974901
 20
160.5566080327775
 10
76.80461423861135
 20
160.5566080327775
 10
76.70487872431336
 20
160.5566080327775
 10
76.59601370697948
 20
160.5566080327775
 10
76.59601370697948
 20
161.4089246558283
 10
76.59601370697948
 20
162.2491834446808
 10
76.59601370697948
 20
163.100466539086
 10
77.01183673204913
 20
163.100466539086
 10
77.43179387170109
 20
163.100466539086
 10
77.86398110032567
 20
163.100466539086
 10
77.86398110032567
 20
162.7893744167679
 10
77.86398110032567
 20
162.4781100396756
 10
77.86398110032567
 20
162.1565103761276
 10
78.60932750855947
 20
162.1565103761276
 10
79.3426160825949
 20
162.1565103761276
 10
80.0879624908287
 20
162.1565103761276
 10
80.0879624908287
 20
162.2584852024909
 10
80.0879624908287
 20
162.3582207167889
 10
80.0879624908287
 20
162.476387491933
 10
80.14446205678681
 20
162.476387491933
 10
80.1890760433208
 20
162.4755262180617
 10
80.23386228462904
 20
162.4765597467073
 10
80.59628632967733
 20
162.4846557210976
 10
80.9587103747256
 20
162.4927516954879
 10
81.32113441977388
 20
162.5018811985238
 10
81.62016870789357
 20
162.5094604085914
 10
81.91920299601325
 20
162.5258246121463
 10
82.21823728413294
 20
162.5259968669206
 10
85.57496607018612
 20
162.5277194146632
 10
88.93186711101356
 20
162.5272026503404
 10
92.28859589706674
 20
162.5272026503404
 10
92.34320066050796
 20
162.5272026503404
 10
92.39797767872342
 20
162.5272026503404
 10
92.46584605978285
 20
162.5272026503404
 97
        0
 75
     0
 76
     1
 98
        0
  0
SPLINE
  5
5F
330
3C
100
AcDbEntity
  8
Layer 1
370
     0
100
AcDbSpline
210
0.0
220
0.0
230
1.0
 70
    11
 71
     3
 72
    89
 73
    85
 74
     0
 42
0.0000000001
 43
0.0000000001
 40
0.0
 40
0.0
 40
0.0
 40
0.0
 40
1.0
 40
1.0
 40
1.0
 40
2.0
 40
2.0
 40
2.0
 40
3.0
 40
3.0
 40
3.0
 40
4.0
 40
4.0
 40
4.0
 40
5.0
 40
5.0
 40
5.0
 40
6.0
 40
6.0
 40
6.0
 40
7.0
 40
7.0
 40
7.0
 40
8.0
 40
8.0
 40
8.0
 40
9.0
 40
9.0
 40
9.0
 40
10.0
 40
10.0
 40
10.0
 40
11.0
 40
11.0
 40
11.0
 40
12.0
 40
12.0
 40
12.0
 40
13.0
 40
13.0
 40
13.0
 40
14.0
 40
14.0
 40
14.0
 40
15.0
 40
15.0
 40
15.0
 40
16.0
 40
16.0
 40
16.0
 40
17.0
 40
17.0
 40
17.0
 40
18.0
 40
18.0
 40
18.0
 40
19.0
 40
19.0
 40
19.0
 40
20.0
 40
20.0
 40
20.0
 40
21.0
 40
21.0
 40
21.0
 40
22.0
 40
22.0
 40
22.0
 40
23.0
 40
23.0
 40
23.0
 40
24.0
 40
24.0
 40
24.0
 40
25.0
 40
25.0
 40
25.0
 40
26.0
 40
26.0
 40
26.0
 40
27.0
 40
27.0
 40
27.0
 40
28.0
 40
28.0
 40
28.0
 40
28.0
 10
92.46619056933137
 20
170.1468925898418
 30
0.0
 10
92.46619056933137
 20
169.9355359818217
 30
0.0
 10
92.46619056933137
 20
169.7386487748396
 30
0.0
 10
92.46619056933137
 20
169.5266031477225
 30
0.0
 10
92.41589217524673
 20
169.5266031477225
 30
0.0
 10
92.37076142438995
 20
169.5266031477225
 30
0.0
 10
92.32563067353318
 20
169.5266031477225
 30
0.0
 10
90.72124970605233
 20
169.5266031477225
 30
0.0
 10
89.11686873857148
 20
169.5233303070115
 30
0.0
 10
87.51248777109063
 20
169.5276366763681
 30
0.0
 10
86.17630748713648
 20
169.5310817718533
 30
0.0
 10
84.83995494840806
 20
169.5346991221129
 30
0.0
 10
83.50394691922818
 20
169.5567477332185
 30
0.0
 10
83.04368216239881
 20
169.564326943286
 30
0.0
 10
82.66885577360362
 20
169.7799899206626
 30
0.0
 10
82.37102726890377
 20
170.1406914179683
 30
0.0
 10
82.21944306755279
 20
170.3244872621064
 30
0.0
 10
82.12401392261137
 20
170.5298149530273
 30
0.0
 10
82.06200220387686
 20
170.7497842997605
 30
0.0
 10
82.01153155501795
 20
170.9287570102192
 30
0.0
 10
82.00085175901368
 20
171.1187540262307
 30
0.0
 10
81.97174070216332
 20
171.3039279085629
 30
0.0
 10
81.9176527030449
 20
171.6461981450225
 30
0.0
 10
81.57848305252205
 20
171.9929470056129
 30
0.0
 10
81.23759085425658
 20
172.0391112851152
 30
0.0
 10
81.03071287036732
 20
172.06718881332
 30
0.0
 10
80.82125106486413
 20
172.0876871314572
 30
0.0
 10
80.61265053323226
 20
172.0895819339741
 30
0.0
 10
79.92277016231098
 20
172.0957831058476
 30
0.0
 10
79.23271753661544
 20
172.0918212460396
 30
0.0
 10
78.5426649109199
 20
172.0918212460396
 30
0.0
 10
78.20590682723672
 20
172.0918212460396
 30
0.0
 10
77.86932099832781
 20
172.0918212460396
 30
0.0
 10
77.52239988296316
 20
172.0918212460396
 30
0.0
 10
77.52239988296316
 20
170.9013685011115
 30
0.0
 10
77.52239988296316
 20
169.7448499467131
 30
0.0
 10
77.52239988296316
 20
168.5761013033421
 30
0.0
 10
77.63298744803967
 20
168.5761013033421
 30
0.0
 10
77.74116344627652
 20
168.5761013033421
 30
0.0
 10
77.85846894754927
 20
168.5761013033421
 30
0.0
 10
77.85846894754927
 20
167.7237846802913
 30
0.0
 10
77.85846894754927
 20
166.8833536366646
 30
0.0
 10
77.85846894754927
 20
166.0322427970336
 30
0.0
 10
77.44247366770536
 20
166.0322427970336
 30
0.0
 10
77.0225165280534
 20
166.0322427970336
 30
0.0
 10
76.59463566878537
 20
166.0322427970336
 30
0.0
 10
76.59463566878537
 20
166.8728460954346
 30
0.0
 10
76.59463566878537
 20
167.7132771390613
 30
0.0
 10
76.59463566878537
 20
168.5702446410172
 30
0.0
 10
76.69712725947156
 20
168.5702446410172
 30
0.0
 10
76.80013561448052
 20
168.5702446410172
 30
0.0
 10
76.90968965091147
 20
168.5702446410172
 30
0.0
 10
76.90968965091147
 20
169.7403713225823
 30
0.0
 10
76.90968965091147
 20
170.8939615458182
 30
0.0
 10
76.90968965091147
 20
172.0596096032525
 30
0.0
 10
76.67197806242923
 20
172.0596096032525
 30
0.0
 10
76.43685029556093
 20
172.0596096032525
 30
0.0
 10
76.19104273268836
 20
172.0596096032525
 30
0.0
 10
76.19104273268836
 20
172.2714829755953
 30
0.0
 10
76.19104273268836
 20
172.4714707685141
 30
0.0
 10
76.19104273268836
 20
172.6869614911164
 30
0.0
 10
76.23669024786791
 20
172.6869614911164
 30
0.0
 10
76.28182099872468
 20
172.6869614911164
 30
0.0
 10
76.32695174958145
 20
172.6869614911164
 30
0.0
 10
77.84658336812517
 20
172.6869614911164
 30
0.0
 10
79.36638724144314
 20
172.6929904082156
 30
0.0
 10
80.88601885998683
 20
172.6833441408569
 30
0.0
 10
81.37625594753789
 20
172.6804158096945
 30
0.0
 10
81.82411836062036
 20
172.5386501304765
 30
0.0
 10
82.17190074985633
 20
172.1600341366475
 30
0.0
 10
82.42201468208548
 20
171.8875270837642
 30
0.0
 10
82.55912948239842
 20
171.5685112418301
 30
0.0
 10
82.59065210608846
 20
171.2043646490392
 30
0.0
 10
82.62751462778063
 20
170.778378592288
 30
0.0
 10
82.77617049796916
 20
170.4207776809191
 30
0.0
 10
83.18889293710208
 20
170.2350870342642
 30
0.0
 10
83.31033255295715
 20
170.1803100160487
 30
0.0
 10
83.4538207799178
 20
170.1506821948755
 30
0.0
 10
83.58731822997123
 20
170.1505099401013
 30
0.0
 10
86.48705509990602
 20
170.1458590611962
 30
0.0
 10
89.3867919698408
 20
170.1468925898418
 30
0.0
 10
92.2865288397756
 20
170.1468925898418
 30
0.0
 10
92.34130585799106
 20
170.1468925898418
 30
0.0
 10
92.3962551309808
 20
170.1468925898418
 30
0.0
 10
92.46619056933137
 20
170.1468925898418
 30
0.0
  0
HATCH
  5
60
330
3C
100
AcDbEntity
  8
Layer 1
 62
     7
420
 16777215
100
AcDbHatch
 10
0.0
 20
0.0
 30
0.0
210
0.0
220
0.0
230
1.0
  2
SOLID
 70
     1
 71
     0
 91
        1
 92
        1
 93
        1
 72
     4
 94
        3
 73
     0
 74
     1
 95
       89
 96
       85
 40
0.0
 40
0.0
 40
0.0
 40
0.0
 40
1.0
 40
1.0
 40
1.0
 40
2.0
 40
2.0
 40
2.0
 40
3.0
 40
3.0
 40
3.0
 40
4.0
 40
4.0
 40
4.0
 40
5.0
 40
5.0
 40
5.0
 40
6.0
 40
6.0
 40
6.0
 40
7.0
 40
7.0
 40
7.0
 40
8.0
 40
8.0
 40
8.0
 40
9.0
 40
9.0
 40
9.0
 40
10.0
 40
10.0
 40
10.0
 40
11.0
 40
11.0
 40
11.0
 40
12.0
 40
12.0
 40
12.0
 40
13.0
 40
13.0
 40
13.0
 40
14.0
 40
14.0
 40
14.0
 40
15.0
 40
15.0
 40
15.0
 40
16.0
 40
16.0
 40
16.0
 40
17.0
 40
17.0
 40
17.0
 40
18.0
 40
18.0
 40
18.0
 40
19.0
 40
19.0
 40
19.0
 40
20.0
 40
20.0
 40
20.0
 40
21.0
 40
21.0
 40
21.0
 40
22.0
 40
22.0
 40
22.0
 40
23.0
 40
23.0
 40
23.0
 40
24.0
 40
24.0
 40
24.0
 40
25.0
 40
25.0
 40
25.0
 40
26.0
 40
26.0
 40
26.0
 40
27.0
 40
27.0
 40
27.0
 40
28.0
 40
28.0
 40
28.0
 40
28.0
 10
92.46619056933137
 20
170.1468925898418
 10
92.46619056933137
 20
169.9355359818217
 10
92.46619056933137
 20
169.7386487748396
 10
92.46619056933137
 20
169.5266031477225
 10
92.41589217524673
 20
169.5266031477225
 10
92.37076142438995
 20
169.5266031477225
 10
92.32563067353318
 20
169.5266031477225
 10
90.72124970605233
 20
169.5266031477225
 10
89.11686873857148
 20
169.5233303070115
 10
87.51248777109063
 20
169.5276366763681
 10
86.17630748713648
 20
169.5310817718533
 10
84.83995494840806
 20
169.5346991221129
 10
83.50394691922818
 20
169.5567477332185
 10
83.04368216239881
 20
169.564326943286
 10
82.66885577360362
 20
169.7799899206626
 10
82.37102726890377
 20
170.1406914179683
 10
82.21944306755279
 20
170.3244872621064
 10
82.12401392261137
 20
170.5298149530273
 10
82.06200220387686
 20
170.7497842997605
 10
82.01153155501795
 20
170.9287570102192
 10
82.00085175901368
 20
171.1187540262307
 10
81.97174070216332
 20
171.3039279085629
 10
81.9176527030449
 20
171.6461981450225
 10
81.57848305252205
 20
171.9929470056129
 10
81.23759085425658
 20
172.0391112851152
 10
81.03071287036732
 20
172.06718881332
 10
80.82125106486413
 20
172.0876871314572
 10
80.61265053323226
 20
172.0895819339741
 10
79.92277016231098
 20
172.0957831058476
 10
79.23271753661544
 20
172.0918212460396
 10
78.5426649109199
 20
172.0918212460396
 10
78.20590682723672
 20
172.0918212460396
 10
77.86932099832781
 20
172.0918212460396
 10
77.52239988296316
 20
172.0918212460396
 10
77.52239988296316
 20
170.9013685011115
 10
77.52239988296316
 20
169.7448499467131
 10
77.52239988296316
 20
168.5761013033421
 10
77.63298744803967
 20
168.5761013033421
 10
77.74116344627652
 20
168.5761013033421
 10
77.85846894754927
 20
168.5761013033421
 10
77.85846894754927
 20
167.7237846802913
 10
77.85846894754927
 20
166.8833536366646
 10
77.85846894754927
 20
166.0322427970336
 10
77.44247366770536
 20
166.0322427970336
 10
77.0225165280534
 20
166.0322427970336
 10
76.59463566878537
 20
166.0322427970336
 10
76.59463566878537
 20
166.8728460954346
 10
76.59463566878537
 20
167.7132771390613
 10
76.59463566878537
 20
168.5702446410172
 10
76.69712725947156
 20
168.5702446410172
 10
76.80013561448052
 20
168.5702446410172
 10
76.90968965091147
 20
168.5702446410172
 10
76.90968965091147
 20
169.7403713225823
 10
76.90968965091147
 20
170.8939615458182
 10
76.90968965091147
 20
172.0596096032525
 10
76.67197806242923
 20
172.0596096032525
 10
76.43685029556093
 20
172.0596096032525
 10
76.19104273268836
 20
172.0596096032525
 10
76.19104273268836
 20
172.2714829755953
 10
76.19104273268836
 20
172.4714707685141
 10
76.19104273268836
 20
172.6869614911164
 10
76.23669024786791
 20
172.6869614911164
 10
76.28182099872468
 20
172.6869614911164
 10
76.32695174958145
 20
172.6869614911164
 10
77.84658336812517
 20
172.6869614911164
 10
79.36638724144314
 20
172.6929904082156
 10
80.88601885998683
 20
172.6833441408569
 10
81.37625594753789
 20
172.6804158096945
 10
81.82411836062036
 20
172.5386501304765
 10
82.17190074985633
 20
172.1600341366475
 10
82.42201468208548
 20
171.8875270837642
 10
82.55912948239842
 20
171.5685112418301
 10
82.59065210608846
 20
171.2043646490392
 10
82.62751462778063
 20
170.778378592288
 10
82.77617049796916
 20
170.4207776809191
 10
83.18889293710208
 20
170.2350870342642
 10
83.31033255295715
 20
170.1803100160487
 10
83.4538207799178
 20
170.1506821948755
 10
83.58731822997123
 20
170.1505099401013
 10
86.48705509990602
 20
170.1458590611962
 10
89.3867919698408
 20
170.1468925898418
 10
92.2865288397756
 20
170.1468925898418
 10
92.34130585799106
 20
170.1468925898418
 10
92.3962551309808
 20
170.1468925898418
 10
92.46619056933137
 20
170.1468925898418
 97
        0
 75
     0
 76
     1
 98
        0
  0
SPLINE
  5
61
330
3C
100
AcDbEntity
  8
Layer 1
370
     0
100
AcDbSpline
210
0.0
220
0.0
230
1.0
 70
    11
 71
     3
 72
   104
 73
   100
 74
     0
 42
0.0000000001
 43
0.0000000001
 40
0.0
 40
0.0
 40
0.0
 40
0.0
 40
1.0
 40
1.0
 40
1.0
 40
2.0
 40
2.0
 40
2.0
 40
3.0
 40
3.0
 40
3.0
 40
4.0
 40
4.0
 40
4.0
 40
5.0
 40
5.0
 40
5.0
 40
6.0
 40
6.0
 40
6.0
 40
7.0
 40
7.0
 40
7.0
 40
8.0
 40
8.0
 40
8.0
 40
9.0
 40
9.0
 40
9.0
 40
10.0
 40
10.0
 40
10.0
 40
11.0
 40
11.0
 40
11.0
 40
12.0
 40
12.0
 40
12.0
 40
13.0
 40
13.0
 40
13.0
 40
14.0
 40
14.0
 40
14.0
 40
15.0
 40
15.0
 40
15.0
 40
16.0
 40
16.0
 40
16.0
 40
17.0
 40
17.0
 40
17.0
 40
18.0
 40
18.0
 40
18.0
 40
19.0
 40
19.0
 40
19.0
 40
20.0
 40
20.0
 40
20.0
 40
21.0
 40
21.0
 40
21.0
 40
22.0
 40
22.0
 40
22.0
 40
23.0
 40
23.0
 40
23.0
 40
24.0
 40
24.0
 40
24.0
 40
25.0
 40
25.0
 40
25.0
 40
26.0
 40
26.0
 40
26.0
 40
27.0
 40
27.0
 40
27.0
 40
28.0
 40
28.0
 40
28.0
 40
29.0
 40
29.0
 40
29.0
 40
30.0
 40
30.0
 40
30.0
 40
31.0
 40
31.0
 40
31.0
 40
32.0
 40
32.0
 40
32.0
 40
33.0
 40
33.0
 40
33.0
 40
33.0
 10
72.5595675816865
 20
183.5236815947441
 30
0.0
 10
72.5595675816865
 20
183.3672742597138
 30
0.0
 10
72.5595675816865
 20
183.2167235870083
 30
0.0
 10
72.5595675816865
 20
183.0694457550139
 30
0.0
 10
73.38001707149876
 20
183.0694457550139
 30
0.0
 10
74.18840872711263
 20
183.0694457550139
 30
0.0
 10
75.00868596215061
 20
183.0694457550139
 30
0.0
 10
75.00868596215061
 20
183.1967420331939
 30
0.0
 10
75.00868596215061
 20
183.3049180314307
 30
0.0
 10
75.00868596215061
 20
183.421879023155
 30
0.0
 10
75.64086098369395
 20
183.421879023155
 30
0.0
 10
76.26097817103893
 20
183.421879023155
 30
0.0
 10
76.89177515438817
 20
183.421879023155
 30
0.0
 10
76.89177515438817
 20
183.0057114885368
 30
0.0
 10
76.89177515438817
 20
182.5855820941105
 30
0.0
 10
76.89177515438817
 20
182.1577012348425
 30
0.0
 10
76.27131345749467
 20
182.1577012348425
 30
0.0
 10
75.65102401537544
 20
182.1577012348425
 30
0.0
 10
75.01437036970127
 20
182.1577012348425
 30
0.0
 10
75.01437036970127
 20
182.2601928255287
 30
0.0
 10
75.01437036970127
 20
182.3632011805377
 30
0.0
 10
75.01437036970127
 20
182.4643147330298
 30
0.0
 10
74.19237058692066
 20
182.4643147330298
 30
0.0
 10
73.3870795172435
 20
182.4643147330298
 30
0.0
 10
72.56525198923717
 20
182.4643147330298
 30
0.0
 10
72.56525198923717
 20
182.2870645703136
 30
0.0
 10
72.56525198923717
 20
182.1248005729584
 30
0.0
 10
72.56525198923717
 20
181.9553018750841
 30
0.0
 10
72.49169920062708
 20
181.949961977082
 30
0.0
 10
72.43399385124914
 20
181.9456556077254
 30
0.0
 10
72.36629772496399
 20
181.9404879644975
 30
0.0
 10
72.36629772496399
 20
181.4015027758302
 30
0.0
 10
72.36629772496399
 20
180.8626898419371
 30
0.0
 10
72.36629772496399
 20
180.3118190738457
 30
0.0
 10
72.62812498184297
 20
180.3118190738457
 30
0.0
 10
72.88874645530213
 20
180.3118190738457
 30
0.0
 10
73.15901419611997
 20
180.3118190738457
 30
0.0
 10
73.15901419611997
 20
180.0999457015028
 30
0.0
 10
73.15901419611997
 20
179.9001301633583
 30
0.0
 10
73.15901419611997
 20
179.6932521794691
 30
0.0
 10
72.43416610602341
 20
179.6932521794691
 30
0.0
 10
71.71241860186356
 20
179.6932521794691
 30
0.0
 10
70.9820583589906
 20
179.6932521794691
 30
0.0
 10
70.9820583589906
 20
179.8925509532908
 30
0.0
 10
70.9820583589906
 20
180.0894381602728
 30
0.0
 10
70.9820583589906
 20
180.3032063351325
 30
0.0
 10
71.23458385805941
 20
180.3032063351325
 30
0.0
 10
71.48986543351643
 20
180.3032063351325
 30
0.0
 10
71.752726219041
 20
180.3032063351325
 30
0.0
 10
71.752726219041
 20
180.5333387135472
 30
0.0
 10
71.752726219041
 20
180.747106888407
 30
0.0
 10
71.752726219041
 20
180.9817178909525
 30
0.0
 10
71.69553763398584
 20
180.9817178909525
 30
0.0
 10
71.63834904893069
 20
180.9817178909525
 30
0.0
 10
71.58116046387555
 20
180.9817178909525
 30
0.0
 10
69.00784639116819
 20
180.9817178909525
 30
0.0
 10
66.43436006368655
 20
180.9794785788871
 30
0.0
 10
63.86104599097919
 20
180.9863687698576
 30
0.0
 10
63.67277152271028
 20
180.9867132794061
 30
0.0
 10
63.54323593246489
 20
180.9427883119692
 30
0.0
 10
63.472439220243
 20
180.7679497160927
 30
0.0
 10
63.42506915732082
 20
180.651333233917
 30
0.0
 10
63.38493379491766
 20
180.5316161658046
 30
0.0
 10
63.33187932444481
 20
180.3870944101984
 30
0.0
 10
63.64348821108566
 20
180.3870944101984
 30
0.0
 10
63.91582300919466
 20
180.3870944101984
 30
0.0
 10
64.19522025304842
 20
180.3870944101984
 30
0.0
 10
64.19522025304842
 20
179.954390417251
 30
0.0
 10
64.19522025304842
 20
179.5373616087615
 30
0.0
 10
64.19522025304842
 20
179.1112032972361
 30
0.0
 10
63.57424179183214
 20
179.1112032972361
 30
0.0
 10
62.95412460448716
 20
179.1112032972361
 30
0.0
 10
62.32315536636366
 20
179.1112032972361
 30
0.0
 10
62.32315536636366
 20
179.52719857708
 30
0.0
 10
62.32315536636366
 20
179.947155716732
 30
0.0
 10
62.32315536636366
 20
180.3793429453566
 30
0.0
 10
62.46492104558169
 20
180.3793429453566
 30
0.0
 10
62.60703123434825
 20
180.3793429453566
 30
0.0
 10
62.74345701556414
 20
180.3793429453566
 30
0.0
 10
62.77928600861074
 20
180.5283433250936
 30
0.0
 10
62.81011961320372
 20
180.665113615858
 30
0.0
 10
62.84491507760475
 20
180.8008503779769
 30
0.0
 10
62.91846786621483
 20
181.0885158509952
 30
0.0
 10
63.08503823292666
 20
181.3169256816673
 30
0.0
 10
63.32516138824857
 20
181.482118010185
 30
0.0
 10
63.41146103015408
 20
181.5413736525313
 30
0.0
 10
63.5344509389775
 20
181.5727240214471
 30
0.0
 10
63.64090438947172
 20
181.5728962762214
 30
0.0
 10
66.28604870304655
 20
181.5777194099007
 30
0.0
 10
68.93136527139563
 20
181.5766858812551
 30
0.0
 10
71.57668183974472
 20
181.5766858812551
 30
0.0
 10
71.63128660318593
 20
181.5766858812551
 30
0.0
 10
71.68571911185288
 20
181.5766858812551
 30
0.0
 10
71.74824759491017
 20
181.5766858812551
 30
0.0
 10
71.74824759491017
 20
182.2284979470644
 30
0.0
 10
71.74824759491017
 20
182.8716972741606
 30
0.0
 10
71.74824759491017
 20
183.5236815947441
 30
0.0
 10
72.00904132314358
 20
183.5236815947441
 30
0.0
 10
72.27379691118503
 20
183.5236815947441
 30
0.0
 10
72.5595675816865
 20
183.5236815947441
 30
0.0
  0
HATCH
  5
62
330
3C
100
AcDbEntity
  8
Layer 1
 62
     7
420
 16777215
100
AcDbHatch
 10
0.0
 20
0.0
 30
0.0
210
0.0
220
0.0
230
1.0
  2
SOLID
 70
     1
 71
     0
 91
        1
 92
        1
 93
        1
 72
     4
 94
        3
 73
     0
 74
     1
 95
      104
 96
      100
 40
0.0
 40
0.0
 40
0.0
 40
0.0
 40
1.0
 40
1.0
 40
1.0
 40
2.0
 40
2.0
 40
2.0
 40
3.0
 40
3.0
 40
3.0
 40
4.0
 40
4.0
 40
4.0
 40
5.0
 40
5.0
 40
5.0
 40
6.0
 40
6.0
 40
6.0
 40
7.0
 40
7.0
 40
7.0
 40
8.0
 40
8.0
 40
8.0
 40
9.0
 40
9.0
 40
9.0
 40
10.0
 40
10.0
 40
10.0
 40
11.0
 40
11.0
 40
11.0
 40
12.0
 40
12.0
 40
12.0
 40
13.0
 40
13.0
 40
13.0
 40
14.0
 40
14.0
 40
14.0
 40
15.0
 40
15.0
 40
15.0
 40
16.0
 40
16.0
 40
16.0
 40
17.0
 40
17.0
 40
17.0
 40
18.0
 40
18.0
 40
18.0
 40
19.0
 40
19.0
 40
19.0
 40
20.0
 40
20.0
 40
20.0
 40
21.0
 40
21.0
 40
21.0
 40
22.0
 40
22.0
 40
22.0
 40
23.0
 40
23.0
 40
23.0
 40
24.0
 40
24.0
 40
24.0
 40
25.0
 40
25.0
 40
25.0
 40
26.0
 40
26.0
 40
26.0
 40
27.0
 40
27.0
 40
27.0
 40
28.0
 40
28.0
 40
28.0
 40
29.0
 40
29.0
 40
29.0
 40
30.0
 40
30.0
 40
30.0
 40
31.0
 40
31.0
 40
31.0
 40
32.0
 40
32.0
 40
32.0
 40
33.0
 40
33.0
 40
33.0
 40
33.0
 10
72.5595675816865
 20
183.5236815947441
 10
72.5595675816865
 20
183.3672742597138
 10
72.5595675816865
 20
183.2167235870083
 10
72.5595675816865
 20
183.0694457550139
 10
73.38001707149876
 20
183.0694457550139
 10
74.18840872711263
 20
183.0694457550139
 10
75.00868596215061
 20
183.0694457550139
 10
75.00868596215061
 20
183.1967420331939
 10
75.00868596215061
 20
183.3049180314307
 10
75.00868596215061
 20
183.421879023155
 10
75.64086098369395
 20
183.421879023155
 10
76.26097817103893
 20
183.421879023155
 10
76.89177515438817
 20
183.421879023155
 10
76.89177515438817
 20
183.0057114885368
 10
76.89177515438817
 20
182.5855820941105
 10
76.89177515438817
 20
182.1577012348425
 10
76.27131345749467
 20
182.1577012348425
 10
75.65102401537544
 20
182.1577012348425
 10
75.01437036970127
 20
182.1577012348425
 10
75.01437036970127
 20
182.2601928255287
 10
75.01437036970127
 20
182.3632011805377
 10
75.01437036970127
 20
182.4643147330298
 10
74.19237058692066
 20
182.4643147330298
 10
73.3870795172435
 20
182.4643147330298
 10
72.56525198923717
 20
182.4643147330298
 10
72.56525198923717
 20
182.2870645703136
 10
72.56525198923717
 20
182.1248005729584
 10
72.56525198923717
 20
181.9553018750841
 10
72.49169920062708
 20
181.949961977082
 10
72.43399385124914
 20
181.9456556077254
 10
72.36629772496399
 20
181.9404879644975
 10
72.36629772496399
 20
181.4015027758302
 10
72.36629772496399
 20
180.8626898419371
 10
72.36629772496399
 20
180.3118190738457
 10
72.62812498184297
 20
180.3118190738457
 10
72.88874645530213
 20
180.3118190738457
 10
73.15901419611997
 20
180.3118190738457
 10
73.15901419611997
 20
180.0999457015028
 10
73.15901419611997
 20
179.9001301633583
 10
73.15901419611997
 20
179.6932521794691
 10
72.43416610602341
 20
179.6932521794691
 10
71.71241860186356
 20
179.6932521794691
 10
70.9820583589906
 20
179.6932521794691
 10
70.9820583589906
 20
179.8925509532908
 10
70.9820583589906
 20
180.0894381602728
 10
70.9820583589906
 20
180.3032063351325
 10
71.23458385805941
 20
180.3032063351325
 10
71.48986543351643
 20
180.3032063351325
 10
71.752726219041
 20
180.3032063351325
 10
71.752726219041
 20
180.5333387135472
 10
71.752726219041
 20
180.747106888407
 10
71.752726219041
 20
180.9817178909525
 10
71.69553763398584
 20
180.9817178909525
 10
71.63834904893069
 20
180.9817178909525
 10
71.58116046387555
 20
180.9817178909525
 10
69.00784639116819
 20
180.9817178909525
 10
66.43436006368655
 20
180.9794785788871
 10
63.86104599097919
 20
180.9863687698576
 10
63.67277152271028
 20
180.9867132794061
 10
63.54323593246489
 20
180.9427883119692
 10
63.472439220243
 20
180.7679497160927
 10
63.42506915732082
 20
180.651333233917
 10
63.38493379491766
 20
180.5316161658046
 10
63.33187932444481
 20
180.3870944101984
 10
63.64348821108566
 20
180.3870944101984
 10
63.91582300919466
 20
180.3870944101984
 10
64.19522025304842
 20
180.3870944101984
 10
64.19522025304842
 20
179.954390417251
 10
64.19522025304842
 20
179.5373616087615
 10
64.19522025304842
 20
179.1112032972361
 10
63.57424179183214
 20
179.1112032972361
 10
62.95412460448716
 20
179.1112032972361
 10
62.32315536636366
 20
179.1112032972361
 10
62.32315536636366
 20
179.52719857708
 10
62.32315536636366
 20
179.947155716732
 10
62.32315536636366
 20
180.3793429453566
 10
62.46492104558169
 20
180.3793429453566
 10
62.60703123434825
 20
180.3793429453566
 10
62.74345701556414
 20
180.3793429453566
 10
62.77928600861074
 20
180.5283433250936
 10
62.81011961320372
 20
180.665113615858
 10
62.84491507760475
 20
180.8008503779769
 10
62.91846786621483
 20
181.0885158509952
 10
63.08503823292666
 20
181.3169256816673
 10
63.32516138824857
 20
181.482118010185
 10
63.41146103015408
 20
181.5413736525313
 10
63.5344509389775
 20
181.5727240214471
 10
63.64090438947172
 20
181.5728962762214
 10
66.28604870304655
 20
181.5777194099007
 10
68.93136527139563
 20
181.5766858812551
 10
71.57668183974472
 20
181.5766858812551
 10
71.63128660318593
 20
181.5766858812551
 10
71.68571911185288
 20
181.5766858812551
 10
71.74824759491017
 20
181.5766858812551
 10
71.74824759491017
 20
182.2284979470644
 10
71.74824759491017
 20
182.8716972741606
 10
71.74824759491017
 20
183.5236815947441
 10
72.00904132314358
 20
183.5236815947441
 10
72.27379691118503
 20
183.5236815947441
 10
72.5595675816865
 20
183.5236815947441
 97
        0
 75
     0
 76
     1
 98
        0
  0
SPLINE
  5
63
330
3C
100
AcDbEntity
  8
Layer 1
370
     0
100
AcDbSpline
210
0.0
220
0.0
230
1.0
 70
    11
 71
     3
 72
    95
 73
    91
 74
     0
 42
0.0000000001
 43
0.0000000001
 40
0.0
 40
0.0
 40
0.0
 40
0.0
 40
1.0
 40
1.0
 40
1.0
 40
2.0
 40
2.0
 40
2.0
 40
3.0
 40
3.0
 40
3.0
 40
4.0
 40
4.0
 40
4.0
 40
5.0
 40
5.0
 40
5.0
 40
6.0
 40
6.0
 40
6.0
 40
7.0
 40
7.0
 40
7.0
 40
8.0
 40
8.0
 40
8.0
 40
9.0
 40
9.0
 40
9.0
 40
10.0
 40
10.0
 40
10.0
 40
11.0
 40
11.0
 40
11.0
 40
12.0
 40
12.0
 40
12.0
 40
13.0
 40
13.0
 40
13.0
 40
14.0
 40
14.0
 40
14.0
 40
15.0
 40
15.0
 40
15.0
 40
16.0
 40
16.0
 40
16.0
 40
17.0
 40
17.0
 40
17.0
 40
18.0
 40
18.0
 40
18.0
 40
19.0
 40
19.0
 40
19.0
 40
20.0
 40
20.0
 40
20.0
 40
21.0
 40
21.0
 40
21.0
 40
22.0
 40
22.0
 40
22.0
 40
23.0
 40
23.0
 40
23.0
 40
24.0
 40
24.0
 40
24.0
 40
25.0
 40
25.0
 40
25.0
 40
26.0
 40
26.0
 40
26.0
 40
27.0
 40
27.0
 40
27.0
 40
28.0
 40
28.0
 40
28.0
 40
29.0
 40
29.0
 40
29.0
 40
30.0
 40
30.0
 40
30.0
 40
30.0
 10
73.16194252728243
 20
172.6995360896376
 30
0.0
 10
73.16194252728243
 20
172.4731933162567
 30
0.0
 10
73.16194252728243
 20
172.2763061092747
 30
0.0
 10
73.16194252728243
 20
172.0721842017736
 30
0.0
 10
73.12284069352485
 20
172.0699448897082
 30
0.0
 10
73.09011228641498
 20
172.0666720489972
 30
0.0
 10
73.05721162453084
 20
172.0666720489972
 30
0.0
 10
72.39695907478271
 20
172.0663275394487
 30
0.0
 10
71.73653427026031
 20
172.0575425459613
 30
0.0
 10
71.07645397528644
 20
172.0709784183538
 30
0.0
 10
70.81548799227878
 20
172.0761460615817
 30
0.0
 10
70.57295327011718
 20
172.0513413740879
 30
0.0
 10
70.35367294248103
 20
171.9035467777707
 30
0.0
 10
70.09942489566959
 20
171.732497786928
 30
0.0
 10
69.95163029935237
 20
171.4934081602516
 30
0.0
 10
69.91959091133955
 20
171.1893784836784
 30
0.0
 10
69.9018486695905
 20
171.0226358621923
 30
0.0
 10
69.89358044042591
 20
170.8541706929635
 30
0.0
 10
69.89340818565165
 20
170.6863945428319
 30
0.0
 10
69.8913411283605
 20
169.2136162228876
 30
0.0
 10
69.89426945952296
 20
167.740665648169
 30
0.0
 10
69.89099661881198
 20
166.2677150734504
 30
0.0
 10
69.8899630901664
 20
165.8541313604462
 30
0.0
 10
70.09081215695646
 20
165.544245021548
 30
0.0
 10
70.39535859785255
 20
165.3032605923547
 30
0.0
 10
70.72539874533949
 20
165.0421223545728
 30
0.0
 10
71.1171061020124
 20
164.9959580750705
 30
0.0
 10
71.52552217178877
 20
165.0631374370328
 30
0.0
 10
71.56686331761176
 20
165.0698553732291
 30
0.0
 10
71.61009926595165
 20
165.0669270420666
 30
0.0
 10
71.65230168564595
 20
165.0669270420666
 30
0.0
 10
72.36336939380152
 20
165.0670992968409
 30
0.0
 10
73.07460935673136
 20
165.0583143033535
 30
0.0
 10
73.78533255533839
 20
165.0712334114232
 30
0.0
 10
74.0769598881648
 20
165.0765733094253
 30
0.0
 10
74.31518824096982
 20
164.9771823046759
 30
0.0
 10
74.53670788067139
 20
164.8068223329302
 30
0.0
 10
74.98887666311042
 20
164.4592121984685
 30
0.0
 10
75.08378904372906
 20
163.9924017602172
 30
0.0
 10
74.99042695607879
 20
163.4596177434233
 30
0.0
 10
74.97182344045844
 20
163.3531642929291
 30
0.0
 10
74.97354598820107
 20
163.2430934921753
 30
0.0
 10
74.96476099471367
 20
163.1173475069637
 30
0.0
 10
75.08930119650546
 20
163.1173475069637
 30
0.0
 10
75.20057778067903
 20
163.1173475069637
 30
0.0
 10
75.31960582969441
 20
163.1173475069637
 30
0.0
 10
75.31960582969441
 20
162.2605522597821
 30
0.0
 10
75.31960582969441
 20
161.4202934709297
 30
0.0
 10
75.31960582969441
 20
160.5702161599443
 30
0.0
 10
74.90050996391376
 20
160.5702161599443
 30
0.0
 10
74.4805528242618
 20
160.5702161599443
 30
0.0
 10
74.05370549363936
 20
160.5702161599443
 30
0.0
 10
74.05370549363936
 20
161.4137477895077
 30
0.0
 10
74.05370549363936
 20
162.2540065783601
 30
0.0
 10
74.05370549363936
 20
163.1063232014109
 30
0.0
 10
74.15585257477701
 20
163.1063232014109
 30
0.0
 10
74.25558808907499
 20
163.1063232014109
 30
0.0
 10
74.36221379434348
 20
163.1063232014109
 30
0.0
 10
74.37737221447858
 20
163.2873629691608
 30
0.0
 10
74.37719995970431
 20
163.4601345077461
 30
0.0
 10
74.40923934771713
 20
163.6265326196836
 30
0.0
 10
74.45023598399162
 20
163.8399562849949
 30
0.0
 10
74.4292209015316
 20
164.0354654537828
 30
0.0
 10
74.30071883993176
 20
164.2096150305622
 30
0.0
 10
74.18186304569065
 20
164.3706732444976
 30
0.0
 10
74.02631698453162
 20
164.4735093447323
 30
0.0
 10
73.81444361218875
 20
164.472648070861
 30
0.0
 10
73.24720864054237
 20
164.4707532683441
 30
0.0
 10
72.68014592367024
 20
164.4747151281522
 30
0.0
 10
72.11291095202385
 20
164.4709255231184
 30
0.0
 10
71.83937037049502
 20
164.4690307206015
 30
0.0
 10
71.56565753419193
 20
164.4540445552407
 30
0.0
 10
71.29211695266308
 20
164.4468098547216
 30
0.0
 10
70.5214490926127
 20
164.4268283009072
 30
0.0
 10
69.93457707670039
 20
164.748944728778
 30
0.0
 10
69.5285725737637
 20
165.4014458136844
 30
0.0
 10
69.38008895834943
 20
165.6401909308122
 30
0.0
 10
69.30016274309163
 20
165.9049465188536
 30
0.0
 10
69.29930146922031
 20
166.1839992531589
 30
0.0
 10
69.29499509986375
 20
167.7839015965089
 30
0.0
 10
69.29137774960424
 20
169.3838039398589
 30
0.0
 10
69.30085176218869
 20
170.9837062832089
 30
0.0
 10
69.30360783857688
 20
171.4615410270131
 30
0.0
 10
69.45105792534557
 20
171.8944172747347
 30
0.0
 10
69.81658255633057
 20
172.2341036895804
 30
0.0
 10
70.08064912527497
 20
172.4795667429044
 30
0.0
 10
70.38795164255926
 20
172.6428642689053
 30
0.0
 10
70.74331324186278
 20
172.6557833769749
 30
0.0
 10
71.54498696128043
 20
172.6850666885996
 30
0.0
 10
72.34752195456937
 20
172.6866169815679
 30
0.0
 10
73.16194252728243
 20
172.6995360896376
 30
0.0
  0
HATCH
  5
64
330
3C
100
AcDbEntity
  8
Layer 1
 62
     7
420
 16777215
100
AcDbHatch
 10
0.0
 20
0.0
 30
0.0
210
0.0
220
0.0
230
1.0
  2
SOLID
 70
     1
 71
     0
 91
        1
 92
        1
 93
        1
 72
     4
 94
        3
 73
     0
 74
     1
 95
       95
 96
       91
 40
0.0
 40
0.0
 40
0.0
 40
0.0
 40
1.0
 40
1.0
 40
1.0
 40
2.0
 40
2.0
 40
2.0
 40
3.0
 40
3.0
 40
3.0
 40
4.0
 40
4.0
 40
4.0
 40
5.0
 40
5.0
 40
5.0
 40
6.0
 40
6.0
 40
6.0
 40
7.0
 40
7.0
 40
7.0
 40
8.0
 40
8.0
 40
8.0
 40
9.0
 40
9.0
 40
9.0
 40
10.0
 40
10.0
 40
10.0
 40
11.0
 40
11.0
 40
11.0
 40
12.0
 40
12.0
 40
12.0
 40
13.0
 40
13.0
 40
13.0
 40
14.0
 40
14.0
 40
14.0
 40
15.0
 40
15.0
 40
15.0
 40
16.0
 40
16.0
 40
16.0
 40
17.0
 40
17.0
 40
17.0
 40
18.0
 40
18.0
 40
18.0
 40
19.0
 40
19.0
 40
19.0
 40
20.0
 40
20.0
 40
20.0
 40
21.0
 40
21.0
 40
21.0
 40
22.0
 40
22.0
 40
22.0
 40
23.0
 40
23.0
 40
23.0
 40
24.0
 40
24.0
 40
24.0
 40
25.0
 40
25.0
 40
25.0
 40
26.0
 40
26.0
 40
26.0
 40
27.0
 40
27.0
 40
27.0
 40
28.0
 40
28.0
 40
28.0
 40
29.0
 40
29.0
 40
29.0
 40
30.0
 40
30.0
 40
30.0
 40
30.0
 10
73.16194252728243
 20
172.6995360896376
 10
73.16194252728243
 20
172.4731933162567
 10
73.16194252728243
 20
172.2763061092747
 10
73.16194252728243
 20
172.0721842017736
 10
73.12284069352485
 20
172.0699448897082
 10
73.09011228641498
 20
172.0666720489972
 10
73.05721162453084
 20
172.0666720489972
 10
72.39695907478271
 20
172.0663275394487
 10
71.73653427026031
 20
172.0575425459613
 10
71.07645397528644
 20
172.0709784183538
 10
70.81548799227878
 20
172.0761460615817
 10
70.57295327011718
 20
172.0513413740879
 10
70.35367294248103
 20
171.9035467777707
 10
70.09942489566959
 20
171.732497786928
 10
69.95163029935237
 20
171.4934081602516
 10
69.91959091133955
 20
171.1893784836784
 10
69.9018486695905
 20
171.0226358621923
 10
69.89358044042591
 20
170.8541706929635
 10
69.89340818565165
 20
170.6863945428319
 10
69.8913411283605
 20
169.2136162228876
 10
69.89426945952296
 20
167.740665648169
 10
69.89099661881198
 20
166.2677150734504
 10
69.8899630901664
 20
165.8541313604462
 10
70.09081215695646
 20
165.544245021548
 10
70.39535859785255
 20
165.3032605923547
 10
70.72539874533949
 20
165.0421223545728
 10
71.1171061020124
 20
164.9959580750705
 10
71.52552217178877
 20
165.0631374370328
 10
71.56686331761176
 20
165.0698553732291
 10
71.61009926595165
 20
165.0669270420666
 10
71.65230168564595
 20
165.0669270420666
 10
72.36336939380152
 20
165.0670992968409
 10
73.07460935673136
 20
165.0583143033535
 10
73.78533255533839
 20
165.0712334114232
 10
74.0769598881648
 20
165.0765733094253
 10
74.31518824096982
 20
164.9771823046759
 10
74.53670788067139
 20
164.8068223329302
 10
74.98887666311042
 20
164.4592121984685
 10
75.08378904372906
 20
163.9924017602172
 10
74.99042695607879
 20
163.4596177434233
 10
74.97182344045844
 20
163.3531642929291
 10
74.97354598820107
 20
163.2430934921753
 10
74.96476099471367
 20
163.1173475069637
 10
75.08930119650546
 20
163.1173475069637
 10
75.20057778067903
 20
163.1173475069637
 10
75.31960582969441
 20
163.1173475069637
 10
75.31960582969441
 20
162.2605522597821
 10
75.31960582969441
 20
161.4202934709297
 10
75.31960582969441
 20
160.5702161599443
 10
74.90050996391376
 20
160.5702161599443
 10
74.4805528242618
 20
160.5702161599443
 10
74.05370549363936
 20
160.5702161599443
 10
74.05370549363936
 20
161.4137477895077
 10
74.05370549363936
 20
162.2540065783601
 10
74.05370549363936
 20
163.1063232014109
 10
74.15585257477701
 20
163.1063232014109
 10
74.25558808907499
 20
163.1063232014109
 10
74.36221379434348
 20
163.1063232014109
 10
74.37737221447858
 20
163.2873629691608
 10
74.37719995970431
 20
163.4601345077461
 10
74.40923934771713
 20
163.6265326196836
 10
74.45023598399162
 20
163.8399562849949
 10
74.4292209015316
 20
164.0354654537828
 10
74.30071883993176
 20
164.2096150305622
 10
74.18186304569065
 20
164.3706732444976
 10
74.02631698453162
 20
164.4735093447323
 10
73.81444361218875
 20
164.472648070861
 10
73.24720864054237
 20
164.4707532683441
 10
72.68014592367024
 20
164.4747151281522
 10
72.11291095202385
 20
164.4709255231184
 10
71.83937037049502
 20
164.4690307206015
 10
71.56565753419193
 20
164.4540445552407
 10
71.29211695266308
 20
164.4468098547216
 10
70.5214490926127
 20
164.4268283009072
 10
69.93457707670039
 20
164.748944728778
 10
69.5285725737637
 20
165.4014458136844
 10
69.38008895834943
 20
165.6401909308122
 10
69.30016274309163
 20
165.9049465188536
 10
69.29930146922031
 20
166.1839992531589
 10
69.29499509986375
 20
167.7839015965089
 10
69.29137774960424
 20
169.3838039398589
 10
69.30085176218869
 20
170.9837062832089
 10
69.30360783857688
 20
171.4615410270131
 10
69.45105792534557
 20
171.8944172747347
 10
69.81658255633057
 20
172.2341036895804
 10
70.08064912527497
 20
172.4795667429044
 10
70.38795164255926
 20
172.6428642689053
 10
70.74331324186278
 20
172.6557833769749
 10
71.54498696128043
 20
172.6850666885996
 10
72.34752195456937
 20
172.6866169815679
 10
73.16194252728243
 20
172.6995360896376
 97
        0
 75
     0
 76
     1
 98
        0
  0
SPLINE
  5
65
330
3C
100
AcDbEntity
  8
Layer 1
370
     0
100
AcDbSpline
210
0.0
220
0.0
230
1.0
 70
    11
 71
     3
 72
    80
 73
    76
 74
     0
 42
0.0000000001
 43
0.0000000001
 40
0.0
 40
0.0
 40
0.0
 40
0.0
 40
1.0
 40
1.0
 40
1.0
 40
2.0
 40
2.0
 40
2.0
 40
3.0
 40
3.0
 40
3.0
 40
4.0
 40
4.0
 40
4.0
 40
5.0
 40
5.0
 40
5.0
 40
6.0
 40
6.0
 40
6.0
 40
7.0
 40
7.0
 40
7.0
 40
8.0
 40
8.0
 40
8.0
 40
9.0
 40
9.0
 40
9.0
 40
10.0
 40
10.0
 40
10.0
 40
11.0
 40
11.0
 40
11.0
 40
12.0
 40
12.0
 40
12.0
 40
13.0
 40
13.0
 40
13.0
 40
14.0
 40
14.0
 40
14.0
 40
15.0
 40
15.0
 40
15.0
 40
16.0
 40
16.0
 40
16.0
 40
17.0
 40
17.0
 40
17.0
 40
18.0
 40
18.0
 40
18.0
 40
19.0
 40
19.0
 40
19.0
 40
20.0
 40
20.0
 40
20.0
 40
21.0
 40
21.0
 40
21.0
 40
22.0
 40
22.0
 40
22.0
 40
23.0
 40
23.0
 40
23.0
 40
24.0
 40
24.0
 40
24.0
 40
25.0
 40
25.0
 40
25.0
 40
25.0
 10
92.46774086229973
 20
185.3866169783929
 30
0.0
 10
92.46774086229973
 20
185.1750881155986
 30
0.0
 10
92.46774086229973
 20
184.981129239779
 30
0.0
 10
92.46774086229973
 20
184.7661552814994
 30
0.0
 10
92.42261011144296
 20
184.7661552814994
 30
0.0
 10
92.3783406344575
 20
184.7661552814994
 30
0.0
 10
92.33389890269778
 20
184.7661552814994
 30
0.0
 10
90.72538382063463
 20
184.7661552814994
 30
0.0
 10
89.11669648379721
 20
184.7628824407884
 30
0.0
 10
87.50818140173406
 20
184.767188810145
 30
0.0
 10
86.24813772800394
 20
184.7706339056303
 30
0.0
 10
84.98809405427382
 20
184.7956108478983
 30
0.0
 10
83.72822263531795
 20
184.7849310518941
 30
0.0
 10
83.27123071919955
 20
184.7811414468603
 30
0.0
 10
82.81320527443559
 20
184.7100002250899
 30
0.0
 10
82.41736380318038
 20
184.4368041531096
 30
0.0
 10
82.06493053503932
 20
184.1935804118509
 30
0.0
 10
81.73420136845535
 20
183.9257242378727
 30
0.0
 10
81.56849227561483
 20
183.5181694419677
 30
0.0
 10
81.4785752834498
 20
183.2973388213632
 30
0.0
 10
81.40760631645365
 20
183.061005271075
 30
0.0
 10
81.37780624050625
 20
182.8253607398839
 30
0.0
 10
81.25757240807103
 20
181.8748588955035
 30
0.0
 10
81.35179576959261
 20
180.9185003887982
 30
0.0
 10
81.32044540067683
 20
179.9652424680295
 30
0.0
 10
81.30459796144468
 20
179.4836181191916
 30
0.0
 10
81.10426565897741
 20
179.0932888007128
 30
0.0
 10
80.7249606460514
 20
178.786330792977
 30
0.0
 10
80.4154188167017
 20
178.5358723511994
 30
0.0
 10
80.06694740836868
 20
178.437170365547
 30
0.0
 10
79.67765161853545
 20
178.4409599705807
 30
0.0
 10
79.3136772805188
 20
178.4445773208402
 30
0.0
 10
78.9495306877279
 20
178.444405066066
 30
0.0
 10
78.58555634971125
 20
178.441132225355
 30
0.0
 10
77.83779837463777
 20
178.434586543933
 30
0.0
 10
77.0900403995643
 20
178.4247680218001
 30
0.0
 10
76.34228242449082
 20
178.4163275378612
 30
0.0
 10
76.29250079472897
 20
178.4158107735384
 30
0.0
 10
76.2427191649671
 20
178.4163275378612
 30
0.0
 10
76.18708087288032
 20
178.4163275378612
 30
0.0
 10
76.18708087288032
 20
178.6266506172357
 30
0.0
 10
76.18708087288032
 20
178.8235378242177
 30
0.0
 10
76.18708087288032
 20
179.0367892347547
 30
0.0
 10
76.23979083380463
 20
179.0367892347547
 30
0.0
 10
76.28905569924372
 20
179.0367892347547
 30
0.0
 10
76.33832056468279
 20
179.0367892347547
 30
0.0
 10
77.45590954009784
 20
179.0367892347547
 30
0.0
 10
78.57349851551288
 20
179.0438516804995
 30
0.0
 10
79.69091523615366
 20
179.0333441392694
 30
0.0
 10
80.15324705027419
 20
179.0288655151386
 30
0.0
 10
80.55081106927203
 20
179.2951713961484
 30
0.0
 10
80.68448077409971
 20
179.7247748031591
 30
0.0
 10
80.71135251888467
 20
179.8110744450646
 30
0.0
 10
80.72478839127714
 20
179.9047810422634
 30
0.0
 10
80.72513290082567
 20
179.995042543977
 30
0.0
 10
80.72823348676239
 20
180.7867254864873
 30
0.0
 10
80.72013751237205
 20
181.5784084289978
 30
0.0
 10
80.72978377973075
 20
182.3697468619597
 30
0.0
 10
80.7346069134101
 20
182.7542195181135
 30
0.0
 10
80.79575735827329
 20
183.135763843105
 30
0.0
 10
80.91599119070851
 20
183.5018052384127
 30
0.0
 10
81.10030379916937
 20
184.0635280572827
 30
0.0
 10
81.46565617538012
 20
184.4895141140339
 30
0.0
 10
81.94331866441
 20
184.8295450384281
 30
0.0
 10
82.31418319339716
 20
185.0936116073725
 30
0.0
 10
82.72156573452794
 20
185.2644883434408
 30
0.0
 10
83.16960040238469
 20
185.3314954506289
 30
0.0
 10
83.38457436066427
 20
185.3635348386418
 30
0.0
 10
83.60333792397765
 20
185.384033156779
 30
0.0
 10
83.82055119432265
 20
185.3843776663275
 30
0.0
 10
86.64397919925915
 20
185.3878227618128
 30
0.0
 10
89.46740720419565
 20
185.3866169783929
 30
0.0
 10
92.29100746390642
 20
185.3866169783929
 30
0.0
 10
92.34543997257336
 20
185.3866169783929
 30
0.0
 10
92.39987248124031
 20
185.3866169783929
 30
0.0
 10
92.46774086229973
 20
185.3866169783929
 30
0.0
  0
HATCH
  5
66
330
3C
100
AcDbEntity
  8
Layer 1
 62
     7
420
 16777215
100
AcDbHatch
 10
0.0
 20
0.0
 30
0.0
210
0.0
220
0.0
230
1.0
  2
SOLID
 70
     1
 71
     0
 91
        1
 92
        1
 93
        1
 72
     4
 94
        3
 73
     0
 74
     1
 95
       80
 96
       76
 40
0.0
 40
0.0
 40
0.0
 40
0.0
 40
1.0
 40
1.0
 40
1.0
 40
2.0
 40
2.0
 40
2.0
 40
3.0
 40
3.0
 40
3.0
 40
4.0
 40
4.0
 40
4.0
 40
5.0
 40
5.0
 40
5.0
 40
6.0
 40
6.0
 40
6.0
 40
7.0
 40
7.0
 40
7.0
 40
8.0
 40
8.0
 40
8.0
 40
9.0
 40
9.0
 40
9.0
 40
10.0
 40
10.0
 40
10.0
 40
11.0
 40
11.0
 40
11.0
 40
12.0
 40
12.0
 40
12.0
 40
13.0
 40
13.0
 40
13.0
 40
14.0
 40
14.0
 40
14.0
 40
15.0
 40
15.0
 40
15.0
 40
16.0
 40
16.0
 40
16.0
 40
17.0
 40
17.0
 40
17.0
 40
18.0
 40
18.0
 40
18.0
 40
19.0
 40
19.0
 40
19.0
 40
20.0
 40
20.0
 40
20.0
 40
21.0
 40
21.0
 40
21.0
 40
22.0
 40
22.0
 40
22.0
 40
23.0
 40
23.0
 40
23.0
 40
24.0
 40
24.0
 40
24.0
 40
25.0
 40
25.0
 40
25.0
 40
25.0
 10
92.46774086229973
 20
185.3866169783929
 10
92.46774086229973
 20
185.1750881155986
 10
92.46774086229973
 20
184.981129239779
 10
92.46774086229973
 20
184.7661552814994
 10
92.42261011144296
 20
184.7661552814994
 10
92.3783406344575
 20
184.7661552814994
 10
92.33389890269778
 20
184.7661552814994
 10
90.72538382063463
 20
184.7661552814994
 10
89.11669648379721
 20
184.7628824407884
 10
87.50818140173406
 20
184.767188810145
 10
86.24813772800394
 20
184.7706339056303
 10
84.98809405427382
 20
184.7956108478983
 10
83.72822263531795
 20
184.7849310518941
 10
83.27123071919955
 20
184.7811414468603
 10
82.81320527443559
 20
184.7100002250899
 10
82.41736380318038
 20
184.4368041531096
 10
82.06493053503932
 20
184.1935804118509
 10
81.73420136845535
 20
183.9257242378727
 10
81.56849227561483
 20
183.5181694419677
 10
81.4785752834498
 20
183.2973388213632
 10
81.40760631645365
 20
183.061005271075
 10
81.37780624050625
 20
182.8253607398839
 10
81.25757240807103
 20
181.8748588955035
 10
81.35179576959261
 20
180.9185003887982
 10
81.32044540067683
 20
179.9652424680295
 10
81.30459796144468
 20
179.4836181191916
 10
81.10426565897741
 20
179.0932888007128
 10
80.7249606460514
 20
178.786330792977
 10
80.4154188167017
 20
178.5358723511994
 10
80.06694740836868
 20
178.437170365547
 10
79.67765161853545
 20
178.4409599705807
 10
79.3136772805188
 20
178.4445773208402
 10
78.9495306877279
 20
178.444405066066
 10
78.58555634971125
 20
178.441132225355
 10
77.83779837463777
 20
178.434586543933
 10
77.0900403995643
 20
178.4247680218001
 10
76.34228242449082
 20
178.4163275378612
 10
76.29250079472897
 20
178.4158107735384
 10
76.2427191649671
 20
178.4163275378612
 10
76.18708087288032
 20
178.4163275378612
 10
76.18708087288032
 20
178.6266506172357
 10
76.18708087288032
 20
178.8235378242177
 10
76.18708087288032
 20
179.0367892347547
 10
76.23979083380463
 20
179.0367892347547
 10
76.28905569924372
 20
179.0367892347547
 10
76.33832056468279
 20
179.0367892347547
 10
77.45590954009784
 20
179.0367892347547
 10
78.57349851551288
 20
179.0438516804995
 10
79.69091523615366
 20
179.0333441392694
 10
80.15324705027419
 20
179.0288655151386
 10
80.55081106927203
 20
179.2951713961484
 10
80.68448077409971
 20
179.7247748031591
 10
80.71135251888467
 20
179.8110744450646
 10
80.72478839127714
 20
179.9047810422634
 10
80.72513290082567
 20
179.995042543977
 10
80.72823348676239
 20
180.7867254864873
 10
80.72013751237205
 20
181.5784084289978
 10
80.72978377973075
 20
182.3697468619597
 10
80.7346069134101
 20
182.7542195181135
 10
80.79575735827329
 20
183.135763843105
 10
80.91599119070851
 20
183.5018052384127
 10
81.10030379916937
 20
184.0635280572827
 10
81.46565617538012
 20
184.4895141140339
 10
81.94331866441
 20
184.8295450384281
 10
82.31418319339716
 20
185.0936116073725
 10
82.72156573452794
 20
185.2644883434408
 10
83.16960040238469
 20
185.3314954506289
 10
83.38457436066427
 20
185.3635348386418
 10
83.60333792397765
 20
185.384033156779
 10
83.82055119432265
 20
185.3843776663275
 10
86.64397919925915
 20
185.3878227618128
 10
89.46740720419565
 20
185.3866169783929
 10
92.29100746390642
 20
185.3866169783929
 10
92.34543997257336
 20
185.3866169783929
 10
92.39987248124031
 20
185.3866169783929
 10
92.46774086229973
 20
185.3866169783929
 97
        0
 75
     0
 76
     1
 98
        0
  0
SPLINE
  5
67
330
3C
100
AcDbEntity
  8
Layer 1
370
     0
100
AcDbSpline
210
0.0
220
0.0
230
1.0
 70
    11
 71
     3
 72
    74
 73
    70
 74
     0
 42
0.0000000001
 43
0.0000000001
 40
0.0
 40
0.0
 40
0.0
 40
0.0
 40
1.0
 40
1.0
 40
1.0
 40
2.0
 40
2.0
 40
2.0
 40
3.0
 40
3.0
 40
3.0
 40
4.0
 40
4.0
 40
4.0
 40
5.0
 40
5.0
 40
5.0
 40
6.0
 40
6.0
 40
6.0
 40
7.0
 40
7.0
 40
7.0
 40
8.0
 40
8.0
 40
8.0
 40
9.0
 40
9.0
 40
9.0
 40
10.0
 40
10.0
 40
10.0
 40
11.0
 40
11.0
 40
11.0
 40
12.0
 40
12.0
 40
12.0
 40
13.0
 40
13.0
 40
13.0
 40
14.0
 40
14.0
 40
14.0
 40
15.0
 40
15.0
 40
15.0
 40
16.0
 40
16.0
 40
16.0
 40
17.0
 40
17.0
 40
17.0
 40
18.0
 40
18.0
 40
18.0
 40
19.0
 40
19.0
 40
19.0
 40
20.0
 40
20.0
 40
20.0
 40
21.0
 40
21.0
 40
21.0
 40
22.0
 40
22.0
 40
22.0
 40
23.0
 40
23.0
 40
23.0
 40
23.0
 10
92.46584605978285
 20
182.8467203318925
 30
0.0
 10
92.46584605978285
 20
182.633813430904
 30
0.0
 10
92.46584605978285
 20
182.436926223922
 30
0.0
 10
92.46584605978285
 20
182.2321152973239
 30
0.0
 10
92.42295462099149
 20
182.2300482400328
 30
0.0
 10
92.38609209929932
 20
182.2264308897733
 30
0.0
 10
92.34905732283288
 20
182.2264308897733
 30
0.0
 10
90.7324462663794
 20
182.226258634999
 30
0.0
 10
89.11566295515165
 20
182.2231580490623
 30
0.0
 10
87.49905189869816
 20
182.2272921636446
 30
0.0
 10
86.45949433602402
 20
182.2300482400328
 30
0.0
 10
85.41976451857562
 20
182.2496852842987
 30
0.0
 10
84.38020695590149
 20
182.2481349913303
 30
0.0
 10
84.01519908923926
 20
182.2474459722333
 30
0.0
 10
83.65656464922475
 20
182.1756157313658
 30
0.0
 10
83.34185517664717
 20
181.9728718620589
 30
0.0
 10
83.13222111636972
 20
181.8378241190371
 30
0.0
 10
82.96771780694904
 20
181.6574733703843
 30
0.0
 10
82.83422035689561
 20
181.4430161764274
 30
0.0
 10
82.63767765946211
 20
181.1274454299786
 30
0.0
 10
82.59547523976781
 20
180.7800075502911
 30
0.0
 10
82.59289141815387
 20
180.4227511484707
 30
0.0
 10
82.5891018131201
 20
179.8725693994763
 30
0.0
 10
82.58961857744288
 20
179.3223876504819
 30
0.0
 10
82.59254690860534
 20
178.7722059014875
 30
0.0
 10
82.59581974931632
 20
178.1660413508578
 30
0.0
 10
82.32107338436765
 20
177.710082963385
 30
0.0
 10
81.82480737971741
 20
177.389172318934
 30
0.0
 10
81.60363224956437
 20
177.2460286015218
 30
0.0
 10
81.34611136204195
 20
177.1733370867831
 30
0.0
 10
81.07601587599837
 20
177.171959048589
 30
0.0
 10
80.8939425796029
 20
177.1710977747177
 30
0.0
 10
80.71204153798172
 20
177.172648067686
 30
0.0
 10
80.53014049636053
 20
177.1716145390404
 30
0.0
 10
79.13487682483434
 20
177.1633463098758
 30
0.0
 10
77.73978540808241
 20
177.154905825937
 30
0.0
 10
76.3446939913305
 20
177.1464653419981
 30
0.0
 10
76.29474010679438
 20
177.1461208324496
 30
0.0
 10
76.24495847703251
 20
177.1464653419981
 30
0.0
 10
76.18794214675162
 20
177.1464653419981
 30
0.0
 10
76.18794214675162
 20
177.3548936188557
 30
0.0
 10
76.18794214675162
 20
177.5517808258378
 30
0.0
 10
76.18794214675162
 20
177.7667547841174
 30
0.0
 10
76.23772377651349
 20
177.7667547841174
 30
0.0
 10
76.2868163871783
 20
177.7667547841174
 30
0.0
 10
76.33573674306885
 20
177.7667547841174
 30
0.0
 10
77.90170489588915
 20
177.7667547841174
 30
0.0
 10
79.46750079393522
 20
177.7665825293431
 30
0.0
 10
81.03346894675552
 20
177.7669270388916
 30
0.0
 10
81.56022404645023
 20
177.7669270388916
 30
0.0
 10
81.99671764443138
 20
178.2051431846154
 30
0.0
 10
81.99688989920564
 20
178.733793086827
 30
0.0
 10
81.99706215397991
 20
179.3136026569945
 30
0.0
 10
81.98862167004104
 20
179.8935844819363
 30
0.0
 10
82.00033499469089
 20
180.4730495425553
 30
0.0
 10
82.00653616656435
 20
180.7805243146139
 30
0.0
 10
82.02186684147371
 20
181.0886881057695
 30
0.0
 10
82.1458902789427
 20
181.3828992602098
 30
0.0
 10
82.42701007053908
 20
182.0493529818314
 30
0.0
 10
82.87935110775238
 20
182.5209865537621
 30
0.0
 10
83.58990205158517
 20
182.7226968944235
 30
0.0
 10
83.91115720558471
 20
182.8138196700084
 30
0.0
 10
84.23723549326361
 20
182.8472370962153
 30
0.0
 10
84.56917044326744
 20
182.847064841441
 30
0.0
 10
87.14231226120053
 20
182.846375822344
 30
0.0
 10
89.71545407913364
 20
182.8467203318925
 30
0.0
 10
92.28859589706674
 20
182.8467203318925
 30
0.0
 10
92.34337291528222
 20
182.8467203318925
 30
0.0
 10
92.39797767872342
 20
182.8467203318925
 30
0.0
 10
92.46584605978285
 20
182.8467203318925
 30
0.0
  0
HATCH
  5
68
330
3C
100
AcDbEntity
  8
Layer 1
 62
     7
420
 16777215
100
AcDbHatch
 10
0.0
 20
0.0
 30
0.0
210
0.0
220
0.0
230
1.0
  2
SOLID
 70
     1
 71
     0
 91
        1
 92
        1
 93
        1
 72
     4
 94
        3
 73
     0
 74
     1
 95
       74
 96
       70
 40
0.0
 40
0.0
 40
0.0
 40
0.0
 40
1.0
 40
1.0
 40
1.0
 40
2.0
 40
2.0
 40
2.0
 40
3.0
 40
3.0
 40
3.0
 40
4.0
 40
4.0
 40
4.0
 40
5.0
 40
5.0
 40
5.0
 40
6.0
 40
6.0
 40
6.0
 40
7.0
 40
7.0
 40
7.0
 40
8.0
 40
8.0
 40
8.0
 40
9.0
 40
9.0
 40
9.0
 40
10.0
 40
10.0
 40
10.0
 40
11.0
 40
11.0
 40
11.0
 40
12.0
 40
12.0
 40
12.0
 40
13.0
 40
13.0
 40
13.0
 40
14.0
 40
14.0
 40
14.0
 40
15.0
 40
15.0
 40
15.0
 40
16.0
 40
16.0
 40
16.0
 40
17.0
 40
17.0
 40
17.0
 40
18.0
 40
18.0
 40
18.0
 40
19.0
 40
19.0
 40
19.0
 40
20.0
 40
20.0
 40
20.0
 40
21.0
 40
21.0
 40
21.0
 40
22.0
 40
22.0
 40
22.0
 40
23.0
 40
23.0
 40
23.0
 40
23.0
 10
92.46584605978285
 20
182.8467203318925
 10
92.46584605978285
 20
182.633813430904
 10
92.46584605978285
 20
182.436926223922
 10
92.46584605978285
 20
182.2321152973239
 10
92.42295462099149
 20
182.2300482400328
 10
92.38609209929932
 20
182.2264308897733
 10
92.34905732283288
 20
182.2264308897733
 10
90.7324462663794
 20
182.226258634999
 10
89.11566295515165
 20
182.2231580490623
 10
87.49905189869816
 20
182.2272921636446
 10
86.45949433602402
 20
182.2300482400328
 10
85.41976451857562
 20
182.2496852842987
 10
84.38020695590149
 20
182.2481349913303
 10
84.01519908923926
 20
182.2474459722333
 10
83.65656464922475
 20
182.1756157313658
 10
83.34185517664717
 20
181.9728718620589
 10
83.13222111636972
 20
181.8378241190371
 10
82.96771780694904
 20
181.6574733703843
 10
82.83422035689561
 20
181.4430161764274
 10
82.63767765946211
 20
181.1274454299786
 10
82.59547523976781
 20
180.7800075502911
 10
82.59289141815387
 20
180.4227511484707
 10
82.5891018131201
 20
179.8725693994763
 10
82.58961857744288
 20
179.3223876504819
 10
82.59254690860534
 20
178.7722059014875
 10
82.59581974931632
 20
178.1660413508578
 10
82.32107338436765
 20
177.710082963385
 10
81.82480737971741
 20
177.389172318934
 10
81.60363224956437
 20
177.2460286015218
 10
81.34611136204195
 20
177.1733370867831
 10
81.07601587599837
 20
177.171959048589
 10
80.8939425796029
 20
177.1710977747177
 10
80.71204153798172
 20
177.172648067686
 10
80.53014049636053
 20
177.1716145390404
 10
79.13487682483434
 20
177.1633463098758
 10
77.73978540808241
 20
177.154905825937
 10
76.3446939913305
 20
177.1464653419981
 10
76.29474010679438
 20
177.1461208324496
 10
76.24495847703251
 20
177.1464653419981
 10
76.18794214675162
 20
177.1464653419981
 10
76.18794214675162
 20
177.3548936188557
 10
76.18794214675162
 20
177.5517808258378
 10
76.18794214675162
 20
177.7667547841174
 10
76.23772377651349
 20
177.7667547841174
 10
76.2868163871783
 20
177.7667547841174
 10
76.33573674306885
 20
177.7667547841174
 10
77.90170489588915
 20
177.7667547841174
 10
79.46750079393522
 20
177.7665825293431
 10
81.03346894675552
 20
177.7669270388916
 10
81.56022404645023
 20
177.7669270388916
 10
81.99671764443138
 20
178.2051431846154
 10
81.99688989920564
 20
178.733793086827
 10
81.99706215397991
 20
179.3136026569945
 10
81.98862167004104
 20
179.8935844819363
 10
82.00033499469089
 20
180.4730495425553
 10
82.00653616656435
 20
180.7805243146139
 10
82.02186684147371
 20
181.0886881057695
 10
82.1458902789427
 20
181.3828992602098
 10
82.42701007053908
 20
182.0493529818314
 10
82.87935110775238
 20
182.5209865537621
 10
83.58990205158517
 20
182.7226968944235
 10
83.91115720558471
 20
182.8138196700084
 10
84.23723549326361
 20
182.8472370962153
 10
84.56917044326744
 20
182.847064841441
 10
87.14231226120053
 20
182.846375822344
 10
89.71545407913364
 20
182.8467203318925
 10
92.28859589706674
 20
182.8467203318925
 10
92.34337291528222
 20
182.8467203318925
 10
92.39797767872342
 20
182.8467203318925
 10
92.46584605978285
 20
182.8467203318925
 97
        0
 75
     0
 76
     1
 98
        0
  0
SPLINE
  5
69
330
3C
100
AcDbEntity
  8
Layer 1
370
     0
100
AcDbSpline
210
0.0
220
0.0
230
1.0
 70
    11
 71
     3
 72
    74
 73
    70
 74
     0
 42
0.0000000001
 43
0.0000000001
 40
0.0
 40
0.0
 40
0.0
 40
0.0
 40
1.0
 40
1.0
 40
1.0
 40
2.0
 40
2.0
 40
2.0
 40
3.0
 40
3.0
 40
3.0
 40
4.0
 40
4.0
 40
4.0
 40
5.0
 40
5.0
 40
5.0
 40
6.0
 40
6.0
 40
6.0
 40
7.0
 40
7.0
 40
7.0
 40
8.0
 40
8.0
 40
8.0
 40
9.0
 40
9.0
 40
9.0
 40
10.0
 40
10.0
 40
10.0
 40
11.0
 40
11.0
 40
11.0
 40
12.0
 40
12.0
 40
12.0
 40
13.0
 40
13.0
 40
13.0
 40
14.0
 40
14.0
 40
14.0
 40
15.0
 40
15.0
 40
15.0
 40
16.0
 40
16.0
 40
16.0
 40
17.0
 40
17.0
 40
17.0
 40
18.0
 40
18.0
 40
18.0
 40
19.0
 40
19.0
 40
19.0
 40
20.0
 40
20.0
 40
20.0
 40
21.0
 40
21.0
 40
21.0
 40
22.0
 40
22.0
 40
22.0
 40
23.0
 40
23.0
 40
23.0
 40
23.0
 10
92.47221948643056
 20
180.3066514306178
 30
0.0
 10
92.47221948643056
 20
180.1221665673827
 30
0.0
 10
92.47256399597909
 20
179.9535291433797
 30
0.0
 10
92.4720472316563
 20
179.785063974151
 30
0.0
 10
92.47187497688203
 20
179.7562974268491
 30
0.0
 10
92.46894664571957
 20
179.7275308795473
 30
0.0
 10
92.46636282410563
 20
179.6863619884986
 30
0.0
 10
92.41399737272984
 20
179.6863619884986
 30
0.0
 10
92.3686943670988
 20
179.6863619884986
 30
0.0
 10
92.3232191066935
 20
179.6863619884986
 30
0.0
 10
90.72331676334348
 20
179.6863619884986
 30
0.0
 10
89.1232421652192
 20
179.6836059121104
 30
0.0
 10
87.52333982186917
 20
179.6873955171441
 30
0.0
 10
86.67825789933738
 20
179.6894625744353
 30
0.0
 10
85.83317597680559
 20
179.7085828543784
 30
0.0
 10
84.98809405427382
 20
179.7082383448299
 30
0.0
 10
84.75572236379371
 20
179.7080660900556
 30
0.0
 10
84.52455645673345
 20
179.6658636703613
 30
0.0
 10
84.32353513516912
 20
179.5253037745631
 30
0.0
 10
84.06859806926063
 20
179.3470200832014
 30
0.0
 10
83.90581730758258
 20
179.1081027112994
 30
0.0
 10
83.891003396996
 20
178.7976996080784
 30
0.0
 10
83.86878253111614
 20
178.3343342653123
 30
0.0
 10
83.87877330802337
 20
177.869590884352
 30
0.0
 10
83.85965302808023
 20
177.4060532868117
 30
0.0
 10
83.84018823858857
 20
176.9345919696553
 30
0.0
 10
83.63951142657277
 20
176.5521863707925
 30
0.0
 10
83.26985268100546
 20
176.2500514967361
 30
0.0
 10
82.95014781997428
 20
175.9887410041799
 30
0.0
 10
82.58806828447452
 20
175.8988240120149
 30
0.0
 10
82.1858533865716
 20
175.900202050209
 30
0.0
 10
80.99212780093252
 20
175.9045084195656
 30
0.0
 10
79.79857447006772
 20
175.9048529291141
 30
0.0
 10
78.60484888442865
 20
175.9007188145318
 30
0.0
 10
77.84865042541631
 20
175.8981349929178
 30
0.0
 10
77.09262422117824
 20
175.8848713752996
 30
0.0
 10
76.3364257621659
 20
175.8764308913608
 30
0.0
 10
76.29043373743781
 20
175.875914127038
 30
0.0
 10
76.24426945793546
 20
175.8764308913608
 30
0.0
 10
76.18949243971998
 20
175.8764308913608
 30
0.0
 10
76.18949243971998
 20
176.0815863275074
 30
0.0
 10
76.18949243971998
 20
176.2786457892637
 30
0.0
 10
76.18949243971998
 20
176.49672033348
 30
0.0
 10
76.2385850503848
 20
176.49672033348
 30
0.0
 10
76.29129501130913
 20
176.49672033348
 30
0.0
 10
76.3441772270077
 20
176.49672033348
 30
0.0
 10
78.32941350038293
 20
176.49672033348
 30
0.0
 10
80.31447751898388
 20
176.49672033348
 30
0.0
 10
82.2997137923591
 20
176.4968925882543
 30
0.0
 10
82.82853594934495
 20
176.4968925882543
 30
0.0
 10
83.26640758552021
 20
176.9333861862354
 30
0.0
 10
83.266924349843
 20
177.4603135407044
 30
0.0
 10
83.26709660461725
 20
177.8454752159553
 30
0.0
 10
83.25572778951593
 20
178.2309814007548
 30
0.0
 10
83.27019719055399
 20
178.6156263116829
 30
0.0
 10
83.28294404384941
 20
178.9554849813028
 30
0.0
 10
83.34598929122947
 20
179.2894869885978
 30
0.0
 10
83.54821639621365
 20
179.5762911877448
 30
0.0
 10
83.78282739875915
 20
179.9089151568457
 30
0.0
 10
84.09254148288312
 20
180.1445596880368
 30
0.0
 10
84.49096677575226
 20
180.243778438012
 30
0.0
 10
84.64375676052309
 20
180.281846743124
 30
0.0
 10
84.80481497445852
 20
180.3038953542296
 30
0.0
 10
84.96208358336018
 20
180.3040676090039
 30
0.0
 10
87.42136499550577
 20
180.3078572140376
 30
0.0
 10
89.88047415287711
 20
180.3066514306178
 30
0.0
 10
92.3397555650227
 20
180.3066514306178
 30
0.0
 10
92.3774793605862
 20
180.3066514306178
 30
0.0
 10
92.41520315614967
 20
180.3066514306178
 30
0.0
 10
92.47221948643056
 20
180.3066514306178
 30
0.0
  0
HATCH
  5
6A
330
3C
100
AcDbEntity
  8
Layer 1
 62
     7
420
 16777215
100
AcDbHatch
 10
0.0
 20
0.0
 30
0.0
210
0.0
220
0.0
230
1.0
  2
SOLID
 70
     1
 71
     0
 91
        1
 92
        1
 93
        1
 72
     4
 94
        3
 73
     0
 74
     1
 95
       74
 96
       70
 40
0.0
 40
0.0
 40
0.0
 40
0.0
 40
1.0
 40
1.0
 40
1.0
 40
2.0
 40
2.0
 40
2.0
 40
3.0
 40
3.0
 40
3.0
 40
4.0
 40
4.0
 40
4.0
 40
5.0
 40
5.0
 40
5.0
 40
6.0
 40
6.0
 40
6.0
 40
7.0
 40
7.0
 40
7.0
 40
8.0
 40
8.0
 40
8.0
 40
9.0
 40
9.0
 40
9.0
 40
10.0
 40
10.0
 40
10.0
 40
11.0
 40
11.0
 40
11.0
 40
12.0
 40
12.0
 40
12.0
 40
13.0
 40
13.0
 40
13.0
 40
14.0
 40
14.0
 40
14.0
 40
15.0
 40
15.0
 40
15.0
 40
16.0
 40
16.0
 40
16.0
 40
17.0
 40
17.0
 40
17.0
 40
18.0
 40
18.0
 40
18.0
 40
19.0
 40
19.0
 40
19.0
 40
20.0
 40
20.0
 40
20.0
 40
21.0
 40
21.0
 40
21.0
 40
22.0
 40
22.0
 40
22.0
 40
23.0
 40
23.0
 40
23.0
 40
23.0
 10
92.47221948643056
 20
180.3066514306178
 10
92.47221948643056
 20
180.1221665673827
 10
92.47256399597909
 20
179.9535291433797
 10
92.4720472316563
 20
179.785063974151
 10
92.47187497688203
 20
179.7562974268491
 10
92.46894664571957
 20
179.7275308795473
 10
92.46636282410563
 20
179.6863619884986
 10
92.41399737272984
 20
179.6863619884986
 10
92.3686943670988
 20
179.6863619884986
 10
92.3232191066935
 20
179.6863619884986
 10
90.72331676334348
 20
179.6863619884986
 10
89.1232421652192
 20
179.6836059121104
 10
87.52333982186917
 20
179.6873955171441
 10
86.67825789933738
 20
179.6894625744353
 10
85.83317597680559
 20
179.7085828543784
 10
84.98809405427382
 20
179.7082383448299
 10
84.75572236379371
 20
179.7080660900556
 10
84.52455645673345
 20
179.6658636703613
 10
84.32353513516912
 20
179.5253037745631
 10
84.06859806926063
 20
179.3470200832014
 10
83.90581730758258
 20
179.1081027112994
 10
83.891003396996
 20
178.7976996080784
 10
83.86878253111614
 20
178.3343342653123
 10
83.87877330802337
 20
177.869590884352
 10
83.85965302808023
 20
177.4060532868117
 10
83.84018823858857
 20
176.9345919696553
 10
83.63951142657277
 20
176.5521863707925
 10
83.26985268100546
 20
176.2500514967361
 10
82.95014781997428
 20
175.9887410041799
 10
82.58806828447452
 20
175.8988240120149
 10
82.1858533865716
 20
175.900202050209
 10
80.99212780093252
 20
175.9045084195656
 10
79.79857447006772
 20
175.9048529291141
 10
78.60484888442865
 20
175.9007188145318
 10
77.84865042541631
 20
175.8981349929178
 10
77.09262422117824
 20
175.8848713752996
 10
76.3364257621659
 20
175.8764308913608
 10
76.29043373743781
 20
175.875914127038
 10
76.24426945793546
 20
175.8764308913608
 10
76.18949243971998
 20
175.8764308913608
 10
76.18949243971998
 20
176.0815863275074
 10
76.18949243971998
 20
176.2786457892637
 10
76.18949243971998
 20
176.49672033348
 10
76.2385850503848
 20
176.49672033348
 10
76.29129501130913
 20
176.49672033348
 10
76.3441772270077
 20
176.49672033348
 10
78.32941350038293
 20
176.49672033348
 10
80.31447751898388
 20
176.49672033348
 10
82.2997137923591
 20
176.4968925882543
 10
82.82853594934495
 20
176.4968925882543
 10
83.26640758552021
 20
176.9333861862354
 10
83.266924349843
 20
177.4603135407044
 10
83.26709660461725
 20
177.8454752159553
 10
83.25572778951593
 20
178.2309814007548
 10
83.27019719055399
 20
178.6156263116829
 10
83.28294404384941
 20
178.9554849813028
 10
83.34598929122947
 20
179.2894869885978
 10
83.54821639621365
 20
179.5762911877448
 10
83.78282739875915
 20
179.9089151568457
 10
84.09254148288312
 20
180.1445596880368
 10
84.49096677575226
 20
180.243778438012
 10
84.64375676052309
 20
180.281846743124
 10
84.80481497445852
 20
180.3038953542296
 10
84.96208358336018
 20
180.3040676090039
 10
87.42136499550577
 20
180.3078572140376
 10
89.88047415287711
 20
180.3066514306178
 10
92.3397555650227
 20
180.3066514306178
 10
92.3774793605862
 20
180.3066514306178
 10
92.41520315614967
 20
180.3066514306178
 10
92.47221948643056
 20
180.3066514306178
 97
        0
 75
     0
 76
     1
 98
        0
  0
SPLINE
  5
6B
330
3C
100
AcDbEntity
  8
Layer 1
370
     0
100
AcDbSpline
210
0.0
220
0.0
230
1.0
 70
    11
 71
     3
 72
    65
 73
    61
 74
     0
 42
0.0000000001
 43
0.0000000001
 40
0.0
 40
0.0
 40
0.0
 40
0.0
 40
1.0
 40
1.0
 40
1.0
 40
2.0
 40
2.0
 40
2.0
 40
3.0
 40
3.0
 40
3.0
 40
4.0
 40
4.0
 40
4.0
 40
5.0
 40
5.0
 40
5.0
 40
6.0
 40
6.0
 40
6.0
 40
7.0
 40
7.0
 40
7.0
 40
8.0
 40
8.0
 40
8.0
 40
9.0
 40
9.0
 40
9.0
 40
10.0
 40
10.0
 40
10.0
 40
11.0
 40
11.0
 40
11.0
 40
12.0
 40
12.0
 40
12.0
 40
13.0
 40
13.0
 40
13.0
 40
14.0
 40
14.0
 40
14.0
 40
15.0
 40
15.0
 40
15.0
 40
16.0
 40
16.0
 40
16.0
 40
17.0
 40
17.0
 40
17.0
 40
18.0
 40
18.0
 40
18.0
 40
19.0
 40
19.0
 40
19.0
 40
20.0
 40
20.0
 40
20.0
 40
20.0
 10
83.89944388093487
 20
167.0277031374966
 30
0.0
 10
83.89944388093487
 20
167.1622341161955
 30
0.0
 10
83.89944388093487
 20
167.2705823692067
 30
0.0
 10
83.89944388093487
 20
167.3930555137073
 30
0.0
 10
83.58852401339107
 20
167.3930555137073
 30
0.0
 10
83.28931747049712
 20
167.3901271825448
 30
0.0
 10
82.99028318237744
 20
167.3937445328044
 30
0.0
 10
82.72018769633385
 20
167.3971896282896
 30
0.0
 10
82.45784367513207
 20
167.360671616146
 30
0.0
 10
82.20394013786915
 20
167.2664482546244
 30
0.0
 10
81.7274834322591
 20
167.0895426014568
 30
0.0
 10
81.4501532456965
 20
166.7502006961597
 30
0.0
 10
81.37281085205264
 20
166.2485947935073
 30
0.0
 10
81.3495564575272
 20
166.0980441208019
 30
0.0
 10
81.33112519668111
 20
165.9466321742252
 30
0.0
 10
81.30855982125273
 20
165.7805785718361
 30
0.0
 10
81.54592690018644
 20
165.7805785718361
 30
0.0
 10
81.75573321523815
 20
165.7805785718361
 30
0.0
 10
81.97380775945447
 20
165.7805785718361
 30
0.0
 10
81.97380775945447
 20
165.3518364386968
 30
0.0
 10
81.97380775945447
 20
164.9349798849815
 30
0.0
 10
81.97380775945447
 20
164.5076157900363
 30
0.0
 10
81.3531738077867
 20
164.5076157900363
 30
0.0
 10
80.73012828927928
 20
164.5076157900363
 30
0.0
 10
80.09950356070429
 20
164.5076157900363
 30
0.0
 10
80.09950356070429
 20
164.9260226367199
 30
0.0
 10
80.09950356070429
 20
165.3428791904351
 30
0.0
 10
80.09950356070429
 20
165.7764444572538
 30
0.0
 10
80.30414223252814
 20
165.7764444572538
 30
0.0
 10
80.50860864957771
 20
165.7764444572538
 30
0.0
 10
80.70618487565679
 20
165.7764444572538
 30
0.0
 10
80.74011906618651
 20
166.0115722241221
 30
0.0
 10
80.76199542251784
 20
166.2315415708553
 30
0.0
 10
80.8048868613092
 20
166.4473768030062
 30
0.0
 10
80.91444089774015
 20
166.999108844969
 30
0.0
 10
81.21536998837672
 20
167.4171711821041
 30
0.0
 10
81.70905217141302
 20
167.6915730375042
 30
0.0
 10
82.09473061098674
 20
167.9058579766867
 30
0.0
 10
82.51399873154165
 20
167.9852674276217
 30
0.0
 10
82.9504923295228
 20
167.9876789944614
 30
0.0
 10
83.26244572571217
 20
167.989401542204
 30
0.0
 10
83.5745713766758
 20
167.98802350401
 30
0.0
 10
83.89841035228929
 20
167.98802350401
 30
0.0
 10
83.89841035228929
 20
168.1008503811519
 30
0.0
 10
83.89841035228929
 20
168.2005858954498
 30
0.0
 10
83.89841035228929
 20
168.3091064032352
 30
0.0
 10
84.53024086428411
 20
168.3091064032352
 30
0.0
 10
85.15035805162908
 20
168.3091064032352
 30
0.0
 10
85.78701169730326
 20
168.3091064032352
 30
0.0
 10
85.78701169730326
 20
168.0839694132742
 30
0.0
 10
85.78701169730326
 20
167.854181544408
 30
0.0
 10
85.78701169730326
 20
167.6090630006325
 30
0.0
 10
88.02218964813335
 20
167.6090630006325
 30
0.0
 10
90.24083114063424
 20
167.6090630006325
 30
0.0
 10
92.46584605978285
 20
167.6090630006325
 30
0.0
 10
92.46584605978285
 20
167.3965006091925
 30
0.0
 10
92.46584605978285
 20
167.1996134022105
 30
0.0
 10
92.46584605978285
 20
166.9732706288296
 30
0.0
 10
89.61451278141583
 20
166.9913573801272
 30
0.0
 10
86.76748587240536
 20
167.0094441314247
 30
0.0
 10
83.89944388093487
 20
167.0277031374966
 30
0.0
  0
HATCH
  5
6C
330
3C
100
AcDbEntity
  8
Layer 1
 62
     7
420
 16777215
100
AcDbHatch
 10
0.0
 20
0.0
 30
0.0
210
0.0
220
0.0
230
1.0
  2
SOLID
 70
     1
 71
     0
 91
        1
 92
        1
 93
        1
 72
     4
 94
        3
 73
     0
 74
     1
 95
       65
 96
       61
 40
0.0
 40
0.0
 40
0.0
 40
0.0
 40
1.0
 40
1.0
 40
1.0
 40
2.0
 40
2.0
 40
2.0
 40
3.0
 40
3.0
 40
3.0
 40
4.0
 40
4.0
 40
4.0
 40
5.0
 40
5.0
 40
5.0
 40
6.0
 40
6.0
 40
6.0
 40
7.0
 40
7.0
 40
7.0
 40
8.0
 40
8.0
 40
8.0
 40
9.0
 40
9.0
 40
9.0
 40
10.0
 40
10.0
 40
10.0
 40
11.0
 40
11.0
 40
11.0
 40
12.0
 40
12.0
 40
12.0
 40
13.0
 40
13.0
 40
13.0
 40
14.0
 40
14.0
 40
14.0
 40
15.0
 40
15.0
 40
15.0
 40
16.0
 40
16.0
 40
16.0
 40
17.0
 40
17.0
 40
17.0
 40
18.0
 40
18.0
 40
18.0
 40
19.0
 40
19.0
 40
19.0
 40
20.0
 40
20.0
 40
20.0
 40
20.0
 10
83.89944388093487
 20
167.0277031374966
 10
83.89944388093487
 20
167.1622341161955
 10
83.89944388093487
 20
167.2705823692067
 10
83.89944388093487
 20
167.3930555137073
 10
83.58852401339107
 20
167.3930555137073
 10
83.28931747049712
 20
167.3901271825448
 10
82.99028318237744
 20
167.3937445328044
 10
82.72018769633385
 20
167.3971896282896
 10
82.45784367513207
 20
167.360671616146
 10
82.20394013786915
 20
167.2664482546244
 10
81.7274834322591
 20
167.0895426014568
 10
81.4501532456965
 20
166.7502006961597
 10
81.37281085205264
 20
166.2485947935073
 10
81.3495564575272
 20
166.0980441208019
 10
81.33112519668111
 20
165.9466321742252
 10
81.30855982125273
 20
165.7805785718361
 10
81.54592690018644
 20
165.7805785718361
 10
81.75573321523815
 20
165.7805785718361
 10
81.97380775945447
 20
165.7805785718361
 10
81.97380775945447
 20
165.3518364386968
 10
81.97380775945447
 20
164.9349798849815
 10
81.97380775945447
 20
164.5076157900363
 10
81.3531738077867
 20
164.5076157900363
 10
80.73012828927928
 20
164.5076157900363
 10
80.09950356070429
 20
164.5076157900363
 10
80.09950356070429
 20
164.9260226367199
 10
80.09950356070429
 20
165.3428791904351
 10
80.09950356070429
 20
165.7764444572538
 10
80.30414223252814
 20
165.7764444572538
 10
80.50860864957771
 20
165.7764444572538
 10
80.70618487565679
 20
165.7764444572538
 10
80.74011906618651
 20
166.0115722241221
 10
80.76199542251784
 20
166.2315415708553
 10
80.8048868613092
 20
166.4473768030062
 10
80.91444089774015
 20
166.999108844969
 10
81.21536998837672
 20
167.4171711821041
 10
81.70905217141302
 20
167.6915730375042
 10
82.09473061098674
 20
167.9058579766867
 10
82.51399873154165
 20
167.9852674276217
 10
82.9504923295228
 20
167.9876789944614
 10
83.26244572571217
 20
167.989401542204
 10
83.5745713766758
 20
167.98802350401
 10
83.89841035228929
 20
167.98802350401
 10
83.89841035228929
 20
168.1008503811519
 10
83.89841035228929
 20
168.2005858954498
 10
83.89841035228929
 20
168.3091064032352
 10
84.53024086428411
 20
168.3091064032352
 10
85.15035805162908
 20
168.3091064032352
 10
85.78701169730326
 20
168.3091064032352
 10
85.78701169730326
 20
168.0839694132742
 10
85.78701169730326
 20
167.854181544408
 10
85.78701169730326
 20
167.6090630006325
 10
88.02218964813335
 20
167.6090630006325
 10
90.24083114063424
 20
167.6090630006325
 10
92.46584605978285
 20
167.6090630006325
 10
92.46584605978285
 20
167.3965006091925
 10
92.46584605978285
 20
167.1996134022105
 10
92.46584605978285
 20
166.9732706288296
 10
89.61451278141583
 20
166.9913573801272
 10
86.76748587240536
 20
167.0094441314247
 10
83.89944388093487
 20
167.0277031374966
 97
        0
 75
     0
 76
     1
 98
        0
  0
SPLINE
  5
6D
330
3C
100
AcDbEntity
  8
Layer 1
370
     0
100
AcDbSpline
210
0.0
220
0.0
230
1.0
 70
    11
 71
     3
 72
    65
 73
    61
 74
     0
 42
0.0000000001
 43
0.0000000001
 40
0.0
 40
0.0
 40
0.0
 40
0.0
 40
1.0
 40
1.0
 40
1.0
 40
2.0
 40
2.0
 40
2.0
 40
3.0
 40
3.0
 40
3.0
 40
4.0
 40
4.0
 40
4.0
 40
5.0
 40
5.0
 40
5.0
 40
6.0
 40
6.0
 40
6.0
 40
7.0
 40
7.0
 40
7.0
 40
8.0
 40
8.0
 40
8.0
 40
9.0
 40
9.0
 40
9.0
 40
10.0
 40
10.0
 40
10.0
 40
11.0
 40
11.0
 40
11.0
 40
12.0
 40
12.0
 40
12.0
 40
13.0
 40
13.0
 40
13.0
 40
14.0
 40
14.0
 40
14.0
 40
15.0
 40
15.0
 40
15.0
 40
16.0
 40
16.0
 40
16.0
 40
17.0
 40
17.0
 40
17.0
 40
18.0
 40
18.0
 40
18.0
 40
19.0
 40
19.0
 40
19.0
 40
20.0
 40
20.0
 40
20.0
 40
20.0
 10
92.46584605978285
 20
177.1464653419981
 30
0.0
 10
92.40659041743655
 20
177.1464653419981
 30
0.0
 10
92.3604261379342
 20
177.1464653419981
 30
0.0
 10
92.31408960365759
 20
177.1464653419981
 30
0.0
 10
90.71832137488987
 20
177.1464653419981
 30
0.0
 10
89.12238089134789
 20
177.1440537751584
 30
0.0
 10
87.52661266258016
 20
177.1474988706437
 30
0.0
 10
86.92699379337242
 20
177.1488769088378
 30
0.0
 10
86.32720266939043
 20
177.158178666648
 30
0.0
 10
85.72775605495696
 20
177.1738538511059
 30
0.0
 10
85.4216593210925
 20
177.1819498254962
 30
0.0
 10
85.11349552993691
 20
176.889805728347
 30
0.0
 10
85.10815563193476
 20
176.5585597974402
 30
0.0
 10
85.10626082941788
 20
176.441598805716
 30
0.0
 10
85.1314100264602
 20
176.3244655592175
 30
0.0
 10
85.1305487525889
 20
176.2075045674933
 30
0.0
 10
85.12624238323234
 20
175.6996974929674
 30
0.0
 10
84.9257378259908
 20
175.2902478945455
 30
0.0
 10
84.52593449492755
 20
174.969681759643
 30
0.0
 10
84.23396265255262
 20
174.7355875214203
 30
0.0
 10
83.90650632667963
 20
174.6322346568628
 30
0.0
 10
83.53994816704905
 20
174.6320624020885
 30
0.0
 10
81.89319252509962
 20
174.6315456377657
 30
0.0
 10
80.24660913792447
 20
174.6343017141539
 30
0.0
 10
78.59985349597504
 20
174.6306843638944
 30
0.0
 10
77.84796140631926
 20
174.6289618161518
 30
0.0
 10
77.09589706188922
 20
174.6148369246623
 30
0.0
 10
76.34400497223345
 20
174.6065686954977
 30
0.0
 10
76.29405108769733
 20
174.6058796764006
 30
0.0
 10
76.24426945793546
 20
174.6063964407234
 30
0.0
 10
76.1875976372031
 20
174.6063964407234
 30
0.0
 10
76.1875976372031
 20
174.8155137366781
 30
0.0
 10
76.1875976372031
 20
175.0124009436601
 30
0.0
 10
76.1875976372031
 20
175.2268581376169
 30
0.0
 10
76.2427191649671
 20
175.2268581376169
 30
0.0
 10
76.29611814498847
 20
175.2268581376169
 30
0.0
 10
76.34934487023558
 20
175.2268581376169
 30
0.0
 10
78.76228974810456
 20
175.2268581376169
 30
0.0
 10
81.17506237119929
 20
175.2246188255515
 30
0.0
 10
83.58783499429401
 20
175.2285806853595
 30
0.0
 10
84.13629419554579
 20
175.2294419592309
 30
0.0
 10
84.56004094023152
 20
175.7014200407101
 30
0.0
 10
84.53092988338116
 20
176.2083658413646
 30
0.0
 10
84.51818303008574
 20
176.431091264486
 30
0.0
 10
84.50285235517637
 20
176.6464097323141
 30
0.0
 10
84.56055770455431
 20
176.8646565313047
 30
0.0
 10
84.65805390678688
 20
177.2346597864205
 30
0.0
 10
84.89542098572059
 20
177.4818453874872
 30
0.0
 10
85.22459985933621
 20
177.6566839833636
 30
0.0
 10
85.36894936016819
 20
177.7331651031362
 30
0.0
 10
85.51691621125967
 20
177.7689940961828
 30
0.0
 10
85.68176403022886
 20
177.7686495866342
 30
0.0
 10
87.88714190511155
 20
177.765893510246
 30
0.0
 10
90.0926920347685
 20
177.7667547841174
 30
0.0
 10
92.29806990965118
 20
177.7667547841174
 30
0.0
 10
92.35181339922107
 20
177.7667547841174
 30
0.0
 10
92.40572914356524
 20
177.7667547841174
 30
0.0
 10
92.46584605978285
 20
177.7667547841174
 30
0.0
 10
92.46584605978285
 20
177.5562594499686
 30
0.0
 10
92.46584605978285
 20
177.3593722429866
 30
0.0
 10
92.46584605978285
 20
177.1464653419981
 30
0.0
  0
HATCH
  5
6E
330
3C
100
AcDbEntity
  8
Layer 1
 62
     7
420
 16777215
100
AcDbHatch
 10
0.0
 20
0.0
 30
0.0
210
0.0
220
0.0
230
1.0
  2
SOLID
 70
     1
 71
     0
 91
        1
 92
        1
 93
        1
 72
     4
 94
        3
 73
     0
 74
     1
 95
       65
 96
       61
 40
0.0
 40
0.0
 40
0.0
 40
0.0
 40
1.0
 40
1.0
 40
1.0
 40
2.0
 40
2.0
 40
2.0
 40
3.0
 40
3.0
 40
3.0
 40
4.0
 40
4.0
 40
4.0
 40
5.0
 40
5.0
 40
5.0
 40
6.0
 40
6.0
 40
6.0
 40
7.0
 40
7.0
 40
7.0
 40
8.0
 40
8.0
 40
8.0
 40
9.0
 40
9.0
 40
9.0
 40
10.0
 40
10.0
 40
10.0
 40
11.0
 40
11.0
 40
11.0
 40
12.0
 40
12.0
 40
12.0
 40
13.0
 40
13.0
 40
13.0
 40
14.0
 40
14.0
 40
14.0
 40
15.0
 40
15.0
 40
15.0
 40
16.0
 40
16.0
 40
16.0
 40
17.0
 40
17.0
 40
17.0
 40
18.0
 40
18.0
 40
18.0
 40
19.0
 40
19.0
 40
19.0
 40
20.0
 40
20.0
 40
20.0
 40
20.0
 10
92.46584605978285
 20
177.1464653419981
 10
92.40659041743655
 20
177.1464653419981
 10
92.3604261379342
 20
177.1464653419981
 10
92.31408960365759
 20
177.1464653419981
 10
90.71832137488987
 20
177.1464653419981
 10
89.12238089134789
 20
177.1440537751584
 10
87.52661266258016
 20
177.1474988706437
 10
86.92699379337242
 20
177.1488769088378
 10
86.32720266939043
 20
177.158178666648
 10
85.72775605495696
 20
177.1738538511059
 10
85.4216593210925
 20
177.1819498254962
 10
85.11349552993691
 20
176.889805728347
 10
85.10815563193476
 20
176.5585597974402
 10
85.10626082941788
 20
176.441598805716
 10
85.1314100264602
 20
176.3244655592175
 10
85.1305487525889
 20
176.2075045674933
 10
85.12624238323234
 20
175.6996974929674
 10
84.9257378259908
 20
175.2902478945455
 10
84.52593449492755
 20
174.969681759643
 10
84.23396265255262
 20
174.7355875214203
 10
83.90650632667963
 20
174.6322346568628
 10
83.53994816704905
 20
174.6320624020885
 10
81.89319252509962
 20
174.6315456377657
 10
80.24660913792447
 20
174.6343017141539
 10
78.59985349597504
 20
174.6306843638944
 10
77.84796140631926
 20
174.6289618161518
 10
77.09589706188922
 20
174.6148369246623
 10
76.34400497223345
 20
174.6065686954977
 10
76.29405108769733
 20
174.6058796764006
 10
76.24426945793546
 20
174.6063964407234
 10
76.1875976372031
 20
174.6063964407234
 10
76.1875976372031
 20
174.8155137366781
 10
76.1875976372031
 20
175.0124009436601
 10
76.1875976372031
 20
175.2268581376169
 10
76.2427191649671
 20
175.2268581376169
 10
76.29611814498847
 20
175.2268581376169
 10
76.34934487023558
 20
175.2268581376169
 10
78.76228974810456
 20
175.2268581376169
 10
81.17506237119929
 20
175.2246188255515
 10
83.58783499429401
 20
175.2285806853595
 10
84.13629419554579
 20
175.2294419592309
 10
84.56004094023152
 20
175.7014200407101
 10
84.53092988338116
 20
176.2083658413646
 10
84.51818303008574
 20
176.431091264486
 10
84.50285235517637
 20
176.6464097323141
 10
84.56055770455431
 20
176.8646565313047
 10
84.65805390678688
 20
177.2346597864205
 10
84.89542098572059
 20
177.4818453874872
 10
85.22459985933621
 20
177.6566839833636
 10
85.36894936016819
 20
177.7331651031362
 10
85.51691621125967
 20
177.7689940961828
 10
85.68176403022886
 20
177.7686495866342
 10
87.88714190511155
 20
177.765893510246
 10
90.0926920347685
 20
177.7667547841174
 10
92.29806990965118
 20
177.7667547841174
 10
92.35181339922107
 20
177.7667547841174
 10
92.40572914356524
 20
177.7667547841174
 10
92.46584605978285
 20
177.7667547841174
 10
92.46584605978285
 20
177.5562594499686
 10
92.46584605978285
 20
177.3593722429866
 10
92.46584605978285
 20
177.1464653419981
 97
        0
 75
     0
 76
     1
 98
        0
  0
SPLINE
  5
6F
330
3C
100
AcDbEntity
  8
Layer 1
370
     0
100
AcDbSpline
210
0.0
220
0.0
230
1.0
 70
    11
 71
     3
 72
    65
 73
    61
 74
     0
 42
0.0000000001
 43
0.0000000001
 40
0.0
 40
0.0
 40
0.0
 40
0.0
 40
1.0
 40
1.0
 40
1.0
 40
2.0
 40
2.0
 40
2.0
 40
3.0
 40
3.0
 40
3.0
 40
4.0
 40
4.0
 40
4.0
 40
5.0
 40
5.0
 40
5.0
 40
6.0
 40
6.0
 40
6.0
 40
7.0
 40
7.0
 40
7.0
 40
8.0
 40
8.0
 40
8.0
 40
9.0
 40
9.0
 40
9.0
 40
10.0
 40
10.0
 40
10.0
 40
11.0
 40
11.0
 40
11.0
 40
12.0
 40
12.0
 40
12.0
 40
13.0
 40
13.0
 40
13.0
 40
14.0
 40
14.0
 40
14.0
 40
15.0
 40
15.0
 40
15.0
 40
16.0
 40
16.0
 40
16.0
 40
17.0
 40
17.0
 40
17.0
 40
18.0
 40
18.0
 40
18.0
 40
19.0
 40
19.0
 40
19.0
 40
20.0
 40
20.0
 40
20.0
 40
20.0
 10
56.90815428264796
 20
186.3495211665203
 30
0.0
 10
56.90815428264796
 20
187.1963256367947
 30
0.0
 10
56.90815428264796
 20
188.0364121708728
 30
0.0
 10
56.90815428264796
 20
188.8842501697928
 30
0.0
 10
57.75409747905106
 20
188.8842501697928
 30
0.0
 10
58.5943562679035
 20
188.8842501697928
 30
0.0
 10
59.45115151508513
 20
188.8842501697928
 30
0.0
 10
59.45115151508513
 20
188.5697129519895
 30
0.0
 10
59.45115151508513
 20
188.2551757341862
 30
0.0
 10
59.45115151508513
 20
187.9265136248934
 30
0.0
 10
59.51695283885341
 20
187.9265136248934
 30
0.0
 10
59.56638995906674
 20
187.9265136248934
 30
0.0
 10
59.61599933405434
 20
187.9265136248934
 30
0.0
 10
60.36926946190421
 20
187.9265136248934
 30
0.0
 10
61.12271184452835
 20
187.928925191733
 30
0.0
 10
61.87598197237823
 20
187.924963331925
 30
0.0
 10
62.08992240201224
 20
187.9239298032794
 30
0.0
 10
62.28956568538247
 20
187.8734591544205
 30
0.0
 10
62.44046086763642
 20
187.7001708515125
 30
0.0
 10
62.54329696787112
 20
187.5818318215941
 30
0.0
 10
62.61288789667317
 20
187.456430345931
 30
0.0
 10
62.60410290318578
 20
187.2929605651559
 30
0.0
 10
62.59704045744102
 20
187.163080465362
 30
0.0
 10
62.60255261021742
 20
187.0323390916968
 30
0.0
 10
62.60255261021742
 20
186.8921237054471
 30
0.0
 10
62.67955049431276
 20
186.8879895908648
 30
0.0
 10
62.74552407285529
 20
186.8843722406053
 30
0.0
 10
62.82131617353078
 20
186.880238126023
 30
0.0
 10
62.82131617353078
 20
186.4080877897695
 30
0.0
 10
62.82131617353078
 20
185.9373154917101
 30
0.0
 10
62.82131617353078
 20
185.4591362383574
 30
0.0
 10
62.48662514713876
 20
185.4591362383574
 30
0.0
 10
62.15434568758641
 20
185.4591362383574
 30
0.0
 10
61.81328123454669
 20
185.4591362383574
 30
0.0
 10
61.81328123454669
 20
185.928702752997
 30
0.0
 10
61.81328123454669
 20
186.3963744651197
 30
0.0
 10
61.81328123454669
 20
186.8774820496348
 30
0.0
 10
61.86978080050478
 20
186.8817884189914
 30
0.0
 10
61.9307589905937
 20
186.8864392978965
 30
0.0
 10
62.00689560081772
 20
186.8922959602214
 30
0.0
 10
62.00689560081772
 20
187.0128743022051
 30
0.0
 10
62.01120197017428
 20
187.1303520582521
 30
0.0
 10
62.003795014881
 20
187.2469685404278
 30
0.0
 10
62.00207246713838
 20
187.2743570495356
 30
0.0
 10
61.96589896454325
 20
187.3096692782594
 30
0.0
 10
61.93730467201568
 20
187.3222438767806
 30
0.0
 10
61.90474851968006
 20
187.3365410230443
 30
0.0
 10
61.86289060953428
 20
187.3312011250422
 30
0.0
 10
61.82499455919653
 20
187.3312011250422
 30
0.0
 10
61.08016491528551
 20
187.3315456345907
 30
0.0
 10
60.3353352713745
 20
187.3315456345907
 30
0.0
 10
59.59050562746349
 20
187.3312011250422
 30
0.0
 10
59.54933673641475
 20
187.3312011250422
 30
0.0
 10
59.50816784536602
 20
187.3272392652342
 30
0.0
 10
59.45545788444169
 20
187.3246554436202
 30
0.0
 10
59.45545788444169
 20
186.9973713725215
 30
0.0
 10
59.45545788444169
 20
186.6776665114903
 30
0.0
 10
59.45545788444169
 20
186.3495211665203
 30
0.0
 10
58.60331351616514
 20
186.3495211665203
 30
0.0
 10
57.76305472731271
 20
186.3495211665203
 30
0.0
 10
56.90815428264796
 20
186.3495211665203
 30
0.0
  0
HATCH
  5
70
330
3C
100
AcDbEntity
  8
Layer 1
 62
     7
420
 16777215
100
AcDbHatch
 10
0.0
 20
0.0
 30
0.0
210
0.0
220
0.0
230
1.0
  2
SOLID
 70
     1
 71
     0
 91
        1
 92
        1
 93
        1
 72
     4
 94
        3
 73
     0
 74
     1
 95
       65
 96
       61
 40
0.0
 40
0.0
 40
0.0
 40
0.0
 40
1.0
 40
1.0
 40
1.0
 40
2.0
 40
2.0
 40
2.0
 40
3.0
 40
3.0
 40
3.0
 40
4.0
 40
4.0
 40
4.0
 40
5.0
 40
5.0
 40
5.0
 40
6.0
 40
6.0
 40
6.0
 40
7.0
 40
7.0
 40
7.0
 40
8.0
 40
8.0
 40
8.0
 40
9.0
 40
9.0
 40
9.0
 40
10.0
 40
10.0
 40
10.0
 40
11.0
 40
11.0
 40
11.0
 40
12.0
 40
12.0
 40
12.0
 40
13.0
 40
13.0
 40
13.0
 40
14.0
 40
14.0
 40
14.0
 40
15.0
 40
15.0
 40
15.0
 40
16.0
 40
16.0
 40
16.0
 40
17.0
 40
17.0
 40
17.0
 40
18.0
 40
18.0
 40
18.0
 40
19.0
 40
19.0
 40
19.0
 40
20.0
 40
20.0
 40
20.0
 40
20.0
 10
56.90815428264796
 20
186.3495211665203
 10
56.90815428264796
 20
187.1963256367947
 10
56.90815428264796
 20
188.0364121708728
 10
56.90815428264796
 20
188.8842501697928
 10
57.75409747905106
 20
188.8842501697928
 10
58.5943562679035
 20
188.8842501697928
 10
59.45115151508513
 20
188.8842501697928
 10
59.45115151508513
 20
188.5697129519895
 10
59.45115151508513
 20
188.2551757341862
 10
59.45115151508513
 20
187.9265136248934
 10
59.51695283885341
 20
187.9265136248934
 10
59.56638995906674
 20
187.9265136248934
 10
59.61599933405434
 20
187.9265136248934
 10
60.36926946190421
 20
187.9265136248934
 10
61.12271184452835
 20
187.928925191733
 10
61.87598197237823
 20
187.924963331925
 10
62.08992240201224
 20
187.9239298032794
 10
62.28956568538247
 20
187.8734591544205
 10
62.44046086763642
 20
187.7001708515125
 10
62.54329696787112
 20
187.5818318215941
 10
62.61288789667317
 20
187.456430345931
 10
62.60410290318578
 20
187.2929605651559
 10
62.59704045744102
 20
187.163080465362
 10
62.60255261021742
 20
187.0323390916968
 10
62.60255261021742
 20
186.8921237054471
 10
62.67955049431276
 20
186.8879895908648
 10
62.74552407285529
 20
186.8843722406053
 10
62.82131617353078
 20
186.880238126023
 10
62.82131617353078
 20
186.4080877897695
 10
62.82131617353078
 20
185.9373154917101
 10
62.82131617353078
 20
185.4591362383574
 10
62.48662514713876
 20
185.4591362383574
 10
62.15434568758641
 20
185.4591362383574
 10
61.81328123454669
 20
185.4591362383574
 10
61.81328123454669
 20
185.928702752997
 10
61.81328123454669
 20
186.3963744651197
 10
61.81328123454669
 20
186.8774820496348
 10
61.86978080050478
 20
186.8817884189914
 10
61.9307589905937
 20
186.8864392978965
 10
62.00689560081772
 20
186.8922959602214
 10
62.00689560081772
 20
187.0128743022051
 10
62.01120197017428
 20
187.1303520582521
 10
62.003795014881
 20
187.2469685404278
 10
62.00207246713838
 20
187.2743570495356
 10
61.96589896454325
 20
187.3096692782594
 10
61.93730467201568
 20
187.3222438767806
 10
61.90474851968006
 20
187.3365410230443
 10
61.86289060953428
 20
187.3312011250422
 10
61.82499455919653
 20
187.3312011250422
 10
61.08016491528551
 20
187.3315456345907
 10
60.3353352713745
 20
187.3315456345907
 10
59.59050562746349
 20
187.3312011250422
 10
59.54933673641475
 20
187.3312011250422
 10
59.50816784536602
 20
187.3272392652342
 10
59.45545788444169
 20
187.3246554436202
 10
59.45545788444169
 20
186.9973713725215
 10
59.45545788444169
 20
186.6776665114903
 10
59.45545788444169
 20
186.3495211665203
 10
58.60331351616514
 20
186.3495211665203
 10
57.76305472731271
 20
186.3495211665203
 10
56.90815428264796
 20
186.3495211665203
 97
        0
 75
     0
 76
     1
 98
        0
  0
SPLINE
  5
71
330
3C
100
AcDbEntity
  8
Layer 1
370
     0
100
AcDbSpline
210
0.0
220
0.0
230
1.0
 70
    11
 71
     3
 72
    41
 73
    37
 74
     0
 42
0.0000000001
 43
0.0000000001
 40
0.0
 40
0.0
 40
0.0
 40
0.0
 40
1.0
 40
1.0
 40
1.0
 40
2.0
 40
2.0
 40
2.0
 40
3.0
 40
3.0
 40
3.0
 40
4.0
 40
4.0
 40
4.0
 40
5.0
 40
5.0
 40
5.0
 40
6.0
 40
6.0
 40
6.0
 40
7.0
 40
7.0
 40
7.0
 40
8.0
 40
8.0
 40
8.0
 40
9.0
 40
9.0
 40
9.0
 40
10.0
 40
10.0
 40
10.0
 40
11.0
 40
11.0
 40
11.0
 40
12.0
 40
12.0
 40
12.0
 40
12.0
 10
72.54837102135944
 20
185.3542330808316
 30
0.0
 10
72.27775877099306
 20
185.3542330808316
 30
0.0
 10
72.01610376888834
 20
185.3542330808316
 30
0.0
 10
71.73791230845441
 20
185.3542330808316
 30
0.0
 10
71.73791230845441
 20
185.5194254093493
 30
0.0
 10
71.73791230845441
 20
185.6816894067046
 30
0.0
 10
71.73791230845441
 20
185.8508435950303
 30
0.0
 10
69.39128551867648
 20
185.8508435950303
 30
0.0
 10
67.06119518722775
 20
185.8508435950303
 30
0.0
 10
64.71456839744984
 20
185.8508435950303
 30
0.0
 10
64.71456839744984
 20
185.7218247691077
 30
0.0
 10
64.71456839744984
 20
185.5934949622822
 30
0.0
 10
64.71456839744984
 20
185.4589639835832
 30
0.0
 10
64.36575247956829
 20
185.4589639835832
 30
0.0
 10
64.03330076524168
 20
185.4589639835832
 30
0.0
 10
63.69240856697621
 20
185.4589639835832
 30
0.0
 10
63.69240856697621
 20
185.9292195173198
 30
0.0
 10
63.69240856697621
 20
186.3970634842167
 30
0.0
 10
63.69240856697621
 20
186.8750704827951
 30
0.0
 10
64.02554930039986
 20
186.8750704827951
 30
0.0
 10
64.36075709111468
 20
186.8750704827951
 30
0.0
 10
64.70836722557638
 20
186.8750704827951
 30
0.0
 10
64.70836722557638
 20
186.7398504849991
 30
0.0
 10
64.70836722557638
 20
186.6061807801714
 30
0.0
 10
64.70836722557638
 20
186.4632093175335
 30
0.0
 10
67.05344372238595
 20
186.4632093175335
 30
0.0
 10
69.3866346397714
 20
186.4632093175335
 30
0.0
 10
71.73171113658097
 20
186.4632093175335
 30
0.0
 10
71.73171113658097
 20
186.6166883214014
 30
0.0
 10
71.73171113658097
 20
186.7672389941068
 30
0.0
 10
71.73171113658097
 20
186.9267469150739
 30
0.0
 10
72.00818004927227
 20
186.9267469150739
 30
0.0
 10
72.27293563731371
 20
186.9267469150739
 30
0.0
 10
72.54837102135944
 20
186.9267469150739
 30
0.0
 10
72.54837102135944
 20
186.4092935731894
 30
0.0
 10
72.54837102135944
 20
185.8878783714968
 30
0.0
 10
72.54837102135944
 20
185.3542330808316
 30
0.0
  0
HATCH
  5
72
330
3C
100
AcDbEntity
  8
Layer 1
 62
     7
420
 16777215
100
AcDbHatch
 10
0.0
 20
0.0
 30
0.0
210
0.0
220
0.0
230
1.0
  2
SOLID
 70
     1
 71
     0
 91
        1
 92
        1
 93
        1
 72
     4
 94
        3
 73
     0
 74
     1
 95
       41
 96
       37
 40
0.0
 40
0.0
 40
0.0
 40
0.0
 40
1.0
 40
1.0
 40
1.0
 40
2.0
 40
2.0
 40
2.0
 40
3.0
 40
3.0
 40
3.0
 40
4.0
 40
4.0
 40
4.0
 40
5.0
 40
5.0
 40
5.0
 40
6.0
 40
6.0
 40
6.0
 40
7.0
 40
7.0
 40
7.0
 40
8.0
 40
8.0
 40
8.0
 40
9.0
 40
9.0
 40
9.0
 40
10.0
 40
10.0
 40
10.0
 40
11.0
 40
11.0
 40
11.0
 40
12.0
 40
12.0
 40
12.0
 40
12.0
 10
72.54837102135944
 20
185.3542330808316
 10
72.27775877099306
 20
185.3542330808316
 10
72.01610376888834
 20
185.3542330808316
 10
71.73791230845441
 20
185.3542330808316
 10
71.73791230845441
 20
185.5194254093493
 10
71.73791230845441
 20
185.6816894067046
 10
71.73791230845441
 20
185.8508435950303
 10
69.39128551867648
 20
185.8508435950303
 10
67.06119518722775
 20
185.8508435950303
 10
64.71456839744984
 20
185.8508435950303
 10
64.71456839744984
 20
185.7218247691077
 10
64.71456839744984
 20
185.5934949622822
 10
64.71456839744984
 20
185.4589639835832
 10
64.36575247956829
 20
185.4589639835832
 10
64.03330076524168
 20
185.4589639835832
 10
63.69240856697621
 20
185.4589639835832
 10
63.69240856697621
 20
185.9292195173198
 10
63.69240856697621
 20
186.3970634842167
 10
63.69240856697621
 20
186.8750704827951
 10
64.02554930039986
 20
186.8750704827951
 10
64.36075709111468
 20
186.8750704827951
 10
64.70836722557638
 20
186.8750704827951
 10
64.70836722557638
 20
186.7398504849991
 10
64.70836722557638
 20
186.6061807801714
 10
64.70836722557638
 20
186.4632093175335
 10
67.05344372238595
 20
186.4632093175335
 10
69.3866346397714
 20
186.4632093175335
 10
71.73171113658097
 20
186.4632093175335
 10
71.73171113658097
 20
186.6166883214014
 10
71.73171113658097
 20
186.7672389941068
 10
71.73171113658097
 20
186.9267469150739
 10
72.00818004927227
 20
186.9267469150739
 10
72.27293563731371
 20
186.9267469150739
 10
72.54837102135944
 20
186.9267469150739
 10
72.54837102135944
 20
186.4092935731894
 10
72.54837102135944
 20
185.8878783714968
 10
72.54837102135944
 20
185.3542330808316
 97
        0
 75
     0
 76
     1
 98
        0
  0
SPLINE
  5
73
330
3C
100
AcDbEntity
  8
Layer 1
370
     0
100
AcDbSpline
210
0.0
220
0.0
230
1.0
 70
    11
 71
     3
 72
    62
 73
    58
 74
     0
 42
0.0000000001
 43
0.0000000001
 40
0.0
 40
0.0
 40
0.0
 40
0.0
 40
1.0
 40
1.0
 40
1.0
 40
2.0
 40
2.0
 40
2.0
 40
3.0
 40
3.0
 40
3.0
 40
4.0
 40
4.0
 40
4.0
 40
5.0
 40
5.0
 40
5.0
 40
6.0
 40
6.0
 40
6.0
 40
7.0
 40
7.0
 40
7.0
 40
8.0
 40
8.0
 40
8.0
 40
9.0
 40
9.0
 40
9.0
 40
10.0
 40
10.0
 40
10.0
 40
11.0
 40
11.0
 40
11.0
 40
12.0
 40
12.0
 40
12.0
 40
13.0
 40
13.0
 40
13.0
 40
14.0
 40
14.0
 40
14.0
 40
15.0
 40
15.0
 40
15.0
 40
16.0
 40
16.0
 40
16.0
 40
17.0
 40
17.0
 40
17.0
 40
18.0
 40
18.0
 40
18.0
 40
19.0
 40
19.0
 40
19.0
 40
19.0
 10
68.99906139768079
 20
177.1171820303735
 30
0.0
 10
69.04953204653971
 20
177.0966837122363
 30
0.0
 10
69.09828014765598
 20
177.0674004006116
 30
0.0
 10
69.15064559903179
 20
177.0572373689301
 30
0.0
 10
69.33271889542723
 20
177.0220973949806
 30
0.0
 10
69.46742212890051
 20
177.0927218524282
 30
0.0
 10
69.59041203772392
 20
177.2317314552581
 30
0.0
 10
69.73252222649049
 20
177.3921006500964
 30
0.0
 10
69.89254691178034
 20
177.5385172082196
 30
0.0
 10
70.05825600462086
 20
177.6745984798869
 30
0.0
 10
70.12354056406635
 20
177.7281697146825
 30
0.0
 10
70.22534313565548
 20
177.7622761599865
 30
0.0
 10
70.31078150368967
 20
177.7627929243093
 30
0.0
 10
71.246124927935
 20
177.7686495866342
 30
0.0
 10
72.18146835218033
 20
177.7662380197946
 30
0.0
 10
73.11681177642566
 20
177.7655490006975
 30
0.0
 10
73.12869735584977
 20
177.7655490006975
 30
0.0
 10
73.14075519004815
 20
177.7608981217924
 30
0.0
 10
73.16056448908833
 20
177.7565917524359
 30
0.0
 10
73.16056448908833
 20
177.5597045454538
 30
0.0
 10
73.16056448908833
 20
177.3628173384718
 30
0.0
 10
73.16056448908833
 20
177.1545613163885
 30
0.0
 10
73.12611353423584
 20
177.1518052400002
 30
0.0
 10
73.08994003164071
 20
177.1468098515466
 30
0.0
 10
73.05359427427133
 20
177.1468098515466
 30
0.0
 10
72.39764809387975
 20
177.1462930872239
 30
0.0
 10
71.74152965871393
 20
177.144398284707
 30
0.0
 10
71.08558347832236
 20
177.1474988706437
 30
0.0
 10
70.87973902307868
 20
177.1485323992893
 30
0.0
 10
70.67372231306074
 20
177.1692029722008
 30
0.0
 10
70.46787785781706
 20
177.1679971887809
 30
0.0
 10
70.40931123456781
 20
177.1676526792324
 30
0.0
 10
70.3381700127974
 20
177.1359578007681
 30
0.0
 10
70.29476180968325
 20
177.0953056740422
 30
0.0
 10
70.10976018212534
 20
176.9216728615856
 30
0.0
 10
69.9307874716666
 20
176.7413221129327
 30
0.0
 10
69.75439858282182
 20
176.5587320522145
 30
0.0
 10
69.68463539924551
 20
176.4867295565728
 30
0.0
 10
69.60987682721559
 20
176.4543456590114
 30
0.0
 10
69.50910778427203
 20
176.4588242831422
 30
0.0
 10
69.35735132814678
 20
176.4655422193385
 30
0.0
 10
69.20507810769874
 20
176.4605468308849
 30
0.0
 10
69.04539793195741
 20
176.4605468308849
 30
0.0
 10
69.0348903907274
 20
176.417999901642
 30
0.0
 10
69.02558863291722
 20
176.3795870869815
 30
0.0
 10
69.01559785600999
 20
176.3382459411585
 30
0.0
 10
67.71679685807081
 20
176.3382459411585
 30
0.0
 10
66.42247448426244
 20
176.3382459411585
 30
0.0
 10
65.11730005967554
 20
176.3382459411585
 30
0.0
 10
65.11730005967554
 20
176.6061021151367
 30
0.0
 10
65.11730005967554
 20
176.8736137795663
 30
0.0
 10
65.11730005967554
 20
177.1492214183863
 30
0.0
 10
66.41420625509784
 20
177.1492214183863
 30
0.0
 10
67.71162921484293
 20
177.1492214183863
 30
0.0
 10
69.00887991981375
 20
177.1492214183863
 30
0.0
 10
69.00560707910277
 20
177.138541622382
 30
0.0
 10
69.00233423839178
 20
177.1278618263778
 30
0.0
 10
68.99906139768079
 20
177.1171820303735
 30
0.0
  0
HATCH
  5
74
330
3C
100
AcDbEntity
  8
Layer 1
 62
     7
420
 16777215
100
AcDbHatch
 10
0.0
 20
0.0
 30
0.0
210
0.0
220
0.0
230
1.0
  2
SOLID
 70
     1
 71
     0
 91
        1
 92
        1
 93
        1
 72
     4
 94
        3
 73
     0
 74
     1
 95
       62
 96
       58
 40
0.0
 40
0.0
 40
0.0
 40
0.0
 40
1.0
 40
1.0
 40
1.0
 40
2.0
 40
2.0
 40
2.0
 40
3.0
 40
3.0
 40
3.0
 40
4.0
 40
4.0
 40
4.0
 40
5.0
 40
5.0
 40
5.0
 40
6.0
 40
6.0
 40
6.0
 40
7.0
 40
7.0
 40
7.0
 40
8.0
 40
8.0
 40
8.0
 40
9.0
 40
9.0
 40
9.0
 40
10.0
 40
10.0
 40
10.0
 40
11.0
 40
11.0
 40
11.0
 40
12.0
 40
12.0
 40
12.0
 40
13.0
 40
13.0
 40
13.0
 40
14.0
 40
14.0
 40
14.0
 40
15.0
 40
15.0
 40
15.0
 40
16.0
 40
16.0
 40
16.0
 40
17.0
 40
17.0
 40
17.0
 40
18.0
 40
18.0
 40
18.0
 40
19.0
 40
19.0
 40
19.0
 40
19.0
 10
68.99906139768079
 20
177.1171820303735
 10
69.04953204653971
 20
177.0966837122363
 10
69.09828014765598
 20
177.0674004006116
 10
69.15064559903179
 20
177.0572373689301
 10
69.33271889542723
 20
177.0220973949806
 10
69.46742212890051
 20
177.0927218524282
 10
69.59041203772392
 20
177.2317314552581
 10
69.73252222649049
 20
177.3921006500964
 10
69.89254691178034
 20
177.5385172082196
 10
70.05825600462086
 20
177.6745984798869
 10
70.12354056406635
 20
177.7281697146825
 10
70.22534313565548
 20
177.7622761599865
 10
70.31078150368967
 20
177.7627929243093
 10
71.246124927935
 20
177.7686495866342
 10
72.18146835218033
 20
177.7662380197946
 10
73.11681177642566
 20
177.7655490006975
 10
73.12869735584977
 20
177.7655490006975
 10
73.14075519004815
 20
177.7608981217924
 10
73.16056448908833
 20
177.7565917524359
 10
73.16056448908833
 20
177.5597045454538
 10
73.16056448908833
 20
177.3628173384718
 10
73.16056448908833
 20
177.1545613163885
 10
73.12611353423584
 20
177.1518052400002
 10
73.08994003164071
 20
177.1468098515466
 10
73.05359427427133
 20
177.1468098515466
 10
72.39764809387975
 20
177.1462930872239
 10
71.74152965871393
 20
177.144398284707
 10
71.08558347832236
 20
177.1474988706437
 10
70.87973902307868
 20
177.1485323992893
 10
70.67372231306074
 20
177.1692029722008
 10
70.46787785781706
 20
177.1679971887809
 10
70.40931123456781
 20
177.1676526792324
 10
70.3381700127974
 20
177.1359578007681
 10
70.29476180968325
 20
177.0953056740422
 10
70.10976018212534
 20
176.9216728615856
 10
69.9307874716666
 20
176.7413221129327
 10
69.75439858282182
 20
176.5587320522145
 10
69.68463539924551
 20
176.4867295565728
 10
69.60987682721559
 20
176.4543456590114
 10
69.50910778427203
 20
176.4588242831422
 10
69.35735132814678
 20
176.4655422193385
 10
69.20507810769874
 20
176.4605468308849
 10
69.04539793195741
 20
176.4605468308849
 10
69.0348903907274
 20
176.417999901642
 10
69.02558863291722
 20
176.3795870869815
 10
69.01559785600999
 20
176.3382459411585
 10
67.71679685807081
 20
176.3382459411585
 10
66.42247448426244
 20
176.3382459411585
 10
65.11730005967554
 20
176.3382459411585
 10
65.11730005967554
 20
176.6061021151367
 10
65.11730005967554
 20
176.8736137795663
 10
65.11730005967554
 20
177.1492214183863
 10
66.41420625509784
 20
177.1492214183863
 10
67.71162921484293
 20
177.1492214183863
 10
69.00887991981375
 20
177.1492214183863
 10
69.00560707910277
 20
177.138541622382
 10
69.00233423839178
 20
177.1278618263778
 10
68.99906139768079
 20
177.1171820303735
 97
        0
 75
     0
 76
     1
 98
        0
  0
SPLINE
  5
75
330
3C
100
AcDbEntity
  8
Layer 1
370
     0
100
AcDbSpline
210
0.0
220
0.0
230
1.0
 70
    11
 71
     3
 72
    59
 73
    55
 74
     0
 42
0.0000000001
 43
0.0000000001
 40
0.0
 40
0.0
 40
0.0
 40
0.0
 40
1.0
 40
1.0
 40
1.0
 40
2.0
 40
2.0
 40
2.0
 40
3.0
 40
3.0
 40
3.0
 40
4.0
 40
4.0
 40
4.0
 40
5.0
 40
5.0
 40
5.0
 40
6.0
 40
6.0
 40
6.0
 40
7.0
 40
7.0
 40
7.0
 40
8.0
 40
8.0
 40
8.0
 40
9.0
 40
9.0
 40
9.0
 40
10.0
 40
10.0
 40
10.0
 40
11.0
 40
11.0
 40
11.0
 40
12.0
 40
12.0
 40
12.0
 40
13.0
 40
13.0
 40
13.0
 40
14.0
 40
14.0
 40
14.0
 40
15.0
 40
15.0
 40
15.0
 40
16.0
 40
16.0
 40
16.0
 40
17.0
 40
17.0
 40
17.0
 40
18.0
 40
18.0
 40
18.0
 40
18.0
 10
68.99751110471243
 20
179.8112466998389
 30
0.0
 10
69.04798175357134
 20
179.7902316173789
 30
0.0
 10
69.09828014765598
 20
179.7507852740727
 30
0.0
 10
69.1487507965149
 20
179.7507852740727
 30
0.0
 10
69.73407251945885
 20
179.7494072358786
 30
0.0
 10
69.6295138714815
 20
179.7731783947268
 30
0.0
 10
69.97333440090945
 20
179.3904282863156
 30
0.0
 10
70.22086451152465
 20
179.1149929022699
 30
0.0
 10
70.48096922066101
 20
179.0123290568094
 30
0.0
 10
70.84993894713126
 20
179.0278319864931
 30
0.0
 10
71.5722032156139
 20
179.0583210815375
 30
0.0
 10
72.29636228661342
 20
179.0367892347547
 30
0.0
 10
73.01983233851588
 20
179.0367892347547
 30
0.0
 10
73.06530759892118
 20
179.0367892347547
 30
0.0
 10
73.11078285932648
 20
179.0367892347547
 30
0.0
 10
73.16211478205669
 20
179.0367892347547
 30
0.0
 10
73.16211478205669
 20
178.8264661553802
 30
0.0
 10
73.16211478205669
 20
178.6295789483982
 30
0.0
 10
73.16211478205669
 20
178.4163275378612
 30
0.0
 10
73.1138834452632
 20
178.4163275378612
 30
0.0
 10
73.06892494918068
 20
178.4163275378612
 30
0.0
 10
73.02396645309818
 20
178.4163275378612
 30
0.0
 10
72.59246824357064
 20
178.4163275378612
 30
0.0
 10
72.16097003404309
 20
178.4130546971502
 30
0.0
 10
71.72947182451556
 20
178.4171888117325
 30
0.0
 10
71.22321504295809
 20
178.4220119454119
 30
0.0
 10
70.71713051617489
 20
178.4307969388992
 30
0.0
 10
70.21104598939169
 20
178.4452663399373
 30
0.0
 10
70.15213485659392
 20
178.4469888876799
 30
0.0
 10
70.08306069211466
 20
178.4848849380177
 30
0.0
 10
70.03844670558067
 20
178.5269151029377
 30
0.0
 10
69.86584742176966
 20
178.6890068455187
 30
0.0
 10
69.69600421434683
 20
178.8547159383592
 30
0.0
 10
69.53597952905697
 20
179.0292100246872
 30
0.0
 10
69.44830184895737
 20
179.1248114244028
 30
0.0
 10
69.35614554472694
 20
179.1720092325507
 30
0.0
 10
69.22712671880433
 20
179.1542669908017
 30
0.0
 10
69.1694213694264
 20
179.1463432711857
 30
0.0
 10
69.10982121753158
 20
179.1528889526076
 30
0.0
 10
69.04350312944051
 20
179.1528889526076
 30
0.0
 10
69.03454588117887
 20
179.1122368258817
 30
0.0
 10
69.02679441633705
 20
179.0770968519321
 30
0.0
 10
69.01732040375262
 20
179.0340331583665
 30
0.0
 10
67.72179224652442
 20
179.0340331583665
 30
0.0
 10
66.42471379632785
 20
179.0340331583665
 30
0.0
 10
65.11695555012702
 20
179.0340331583665
 30
0.0
 10
65.11695555012702
 20
179.2984442368594
 30
0.0
 10
65.11695555012702
 20
179.5659559012891
 30
0.0
 10
65.11695555012702
 20
179.8415635401091
 30
0.0
 10
66.41403400032358
 20
179.8415635401091
 30
0.0
 10
67.71094019574588
 20
179.8415635401091
 30
0.0
 10
69.00784639116819
 20
179.8415635401091
 30
0.0
 10
69.00440129568292
 20
179.8315727632018
 30
0.0
 10
69.00095620019768
 20
179.8214097315204
 30
0.0
 10
68.99751110471243
 20
179.8112466998389
 30
0.0
  0
HATCH
  5
76
330
3C
100
AcDbEntity
  8
Layer 1
 62
     7
420
 16777215
100
AcDbHatch
 10
0.0
 20
0.0
 30
0.0
210
0.0
220
0.0
230
1.0
  2
SOLID
 70
     1
 71
     0
 91
        1
 92
        1
 93
        1
 72
     4
 94
        3
 73
     0
 74
     1
 95
       59
 96
       55
 40
0.0
 40
0.0
 40
0.0
 40
0.0
 40
1.0
 40
1.0
 40
1.0
 40
2.0
 40
2.0
 40
2.0
 40
3.0
 40
3.0
 40
3.0
 40
4.0
 40
4.0
 40
4.0
 40
5.0
 40
5.0
 40
5.0
 40
6.0
 40
6.0
 40
6.0
 40
7.0
 40
7.0
 40
7.0
 40
8.0
 40
8.0
 40
8.0
 40
9.0
 40
9.0
 40
9.0
 40
10.0
 40
10.0
 40
10.0
 40
11.0
 40
11.0
 40
11.0
 40
12.0
 40
12.0
 40
12.0
 40
13.0
 40
13.0
 40
13.0
 40
14.0
 40
14.0
 40
14.0
 40
15.0
 40
15.0
 40
15.0
 40
16.0
 40
16.0
 40
16.0
 40
17.0
 40
17.0
 40
17.0
 40
18.0
 40
18.0
 40
18.0
 40
18.0
 10
68.99751110471243
 20
179.8112466998389
 10
69.04798175357134
 20
179.7902316173789
 10
69.09828014765598
 20
179.7507852740727
 10
69.1487507965149
 20
179.7507852740727
 10
69.73407251945885
 20
179.7494072358786
 10
69.6295138714815
 20
179.7731783947268
 10
69.97333440090945
 20
179.3904282863156
 10
70.22086451152465
 20
179.1149929022699
 10
70.48096922066101
 20
179.0123290568094
 10
70.84993894713126
 20
179.0278319864931
 10
71.5722032156139
 20
179.0583210815375
 10
72.29636228661342
 20
179.0367892347547
 10
73.01983233851588
 20
179.0367892347547
 10
73.06530759892118
 20
179.0367892347547
 10
73.11078285932648
 20
179.0367892347547
 10
73.16211478205669
 20
179.0367892347547
 10
73.16211478205669
 20
178.8264661553802
 10
73.16211478205669
 20
178.6295789483982
 10
73.16211478205669
 20
178.4163275378612
 10
73.1138834452632
 20
178.4163275378612
 10
73.06892494918068
 20
178.4163275378612
 10
73.02396645309818
 20
178.4163275378612
 10
72.59246824357064
 20
178.4163275378612
 10
72.16097003404309
 20
178.4130546971502
 10
71.72947182451556
 20
178.4171888117325
 10
71.22321504295809
 20
178.4220119454119
 10
70.71713051617489
 20
178.4307969388992
 10
70.21104598939169
 20
178.4452663399373
 10
70.15213485659392
 20
178.4469888876799
 10
70.08306069211466
 20
178.4848849380177
 10
70.03844670558067
 20
178.5269151029377
 10
69.86584742176966
 20
178.6890068455187
 10
69.69600421434683
 20
178.8547159383592
 10
69.53597952905697
 20
179.0292100246872
 10
69.44830184895737
 20
179.1248114244028
 10
69.35614554472694
 20
179.1720092325507
 10
69.22712671880433
 20
179.1542669908017
 10
69.1694213694264
 20
179.1463432711857
 10
69.10982121753158
 20
179.1528889526076
 10
69.04350312944051
 20
179.1528889526076
 10
69.03454588117887
 20
179.1122368258817
 10
69.02679441633705
 20
179.0770968519321
 10
69.01732040375262
 20
179.0340331583665
 10
67.72179224652442
 20
179.0340331583665
 10
66.42471379632785
 20
179.0340331583665
 10
65.11695555012702
 20
179.0340331583665
 10
65.11695555012702
 20
179.2984442368594
 10
65.11695555012702
 20
179.5659559012891
 10
65.11695555012702
 20
179.8415635401091
 10
66.41403400032358
 20
179.8415635401091
 10
67.71094019574588
 20
179.8415635401091
 10
69.00784639116819
 20
179.8415635401091
 10
69.00440129568292
 20
179.8315727632018
 10
69.00095620019768
 20
179.8214097315204
 10
68.99751110471243
 20
179.8112466998389
 97
        0
 75
     0
 76
     1
 98
        0
  0
SPLINE
  5
77
330
3C
100
AcDbEntity
  8
Layer 1
370
     0
100
AcDbSpline
210
0.0
220
0.0
230
1.0
 70
    11
 71
     3
 72
    17
 73
    13
 74
     0
 42
0.0000000001
 43
0.0000000001
 40
0.0
 40
0.0
 40
0.0
 40
0.0
 40
1.0
 40
1.0
 40
1.0
 40
2.0
 40
2.0
 40
2.0
 40
3.0
 40
3.0
 40
3.0
 40
4.0
 40
4.0
 40
4.0
 40
4.0
 10
60.46142576613465
 20
179.0569430433434
 30
0.0
 10
60.03699000235186
 20
179.0569430433434
 30
0.0
 10
59.6203057034109
 20
179.0569430433434
 30
0.0
 10
59.19604219440238
 20
179.0569430433434
 30
0.0
 10
59.19604219440238
 20
179.6822278739162
 30
0.0
 10
59.19604219440238
 20
180.3018282969385
 30
0.0
 10
59.19604219440238
 20
180.9315917516421
 30
0.0
 10
59.61427678631171
 20
180.9315917516421
 30
0.0
 10
60.03388941641514
 20
180.9315917516421
 30
0.0
 10
60.46142576613465
 20
180.9315917516421
 30
0.0
 10
60.46142576613465
 20
180.3107855452001
 30
0.0
 10
60.46142576613465
 20
179.6911851221779
 30
0.0
 10
60.46142576613465
 20
179.0569430433434
 30
0.0
  0
HATCH
  5
78
330
3C
100
AcDbEntity
  8
Layer 1
 62
     7
420
 16777215
100
AcDbHatch
 10
0.0
 20
0.0
 30
0.0
210
0.0
220
0.0
230
1.0
  2
SOLID
 70
     1
 71
     0
 91
        1
 92
        1
 93
        1
 72
     4
 94
        3
 73
     0
 74
     1
 95
       17
 96
       13
 40
0.0
 40
0.0
 40
0.0
 40
0.0
 40
1.0
 40
1.0
 40
1.0
 40
2.0
 40
2.0
 40
2.0
 40
3.0
 40
3.0
 40
3.0
 40
4.0
 40
4.0
 40
4.0
 40
4.0
 10
60.46142576613465
 20
179.0569430433434
 10
60.03699000235186
 20
179.0569430433434
 10
59.6203057034109
 20
179.0569430433434
 10
59.19604219440238
 20
179.0569430433434
 10
59.19604219440238
 20
179.6822278739162
 10
59.19604219440238
 20
180.3018282969385
 10
59.19604219440238
 20
180.9315917516421
 10
59.61427678631171
 20
180.9315917516421
 10
60.03388941641514
 20
180.9315917516421
 10
60.46142576613465
 20
180.9315917516421
 10
60.46142576613465
 20
180.3107855452001
 10
60.46142576613465
 20
179.6911851221779
 10
60.46142576613465
 20
179.0569430433434
 97
        0
 75
     0
 76
     1
 98
        0
  0
SPLINE
  5
79
330
3C
100
AcDbEntity
  8
Layer 1
370
     0
100
AcDbSpline
210
0.0
220
0.0
230
1.0
 70
    11
 71
     3
 72
    17
 73
    13
 74
     0
 42
0.0000000001
 43
0.0000000001
 40
0.0
 40
0.0
 40
0.0
 40
0.0
 40
1.0
 40
1.0
 40
1.0
 40
2.0
 40
2.0
 40
2.0
 40
3.0
 40
3.0
 40
3.0
 40
4.0
 40
4.0
 40
4.0
 40
4.0
 10
70.9793022826024
 20
174.613975650791
 30
0.0
 10
70.9793022826024
 20
174.8182698130663
 30
0.0
 10
70.9793022826024
 20
175.0149847652741
 30
0.0
 10
70.9793022826024
 20
175.2192789275494
 30
0.0
 10
71.70604517521585
 20
175.2192789275494
 30
0.0
 10
72.42710366027865
 20
175.2192789275494
 30
0.0
 10
73.15849743179719
 20
175.2192789275494
 30
0.0
 10
73.15849743179719
 20
175.0211859371475
 30
0.0
 10
73.15849743179719
 20
174.8215426537773
 30
0.0
 10
73.15849743179719
 20
174.613975650791
 30
0.0
 10
72.43623316331455
 20
174.613975650791
 30
0.0
 10
71.71517467825177
 20
174.613975650791
 30
0.0
 10
70.9793022826024
 20
174.613975650791
 30
0.0
  0
HATCH
  5
7A
330
3C
100
AcDbEntity
  8
Layer 1
 62
     7
420
 16777215
100
AcDbHatch
 10
0.0
 20
0.0
 30
0.0
210
0.0
220
0.0
230
1.0
  2
SOLID
 70
     1
 71
     0
 91
        1
 92
        1
 93
        1
 72
     4
 94
        3
 73
     0
 74
     1
 95
       17
 96
       13
 40
0.0
 40
0.0
 40
0.0
 40
0.0
 40
1.0
 40
1.0
 40
1.0
 40
2.0
 40
2.0
 40
2.0
 40
3.0
 40
3.0
 40
3.0
 40
4.0
 40
4.0
 40
4.0
 40
4.0
 10
70.9793022826024
 20
174.613975650791
 10
70.9793022826024
 20
174.8182698130663
 10
70.9793022826024
 20
175.0149847652741
 10
70.9793022826024
 20
175.2192789275494
 10
71.70604517521585
 20
175.2192789275494
 10
72.42710366027865
 20
175.2192789275494
 10
73.15849743179719
 20
175.2192789275494
 10
73.15849743179719
 20
175.0211859371475
 10
73.15849743179719
 20
174.8215426537773
 10
73.15849743179719
 20
174.613975650791
 10
72.43623316331455
 20
174.613975650791
 10
71.71517467825177
 20
174.613975650791
 10
70.9793022826024
 20
174.613975650791
 97
        0
 75
     0
 76
     1
 98
        0
  0
SPLINE
  5
7B
330
3C
100
AcDbEntity
  8
Layer 1
370
     0
100
AcDbSpline
210
0.0
220
0.0
230
1.0
 70
    11
 71
     3
 72
    17
 73
    13
 74
     0
 42
0.0000000001
 43
0.0000000001
 40
0.0
 40
0.0
 40
0.0
 40
0.0
 40
1.0
 40
1.0
 40
1.0
 40
2.0
 40
2.0
 40
2.0
 40
3.0
 40
3.0
 40
3.0
 40
4.0
 40
4.0
 40
4.0
 40
4.0
 10
70.97947453737666
 20
173.3437689453793
 30
0.0
 10
70.97947453737666
 20
173.5487521267517
 30
0.0
 10
70.97947453737666
 20
173.7454670789595
 30
0.0
 10
70.97947453737666
 20
173.9495889864605
 30
0.0
 10
71.70656193953864
 20
173.9495889864605
 30
0.0
 10
72.42762042460143
 20
173.9495889864605
 30
0.0
 10
73.15866968657144
 20
173.9495889864605
 30
0.0
 10
73.15866968657144
 20
173.7508069769616
 30
0.0
 10
73.15866968657144
 20
173.5509914388171
 30
0.0
 10
73.15866968657144
 20
173.3437689453793
 30
0.0
 10
72.43571639899177
 20
173.3437689453793
 30
0.0
 10
71.71465791392897
 20
173.3437689453793
 30
0.0
 10
70.97947453737666
 20
173.3437689453793
 30
0.0
  0
HATCH
  5
7C
330
3C
100
AcDbEntity
  8
Layer 1
 62
     7
420
 16777215
100
AcDbHatch
 10
0.0
 20
0.0
 30
0.0
210
0.0
220
0.0
230
1.0
  2
SOLID
 70
     1
 71
     0
 91
        1
 92
        1
 93
        1
 72
     4
 94
        3
 73
     0
 74
     1
 95
       17
 96
       13
 40
0.0
 40
0.0
 40
0.0
 40
0.0
 40
1.0
 40
1.0
 40
1.0
 40
2.0
 40
2.0
 40
2.0
 40
3.0
 40
3.0
 40
3.0
 40
4.0
 40
4.0
 40
4.0
 40
4.0
 10
70.97947453737666
 20
173.3437689453793
 10
70.97947453737666
 20
173.5487521267517
 10
70.97947453737666
 20
173.7454670789595
 10
70.97947453737666
 20
173.9495889864605
 10
71.70656193953864
 20
173.9495889864605
 10
72.42762042460143
 20
173.9495889864605
 10
73.15866968657144
 20
173.9495889864605
 10
73.15866968657144
 20
173.7508069769616
 10
73.15866968657144
 20
173.5509914388171
 10
73.15866968657144
 20
173.3437689453793
 10
72.43571639899177
 20
173.3437689453793
 10
71.71465791392897
 20
173.3437689453793
 10
70.97947453737666
 20
173.3437689453793
 97
        0
 75
     0
 76
     1
 98
        0
  0
ENDBLK
  5
3F
330
3C
100
AcDbEntity
  8
0
100
AcDbBlockEnd
  0
ENDSEC
  0
SECTION
  2
ENTITIES
  0
INSERT
  5
3D
330
1F
100
AcDbEntity
  8
Layer 1
100
AcDbBlockReference
  2
block 2
 10
0.0
 20
0.0
 30
0.0
  0
ENDSEC
  0
SECTION
  2
OBJECTS
  0
DICTIONARY
  5
C
330
0
100
AcDbDictionary
281
     1
  3
ACAD_GROUP
350
D
  3
ACAD_LAYOUT
350
1A
  3
ACAD_MLINESTYLE
350
17
  3
ACAD_PLOTSETTINGS
350
19
  3
ACAD_PLOTSTYLENAME
350
E
  3
ACAD_TABLESTYLE
350
7D
  3
ACAD_VISUALSTYLE
350
2A
  0
DICTIONARY
  5
D
102
{ACAD_REACTORS
330
C
102
}
330
C
100
AcDbDictionary
281
     1
  0
DICTIONARY
  5
1A
102
{ACAD_REACTORS
330
C
102
}
330
C
100
AcDbDictionary
281
     1
  3
Layout1
350
1E
  3
Layout2
350
26
  3
Model
350
22
  0
DICTIONARY
  5
17
102
{ACAD_REACTORS
330
C
102
}
330
C
100
AcDbDictionary
281
     1
  3
Standard
350
18
  0
DICTIONARY
  5
19
102
{ACAD_REACTORS
330
C
102
}
330
C
100
AcDbDictionary
281
     1
  0
ACDBDICTIONARYWDFLT
  5
E
102
{ACAD_REACTORS
330
C
102
}
330
C
100
AcDbDictionary
281
     1
  3
Normal
350
F
100
AcDbDictionaryWithDefault
340
F
  0
DICTIONARY
  5
7D
102
{ACAD_REACTORS
330
C
102
}
330
C
100
AcDbDictionary
281
     1
  0
DICTIONARY
  5
2A
102
{ACAD_REACTORS
330
C
102
}
330
C
100
AcDbDictionary
281
     1
  3
2dWireframe
350
2F
  3
3D Hidden
350
31
  3
3dWireframe
350
30
  3
Basic
350
32
  3
Brighten
350
36
  3
ColorChange
350
3A
  3
Conceptual
350
34
  3
Dim
350
35
  3
Facepattern
350
39
  3
Flat
350
2B
  3
FlatWithEdges
350
2C
  3
Gouraud
350
2D
  3
GouraudWithEdges
350
2E
  3
Linepattern
350
38
  3
Realistic
350
33
  3
Thicken
350
37
  0
LAYOUT
  5
1E
102
{ACAD_REACTORS
330
1A
102
}
330
1A
100
AcDbPlotSettings
  1

  2
none_device
  4

  6

 40
0.0
 41
0.0
 42
0.0
 43
0.0
 44
0.0
 45
0.0
 46
0.0
 47
0.0
 48
0.0
 49
0.0
140
0.0
141
0.0
142
1.0
143
1.0
 70
   688
 72
     0
 73
     0
 74
     5
  7

 75
    16
 76
     0
 77
     2
 78
   300
147
1.0
148
0.0
149
0.0
100
AcDbLayout
  1
Layout1
 70
     1
 71
     1
 10
0.0
 20
0.0
 11
12.0
 21
9.0
 12
0.0
 22
0.0
 32
0.0
 14
1.000000000000000E+20
 24
1.000000000000000E+20
 34
1.000000000000000E+20
 15
-1.000000000000000E+20
 25
-1.000000000000000E+20
 35
-1.000000000000000E+20
146
0.0
 13
0.0
 23
0.0
 33
0.0
 16
1.0
 26
0.0
 36
0.0
 17
0.0
 27
1.0
 37
0.0
 76
     0
330
1B
  0
LAYOUT
  5
26
102
{ACAD_REACTORS
330
1A
102
}
330
1A
100
AcDbPlotSettings
  1

  2
none_device
  4

  6

 40
0.0
 41
0.0
 42
0.0
 43
0.0
 44
0.0
 45
0.0
 46
0.0
 47
0.0
 48
0.0
 49
0.0
140
0.0
141
0.0
142
1.0
143
1.0
 70
   688
 72
     0
 73
     0
 74
     5
  7

 75
    16
 76
     0
 77
     2
 78
   300
147
1.0
148
0.0
149
0.0
100
AcDbLayout
  1
Layout2
 70
     1
 71
     2
 10
0.0
 20
0.0
 11
0.0
 21
0.0
 12
0.0
 22
0.0
 32
0.0
 14
0.0
 24
0.0
 34
0.0
 15
0.0
 25
0.0
 35
0.0
146
0.0
 13
0.0
 23
0.0
 33
0.0
 16
1.0
 26
0.0
 36
0.0
 17
0.0
 27
1.0
 37
0.0
 76
     0
330
23
  0
LAYOUT
  5
22
102
{ACAD_REACTORS
330
1A
102
}
330
1A
100
AcDbPlotSettings
  1

  2
none_device
  4

  6

 40
0.0
 41
0.0
 42
0.0
 43
0.0
 44
0.0
 45
0.0
 46
0.0
 47
0.0
 48
0.0
 49
0.0
140
0.0
141
0.0
142
1.0
143
1.0
 70
  1712
 72
     0
 73
     0
 74
     0
  7

 75
     0
 76
     0
 77
     2
 78
   300
147
1.0
148
0.0
149
0.0
100
AcDbLayout
  1
Model
 70
     1
 71
     0
 10
0.0
 20
0.0
 11
12.0
 21
9.0
 12
0.0
 22
0.0
 32
0.0
 14
1.000000000000000E+20
 24
1.000000000000000E+20
 34
1.000000000000000E+20
 15
-1.000000000000000E+20
 25
-1.000000000000000E+20
 35
-1.000000000000000E+20
146
0.0
 13
0.0
 23
0.0
 33
0.0
 16
1.0
 26
0.0
 36
0.0
 17
0.0
 27
1.0
 37
0.0
 76
     0
330
1F
331
29
  0
MLINESTYLE
  5
18
102
{ACAD_REACTORS
330
17
102
}
330
17
100
AcDbMlineStyle
  2
Standard
 70
     0
  3

 62
   256
 51
90.0
 52
90.0
 71
     2
 49
0.5
 62
   256
  6
BYLAYER
 49
-0.5
 62
   256
  6
BYLAYER
  0
ACDBPLACEHOLDER
  5
F
102
{ACAD_REACTORS
330
E
102
}
330
E
  0
VISUALSTYLE
  5
2F
102
{ACAD_REACTORS
330
2A
102
}
330
2A
100
AcDbVisualStyle
  2
2dWireframe
 70
     4
 71
     0
 72
     2
 73
     0
 90
        0
 40
-0.6
 41
-30.0
 62
     5
 63
     7
421
 16777215
 74
     1
 91
        4
 64
     7
 65
   257
 75
     1
175
     1
 42
1.0
 92
        0
 66
   257
 43
1.0
 76
     1
 77
     6
 78
     2
 67
     7
 79
     5
170
     0
171
     0
290
     0
174
     0
 93
        1
 44
0.0
173
     0
291
     0
 45
0.0
1001
ACAD
1000
AcDbSavedByObjectVersion
1070
     0
  0
VISUALSTYLE
  5
31
102
{ACAD_REACTORS
330
2A
102
}
330
2A
100
AcDbVisualStyle
  2
3D Hidden
 70
     6
 71
     1
 72
     2
 73
     2
 90
        0
 40
-0.6
 41
-30.0
 62
     5
 63
     7
421
 16777215
 74
     2
 91
        2
 64
     7
 65
   257
 75
     2
175
     1
 42
40.0
 92
        0
 66
   257
 43
1.0
 76
     1
 77
     6
 78
     2
 67
     7
 79
     3
170
     0
171
     0
290
     0
174
     0
 93
        1
 44
0.0
173
     0
291
     0
 45
0.0
1001
ACAD
1000
AcDbSavedByObjectVersion
1070
     0
  0
VISUALSTYLE
  5
30
102
{ACAD_REACTORS
330
2A
102
}
330
2A
100
AcDbVisualStyle
  2
3dWireframe
 70
     5
 71
     0
 72
     2
 73
     0
 90
        0
 40
-0.6
 41
-30.0
 62
     5
 63
     7
421
 16777215
 74
     1
 91
        4
 64
     7
 65
   257
 75
     1
175
     1
 42
1.0
 92
        0
 66
   257
 43
1.0
 76
     1
 77
     6
 78
     2
 67
     7
 79
     5
170
     0
171
     0
290
     0
174
     0
 93
        1
 44
0.0
173
     0
291
     0
 45
0.0
1001
ACAD
1000
AcDbSavedByObjectVersion
1070
     0
  0
VISUALSTYLE
  5
32
102
{ACAD_REACTORS
330
2A
102
}
330
2A
100
AcDbVisualStyle
  2
Basic
 70
     7
 71
     1
 72
     0
 73
     1
 90
        0
 40
-0.6
 41
-30.0
 62
     5
 63
     7
421
 16777215
 74
     0
 91
        4
 64
     7
 65
   257
 75
     1
175
     1
 42
1.0
 92
        8
 66
     7
 43
1.0
 76
     1
 77
     6
 78
     2
 67
     7
 79
     5
170
     0
171
     0
290
     0
174
     0
 93
        1
 44
0.0
173
     0
291
     1
 45
0.0
1001
ACAD
1000
AcDbSavedByObjectVersion
1070
     0
  0
VISUALSTYLE
  5
36
102
{ACAD_REACTORS
330
2A
102
}
330
2A
100
AcDbVisualStyle
  2
Brighten
 70
    12
 71
     2
 72
     2
 73
     0
 90
        0
 40
-0.6
 41
-30.0
 62
     5
 63
     7
421
 16777215
 74
     1
 91
        4
 64
     7
 65
   257
 75
     1
175
     1
 42
1.0
 92
        8
 66
     7
 43
1.0
 76
     1
 77
     6
 78
     2
 67
     7
 79
     5
170
     0
171
     0
290
     0
174
     0
 93
        1
 44
50.0
173
     0
291
     1
 45
0.0
1001
ACAD
1000
AcDbSavedByObjectVersion
1070
     0
  0
VISUALSTYLE
  5
3A
102
{ACAD_REACTORS
330
2A
102
}
330
2A
100
AcDbVisualStyle
  2
ColorChange
 70
    16
 71
     2
 72
     2
 73
     3
 90
        0
 40
-0.6
 41
-30.0
 62
     5
 63
     8
421
  8421504
 74
     1
 91
        4
 64
     7
 65
   257
 75
     1
175
     1
 42
1.0
 92
        8
 66
     8
424
  8421504
 43
1.0
 76
     1
 77
     6
 78
     2
 67
     7
 79
     5
170
     0
171
     0
290
     0
174
     0
 93
        1
 44
0.0
173
     0
291
     1
 45
0.0
1001
ACAD
1000
AcDbSavedByObjectVersion
1070
     0
  0
VISUALSTYLE
  5
34
102
{ACAD_REACTORS
330
2A
102
}
330
2A
100
AcDbVisualStyle
  2
Conceptual
 70
     9
 71
     3
 72
     2
 73
     0
 90
        0
 40
-0.6
 41
-30.0
 62
     5
 63
     7
421
 16777215
 74
     2
 91
        2
 64
     7
 65
   257
 75
     1
175
     1
 42
40.0
 92
        8
 66
     7
 43
1.0
 76
     1
 77
     6
 78
     2
 67
     7
 79
     3
170
     0
171
     0
290
     0
174
     0
 93
        1
 44
0.0
173
     0
291
     0
 45
0.0
1001
ACAD
1000
AcDbSavedByObjectVersion
1070
     0
  0
VISUALSTYLE
  5
35
102
{ACAD_REACTORS
330
2A
102
}
330
2A
100
AcDbVisualStyle
  2
Dim
 70
    11
 71
     2
 72
     2
 73
     0
 90
        0
 40
-0.6
 41
-30.0
 62
     5
 63
     7
421
 16777215
 74
     1
 91
        4
 64
     7
 65
   257
 75
     1
175
     1
 42
1.0
 92
        8
 66
     7
 43
1.0
 76
     1
 77
     6
 78
     2
 67
     7
 79
     5
170
     0
171
     0
290
     0
174
     0
 93
        1
 44
-50.0
173
     0
291
     1
 45
0.0
1001
ACAD
1000
AcDbSavedByObjectVersion
1070
     0
  0
VISUALSTYLE
  5
39
102
{ACAD_REACTORS
330
2A
102
}
330
2A
100
AcDbVisualStyle
  2
Facepattern
 70
    15
 71
     2
 72
     2
 73
     0
 90
        0
 40
-0.6
 41
-30.0
 62
     5
 63
     7
421
 16777215
 74
     1
 91
        4
 64
     7
 65
   257
 75
     1
175
     1
 42
1.0
 92
        8
 66
     7
 43
1.0
 76
     1
 77
     6
 78
     2
 67
     7
 79
     5
170
     0
171
     0
290
     0
174
     0
 93
        1
 44
0.0
173
     0
291
     1
 45
0.0
1001
ACAD
1000
AcDbSavedByObjectVersion
1070
     0
  0
VISUALSTYLE
  5
2B
102
{ACAD_REACTORS
330
2A
102
}
330
2A
100
AcDbVisualStyle
  2
Flat
 70
     0
 71
     2
 72
     1
 73
     1
 90
        2
 40
-0.6
 41
30.0
 62
     5
 63
     7
421
 16777215
 74
     0
 91
        4
 64
     7
 65
   257
 75
     1
175
     1
 42
1.0
 92
        8
 66
     7
 43
1.0
 76
     1
 77
     6
 78
     2
 67
     7
 79
     5
170
     0
171
     0
290
     0
174
     0
 93
       13
 44
0.0
173
     0
291
     1
 45
0.0
1001
ACAD
1000
AcDbSavedByObjectVersion
1070
     0
  0
VISUALSTYLE
  5
2C
102
{ACAD_REACTORS
330
2A
102
}
330
2A
100
AcDbVisualStyle
  2
FlatWithEdges
 70
     1
 71
     2
 72
     1
 73
     1
 90
        2
 40
-0.6
 41
30.0
 62
     5
 63
     7
421
 16777215
 74
     1
 91
        4
 64
     7
 65
   257
 75
     1
175
     1
 42
1.0
 92
        0
 66
   257
 43
1.0
 76
     1
 77
     6
 78
     2
 67
     7
 79
     5
170
     0
171
     0
290
     0
174
     0
 93
       13
 44
0.0
173
     0
291
     1
 45
0.0
1001
ACAD
1000
AcDbSavedByObjectVersion
1070
     0
  0
VISUALSTYLE
  5
2D
102
{ACAD_REACTORS
330
2A
102
}
330
2A
100
AcDbVisualStyle
  2
Gouraud
 70
     2
 71
     2
 72
     2
 73
     1
 90
        2
 40
-0.6
 41
30.0
 62
     5
 63
     7
421
 16777215
 74
     0
 91
        4
 64
     7
 65
   257
 75
     1
175
     1
 42
1.0
 92
        0
 66
     7
 43
1.0
 76
     1
 77
     6
 78
     2
 67
     7
 79
     5
170
     0
171
     0
290
     0
174
     0
 93
       13
 44
0.0
173
     0
291
     1
 45
0.0
1001
ACAD
1000
AcDbSavedByObjectVersion
1070
     0
  0
VISUALSTYLE
  5
2E
102
{ACAD_REACTORS
330
2A
102
}
330
2A
100
AcDbVisualStyle
  2
GouraudWithEdges
 70
     3
 71
     2
 72
     2
 73
     1
 90
        2
 40
-0.6
 41
30.0
 62
     5
 63
     7
421
 16777215
 74
     1
 91
        4
 64
     7
 65
   257
 75
     1
175
     1
 42
1.0
 92
        0
 66
   257
 43
1.0
 76
     1
 77
     6
 78
     2
 67
     7
 79
     5
170
     0
171
     0
290
     0
174
     0
 93
       13
 44
0.0
173
     0
291
     1
 45
0.0
1001
ACAD
1000
AcDbSavedByObjectVersion
1070
     0
  0
VISUALSTYLE
  5
38
102
{ACAD_REACTORS
330
2A
102
}
330
2A
100
AcDbVisualStyle
  2
Linepattern
 70
    14
 71
     2
 72
     2
 73
     0
 90
        0
 40
-0.6
 41
-30.0
 62
     5
 63
     7
421
 16777215
 74
     1
 91
        4
 64
     7
 65
   257
 75
     7
175
     7
 42
1.0
 92
        8
 66
     7
 43
1.0
 76
     1
 77
     6
 78
     2
 67
     7
 79
     5
170
     0
171
     0
290
     0
174
     0
 93
        1
 44
0.0
173
     0
291
     1
 45
0.0
1001
ACAD
1000
AcDbSavedByObjectVersion
1070
     0
  0
VISUALSTYLE
  5
33
102
{ACAD_REACTORS
330
2A
102
}
330
2A
100
AcDbVisualStyle
  2
Realistic
 70
     8
 71
     2
 72
     2
 73
     0
 90
        0
 40
-0.6
 41
-30.0
 62
     5
 63
     7
421
 16777215
 74
     1
 91
        0
 64
     7
 65
   257
 75
     1
175
     1
 42
1.0
 92
        8
 66
     8
424
  7895160
 43
1.0
 76
     1
 77
     6
 78
     2
 67
     7
 79
     5
170
     0
171
     0
290
     0
174
     0
 93
       13
 44
0.0
173
     0
291
     0
 45
0.0
1001
ACAD
1000
AcDbSavedByObjectVersion
1070
     0
  0
VISUALSTYLE
  5
37
102
{ACAD_REACTORS
330
2A
102
}
330
2A
100
AcDbVisualStyle
  2
Thicken
 70
    13
 71
     2
 72
     2
 73
     0
 90
        0
 40
-0.6
 41
-30.0
 62
     5
 63
     7
421
 16777215
 74
     1
 91
        4
 64
     7
 65
   257
 75
     1
175
     1
 42
1.0
 92
       12
 66
     7
 43
1.0
 76
     1
 77
     6
 78
     2
 67
     7
 79
     5
170
     0
171
     0
290
     0
174
     0
 93
        1
 44
0.0
173
     0
291
     1
 45
0.0
1001
ACAD
1000
AcDbSavedByObjectVersion
1070
     0
  0
ENDSEC
  0
EOF
