  0
SECTION
  2
HEADER
  9
$ACADVER
  1
AC1009
  9
$DWGCODEPAGE
  3
ansi_1252
  9
$INSBASE
 10
0.0
 20
0.0
 30
0.0
  9
$EXTMIN
 10
0.0
 20
0.0
 30
0.0
  9
$EXTMAX
 10
370.0
 20
880.0000000000002
 30
0.0
  9
$LIMMIN
 10
0.0
 20
0.0
  9
$LIMMAX
 10
12.0
 20
9.0
  9
$ORTHOMODE
 70
     0
  9
$REGENMODE
 70
     1
  9
$FILLMODE
 70
     1
  9
$QTEXTMODE
 70
     0
  9
$MIRRTEXT
 70
     1
  9
$DRAGMODE
 70
     2
  9
$LTSCALE
 40
1.0
  9
$OSMODE
 70
    37
  9
$ATTMODE
 70
     1
  9
$TEXTSIZE
 40
0.2
  9
$TRACEWID
 40
0.05
  9
$TEXTSTYLE
  7
STANDARD
  9
$CLAYER
  8
DEFAULT
  9
$CELTYPE
  6
BYLAYER
  9
$CECOLOR
 62
   256
  9
$DIMSCALE
 40
1.0
  9
$DIMASZ
 40
0.18
  9
$DIMEXO
 40
0.0625
  9
$DIMDLI
 40
0.38
  9
$DIMRND
 40
0.0
  9
$DIMDLE
 40
0.0
  9
$DIMEXE
 40
0.18
  9
$DIMTP
 40
0.0
  9
$DIMTM
 40
0.0
  9
$DIMTXT
 40
0.18
  9
$DIMCEN
 40
0.09
  9
$DIMTSZ
 40
0.0
  9
$DIMTOL
 70
     0
  9
$DIMLIM
 70
     0
  9
$DIMTIH
 70
     1
  9
$DIMTOH
 70
     1
  9
$DIMSE1
 70
     0
  9
$DIMSE2
 70
     0
  9
$DIMTAD
 70
     0
  9
$DIMZIN
 70
     0
  9
$DIMBLK
  1

  9
$DIMASO
 70
     1
  9
$DIMSHO
 70
     1
  9
$DIMPOST
  1

  9
$DIMAPOST
  1

  9
$DIMALT
 70
     0
  9
$DIMALTD
 70
     2
  9
$DIMALTF
 40
25.4
  9
$DIMLFAC
 40
1.0
  9
$DIMTOFL
 70
     0
  9
$DIMTVP
 40
0.0
  9
$DIMTIX
 70
     0
  9
$DIMSOXD
 70
     0
  9
$DIMSAH
 70
     0
  9
$DIMBLK1
  1

  9
$DIMBLK2
  1

  9
$DIMSTYLE
  2
STANDARD
  9
$DIMCLRD
 70
     0
  9
$DIMCLRE
 70
     0
  9
$DIMCLRT
 70
     0
  9
$DIMTFAC
 40
1.0
  9
$DIMGAP
 40
0.09
  9
$LUNITS
 70
     2
  9
$LUPREC
 70
     3
  9
$SKETCHINC
 40
0.1
  9
$FILLETRAD
 40
0.5
  9
$AUNITS
 70
     0
  9
$AUPREC
 70
     0
  9
$MENU
  1
.
  9
$ELEVATION
 40
0.0
  9
$PELEVATION
 40
0.0
  9
$THICKNESS
 40
0.0
  9
$LIMCHECK
 70
     0
  9
$CHAMFERA
 40
0.0
  9
$CHAMFERB
 40
0.0
  9
$SKPOLY
 70
     0
  9
$TDCREATE
 40
2457190.776800775
  9
$TDUPDATE
 40
2457190.776816979
  9
$TDINDWG
 40
0.0000000116
  9
$TDUSRTIMER
 40
0.0000000116
  9
$USRTIMER
 70
     1
  9
$ANGBASE
 50
0.0
  9
$ANGDIR
 70
     0
  9
$PDMODE
 70
     0
  9
$PDSIZE
 40
0.0
  9
$PLINEWID
 40
0.0
  9
$COORDS
 70
     1
  9
$SPLFRAME
 70
     0
  9
$SPLINETYPE
 70
     6
  9
$SPLINESEGS
 70
     8
  9
$ATTDIA
 70
     0
  9
$ATTREQ
 70
     1
  9
$HANDLING
 70
     1
  9
$HANDSEED
  5
A5
  9
$SURFTAB1
 70
     6
  9
$SURFTAB2
 70
     6
  9
$SURFTYPE
 70
     6
  9
$SURFU
 70
     6
  9
$SURFV
 70
     6
  9
$UCSNAME
  2

  9
$UCSORG
 10
0.0
 20
0.0
 30
0.0
  9
$UCSXDIR
 10
1.0
 20
0.0
 30
0.0
  9
$UCSYDIR
 10
0.0
 20
1.0
 30
0.0
  9
$PUCSNAME
  2

  9
$PUCSORG
 10
0.0
 20
0.0
 30
0.0
  9
$PUCSXDIR
 10
1.0
 20
0.0
 30
0.0
  9
$PUCSYDIR
 10
0.0
 20
1.0
 30
0.0
  9
$USERI1
 70
     0
  9
$USERI2
 70
     0
  9
$USERI3
 70
     0
  9
$USERI4
 70
     0
  9
$USERI5
 70
     0
  9
$USERR1
 40
0.0
  9
$USERR2
 40
0.0
  9
$USERR3
 40
0.0
  9
$USERR4
 40
0.0
  9
$USERR5
 40
0.0
  9
$WORLDVIEW
 70
     1
  9
$SHADEDGE
 70
     3
  9
$SHADEDIF
 70
    70
  9
$TILEMODE
 70
     1
  9
$MAXACTVP
 70
    64
  9
$PLIMCHECK
 70
     0
  9
$PEXTMIN
 10
1.000000000000000E+20
 20
1.000000000000000E+20
 30
1.000000000000000E+20
  9
$PEXTMAX
 10
-1.000000000000000E+20
 20
-1.000000000000000E+20
 30
-1.000000000000000E+20
  9
$PLIMMIN
 10
0.0
 20
0.0
  9
$PLIMMAX
 10
12.0
 20
9.0
  9
$UNITMODE
 70
     0
  9
$VISRETAIN
 70
     1
  9
$PLINEGEN
 70
     0
  9
$PSLTSCALE
 70
     1
  0
ENDSEC
  0
SECTION
  2
TABLES
  0
TABLE
  2
VPORT
 70
     1
  0
VPORT
  2
*ACTIVE
 70
     0
 10
0.0
 20
0.0
 11
1.0
 21
1.0
 12
185.0
 22
440.0000000000001
 13
0.0
 23
0.0
 14
0.5
 24
0.5
 15
0.5
 25
0.5
 16
0.0
 26
0.0
 36
1.0
 17
0.0
 27
0.0
 37
0.0
 40
897.6000000000003
 41
0.4204545454545454
 42
50.0
 43
0.0
 44
0.0
 50
0.0
 51
0.0
 71
     0
 72
   100
 73
     1
 74
     3
 75
     0
 76
     0
 77
     0
 78
     0
  0
ENDTAB
  0
TABLE
  2
LTYPE
 70
     1
  0
LTYPE
  2
CONTINUOUS
 70
     0
  3
Solid line
 72
    65
 73
     0
 40
0.0
  0
ENDTAB
  0
TABLE
  2
LAYER
 70
     2
  0
LAYER
  2
0
 70
     0
 62
     7
  6
CONTINUOUS
  0
LAYER
  2
DEFAULT
 70
     0
 62
     7
  6
CONTINUOUS
  0
ENDTAB
  0
TABLE
  2
STYLE
 70
     1
  0
STYLE
  2
STANDARD
 70
     0
 40
0.0
 41
1.0
 50
0.0
 71
     0
 42
0.2
  3
txt
  4

  0
ENDTAB
  0
TABLE
  2
VIEW
 70
     0
  0
ENDTAB
  0
TABLE
  2
UCS
 70
     0
  0
ENDTAB
  0
TABLE
  2
APPID
 70
     1
  0
APPID
  2
ACAD
 70
     0
  0
ENDTAB
  0
TABLE
  2
DIMSTYLE
 70
     1
  0
DIMSTYLE
  2
STANDARD
 70
     0
  3

  4

  5

  6

  7

 40
1.0
 41
0.18
 42
0.0625
 43
0.38
 44
0.18
 45
0.0
 46
0.0
 47
0.0
 48
0.0
140
0.18
141
0.09
142
0.0
143
25.4
144
1.0
145
0.0
146
1.0
147
0.09
 71
     0
 72
     0
 73
     1
 74
     1
 75
     0
 76
     0
 77
     0
 78
     0
170
     0
171
     2
172
     0
173
     0
174
     0
175
     0
176
     0
177
     0
178
     0
  0
ENDTAB
  0
ENDSEC
  0
SECTION
  2
BLOCKS
  0
BLOCK
  8
0
  2
$MODEL_SPACE
 70
     0
 10
0.0
 20
0.0
 30
0.0
  3
$MODEL_SPACE
  1

  0
ENDBLK
  5
21
  8
0
  0
BLOCK
 67
     1
  8
0
  2
$PAPER_SPACE
 70
     0
 10
0.0
 20
0.0
 30
0.0
  3
$PAPER_SPACE
  1

  0
ENDBLK
  5
1D
 67
     1
  8
0
  0
ENDSEC
  0
SECTION
  2
ENTITIES
  0
LINE
  5
6B
  8
DEFAULT
 10
235.0
 20
435.0
 30
0.0
 11
370.0
 21
0.0
 31
0.0
  0
LINE
  5
6C
  8
DEFAULT
 10
370.0
 20
0.0
 30
0.0
 11
270.0
 21
0.0
 31
0.0
  0
LINE
  5
6D
  8
DEFAULT
 10
270.0
 20
0.0
 30
0.0
 11
185.0
 21
273.8888888888891
 31
0.0
  0
LINE
  5
6E
  8
DEFAULT
 10
185.0
 20
273.8888888888891
 30
0.0
 11
100.0
 21
0.0
 31
0.0
  0
LINE
  5
6F
  8
DEFAULT
 10
100.0
 20
0.0
 30
0.0
 11
0.0
 21
0.0
 31
0.0
  0
LINE
  5
70
  8
DEFAULT
 10
0.0
 20
0.0
 30
0.0
 11
135.0
 21
435.0
 31
0.0
  0
LINE
  5
71
  8
DEFAULT
 10
135.0
 20
435.0
 30
0.0
 11
0.0
 21
870.0
 31
0.0
  0
LINE
  5
72
  8
DEFAULT
 10
0.0
 20
870.0
 30
0.0
 11
0.0
 21
878.0000000000001
 31
0.0
  0
LINE
  5
73
  8
DEFAULT
 10
0.0
 20
878.0000000000001
 30
0.0
 11
1.999999999999886
 21
880.0
 31
0.0
  0
LINE
  5
74
  8
DEFAULT
 10
1.999999999999886
 20
880.0
 30
0.0
 11
18.00000000000011
 21
880.0
 31
0.0
  0
LINE
  5
75
  8
DEFAULT
 10
18.00000000000011
 20
880.0
 30
0.0
 11
20.0
 21
878.0000000000001
 31
0.0
  0
LINE
  5
76
  8
DEFAULT
 10
20.0
 20
878.0000000000001
 30
0.0
 11
20.0
 21
870.0
 31
0.0
  0
LINE
  5
77
  8
DEFAULT
 10
20.0
 20
870.0
 30
0.0
 11
40.0
 21
870.0
 31
0.0
  0
LINE
  5
78
  8
DEFAULT
 10
40.0
 20
870.0
 30
0.0
 11
40.0
 21
878.0000000000001
 31
0.0
  0
LINE
  5
79
  8
DEFAULT
 10
40.0
 20
878.0000000000001
 30
0.0
 11
41.99999999999989
 21
880.0
 31
0.0
  0
LINE
  5
7A
  8
DEFAULT
 10
41.99999999999989
 20
880.0
 30
0.0
 11
58.00000000000011
 21
880.0
 31
0.0
  0
LINE
  5
7B
  8
DEFAULT
 10
58.00000000000011
 20
880.0
 30
0.0
 11
60.0
 21
878.0000000000001
 31
0.0
  0
LINE
  5
7C
  8
DEFAULT
 10
60.0
 20
878.0000000000001
 30
0.0
 11
60.0
 21
870.0
 31
0.0
  0
LINE
  5
7D
  8
DEFAULT
 10
60.0
 20
870.0
 30
0.0
 11
80.0
 21
870.0
 31
0.0
  0
LINE
  5
7E
  8
DEFAULT
 10
80.0
 20
870.0
 30
0.0
 11
80.0
 21
878.0000000000001
 31
0.0
  0
LINE
  5
7F
  8
DEFAULT
 10
80.0
 20
878.0000000000001
 30
0.0
 11
81.99999999999989
 21
880.0
 31
0.0
  0
LINE
  5
80
  8
DEFAULT
 10
81.99999999999989
 20
880.0
 30
0.0
 11
98.00000000000011
 21
880.0
 31
0.0
  0
LINE
  5
81
  8
DEFAULT
 10
98.00000000000011
 20
880.0
 30
0.0
 11
100.0
 21
878.0000000000001
 31
0.0
  0
LINE
  5
82
  8
DEFAULT
 10
100.0
 20
878.0000000000001
 30
0.0
 11
100.0
 21
870.0
 31
0.0
  0
LINE
  5
83
  8
DEFAULT
 10
100.0
 20
870.0
 30
0.0
 11
177.4937784569387
 21
620.2978249720862
 31
0.0
  0
LINE
  5
84
  8
DEFAULT
 10
177.4937784569387
 20
620.2978249720862
 30
0.0
 11
177.4937784569386
 21
435.0
 31
0.0
  0
ARC
  5
85
  8
DEFAULT
 10
179.9937784569386
 20
435.0
 30
0.0
 40
2.5
 50
180.0
 51
0.0
  0
LINE
  5
86
  8
DEFAULT
 10
182.4937784569386
 20
435.0
 30
0.0
 11
187.4937784569386
 21
435.0
 31
0.0
  0
ARC
  5
87
  8
DEFAULT
 10
189.9937784569386
 20
435.0
 30
0.0
 40
2.5
 50
180.0
 51
0.0
  0
LINE
  5
88
  8
DEFAULT
 10
192.4937784569386
 20
435.0
 30
0.0
 11
192.4937784569386
 21
620.2577305834686
 31
0.0
  0
LINE
  5
89
  8
DEFAULT
 10
192.4937784569386
 20
620.2577305834686
 30
0.0
 11
270.0
 21
870.0000000000002
 31
0.0
  0
LINE
  5
8A
  8
DEFAULT
 10
270.0
 20
870.0000000000002
 30
0.0
 11
270.0
 21
878.0000000000005
 31
0.0
  0
LINE
  5
8B
  8
DEFAULT
 10
270.0
 20
878.0000000000005
 30
0.0
 11
271.9999999999999
 21
880.0000000000002
 31
0.0
  0
LINE
  5
8C
  8
DEFAULT
 10
271.9999999999999
 20
880.0000000000002
 30
0.0
 11
288.0000000000001
 21
880.0000000000002
 31
0.0
  0
LINE
  5
8D
  8
DEFAULT
 10
288.0000000000001
 20
880.0000000000002
 30
0.0
 11
290.0
 21
878.0000000000005
 31
0.0
  0
LINE
  5
8E
  8
DEFAULT
 10
290.0
 20
878.0000000000005
 30
0.0
 11
290.0
 21
870.0000000000002
 31
0.0
  0
LINE
  5
8F
  8
DEFAULT
 10
290.0
 20
870.0000000000002
 30
0.0
 11
310.0
 21
870.0000000000002
 31
0.0
  0
LINE
  5
90
  8
DEFAULT
 10
310.0
 20
870.0000000000002
 30
0.0
 11
310.0
 21
878.0000000000005
 31
0.0
  0
LINE
  5
91
  8
DEFAULT
 10
310.0
 20
878.0000000000005
 30
0.0
 11
311.9999999999999
 21
880.0000000000002
 31
0.0
  0
LINE
  5
92
  8
DEFAULT
 10
311.9999999999999
 20
880.0000000000002
 30
0.0
 11
328.0000000000001
 21
880.0000000000002
 31
0.0
  0
LINE
  5
93
  8
DEFAULT
 10
328.0000000000001
 20
880.0000000000002
 30
0.0
 11
330.0
 21
878.0000000000005
 31
0.0
  0
LINE
  5
94
  8
DEFAULT
 10
330.0
 20
878.0000000000005
 30
0.0
 11
330.0
 21
870.0000000000002
 31
0.0
  0
LINE
  5
95
  8
DEFAULT
 10
330.0
 20
870.0000000000002
 30
0.0
 11
350.0
 21
870.0000000000002
 31
0.0
  0
LINE
  5
96
  8
DEFAULT
 10
350.0
 20
870.0000000000002
 30
0.0
 11
350.0
 21
878.0000000000005
 31
0.0
  0
LINE
  5
97
  8
DEFAULT
 10
350.0
 20
878.0000000000005
 30
0.0
 11
351.9999999999999
 21
880.0000000000002
 31
0.0
  0
LINE
  5
98
  8
DEFAULT
 10
351.9999999999999
 20
880.0000000000002
 30
0.0
 11
368.0000000000001
 21
880.0000000000002
 31
0.0
  0
LINE
  5
99
  8
DEFAULT
 10
368.0000000000001
 20
880.0000000000002
 30
0.0
 11
370.0
 21
878.0000000000005
 31
0.0
  0
LINE
  5
9A
  8
DEFAULT
 10
370.0
 20
878.0000000000005
 30
0.0
 11
370.0
 21
870.0000000000002
 31
0.0
  0
LINE
  5
9B
  8
DEFAULT
 10
370.0
 20
869.9999999999999
 30
0.0
 11
235.0
 21
435.0
 31
0.0
  0
ENDSEC
  0
EOF
