  0
SECTION
  2
HEADER
  9
$ACADVER
  1
AC1009
  9
$DWGCODEPAGE
  3
ansi_1252
  9
$INSBASE
 10
0.0
 20
0.0
 30
0.0
  9
$EXTMIN
 10
0.0
 20
0.0
 30
0.0
  9
$EXTMAX
 10
700.0
 20
355.0
 30
0.0
  9
$LIMMIN
 10
0.0
 20
0.0
  9
$LIMMAX
 10
12.0
 20
9.0
  9
$ORTHOMODE
 70
     0
  9
$REGENMODE
 70
     1
  9
$FILLMODE
 70
     1
  9
$QTEXTMODE
 70
     0
  9
$MIRRTEXT
 70
     1
  9
$DRAGMODE
 70
     2
  9
$LTSCALE
 40
1.0
  9
$OSMODE
 70
    37
  9
$ATTMODE
 70
     1
  9
$TEXTSIZE
 40
0.2
  9
$TRACEWID
 40
0.05
  9
$TEXTSTYLE
  7
STANDARD
  9
$CLAYER
  8
DEFAULT
  9
$CELTYPE
  6
BYLAYER
  9
$CECOLOR
 62
   256
  9
$DIMSCALE
 40
1.0
  9
$DIMASZ
 40
0.18
  9
$DIMEXO
 40
0.0625
  9
$DIMDLI
 40
0.38
  9
$DIMRND
 40
0.0
  9
$DIMDLE
 40
0.0
  9
$DIMEXE
 40
0.18
  9
$DIMTP
 40
0.0
  9
$DIMTM
 40
0.0
  9
$DIMTXT
 40
0.18
  9
$DIMCEN
 40
0.09
  9
$DIMTSZ
 40
0.0
  9
$DIMTOL
 70
     0
  9
$DIMLIM
 70
     0
  9
$DIMTIH
 70
     1
  9
$DIMTOH
 70
     1
  9
$DIMSE1
 70
     0
  9
$DIMSE2
 70
     0
  9
$DIMTAD
 70
     0
  9
$DIMZIN
 70
     0
  9
$DIMBLK
  1

  9
$DIMASO
 70
     1
  9
$DIMSHO
 70
     1
  9
$DIMPOST
  1

  9
$DIMAPOST
  1

  9
$DIMALT
 70
     0
  9
$DIMALTD
 70
     2
  9
$DIMALTF
 40
25.4
  9
$DIMLFAC
 40
1.0
  9
$DIMTOFL
 70
     0
  9
$DIMTVP
 40
0.0
  9
$DIMTIX
 70
     0
  9
$DIMSOXD
 70
     0
  9
$DIMSAH
 70
     0
  9
$DIMBLK1
  1

  9
$DIMBLK2
  1

  9
$DIMSTYLE
  2
STANDARD
  9
$DIMCLRD
 70
     0
  9
$DIMCLRE
 70
     0
  9
$DIMCLRT
 70
     0
  9
$DIMTFAC
 40
1.0
  9
$DIMGAP
 40
0.09
  9
$LUNITS
 70
     2
  9
$LUPREC
 70
     2
  9
$SKETCHINC
 40
0.1
  9
$FILLETRAD
 40
0.5
  9
$AUNITS
 70
     0
  9
$AUPREC
 70
     0
  9
$MENU
  1
.
  9
$ELEVATION
 40
0.0
  9
$PELEVATION
 40
0.0
  9
$THICKNESS
 40
0.0
  9
$LIMCHECK
 70
     0
  9
$CHAMFERA
 40
0.0
  9
$CHAMFERB
 40
0.0
  9
$SKPOLY
 70
     0
  9
$TDCREATE
 40
2457190.849901956
  9
$TDUPDATE
 40
2457190.849919815
  9
$TDINDWG
 40
0.0000000116
  9
$TDUSRTIMER
 40
0.0000000116
  9
$USRTIMER
 70
     1
  9
$ANGBASE
 50
0.0
  9
$ANGDIR
 70
     0
  9
$PDMODE
 70
     0
  9
$PDSIZE
 40
0.0
  9
$PLINEWID
 40
0.0
  9
$COORDS
 70
     1
  9
$SPLFRAME
 70
     0
  9
$SPLINETYPE
 70
     6
  9
$SPLINESEGS
 70
     8
  9
$ATTDIA
 70
     0
  9
$ATTREQ
 70
     1
  9
$HANDLING
 70
     1
  9
$HANDSEED
  5
D8
  9
$SURFTAB1
 70
     6
  9
$SURFTAB2
 70
     6
  9
$SURFTYPE
 70
     6
  9
$SURFU
 70
     6
  9
$SURFV
 70
     6
  9
$UCSNAME
  2

  9
$UCSORG
 10
0.0
 20
0.0
 30
0.0
  9
$UCSXDIR
 10
1.0
 20
0.0
 30
0.0
  9
$UCSYDIR
 10
0.0
 20
1.0
 30
0.0
  9
$PUCSNAME
  2

  9
$PUCSORG
 10
0.0
 20
0.0
 30
0.0
  9
$PUCSXDIR
 10
1.0
 20
0.0
 30
0.0
  9
$PUCSYDIR
 10
0.0
 20
1.0
 30
0.0
  9
$USERI1
 70
     0
  9
$USERI2
 70
     0
  9
$USERI3
 70
     0
  9
$USERI4
 70
     0
  9
$USERI5
 70
     0
  9
$USERR1
 40
0.0
  9
$USERR2
 40
0.0
  9
$USERR3
 40
0.0
  9
$USERR4
 40
0.0
  9
$USERR5
 40
0.0
  9
$WORLDVIEW
 70
     1
  9
$SHADEDGE
 70
     3
  9
$SHADEDIF
 70
    70
  9
$TILEMODE
 70
     1
  9
$MAXACTVP
 70
    64
  9
$PLIMCHECK
 70
     0
  9
$PEXTMIN
 10
1.000000000000000E+20
 20
1.000000000000000E+20
 30
1.000000000000000E+20
  9
$PEXTMAX
 10
-1.000000000000000E+20
 20
-1.000000000000000E+20
 30
-1.000000000000000E+20
  9
$PLIMMIN
 10
0.0
 20
0.0
  9
$PLIMMAX
 10
12.0
 20
9.0
  9
$UNITMODE
 70
     0
  9
$VISRETAIN
 70
     1
  9
$PLINEGEN
 70
     0
  9
$PSLTSCALE
 70
     1
  0
ENDSEC
  0
SECTION
  2
TABLES
  0
TABLE
  2
VPORT
 70
     1
  0
VPORT
  2
*ACTIVE
 70
     0
 10
0.0
 20
0.0
 11
1.0
 21
1.0
 12
350.0
 22
177.5
 13
0.0
 23
0.0
 14
0.5
 24
0.5
 15
0.5
 25
0.5
 16
0.0
 26
0.0
 36
1.0
 17
0.0
 27
0.0
 37
0.0
 40
362.1
 41
1.971830985915493
 42
50.0
 43
0.0
 44
0.0
 50
0.0
 51
0.0
 71
     0
 72
   100
 73
     1
 74
     3
 75
     0
 76
     0
 77
     0
 78
     0
  0
ENDTAB
  0
TABLE
  2
LTYPE
 70
     1
  0
LTYPE
  2
CONTINUOUS
 70
     0
  3
Solid line
 72
    65
 73
     0
 40
0.0
  0
ENDTAB
  0
TABLE
  2
LAYER
 70
     2
  0
LAYER
  2
0
 70
     0
 62
     7
  6
CONTINUOUS
  0
LAYER
  2
DEFAULT
 70
     0
 62
     7
  6
CONTINUOUS
  0
ENDTAB
  0
TABLE
  2
STYLE
 70
     1
  0
STYLE
  2
STANDARD
 70
     0
 40
0.0
 41
1.0
 50
0.0
 71
     0
 42
0.2
  3
txt
  4

  0
ENDTAB
  0
TABLE
  2
VIEW
 70
     0
  0
ENDTAB
  0
TABLE
  2
UCS
 70
     0
  0
ENDTAB
  0
TABLE
  2
APPID
 70
     1
  0
APPID
  2
ACAD
 70
     0
  0
ENDTAB
  0
TABLE
  2
DIMSTYLE
 70
     1
  0
DIMSTYLE
  2
STANDARD
 70
     0
  3

  4

  5

  6

  7

 40
1.0
 41
0.18
 42
0.0625
 43
0.38
 44
0.18
 45
0.0
 46
0.0
 47
0.0
 48
0.0
140
0.18
141
0.09
142
0.0
143
25.4
144
1.0
145
0.0
146
1.0
147
0.09
 71
     0
 72
     0
 73
     1
 74
     1
 75
     0
 76
     0
 77
     0
 78
     0
170
     0
171
     2
172
     0
173
     0
174
     0
175
     0
176
     0
177
     0
178
     0
  0
ENDTAB
  0
ENDSEC
  0
SECTION
  2
BLOCKS
  0
BLOCK
  8
0
  2
$MODEL_SPACE
 70
     0
 10
0.0
 20
0.0
 30
0.0
  3
$MODEL_SPACE
  1

  0
ENDBLK
  5
21
  8
0
  0
BLOCK
 67
     1
  8
0
  2
$PAPER_SPACE
 70
     0
 10
0.0
 20
0.0
 30
0.0
  3
$PAPER_SPACE
  1

  0
ENDBLK
  5
1D
 67
     1
  8
0
  0
ENDSEC
  0
SECTION
  2
ENTITIES
  0
LINE
  5
6B
  8
DEFAULT
 10
0.0
 20
355.0
 30
0.0
 11
0.0
 21
0.0
 31
0.0
  0
LINE
  5
6C
  8
DEFAULT
 10
0.0
 20
0.0
 30
0.0
 11
700.0
 21
0.0
 31
0.0
  0
LINE
  5
6D
  8
DEFAULT
 10
700.0
 20
0.0
 30
0.0
 11
700.0
 21
355.0
 31
0.0
  0
LINE
  5
6E
  8
DEFAULT
 10
700.0
 20
355.0
 30
0.0
 11
0.0
 21
355.0
 31
0.0
  0
LINE
  5
6F
  8
DEFAULT
 10
475.4909626996348
 20
313.6180553784103
 30
0.0
 11
461.3488270759038
 21
299.4759197546794
 31
0.0
  0
ARC
  5
70
  8
DEFAULT
 10
463.1165940288702
 20
297.708152801713
 30
0.0
 40
2.5
 50
135.0
 51
315.0
  0
LINE
  5
71
  8
DEFAULT
 10
464.8843609818366
 20
295.9403858487466
 30
0.0
 11
468.4198948877693
 21
292.4048519428139
 31
0.0
  0
ARC
  5
72
  8
DEFAULT
 10
470.1876618407357
 20
290.6370849898475
 30
0.0
 40
2.5
 50
135.0
 51
315.0
  0
LINE
  5
73
  8
DEFAULT
 10
471.955428793702
 20
288.8693180368812
 30
0.0
 11
486.097564417433
 21
303.0114536606121
 31
0.0
  0
ARC
  5
74
  8
DEFAULT
 10
484.3297974644667
 20
304.7792206135784
 30
0.0
 40
2.5
 50
315.0
 51
135.0
  0
LINE
  5
75
  8
DEFAULT
 10
482.5620305115003
 20
306.5469875665448
 30
0.0
 11
479.0264966055676
 21
310.0825214724776
 31
0.0
  0
ARC
  5
76
  8
DEFAULT
 10
477.2587296526012
 20
311.8502884254439
 30
0.0
 40
2.5
 50
315.0
 51
135.0
  0
LINE
  5
77
  8
DEFAULT
 10
447.2066914521729
 20
285.3337841309484
 30
0.0
 11
433.0645558284419
 21
271.1916485072175
 31
0.0
  0
ARC
  5
78
  8
DEFAULT
 10
434.8323227814083
 20
269.4238815542511
 30
0.0
 40
2.5
 50
135.0
 51
315.0
  0
LINE
  5
79
  8
DEFAULT
 10
436.6000897343747
 20
267.6561146012847
 30
0.0
 11
440.1356236403074
 21
264.120580695352
 31
0.0
  0
ARC
  5
7A
  8
DEFAULT
 10
441.9033905932738
 20
262.3528137423856
 30
0.0
 40
2.5
 50
135.0
 51
315.0
  0
LINE
  5
7B
  8
DEFAULT
 10
443.6711575462402
 20
260.5850467894193
 30
0.0
 11
457.8132931699711
 21
274.7271824131502
 31
0.0
  0
ARC
  5
7C
  8
DEFAULT
 10
456.0455262170047
 20
276.4949493661165
 30
0.0
 40
2.5
 50
315.0
 51
135.0
  0
LINE
  5
7D
  8
DEFAULT
 10
454.2777592640383
 20
278.2627163190829
 30
0.0
 11
450.7422253581057
 21
281.7982502250157
 31
0.0
  0
ARC
  5
7E
  8
DEFAULT
 10
448.9744584051392
 20
283.5660171779821
 30
0.0
 40
2.5
 50
315.0
 51
135.0
  0
LINE
  5
7F
  8
DEFAULT
 10
418.9224202047109
 20
257.0495128834865
 30
0.0
 11
404.78028458098
 21
242.9073772597556
 31
0.0
  0
ARC
  5
80
  8
DEFAULT
 10
406.5480515339464
 20
241.1396103067892
 30
0.0
 40
2.5
 50
135.0
 51
315.0
  0
LINE
  5
81
  8
DEFAULT
 10
408.3158184869128
 20
239.3718433538228
 30
0.0
 11
411.8513523928455
 21
235.8363094478901
 31
0.0
  0
ARC
  5
82
  8
DEFAULT
 10
413.6191193458119
 20
234.0685424949237
 30
0.0
 40
2.5
 50
135.0
 51
315.0
  0
LINE
  5
83
  8
DEFAULT
 10
415.3868862987782
 20
232.3007755419573
 30
0.0
 11
429.5290219225092
 21
246.4429111656883
 31
0.0
  0
ARC
  5
84
  8
DEFAULT
 10
427.7612549695428
 20
248.2106781186547
 30
0.0
 40
2.5
 50
315.0
 51
135.0
  0
LINE
  5
85
  8
DEFAULT
 10
425.9934880165765
 20
249.9784450716211
 30
0.0
 11
422.4579541106437
 21
253.5139789775538
 31
0.0
  0
ARC
  5
86
  8
DEFAULT
 10
420.6901871576773
 20
255.2817459305201
 30
0.0
 40
2.5
 50
315.0
 51
135.0000000000005
  0
LINE
  5
87
  8
DEFAULT
 10
228.0035892843431
 20
66.13068196311875
 30
0.0
 11
213.8614536606121
 21
51.98854633938776
 31
0.0
  0
ARC
  5
88
  8
DEFAULT
 10
215.6292206135785
 20
50.22077938642138
 30
0.0
 40
2.5
 50
134.9999999999998
 51
314.9999999999998
  0
LINE
  5
89
  8
DEFAULT
 10
217.3969875665449
 20
48.45301243345506
 30
0.0
 11
220.9325214724776
 21
44.9174785275223
 31
0.0
  0
ARC
  5
8A
  8
DEFAULT
 10
222.700288425444
 20
43.14971157455592
 30
0.0
 40
2.5
 50
134.9999999999998
 51
314.9999999999998
  0
LINE
  5
8B
  8
DEFAULT
 10
224.4680553784104
 20
41.3819446215896
 30
0.0
 11
238.6101910021413
 21
55.52408024532053
 31
0.0
  0
ARC
  5
8C
  8
DEFAULT
 10
236.842424049175
 20
57.29184719828691
 30
0.0
 40
2.5
 50
314.9999999999998
 51
134.9999999999998
  0
LINE
  5
8D
  8
DEFAULT
 10
235.0746570962086
 20
59.05961415125329
 30
0.0
 11
231.5391231902759
 21
62.59514805718599
 31
0.0
  0
ARC
  5
8E
  8
DEFAULT
 10
229.7713562373095
 20
64.36291501015236
 30
0.0
 40
2.5
 50
314.9999999999998
 51
134.9999999999998
  0
LINE
  5
8F
  8
DEFAULT
 10
256.287860531805
 20
94.41495321058059
 30
0.0
 11
242.145724908074
 21
80.27281758684967
 31
0.0
  0
ARC
  5
90
  8
DEFAULT
 10
243.9134918610404
 20
78.50505063388337
 30
0.0
 40
2.5
 50
134.9999999999998
 51
314.9999999999998
  0
LINE
  5
91
  8
DEFAULT
 10
245.6812588140068
 20
76.73728368091699
 30
0.0
 11
249.2167927199395
 21
73.20174977498422
 31
0.0
  0
ARC
  5
92
  8
DEFAULT
 10
250.9845596729059
 20
71.43398282201784
 30
0.0
 40
2.5
 50
134.9999999999998
 51
314.9999999999998
  0
LINE
  5
93
  8
DEFAULT
 10
252.7523266258723
 20
69.66621586905146
 30
0.0
 11
266.8944622496032
 21
83.80835149278238
 31
0.0
  0
ARC
  5
94
  8
DEFAULT
 10
265.1266952966369
 20
85.57611844574876
 30
0.0
 40
2.5
 50
315.0000000000002
 51
135.0000000000002
  0
LINE
  5
95
  8
DEFAULT
 10
263.3589283436705
 20
87.34388539871514
 30
0.0
 11
259.8233944377378
 21
90.87941930464791
 31
0.0
  0
ARC
  5
96
  8
DEFAULT
 10
258.0556274847714
 20
92.6471862576143
 30
0.0
 40
2.5
 50
315.0000000000002
 51
135.0000000000002
  0
LINE
  5
97
  8
DEFAULT
 10
284.5721317792669
 20
122.6992244580425
 30
0.0
 11
270.4299961555359
 21
108.5570888343116
 31
0.0
  0
ARC
  5
98
  8
DEFAULT
 10
272.1977631085023
 20
106.7893218813452
 30
0.0
 40
2.5
 50
135.0000000000002
 51
315.0000000000002
  0
LINE
  5
99
  8
DEFAULT
 10
273.9655300614687
 20
105.0215549283788
 30
0.0
 11
277.5010639674014
 21
101.4860210224461
 31
0.0
  0
ARC
  5
9A
  8
DEFAULT
 10
279.2688309203678
 20
99.71825406947974
 30
0.0
 40
2.5
 50
135.0000000000002
 51
315.0000000000002
  0
LINE
  5
9B
  8
DEFAULT
 10
281.0365978733342
 20
97.95048711651336
 30
0.0
 11
295.1787334970651
 21
112.0926227402444
 31
0.0
  0
ARC
  5
9C
  8
DEFAULT
 10
293.4109665440988
 20
113.8603896932107
 30
0.0
 40
2.5
 50
315.0000000000002
 51
135.0000000000002
  0
LINE
  5
9D
  8
DEFAULT
 10
291.6431995911324
 20
115.628156646177
 30
0.0
 11
288.1076656851997
 21
119.1636905521098
 31
0.0
  0
ARC
  5
9E
  8
DEFAULT
 10
286.3398987322333
 20
120.9314575050762
 30
0.0
 40
2.5
 50
315.0000000000002
 51
135.0000000000002
  0
LINE
  5
9F
  8
DEFAULT
 10
404.7802845809799
 20
112.0926227402443
 30
0.0
 11
418.9224202047109
 21
97.9504871165133
 31
0.0
  0
ARC
  5
A0
  8
DEFAULT
 10
420.6901871576773
 20
99.71825406947968
 30
0.0
 40
2.5
 50
224.9999999999998
 51
44.99999999999977
  0
LINE
  5
A1
  8
DEFAULT
 10
422.4579541106437
 20
101.4860210224461
 30
0.0
 11
425.9934880165764
 21
105.0215549283788
 31
0.0
  0
ARC
  5
A2
  8
DEFAULT
 10
427.7612549695428
 20
106.7893218813452
 30
0.0
 40
2.5
 50
224.9999999999998
 51
44.99999999999977
  0
LINE
  5
A3
  8
DEFAULT
 10
429.5290219225092
 20
108.5570888343115
 30
0.0
 11
415.3868862987782
 21
122.6992244580425
 31
0.0
  0
ARC
  5
A4
  8
DEFAULT
 10
413.6191193458118
 20
120.9314575050761
 30
0.0
 40
2.5
 50
44.99999999999977
 51
224.9999999999998
  0
LINE
  5
A5
  8
DEFAULT
 10
411.8513523928455
 20
119.1636905521098
 30
0.0
 11
408.3158184869127
 21
115.628156646177
 31
0.0
  0
ARC
  5
A6
  8
DEFAULT
 10
406.5480515339464
 20
113.8603896932107
 30
0.0
 40
2.5
 50
44.99999999999977
 51
224.9999999999998
  0
LINE
  5
A7
  8
DEFAULT
 10
433.0645558284419
 20
83.80835149278238
 30
0.0
 11
447.2066914521728
 21
69.66621586905146
 31
0.0
  0
ARC
  5
A8
  8
DEFAULT
 10
448.9744584051392
 20
71.43398282201784
 30
0.0
 40
2.5
 50
224.9999999999998
 51
44.99999999999977
  0
LINE
  5
A9
  8
DEFAULT
 10
450.7422253581055
 20
73.20174977498422
 30
0.0
 11
454.2777592640383
 21
76.7372836809169
 31
0.0
  0
ARC
  5
AA
  8
DEFAULT
 10
456.0455262170047
 20
78.50505063388329
 30
0.0
 40
2.5
 50
224.9999999999998
 51
44.99999999999977
  0
LINE
  5
AB
  8
DEFAULT
 10
457.813293169971
 20
80.27281758684967
 30
0.0
 11
443.6711575462401
 21
94.41495321058059
 31
0.0
  0
ARC
  5
AC
  8
DEFAULT
 10
441.9033905932738
 20
92.64718625761421
 30
0.0
 40
2.5
 50
44.99999999999977
 51
224.9999999999998
  0
LINE
  5
AD
  8
DEFAULT
 10
440.1356236403074
 20
90.87941930464783
 30
0.0
 11
436.6000897343746
 21
87.34388539871514
 31
0.0
  0
ARC
  5
AE
  8
DEFAULT
 10
434.8323227814083
 20
85.57611844574876
 30
0.0
 40
2.5
 50
44.99999999999977
 51
224.9999999999998
  0
LINE
  5
AF
  8
DEFAULT
 10
461.3488270759038
 20
55.52408024532053
 30
0.0
 11
475.4909626996348
 21
41.38194462158953
 31
0.0
  0
ARC
  5
B0
  8
DEFAULT
 10
477.2587296526011
 20
43.14971157455592
 30
0.0
 40
2.5
 50
224.9999999999998
 51
44.99999999999977
  0
LINE
  5
B1
  8
DEFAULT
 10
479.0264966055674
 20
44.91747852752223
 30
0.0
 11
482.5620305115002
 21
48.45301243345499
 31
0.0
  0
ARC
  5
B2
  8
DEFAULT
 10
484.3297974644665
 20
50.22077938642138
 30
0.0
 40
2.5
 50
224.9999999999998
 51
44.99999999999977
  0
LINE
  5
B3
  8
DEFAULT
 10
486.0975644174329
 20
51.98854633938776
 30
0.0
 11
471.955428793702
 21
66.13068196311869
 31
0.0
  0
ARC
  5
B4
  8
DEFAULT
 10
470.1876618407356
 20
64.3629150101523
 30
0.0
 40
2.5
 50
44.99999999999977
 51
224.9999999999998
  0
LINE
  5
B5
  8
DEFAULT
 10
468.4198948877693
 20
62.59514805718592
 30
0.0
 11
464.8843609818366
 21
59.05961415125322
 31
0.0
  0
ARC
  5
B6
  8
DEFAULT
 10
463.1165940288702
 20
57.29184719828684
 30
0.0
 40
2.5
 50
44.99999999999977
 51
224.9999999999998
  0
LINE
  5
B7
  8
DEFAULT
 10
270.429996155536
 20
246.4429111656883
 30
0.0
 11
284.572131779267
 21
232.3007755419574
 31
0.0
  0
ARC
  5
B8
  8
DEFAULT
 10
286.3398987322333
 20
234.0685424949237
 30
0.0
 40
2.5
 50
224.9999999999996
 51
44.99999999999954
  0
LINE
  5
B9
  8
DEFAULT
 10
288.1076656851997
 20
235.8363094478901
 30
0.0
 11
291.6431995911324
 21
239.3718433538229
 31
0.0
  0
ARC
  5
BA
  8
DEFAULT
 10
293.4109665440988
 20
241.1396103067893
 30
0.0
 40
2.5
 50
224.9999999999996
 51
44.99999999999954
  0
LINE
  5
BB
  8
DEFAULT
 10
295.1787334970651
 20
242.9073772597556
 30
0.0
 11
281.0365978733342
 21
257.0495128834866
 31
0.0
  0
ARC
  5
BC
  8
DEFAULT
 10
279.2688309203679
 20
255.2817459305202
 30
0.0
 40
2.5
 50
45.0
 51
224.9999999999996
  0
LINE
  5
BD
  8
DEFAULT
 10
277.5010639674015
 20
253.5139789775538
 30
0.0
 11
273.9655300614687
 21
249.9784450716211
 31
0.0
  0
ARC
  5
BE
  8
DEFAULT
 10
272.1977631085024
 20
248.2106781186547
 30
0.0
 40
2.5
 50
44.99999999999954
 51
224.9999999999996
  0
LINE
  5
BF
  8
DEFAULT
 10
242.1457249080741
 20
274.7271824131503
 30
0.0
 11
256.2878605318051
 21
260.5850467894193
 31
0.0
  0
ARC
  5
C0
  8
DEFAULT
 10
258.0556274847714
 20
262.3528137423857
 30
0.0
 40
2.5
 50
225.0
 51
45.0
  0
LINE
  5
C1
  8
DEFAULT
 10
259.8233944377378
 20
264.120580695352
 30
0.0
 11
263.3589283436705
 21
267.6561146012848
 31
0.0
  0
ARC
  5
C2
  8
DEFAULT
 10
265.1266952966369
 20
269.4238815542512
 30
0.0
 40
2.5
 50
225.0
 51
45.0
  0
LINE
  5
C3
  8
DEFAULT
 10
266.8944622496033
 20
271.1916485072175
 30
0.0
 11
252.7523266258723
 21
285.3337841309485
 31
0.0
  0
ARC
  5
C4
  8
DEFAULT
 10
250.984559672906
 20
283.5660171779821
 30
0.0
 40
2.5
 50
45.0
 51
225.0
  0
LINE
  5
C5
  8
DEFAULT
 10
249.2167927199396
 20
281.7982502250157
 30
0.0
 11
245.6812588140069
 21
278.262716319083
 31
0.0
  0
ARC
  5
C6
  8
DEFAULT
 10
243.9134918610405
 20
276.4949493661167
 30
0.0
 40
2.5
 50
45.0
 51
225.0
  0
LINE
  5
C7
  8
DEFAULT
 10
213.8614536606122
 20
303.0114536606122
 30
0.0
 11
228.0035892843431
 21
288.8693180368812
 31
0.0
  0
ARC
  5
C8
  8
DEFAULT
 10
229.7713562373095
 20
290.6370849898476
 30
0.0
 40
2.5
 50
225.0
 51
45.0
  0
LINE
  5
C9
  8
DEFAULT
 10
231.5391231902759
 20
292.4048519428139
 30
0.0
 11
235.0746570962086
 21
295.9403858487467
 31
0.0
  0
ARC
  5
CA
  8
DEFAULT
 10
236.842424049175
 20
297.708152801713
 30
0.0
 40
2.5
 50
225.0
 51
45.0
  0
LINE
  5
CB
  8
DEFAULT
 10
238.6101910021414
 20
299.4759197546795
 30
0.0
 11
224.4680553784104
 21
313.6180553784104
 31
0.0
  0
ARC
  5
CC
  8
DEFAULT
 10
222.7002884254441
 20
311.850288425444
 30
0.0
 40
2.5
 50
45.0
 51
225.0
  0
LINE
  5
CD
  8
DEFAULT
 10
220.9325214724777
 20
310.0825214724777
 30
0.0
 11
217.396987566545
 21
306.5469875665449
 31
0.0
  0
ARC
  5
CE
  8
DEFAULT
 10
215.6292206135786
 20
304.7792206135785
 30
0.0
 40
2.5
 50
45.0
 51
225.0
  0
ENDSEC
  0
EOF
