  0
SECTION
  2
HEADER
  9
$ACADVER
  1
AC1009
  9
$DWGCODEPAGE
  3
ansi_1252
  9
$INSBASE
 10
0.0
 20
0.0
 30
0.0
  9
$EXTMIN
 10
-2050.0
 20
-1100.0
 30
0.0
  9
$EXTMAX
 10
0.0
 20
0.0
 30
0.0
  9
$LIMMIN
 10
0.0
 20
0.0
  9
$LIMMAX
 10
12.0
 20
9.0
  9
$ORTHOMODE
 70
     0
  9
$REGENMODE
 70
     1
  9
$FILLMODE
 70
     1
  9
$QTEXTMODE
 70
     0
  9
$MIRRTEXT
 70
     1
  9
$DRAGMODE
 70
     2
  9
$LTSCALE
 40
1.0
  9
$OSMODE
 70
    37
  9
$ATTMODE
 70
     1
  9
$TEXTSIZE
 40
0.2
  9
$TRACEWID
 40
0.05
  9
$TEXTSTYLE
  7
STANDARD
  9
$CLAYER
  8
DEFAULT
  9
$CELTYPE
  6
BYLAYER
  9
$CECOLOR
 62
   256
  9
$DIMSCALE
 40
1.0
  9
$DIMASZ
 40
0.18
  9
$DIMEXO
 40
0.0625
  9
$DIMDLI
 40
0.38
  9
$DIMRND
 40
0.0
  9
$DIMDLE
 40
0.0
  9
$DIMEXE
 40
0.18
  9
$DIMTP
 40
0.0
  9
$DIMTM
 40
0.0
  9
$DIMTXT
 40
0.18
  9
$DIMCEN
 40
0.09
  9
$DIMTSZ
 40
0.0
  9
$DIMTOL
 70
     0
  9
$DIMLIM
 70
     0
  9
$DIMTIH
 70
     1
  9
$DIMTOH
 70
     1
  9
$DIMSE1
 70
     0
  9
$DIMSE2
 70
     0
  9
$DIMTAD
 70
     0
  9
$DIMZIN
 70
     0
  9
$DIMBLK
  1

  9
$DIMASO
 70
     1
  9
$DIMSHO
 70
     1
  9
$DIMPOST
  1

  9
$DIMAPOST
  1

  9
$DIMALT
 70
     0
  9
$DIMALTD
 70
     2
  9
$DIMALTF
 40
25.4
  9
$DIMLFAC
 40
1.0
  9
$DIMTOFL
 70
     0
  9
$DIMTVP
 40
0.0
  9
$DIMTIX
 70
     0
  9
$DIMSOXD
 70
     0
  9
$DIMSAH
 70
     0
  9
$DIMBLK1
  1

  9
$DIMBLK2
  1

  9
$DIMSTYLE
  2
STANDARD
  9
$DIMCLRD
 70
     0
  9
$DIMCLRE
 70
     0
  9
$DIMCLRT
 70
     0
  9
$DIMTFAC
 40
1.0
  9
$DIMGAP
 40
0.09
  9
$LUNITS
 70
     2
  9
$LUPREC
 70
     3
  9
$SKETCHINC
 40
0.1
  9
$FILLETRAD
 40
0.5
  9
$AUNITS
 70
     0
  9
$AUPREC
 70
     0
  9
$MENU
  1
.
  9
$ELEVATION
 40
0.0
  9
$PELEVATION
 40
0.0
  9
$THICKNESS
 40
0.0
  9
$LIMCHECK
 70
     0
  9
$CHAMFERA
 40
0.0
  9
$CHAMFERB
 40
0.0
  9
$SKPOLY
 70
     0
  9
$TDCREATE
 40
2457190.283014097
  9
$TDUPDATE
 40
2457190.28302963
  9
$TDINDWG
 40
0.0000000116
  9
$TDUSRTIMER
 40
0.0000000116
  9
$USRTIMER
 70
     1
  9
$ANGBASE
 50
0.0
  9
$ANGDIR
 70
     0
  9
$PDMODE
 70
     0
  9
$PDSIZE
 40
0.0
  9
$PLINEWID
 40
0.0
  9
$COORDS
 70
     1
  9
$SPLFRAME
 70
     0
  9
$SPLINETYPE
 70
     6
  9
$SPLINESEGS
 70
     8
  9
$ATTDIA
 70
     0
  9
$ATTREQ
 70
     1
  9
$HANDLING
 70
     1
  9
$HANDSEED
  5
48E
  9
$SURFTAB1
 70
     6
  9
$SURFTAB2
 70
     6
  9
$SURFTYPE
 70
     6
  9
$SURFU
 70
     6
  9
$SURFV
 70
     6
  9
$UCSNAME
  2

  9
$UCSORG
 10
0.0
 20
0.0
 30
0.0
  9
$UCSXDIR
 10
1.0
 20
0.0
 30
0.0
  9
$UCSYDIR
 10
0.0
 20
1.0
 30
0.0
  9
$PUCSNAME
  2

  9
$PUCSORG
 10
0.0
 20
0.0
 30
0.0
  9
$PUCSXDIR
 10
1.0
 20
0.0
 30
0.0
  9
$PUCSYDIR
 10
0.0
 20
1.0
 30
0.0
  9
$USERI1
 70
     0
  9
$USERI2
 70
     0
  9
$USERI3
 70
     0
  9
$USERI4
 70
     0
  9
$USERI5
 70
     0
  9
$USERR1
 40
0.0
  9
$USERR2
 40
0.0
  9
$USERR3
 40
0.0
  9
$USERR4
 40
0.0
  9
$USERR5
 40
0.0
  9
$WORLDVIEW
 70
     1
  9
$SHADEDGE
 70
     3
  9
$SHADEDIF
 70
    70
  9
$TILEMODE
 70
     1
  9
$MAXACTVP
 70
    64
  9
$PLIMCHECK
 70
     0
  9
$PEXTMIN
 10
1.000000000000000E+20
 20
1.000000000000000E+20
 30
1.000000000000000E+20
  9
$PEXTMAX
 10
-1.000000000000000E+20
 20
-1.000000000000000E+20
 30
-1.000000000000000E+20
  9
$PLIMMIN
 10
0.0
 20
0.0
  9
$PLIMMAX
 10
12.0
 20
9.0
  9
$UNITMODE
 70
     0
  9
$VISRETAIN
 70
     1
  9
$PLINEGEN
 70
     0
  9
$PSLTSCALE
 70
     1
  0
ENDSEC
  0
SECTION
  2
TABLES
  0
TABLE
  2
VPORT
 70
     1
  0
VPORT
  2
*ACTIVE
 70
     0
 10
0.0
 20
0.0
 11
1.0
 21
1.0
 12
-1025.0
 22
-550.0
 13
0.0
 23
0.0
 14
0.5
 24
0.5
 15
0.5
 25
0.5
 16
0.0
 26
0.0
 36
1.0
 17
0.0
 27
0.0
 37
0.0
 40
1122.0
 41
1.863636363636364
 42
50.0
 43
0.0
 44
0.0
 50
0.0
 51
0.0
 71
     0
 72
   100
 73
     1
 74
     3
 75
     0
 76
     0
 77
     0
 78
     0
  0
ENDTAB
  0
TABLE
  2
LTYPE
 70
     1
  0
LTYPE
  2
CONTINUOUS
 70
     0
  3
Solid line
 72
    65
 73
     0
 40
0.0
  0
ENDTAB
  0
TABLE
  2
LAYER
 70
     5
  0
LAYER
  2
0
 70
     0
 62
     7
  6
CONTINUOUS
  0
LAYER
  2
LAYER_06
 70
     0
 62
     3
  6
CONTINUOUS
  0
LAYER
  2
LAYER_01
 70
     0
 62
    14
  6
CONTINUOUS
  0
LAYER
  2
DEFAULT
 70
     0
 62
     7
  6
CONTINUOUS
  0
LAYER
  2
LAYER_05
 70
     0
 62
     7
  6
CONTINUOUS
  0
ENDTAB
  0
TABLE
  2
STYLE
 70
     1
  0
STYLE
  2
STANDARD
 70
     0
 40
0.0
 41
1.0
 50
0.0
 71
     0
 42
0.2
  3
txt
  4

  0
ENDTAB
  0
TABLE
  2
VIEW
 70
     0
  0
ENDTAB
  0
TABLE
  2
UCS
 70
     0
  0
ENDTAB
  0
TABLE
  2
APPID
 70
     1
  0
APPID
  2
ACAD
 70
     0
  0
ENDTAB
  0
TABLE
  2
DIMSTYLE
 70
     1
  0
DIMSTYLE
  2
STANDARD
 70
     0
  3

  4

  5

  6

  7

 40
1.0
 41
0.18
 42
0.0625
 43
0.38
 44
0.18
 45
0.0
 46
0.0
 47
0.0
 48
0.0
140
0.18
141
0.09
142
0.0
143
25.4
144
1.0
145
0.0
146
1.0
147
0.09
 71
     0
 72
     0
 73
     1
 74
     1
 75
     0
 76
     0
 77
     0
 78
     0
170
     0
171
     2
172
     0
173
     0
174
     0
175
     0
176
     0
177
     0
178
     0
  0
ENDTAB
  0
ENDSEC
  0
SECTION
  2
BLOCKS
  0
BLOCK
  8
0
  2
$MODEL_SPACE
 70
     0
 10
0.0
 20
0.0
 30
0.0
  3
$MODEL_SPACE
  1

  0
ENDBLK
  5
21
  8
0
  0
BLOCK
 67
     1
  8
0
  2
$PAPER_SPACE
 70
     0
 10
0.0
 20
0.0
 30
0.0
  3
$PAPER_SPACE
  1

  0
ENDBLK
  5
1D
 67
     1
  8
0
  0
ENDSEC
  0
SECTION
  2
ENTITIES
  0
CIRCLE
  5
6B
  8
LAYER_06
 10
-187.1347615708945
 20
-341.6277640900184
 30
0.0
 40
3.0
  0
CIRCLE
  5
6D
  8
LAYER_01
 10
-1080.816070783785
 20
-294.5711613720197
 30
0.0
 40
14.99999999999999
  0
CIRCLE
  5
6E
  8
LAYER_01
 10
-1589.574263071969
 20
-294.5711613720211
 30
0.0
 40
15.00000000000001
  0
LINE
  5
70
  8
DEFAULT
 10
-1138.316070783787
 20
-199.5711613720136
 30
0.0
 11
-1532.074263071968
 21
-199.5711613720143
 31
0.0
  0
ARC
  5
71
  8
DEFAULT
 10
-1532.074263071968
 20
-294.5711613720159
 30
0.0
 40
95.00000000000153
 50
90.00000000000014
 51
180.0000000000014
  0
ARC
  5
72
  8
DEFAULT
 10
-1589.574263071969
 20
-294.5711613720197
 30
0.0
 40
37.49999999999992
 50
179.9999999999978
 51
258.5216590454597
  0
LINE
  5
73
  8
DEFAULT
 10
-1597.036668850273
 20
-331.3211613720188
 30
0.0
 11
-1582.111857293658
 21
-331.32116137202
 31
0.0
  0
ARC
  5
74
  8
DEFAULT
 10
-1589.574263071968
 20
-294.5711613720215
 30
0.0
 40
37.50000000000041
 50
281.4783409545497
 51
0.0000000000010422
  0
ARC
  5
75
  8
DEFAULT
 10
-1514.574263071966
 20
-294.5711613720206
 30
0.0
 40
37.50000000000227
 50
90.0
 51
180.0000000000005
  0
LINE
  5
76
  8
DEFAULT
 10
-1514.574263071966
 20
-257.0711613720184
 30
0.0
 11
-1155.816070783789
 21
-257.0711613720177
 31
0.0
  0
ARC
  5
77
  8
DEFAULT
 10
-1155.816070783789
 20
-294.5711613720204
 30
0.0
 40
37.50000000000273
 50
0.0
 51
89.99999999999966
  0
ARC
  5
78
  8
DEFAULT
 10
-1080.816070783785
 20
-294.5711613720197
 30
0.0
 40
37.50000000000101
 50
180.0000000000011
 51
258.5216590454501
  0
LINE
  5
79
  8
DEFAULT
 10
-1088.278476562095
 20
-331.3211613720186
 30
0.0
 11
-1073.35366500548
 21
-331.3211613720172
 31
0.0
  0
ARC
  5
7A
  8
DEFAULT
 10
-1080.816070783784
 20
-294.5711613720179
 30
0.0
 40
37.50000000000032
 50
281.4783409545412
 51
0.0000000000024318
  0
ARC
  5
7B
  8
DEFAULT
 10
-1138.316070783787
 20
-294.5711613720163
 30
0.0
 40
95.00000000000273
 50
0.0
 51
90.0
  0
LINE
  5
7C
  8
DEFAULT
 10
-1704.131191533248
 20
-124.0318637958918
 30
0.0
 11
-1704.131191533247
 21
-517.7900560840732
 31
0.0
  0
ARC
  5
7D
  8
DEFAULT
 10
-1609.131191533246
 20
-517.7900560840732
 30
0.0
 40
95.00000000000153
 50
180.0
 51
270.0000000000014
  0
ARC
  5
7E
  8
DEFAULT
 10
-1609.131191533242
 20
-575.2900560840745
 30
0.0
 40
37.49999999999992
 50
269.9999999999979
 51
348.5216590454598
  0
LINE
  5
7F
  8
DEFAULT
 10
-1572.381191533243
 20
-582.7524618623785
 30
0.0
 11
-1572.381191533242
 21
-567.8276503057629
 31
0.0
  0
ARC
  5
80
  8
DEFAULT
 10
-1609.13119153324
 20
-575.2900560840732
 30
0.0
 40
37.50000000000041
 50
11.47834095454968
 51
90.00000000000104
  0
ARC
  5
81
  8
DEFAULT
 10
-1609.131191533241
 20
-500.2900560840707
 30
0.0
 40
37.50000000000227
 50
180.0
 51
270.0000000000003
  0
LINE
  5
82
  8
DEFAULT
 10
-1646.631191533243
 20
-500.2900560840707
 30
0.0
 11
-1646.631191533244
 21
-141.5318637958938
 31
0.0
  0
ARC
  5
83
  8
DEFAULT
 10
-1609.131191533241
 20
-141.531863795894
 30
0.0
 40
37.50000000000273
 50
90.0
 51
179.9999999999997
  0
ARC
  5
84
  8
DEFAULT
 10
-1609.131191533242
 20
-66.53186379588993
 30
0.0
 40
37.50000000000101
 50
270.000000000001
 51
348.5216590454501
  0
LINE
  5
85
  8
DEFAULT
 10
-1572.381191533243
 20
-73.99426957420025
 30
0.0
 11
-1572.381191533244
 21
-59.06945801758485
 31
0.0
  0
ARC
  5
86
  8
DEFAULT
 10
-1609.131191533244
 20
-66.53186379588948
 30
0.0
 40
37.50000000000032
 50
11.47834095454123
 51
90.00000000000244
  0
ARC
  5
87
  8
DEFAULT
 10
-1609.131191533245
 20
-124.0318637958918
 30
0.0
 40
95.00000000000273
 50
90.0
 51
180.0
  0
CIRCLE
  5
88
  8
LAYER_01
 10
-1609.131191533241
 20
-575.2900560840736
 30
0.0
 40
15.00000000000001
  0
CIRCLE
  5
89
  8
LAYER_01
 10
-1609.131191533242
 20
-66.53186379589016
 30
0.0
 40
14.99999999999999
  0
CIRCLE
  5
8A
  8
LAYER_01
 10
-255.3120927824536
 20
-1041.500000000097
 30
0.0
 40
14.99999999999999
  0
CIRCLE
  5
8B
  8
LAYER_01
 10
-255.3120927824571
 20
-421.3178941370476
 30
0.0
 40
14.99999999999999
  0
ARC
  5
8C
  8
DEFAULT
 10
-255.3120927824564
 20
-496.3178941370512
 30
0.0
 40
37.50000000000273
 50
90.0
 51
180.0
  0
ARC
  5
8D
  8
DEFAULT
 10
-255.3120927824568
 20
-421.3178941370478
 30
0.0
 40
37.5000000000007
 50
270.0000000000007
 51
348.5216590454507
  0
LINE
  5
8E
  8
DEFAULT
 10
-218.5620927824582
 20
-428.7802999153577
 30
0.0
 11
-218.5620927824596
 21
-413.8554883587423
 31
0.0
  0
ARC
  5
8F
  8
DEFAULT
 10
-255.3120927824586
 20
-421.3178941370469
 30
0.0
 40
37.50000000000008
 50
11.47834095454114
 51
90.00000000000277
  0
ARC
  5
90
  8
DEFAULT
 10
-255.3120927824605
 20
-478.8178941370492
 30
0.0
 40
95.00000000000273
 50
90.0
 51
180.0
  0
LINE
  5
91
  8
DEFAULT
 10
-350.3120927824632
 20
-478.8178941370492
 30
0.0
 11
-350.3120927824605
 21
-984.0000000000963
 31
0.0
  0
ARC
  5
92
  8
DEFAULT
 10
-255.3120927824589
 20
-984.0000000000963
 30
0.0
 40
95.00000000000153
 50
180.0
 51
270.0000000000014
  0
ARC
  5
93
  8
DEFAULT
 10
-255.3120927824551
 20
-1041.500000000098
 30
0.0
 40
37.49999999999992
 50
269.9999999999978
 51
348.5216590454597
  0
LINE
  5
94
  8
DEFAULT
 10
-218.562092782456
 20
-1048.962405778402
 30
0.0
 11
-218.5620927824549
 21
-1034.037594221787
 31
0.0
  0
ARC
  5
95
  8
DEFAULT
 10
-255.312092782453
 20
-1041.500000000096
 30
0.0
 40
37.50000000000016
 50
11.47834095454944
 51
90.0000000000007
  0
ARC
  5
96
  8
DEFAULT
 10
-255.3120927824542
 20
-966.5000000000938
 30
0.0
 40
37.50000000000227
 50
180.0
 51
270.0000000000013
  0
LINE
  5
97
  8
DEFAULT
 10
-292.8120927824565
 20
-966.5000000000938
 30
0.0
 11
-292.8120927824591
 21
-496.3178941370512
 31
0.0
  0
CIRCLE
  5
98
  8
LAYER_01
 10
-115.0000000000066
 20
-1041.500000000097
 30
0.0
 40
14.99999999999999
  0
CIRCLE
  5
99
  8
LAYER_01
 10
-115.0000000000032
 20
-421.3178941370477
 30
0.0
 40
14.99999999999999
  0
ARC
  5
9A
  8
DEFAULT
 10
-115.0000000000039
 20
-496.3178941370513
 30
0.0
 40
37.50000000000273
 50
0.0
 51
90.0
  0
ARC
  5
9B
  8
DEFAULT
 10
-115.0000000000034
 20
-421.3178941370479
 30
0.0
 40
37.5000000000007
 50
191.4783409545493
 51
269.9999999999993
  0
LINE
  5
9C
  8
DEFAULT
 10
-151.750000000002
 20
-428.7802999153578
 30
0.0
 11
-151.7500000000007
 21
-413.8554883587424
 31
0.0
  0
ARC
  5
9D
  8
DEFAULT
 10
-115.0000000000016
 20
-421.317894137047
 30
0.0
 40
37.50000000000008
 50
89.99999999999723
 51
168.5216590454589
  0
ARC
  5
9E
  8
DEFAULT
 10
-114.9999999999998
 20
-478.8178941370493
 30
0.0
 40
95.00000000000273
 50
359.9999999999999
 51
90.0
  0
LINE
  5
9F
  8
DEFAULT
 10
-19.99999999999704
 20
-478.8178941370493
 30
0.0
 11
-19.99999999999977
 21
-984.0000000000964
 31
0.0
  0
ARC
  5
A0
  8
DEFAULT
 10
-115.0000000000014
 20
-984.0000000000964
 30
0.0
 40
95.00000000000153
 50
269.9999999999986
 51
359.9999999999999
  0
ARC
  5
A1
  8
DEFAULT
 10
-115.0000000000051
 20
-1041.500000000098
 30
0.0
 40
37.49999999999992
 50
191.4783409545403
 51
270.0000000000022
  0
LINE
  5
A2
  8
DEFAULT
 10
-151.7500000000042
 20
-1048.962405778402
 30
0.0
 11
-151.7500000000053
 21
-1034.037594221787
 31
0.0
  0
ARC
  5
A3
  8
DEFAULT
 10
-115.0000000000073
 20
-1041.500000000096
 30
0.0
 40
37.50000000000016
 50
89.9999999999993
 51
168.5216590454506
  0
ARC
  5
A4
  8
DEFAULT
 10
-115.000000000006
 20
-966.5000000000939
 30
0.0
 40
37.50000000000227
 50
269.9999999999987
 51
0.0
  0
LINE
  5
A5
  8
DEFAULT
 10
-77.50000000000375
 20
-966.5000000000939
 30
0.0
 11
-77.50000000000114
 21
-496.3178941370513
 31
0.0
  0
ARC
  5
A6
  8
DEFAULT
 10
-1681.447161087543
 20
-782.6794646761193
 30
0.0
 40
50.00000000000669
 50
359.9999999999721
 51
70.52877936547652
  0
ARC
  5
A7
  8
DEFAULT
 10
-1866.447161086896
 20
-782.6794646761434
 30
0.0
 40
50.00000000002018
 50
109.4712206344818
 51
180.0000000000002
  0
LINE
  5
A8
  8
DEFAULT
 10
-1916.447161086915
 20
-782.6794646761437
 30
0.0
 11
-1916.447161086915
 21
-838.9445200697633
 31
0.0
  0
LINE
  5
A9
  8
DEFAULT
 10
-1782.947161087381
 20
-838.9445200697638
 30
0.0
 11
-1916.447161086915
 21
-838.9445200697638
 31
0.0
  0
LINE
  5
AA
  8
DEFAULT
 10
-1764.947161087785
 20
-838.9445200697638
 30
0.0
 11
-1631.447161088252
 21
-838.9445200697638
 31
0.0
  0
LINE
  5
AB
  8
DEFAULT
 10
-1631.447161088251
 20
-782.6794646761437
 30
0.0
 11
-1631.447161088251
 21
-838.9445200697633
 31
0.0
  0
ARC
  5
AC
  8
DEFAULT
 10
-1794.258320988797
 20
-107.5786230285403
 30
0.0
 40
50.00000000000669
 50
289.4712206345237
 51
0.0000000000281721
  0
LINE
  5
AD
  8
DEFAULT
 10
-1744.258320989504
 20
-107.5786230285157
 30
0.0
 11
-1744.258320989504
 21
-51.31356763489612
 31
0.0
  0
LINE
  5
AE
  8
DEFAULT
 10
-1877.758320989039
 20
-51.31356763489555
 30
0.0
 11
-1744.258320989505
 21
-51.31356763489555
 31
0.0
  0
ARC
  5
AF
  8
DEFAULT
 10
-1979.258320988149
 20
-107.5786230285157
 30
0.0
 40
50.00000000002018
 50
179.9999999999999
 51
250.5287793655182
  0
LINE
  5
B0
  8
DEFAULT
 10
-1895.758320988635
 20
-51.31356763489555
 30
0.0
 11
-2029.258320988168
 21
-51.31356763489555
 31
0.0
  0
LINE
  5
B1
  8
DEFAULT
 10
-2029.258320988169
 20
-107.5786230285157
 30
0.0
 11
-2029.258320988169
 21
-51.31356763489612
 31
0.0
  0
LINE
  5
B2
  8
DEFAULT
 10
-801.4833120901017
 20
-118.6652879442784
 30
0.0
 11
-888.983312090098
 21
-118.6652879442679
 31
0.0
  0
LINE
  5
B3
  8
DEFAULT
 10
-801.4833120900998
 20
-81.16528794427245
 30
0.0
 11
-801.4833120901017
 21
-118.6652879442724
 31
0.0
  0
LINE
  5
B4
  8
DEFAULT
 10
-689.4663127340123
 20
-118.6652879442679
 30
0.0
 11
-783.4833120901013
 21
-118.6652879442708
 31
0.0
  0
LINE
  5
B5
  8
DEFAULT
 10
-783.4833120901017
 20
-118.6652879442724
 30
0.0
 11
-783.4833120901008
 21
-81.16528794407236
 31
0.0
  0
LINE
  5
B6
  8
DEFAULT
 10
-354.9493133773235
 20
-118.6652879442679
 30
0.0
 11
-442.4493133773179
 21
-118.6652879442784
 31
0.0
  0
LINE
  5
B7
  8
DEFAULT
 10
-442.449313377318
 20
-118.6652879442724
 30
0.0
 11
-442.4493133773199
 21
-81.16528794427245
 31
0.0
  0
LINE
  5
B8
  8
DEFAULT
 10
-460.4493133773208
 20
-118.6652879442679
 30
0.0
 11
-554.4663127340168
 21
-118.6652879442679
 31
0.0
  0
LINE
  5
B9
  8
DEFAULT
 10
-460.4493133773199
 20
-81.16528794407236
 30
0.0
 11
-460.449313377319
 21
-118.6652879442679
 31
0.0
  0
LINE
  5
BA
  8
DEFAULT
 10
-547.449313377523
 20
-236.1867359908472
 30
0.0
 11
-459.9493133775267
 21
-236.1867359908579
 31
0.0
  0
LINE
  5
BB
  8
DEFAULT
 10
-547.4493133775247
 20
-273.6867359908533
 30
0.0
 11
-547.449313377523
 21
-236.1867359908533
 31
0.0
  0
LINE
  5
BC
  8
DEFAULT
 10
-659.4663127336124
 20
-236.1867359908579
 30
0.0
 11
-565.4493133775227
 21
-236.1867359908549
 31
0.0
  0
LINE
  5
BD
  8
DEFAULT
 10
-565.449313377523
 20
-236.1867359908533
 30
0.0
 11
-565.4493133775239
 21
-273.6867359910534
 31
0.0
  0
LINE
  5
BE
  8
DEFAULT
 10
-993.9833120903012
 20
-236.1867359908579
 30
0.0
 11
-906.4833120903065
 21
-236.1867359908472
 31
0.0
  0
LINE
  5
BF
  8
DEFAULT
 10
-906.4833120903066
 20
-236.1867359908533
 30
0.0
 11
-906.4833120903048
 21
-273.6867359908533
 31
0.0
  0
LINE
  5
C0
  8
DEFAULT
 10
-888.4833120903075
 20
-236.1867359908579
 30
0.0
 11
-794.4663127336079
 21
-236.1867359908579
 31
0.0
  0
LINE
  5
C1
  8
DEFAULT
 10
-888.4833120903048
 20
-273.6867359910534
 30
0.0
 11
-888.4833120903057
 21
-236.1867359908579
 31
0.0
  0
ARC
  5
C2
  8
DEFAULT
 10
-445.449313377288
 20
-81.1652879441724
 30
0.0
 40
2.999999999967713
 50
359.9999999980893
 51
179.9999999980893
  0
LINE
  5
C3
  8
DEFAULT
 10
-448.4493133772553
 20
-81.16528794407236
 30
0.0
 11
-454.4493133773844
 21
-81.16528794427245
 31
0.0
  0
ARC
  5
C4
  8
DEFAULT
 10
-457.4493133773517
 20
-81.1652879441724
 30
0.0
 40
2.999999999967713
 50
359.9999999980893
 51
179.9999999980893
  0
ARC
  5
C5
  8
DEFAULT
 10
-562.4493133775567
 20
-273.6867359909534
 30
0.0
 40
2.999999999967713
 50
180.0000000019107
 51
0.0000000019107076
  0
LINE
  5
C6
  8
DEFAULT
 10
-559.4493133775885
 20
-273.6867359908533
 30
0.0
 11
-553.4493133774604
 21
-273.6867359910534
 31
0.0
  0
ARC
  5
C7
  8
DEFAULT
 10
-550.4493133774921
 20
-273.6867359909534
 30
0.0
 40
2.999999999967713
 50
180.0000000019107
 51
0.0000000019107076
  0
ARC
  5
C8
  8
DEFAULT
 10
-786.483312090068
 20
-81.1652879441724
 30
0.0
 40
2.999999999967713
 50
0.0000000019107076
 51
180.0000000019107
  0
LINE
  5
C9
  8
DEFAULT
 10
-789.4833120900362
 20
-81.16528794427245
 30
0.0
 11
-795.4833120901644
 21
-81.16528794407236
 31
0.0
  0
ARC
  5
CA
  8
DEFAULT
 10
-798.4833120901326
 20
-81.1652879441724
 30
0.0
 40
2.999999999967713
 50
0.0000000019107076
 51
180.0000000019107
  0
ARC
  5
CB
  8
DEFAULT
 10
-903.4833120903367
 20
-273.6867359909534
 30
0.0
 40
2.999999999967713
 50
179.9999999980893
 51
359.9999999980893
  0
LINE
  5
CC
  8
DEFAULT
 10
-900.4833120903694
 20
-273.6867359910534
 30
0.0
 11
-894.4833120902402
 21
-273.6867359908533
 31
0.0
  0
ARC
  5
CD
  8
DEFAULT
 10
-891.483312090273
 20
-273.6867359909534
 30
0.0
 40
2.999999999967713
 50
179.9999999980893
 51
359.9999999980893
  0
LINE
  5
CF
  8
LAYER_05
 10
0.0
 20
0.0
 30
0.0
 11
-2050.0
 21
0.0
 31
0.0
  0
LINE
  5
D0
  8
LAYER_05
 10
0.0
 20
-1100.0
 30
0.0
 11
0.0
 21
0.0
 31
0.0
  0
LINE
  5
D1
  8
LAYER_05
 10
-2050.0
 20
-1100.0
 30
0.0
 11
0.0
 21
-1100.0
 31
0.0
  0
LINE
  5
D2
  8
LAYER_05
 10
-2050.0
 20
0.0
 30
0.0
 11
-2050.0
 21
-1100.0
 31
0.0
  0
LINE
  5
D3
  8
DEFAULT
 10
-766.466312732542
 20
-333.8520239349582
 30
0.0
 11
-777.5996969540846
 21
-333.8520239351226
 31
0.0
  0
ARC
  5
D4
  8
DEFAULT
 10
-766.4663127324801
 20
-331.3520239352538
 30
0.0
 40
2.499999999704414
 50
269.9999999985826
 51
89.99999999858261
  0
ARC
  5
D5
  8
DEFAULT
 10
-766.4663127338116
 20
-325.352023935847
 30
0.0
 40
3.499999999702595
 50
90.00000002279451
 51
270.0000000228093
  0
LINE
  5
D6
  8
DEFAULT
 10
-740.4663127331504
 20
-321.8520239361444
 30
0.0
 11
-766.466312735204
 21
-321.8520239361444
 31
0.0
  0
ARC
  5
D7
  8
DEFAULT
 10
-740.4663127345428
 20
-325.352023935847
 30
0.0
 40
3.499999999702595
 50
269.9999999771907
 51
89.99999997720552
  0
ARC
  5
D8
  8
DEFAULT
 10
-740.4663127358734
 20
-331.3520239352538
 30
0.0
 40
2.499999999704414
 50
90.00000000143825
 51
270.0000000013966
  0
LINE
  5
D9
  8
DEFAULT
 10
-713.4663127314069
 20
-333.8520239349582
 30
0.0
 11
-740.4663127358125
 21
-333.852023934558
 31
0.0
  0
ARC
  5
DA
  8
DEFAULT
 10
-713.466312731346
 20
-331.3520239352538
 30
0.0
 40
2.499999999704414
 50
269.9999999986034
 51
89.99999999856178
  0
ARC
  5
DB
  8
DEFAULT
 10
-713.4663127326766
 20
-325.352023935847
 30
0.0
 40
3.499999999702595
 50
90.00000002279451
 51
270.0000000228093
  0
LINE
  5
DC
  8
DEFAULT
 10
-687.4663127320154
 20
-321.8520239361444
 30
0.0
 11
-713.466312734069
 21
-321.8520239361444
 31
0.0
  0
ARC
  5
DD
  8
DEFAULT
 10
-687.4663127334087
 20
-325.352023935847
 30
0.0
 40
3.499999999702595
 50
269.9999999772055
 51
89.99999997719063
  0
ARC
  5
DE
  8
DEFAULT
 10
-687.4663127347384
 20
-331.3520239352538
 30
0.0
 40
2.499999999704414
 50
90.00000000143825
 51
270.0000000013966
  0
LINE
  5
DF
  8
DEFAULT
 10
-676.3329285131366
 20
-333.8520239351246
 30
0.0
 11
-687.4663127346774
 21
-333.8520239349582
 31
0.0
  0
ARC
  5
E0
  8
DEFAULT
 10
-634.4663127336142
 20
-361.1867359908579
 30
0.0
 40
50.0
 50
89.99999999999974
 51
146.8594816540316
  0
LINE
  5
E1
  8
DEFAULT
 10
-459.9493133775267
 20
-311.1867359908579
 30
0.0
 11
-634.4663127336142
 21
-311.1867359908579
 31
0.0
  0
ARC
  5
E2
  8
DEFAULT
 10
-459.9493133775267
 20
-273.6867359908579
 30
0.0
 40
37.5
 50
270.0
 51
90.00000000000009
  0
ARC
  5
E3
  8
DEFAULT
 10
-659.4663127336142
 20
-211.1867359908579
 30
0.0
 40
25.0
 50
180.0000000000052
 51
270.0000000000052
  0
LINE
  5
E4
  8
DEFAULT
 10
-684.4663127336106
 20
-181.1652879441608
 30
0.0
 11
-684.4663127336142
 21
-211.1867359908601
 31
0.0
  0
ARC
  5
E5
  8
DEFAULT
 10
-726.9663127336106
 20
-181.1652879441635
 30
0.0
 40
42.49999999999978
 50
0.0000000000000766
 51
180.000000000003
  0
LINE
  5
E6
  8
DEFAULT
 10
-769.4663127336052
 20
-211.1867359908601
 30
0.0
 11
-769.4663127336106
 21
-181.1652879441654
 31
0.0
  0
ARC
  5
E7
  8
DEFAULT
 10
-794.4663127336052
 20
-211.1867359908579
 30
0.0
 40
25.0
 50
269.9999999999948
 51
359.9999999999948
  0
ARC
  5
E8
  8
DEFAULT
 10
-993.9833120903012
 20
-273.6867359908579
 30
0.0
 40
37.5
 50
89.9999999999993
 51
270.0
  0
LINE
  5
E9
  8
DEFAULT
 10
-819.4663127336052
 20
-311.1867359908579
 30
0.0
 11
-993.9833120903012
 21
-311.1867359908579
 31
0.0
  0
ARC
  5
EA
  8
DEFAULT
 10
-819.4663127336052
 20
-361.1867359908579
 30
0.0
 40
50.0
 50
33.14051834597124
 51
90.0
  0
LINE
  5
EB
  8
DEFAULT
 10
-1787.447161088215
 20
-262.1652879441233
 30
0.0
 11
-1784.447161088354
 21
-262.165287944124
 31
0.0
  0
ARC
  5
EC
  8
DEFAULT
 10
-1787.447161088376
 20
-259.1652879444207
 30
0.0
 40
2.999999999702595
 50
89.99999999998263
 51
270.0000000030745
  0
ARC
  5
ED
  8
DEFAULT
 10
-1787.447161088055
 20
-253.1652879450153
 30
0.0
 40
2.999999999702823
 50
269.9999999938858
 51
89.99999999694288
  0
LINE
  5
EE
  8
DEFAULT
 10
-1813.447161088257
 20
-250.165287945312
 30
0.0
 11
-1787.447161087895
 21
-250.1652879453125
 31
0.0
  0
ARC
  5
EF
  8
DEFAULT
 10
-1813.447161088096
 20
-253.1652879450137
 30
0.0
 40
2.999999999701686
 50
90.0000000030745
 51
270.0000000060795
  0
ARC
  5
F0
  8
DEFAULT
 10
-1813.447161087782
 20
-259.1652879444189
 30
0.0
 40
2.999999999703959
 50
269.9999999969082
 51
89.99999999993052
  0
LINE
  5
F1
  8
DEFAULT
 10
-1824.258320988765
 20
-262.1652879441237
 30
0.0
 11
-1813.447161087944
 21
-262.1652879441228
 31
0.0
  0
ARC
  5
F2
  8
DEFAULT
 10
-1866.447161087504
 20
-289.0000000000239
 30
0.0
 40
50.0
 50
0.0000000000002606
 51
32.45888378550986
  0
LINE
  5
F3
  8
DEFAULT
 10
-1816.447161087504
 20
-641.2584571521336
 30
0.0
 11
-1816.447161087504
 21
-289.0000000000236
 31
0.0
  0
ARC
  5
F4
  8
DEFAULT
 10
-1916.447161086896
 20
-641.2581084388137
 30
0.0
 40
99.99999999999955
 50
289.4712206344911
 51
359.9998002019851
  0
LINE
  5
F5
  8
DEFAULT
 10
-1782.947161087912
 20
-769.9999999991883
 30
0.0
 11
-1782.947161087381
 21
-838.9445200697639
 31
0.0
  0
ARC
  5
F6
  8
DEFAULT
 10
-1782.947161087752
 20
-766.9999999997847
 30
0.0
 40
2.999999999403599
 50
89.99999999694288
 51
269.9999999970557
  0
LINE
  5
F7
  8
DEFAULT
 10
-1764.947161087574
 20
-764.0000000003797
 30
0.0
 11
-1782.947161087592
 21
-764.0000000003811
 31
0.0
  0
ARC
  5
F8
  8
DEFAULT
 10
-1764.947161087412
 20
-766.9999999997835
 30
0.0
 40
2.999999999403826
 50
270.0000000030788
 51
90.00000000313095
  0
LINE
  5
F9
  8
DEFAULT
 10
-1764.947161087581
 20
-838.9445200697671
 30
0.0
 11
-1764.947161087251
 21
-769.9999999991874
 31
0.0
  0
ARC
  5
FA
  8
DEFAULT
 10
-1631.447161087521
 20
-641.2581084388182
 30
0.0
 40
99.99999999999307
 50
179.9999881201884
 51
250.5287793655117
  0
LINE
  5
FB
  8
DEFAULT
 10
-1731.447161087513
 20
-289.0000000000239
 30
0.0
 11
-1731.447161087512
 21
-641.2580877046355
 31
0.0
  0
ARC
  5
FC
  8
DEFAULT
 10
-1681.447161087513
 20
-289.0000000000239
 30
0.0
 40
50.0
 50
147.5411162144889
 51
180.0
  0
LINE
  5
FD
  8
DEFAULT
 10
-1734.447161087072
 20
-262.1652879441228
 30
0.0
 11
-1723.636001186252
 21
-262.1652879441228
 31
0.0
  0
ARC
  5
FE
  8
DEFAULT
 10
-1734.447161087234
 20
-259.1652879444189
 30
0.0
 40
2.999999999703959
 50
90.00000000006949
 51
270.0000000030918
  0
ARC
  5
FF
  8
DEFAULT
 10
-1734.447161086919
 20
-253.1652879450137
 30
0.0
 40
2.999999999701686
 50
269.9999999939031
 51
89.99999999694288
  0
LINE
  5
100
  8
DEFAULT
 10
-1760.447161087121
 20
-250.1652879453125
 30
0.0
 11
-1734.447161086759
 21
-250.165287945312
 31
0.0
  0
ARC
  5
101
  8
DEFAULT
 10
-1760.44716108696
 20
-253.1652879450153
 30
0.0
 40
2.999999999702823
 50
90.0000000030745
 51
270.0000000060969
  0
ARC
  5
102
  8
DEFAULT
 10
-1760.447161086641
 20
-259.1652879444207
 30
0.0
 40
2.999999999702595
 50
269.9999999969428
 51
90.0
  0
LINE
  5
103
  8
DEFAULT
 10
-1787.447161088215
 20
-262.1652879441235
 30
0.0
 11
-1760.447161086801
 21
-262.1652879441233
 31
0.0
  0
LINE
  5
104
  8
DEFAULT
 10
-1900.258320989468
 20
-628.0927997605361
 30
0.0
 11
-1897.258320989607
 21
-628.0927997605354
 31
0.0
  0
ARC
  5
105
  8
DEFAULT
 10
-1900.258320989629
 20
-631.0927997602387
 30
0.0
 40
2.999999999702595
 50
89.9999999969255
 51
270.0000000000173
  0
ARC
  5
106
  8
DEFAULT
 10
-1900.258320989308
 20
-637.0927997596441
 30
0.0
 40
2.999999999702823
 50
270.0000000030572
 51
90.00000000611426
  0
LINE
  5
107
  8
DEFAULT
 10
-1926.258320989511
 20
-640.0927997593474
 30
0.0
 11
-1900.258320989148
 21
-640.0927997593469
 31
0.0
  0
ARC
  5
108
  8
DEFAULT
 10
-1926.25832098935
 20
-637.0927997596457
 30
0.0
 40
2.999999999701686
 50
89.99999999392048
 51
269.9999999969255
  0
ARC
  5
109
  8
DEFAULT
 10
-1926.258320989035
 20
-631.0927997602405
 30
0.0
 40
2.999999999703959
 50
270.0000000000695
 51
90.00000000309188
  0
LINE
  5
10A
  8
DEFAULT
 10
-1937.069480890019
 20
-628.0927997605356
 30
0.0
 11
-1926.258320989197
 21
-628.0927997605365
 31
0.0
  0
ARC
  5
10B
  8
DEFAULT
 10
-1979.258320988758
 20
-601.2580877046355
 30
0.0
 40
50.0
 50
327.54111621449
 51
359.9999999999998
  0
LINE
  5
10C
  8
DEFAULT
 10
-1929.258320988758
 20
-248.9996305525256
 30
0.0
 11
-1929.258320988758
 21
-601.2580877046357
 31
0.0
  0
ARC
  5
10D
  8
DEFAULT
 10
-2029.258320988149
 20
-248.9999792658455
 30
0.0
 40
99.99999999999955
 50
0.0001997980149081
 51
70.52877936550884
  0
LINE
  5
10E
  8
DEFAULT
 10
-1895.758320989166
 20
-120.2580877054711
 30
0.0
 11
-1895.758320988635
 21
-51.31356763489566
 31
0.0
  0
ARC
  5
10F
  8
DEFAULT
 10
-1895.758320989006
 20
-123.2580877048749
 30
0.0
 40
2.999999999403599
 50
90.00000000294422
 51
270.0000000030572
  0
LINE
  5
110
  8
DEFAULT
 10
-1877.758320988827
 20
-126.2580877042797
 30
0.0
 11
-1895.758320988846
 21
-126.2580877042783
 31
0.0
  0
ARC
  5
111
  8
DEFAULT
 10
-1877.758320988666
 20
-123.2580877048758
 30
0.0
 40
2.999999999403826
 50
269.9999999968691
 51
89.99999999692116
  0
LINE
  5
112
  8
DEFAULT
 10
-1877.758320988834
 20
-51.31356763489202
 30
0.0
 11
-1877.758320988505
 21
-120.258087705472
 31
0.0
  0
ARC
  5
113
  8
DEFAULT
 10
-1744.258320988774
 20
-248.9999792658409
 30
0.0
 40
99.99999999999307
 50
109.4712206344882
 51
180.0000118798116
  0
LINE
  5
114
  8
DEFAULT
 10
-1844.258320988767
 20
-601.2580877046355
 30
0.0
 11
-1844.258320988765
 21
-249.0000000000236
 31
0.0
  0
ARC
  5
115
  8
DEFAULT
 10
-1794.258320988767
 20
-601.2580877046355
 30
0.0
 40
50.0
 50
180.0
 51
212.4588837855112
  0
LINE
  5
116
  8
DEFAULT
 10
-1847.258320988326
 20
-628.0927997605365
 30
0.0
 11
-1836.447161087505
 21
-628.0927997605365
 31
0.0
  0
ARC
  5
117
  8
DEFAULT
 10
-1847.258320988488
 20
-631.0927997602405
 30
0.0
 40
2.999999999703959
 50
89.99999999690813
 51
269.9999999999305
  0
ARC
  5
118
  8
DEFAULT
 10
-1847.258320988172
 20
-637.0927997596457
 30
0.0
 40
2.999999999701686
 50
270.0000000030572
 51
90.0000000060969
  0
LINE
  5
119
  8
DEFAULT
 10
-1873.258320988375
 20
-640.0927997593469
 30
0.0
 11
-1847.258320988012
 21
-640.0927997593474
 31
0.0
  0
ARC
  5
11A
  8
DEFAULT
 10
-1873.258320988214
 20
-637.0927997596441
 30
0.0
 40
2.999999999702823
 50
89.9999999939031
 51
269.9999999969255
  0
ARC
  5
11B
  8
DEFAULT
 10
-1873.258320987895
 20
-631.0927997602387
 30
0.0
 40
2.999999999702595
 50
270.0
 51
90.00000000305714
  0
LINE
  5
11C
  8
DEFAULT
 10
-1900.258320989468
 20
-628.0927997605359
 30
0.0
 11
-1873.258320988055
 21
-628.0927997605361
 31
0.0
  0
LINE
  5
11D
  8
DEFAULT
 10
-1820.978759448569
 20
-979.1739135705507
 30
0.0
 11
-1969.937092782847
 21
-991.6304351795375
 31
0.0
  0
ARC
  5
11E
  8
DEFAULT
 10
-1816.812092781401
 20
-1029.000000000098
 30
0.0
 40
50.0
 50
85.21980783290543
 51
94.78019184777499
  0
LINE
  5
11F
  8
DEFAULT
 10
-1663.687092573925
 20
-991.6304351969452
 30
0.0
 11
-1812.645425836546
 21
-979.1739135937714
 31
0.0
  0
ARC
  5
120
  8
DEFAULT
 10
-1666.81209278247
 20
-1029.000000001698
 30
0.0
 40
37.5
 50
274.7801919082032
 51
85.21980783305526
  0
LINE
  5
121
  8
DEFAULT
 10
-1812.645426061673
 20
-1078.826086425249
 30
0.0
 11
-1663.687092742682
 21
-1066.369564820562
 31
0.0
  0
ARC
  5
122
  8
DEFAULT
 10
-1816.812092781401
 20
-1029.000000000098
 30
0.0
 40
50.0
 50
265.2198081426239
 51
274.7801919082158
  0
LINE
  5
123
  8
DEFAULT
 10
-1969.937092789108
 20
-1066.369564823334
 30
0.0
 11
-1820.978759456918
 21
-1078.826086428946
 31
0.0
  0
ARC
  5
124
  8
DEFAULT
 10
-1966.812092782471
 20
-1029.000000001698
 30
0.0
 40
37.5
 50
94.78019184777611
 51
265.2198081426251
  0
ARC
  5
125
  8
LAYER_01
 10
-1855.786443321991
 20
-1022.500000001636
 30
0.0
 40
2.999999999402689
 50
89.999999943417
 51
270.0000000030832
  0
LINE
  5
126
  8
LAYER_01
 10
-1855.786443321434
 20
-1032.50000000342
 30
0.0
 11
-1855.78644332183
 21
-1025.500000001039
 31
0.0
  0
ARC
  5
127
  8
LAYER_01
 10
-1855.786443321273
 20
-1035.500000002826
 30
0.0
 40
2.9999999994061
 50
90.00000000308319
 51
270.0000000030832
  0
LINE
  5
128
  8
LAYER_01
 10
-1826.012092777761
 20
-1038.5000000006
 30
0.0
 11
-1855.786443321111
 21
-1038.500000002232
 31
0.0
  0
LINE
  5
129
  8
LAYER_01
 10
-1826.012092780298
 20
-1045.473907144982
 30
0.0
 11
-1826.012092777761
 21
-1038.5000000006
 31
0.0
  0
ARC
  5
12A
  8
LAYER_01
 10
-1826.012092782783
 20
-1048.473907144982
 30
0.0
 40
3.0
 50
90.0000000144823
 51
253.0835510861376
  0
LINE
  5
12B
  8
LAYER_01
 10
-1823.884994986214
 20
-1052.256484139563
 30
0.0
 11
-1826.885023395875
 21
-1051.344097407792
 31
0.0
  0
ARC
  5
12C
  8
LAYER_01
 10
-1816.812092782096
 20
-1029.000000000097
 30
0.0
 40
24.30822906174544
 50
253.0841182890442
 51
336.9948320141725
  0
LINE
  5
12D
  8
LAYER_01
 10
-1777.837742241291
 20
-1038.499999997967
 30
0.0
 11
-1794.437106745405
 21
-1038.499999998843
 31
0.0
  0
ARC
  5
12E
  8
LAYER_01
 10
-1777.83774224113
 20
-1035.499999998561
 30
0.0
 40
2.9999999994061
 50
269.9999999969168
 51
89.99999999691681
  0
LINE
  5
12F
  8
LAYER_01
 10
-1777.837742240573
 20
-1025.499999996774
 30
0.0
 11
-1777.837742240969
 21
-1032.499999999155
 31
0.0
  0
ARC
  5
130
  8
LAYER_01
 10
-1777.837742240411
 20
-1022.499999997367
 30
0.0
 40
2.9999999994061
 50
269.9999999969168
 51
89.99999999691681
  0
LINE
  5
131
  8
LAYER_01
 10
-1807.612092785042
 20
-1019.499999999595
 30
0.0
 11
-1777.83774224025
 21
-1019.499999997961
 31
0.0
  0
LINE
  5
132
  8
LAYER_01
 10
-1807.612092782505
 20
-1012.526092855213
 30
0.0
 11
-1807.612092785042
 21
-1019.499999999595
 31
0.0
  0
ARC
  5
133
  8
LAYER_01
 10
-1807.612092780019
 20
-1009.526092855213
 30
0.0
 40
3.0
 50
270.0000000144823
 51
73.08355108613756
  0
LINE
  5
134
  8
LAYER_01
 10
-1809.739190576589
 20
-1005.743515860632
 30
0.0
 11
-1806.739162166927
 21
-1006.655902592403
 31
0.0
  0
ARC
  5
135
  8
LAYER_01
 10
-1816.812092780707
 20
-1029.000000000098
 30
0.0
 40
24.30822906174544
 50
73.08411828904416
 51
156.9948320141723
  0
LINE
  5
136
  8
LAYER_01
 10
-1855.786443319028
 20
-1019.500000002232
 30
0.0
 11
-1839.187078817398
 21
-1019.500000001351
 31
0.0
  0
LINE
  5
137
  8
DEFAULT
 10
-1820.978789347085
 20
-859.1739135705552
 30
0.0
 11
-1969.937122681363
 21
-871.630435179542
 31
0.0
  0
ARC
  5
138
  8
DEFAULT
 10
-1816.812122679917
 20
-909.0000000001023
 30
0.0
 40
50.0
 50
85.21980783290543
 51
94.78019184777499
  0
LINE
  5
139
  8
DEFAULT
 10
-1663.687122472441
 20
-871.6304351969497
 30
0.0
 11
-1812.645455735061
 21
-859.173913593776
 31
0.0
  0
ARC
  5
13A
  8
DEFAULT
 10
-1666.812122680986
 20
-909.0000000017021
 30
0.0
 40
37.5
 50
274.7801919082031
 51
85.21980783305526
  0
LINE
  5
13B
  8
DEFAULT
 10
-1812.645455960189
 20
-958.8260864252538
 30
0.0
 11
-1663.687122641198
 21
-946.3695648205662
 31
0.0
  0
ARC
  5
13C
  8
DEFAULT
 10
-1816.812122679917
 20
-909.0000000001023
 30
0.0
 40
50.0
 50
265.2198081426239
 51
274.7801919082158
  0
LINE
  5
13D
  8
DEFAULT
 10
-1969.937122687624
 20
-946.3695648233388
 30
0.0
 11
-1820.978789355434
 21
-958.8260864289509
 31
0.0
  0
ARC
  5
13E
  8
DEFAULT
 10
-1966.812122680987
 20
-909.0000000017021
 30
0.0
 40
37.5
 50
94.78019184777611
 51
265.2198081426249
  0
ARC
  5
13F
  8
LAYER_01
 10
-1855.786473220507
 20
-902.5000000016407
 30
0.0
 40
2.999999999402689
 50
89.999999943417
 51
270.0000000030832
  0
LINE
  5
140
  8
LAYER_01
 10
-1855.78647321995
 20
-912.5000000034247
 30
0.0
 11
-1855.786473220345
 21
-905.5000000010436
 31
0.0
  0
ARC
  5
141
  8
LAYER_01
 10
-1855.786473219788
 20
-915.5000000028308
 30
0.0
 40
2.9999999994061
 50
90.00000000308319
 51
270.0000000030832
  0
LINE
  5
142
  8
LAYER_01
 10
-1826.012122676276
 20
-918.5000000006044
 30
0.0
 11
-1855.786473219627
 21
-918.5000000022369
 31
0.0
  0
LINE
  5
143
  8
LAYER_01
 10
-1826.012122678814
 20
-925.4739071449867
 30
0.0
 11
-1826.012122676276
 21
-918.5000000006044
 31
0.0
  0
ARC
  5
144
  8
LAYER_01
 10
-1826.012122681299
 20
-928.4739071449862
 30
0.0
 40
3.0
 50
90.0000000144823
 51
253.0835510861376
  0
LINE
  5
145
  8
LAYER_01
 10
-1823.88502488473
 20
-932.2564841395674
 30
0.0
 11
-1826.885053294391
 21
-931.3440974077962
 31
0.0
  0
ARC
  5
146
  8
LAYER_01
 10
-1816.812122680612
 20
-909.0000000001014
 30
0.0
 40
24.30822906174544
 50
253.0841182890442
 51
336.994832014172
  0
LINE
  5
147
  8
LAYER_01
 10
-1777.837772139807
 20
-918.4999999979714
 30
0.0
 11
-1794.437136643921
 21
-918.4999999988477
 31
0.0
  0
ARC
  5
148
  8
LAYER_01
 10
-1777.837772139646
 20
-915.4999999985653
 30
0.0
 40
2.9999999994061
 50
269.9999999969168
 51
89.99999999691681
  0
LINE
  5
149
  8
LAYER_01
 10
-1777.837772139089
 20
-905.4999999967781
 30
0.0
 11
-1777.837772139484
 21
-912.4999999991592
 31
0.0
  0
ARC
  5
14A
  8
LAYER_01
 10
-1777.837772138927
 20
-902.499999997372
 30
0.0
 40
2.9999999994061
 50
269.9999999969168
 51
89.99999999691681
  0
LINE
  5
14B
  8
LAYER_01
 10
-1807.612122683558
 20
-899.4999999995994
 30
0.0
 11
-1777.837772138766
 21
-899.4999999979659
 31
0.0
  0
LINE
  5
14C
  8
LAYER_01
 10
-1807.61212268102
 20
-892.5260928552179
 30
0.0
 11
-1807.612122683558
 21
-899.4999999995994
 31
0.0
  0
ARC
  5
14D
  8
LAYER_01
 10
-1807.612122678535
 20
-889.5260928552175
 30
0.0
 40
3.0
 50
270.0000000144823
 51
73.08355108613756
  0
LINE
  5
14E
  8
LAYER_01
 10
-1809.739220475105
 20
-885.7435158606363
 30
0.0
 11
-1806.739192065443
 21
-886.6559025924075
 31
0.0
  0
ARC
  5
14F
  8
LAYER_01
 10
-1816.812122679223
 20
-909.0000000001023
 30
0.0
 40
24.30822906174544
 50
73.08411828904416
 51
156.994832014172
  0
LINE
  5
150
  8
LAYER_01
 10
-1855.786473217544
 20
-899.5000000022369
 30
0.0
 11
-1839.187108715914
 21
-899.5000000013556
 31
0.0
  0
LINE
  5
151
  8
DEFAULT
 10
-1425.978759448568
 20
-979.1739136604515
 30
0.0
 11
-1574.937092782847
 21
-991.6304352694383
 31
0.0
  0
ARC
  5
152
  8
DEFAULT
 10
-1421.8120927814
 20
-1029.000000089999
 30
0.0
 40
50.0
 50
85.21980783290543
 51
94.78019184777499
  0
LINE
  5
153
  8
DEFAULT
 10
-1268.687092573924
 20
-991.630435286846
 30
0.0
 11
-1417.645425836545
 21
-979.1739136836723
 31
0.0
  0
ARC
  5
154
  8
DEFAULT
 10
-1271.812092782469
 20
-1029.000000091598
 30
0.0
 40
37.5
 50
274.7801919082032
 51
85.21980783305526
  0
LINE
  5
155
  8
DEFAULT
 10
-1417.645426061672
 20
-1078.82608651515
 30
0.0
 11
-1268.687092742681
 21
-1066.369564910462
 31
0.0
  0
ARC
  5
156
  8
DEFAULT
 10
-1421.8120927814
 20
-1029.000000089999
 30
0.0
 40
50.0
 50
265.2198081426239
 51
274.7801919082158
  0
LINE
  5
157
  8
DEFAULT
 10
-1574.937092789107
 20
-1066.369564913235
 30
0.0
 11
-1425.978759456917
 21
-1078.826086518847
 31
0.0
  0
ARC
  5
158
  8
DEFAULT
 10
-1571.81209278247
 20
-1029.000000091598
 30
0.0
 40
37.5
 50
94.78019184777611
 51
265.2198081426251
  0
ARC
  5
159
  8
LAYER_01
 10
-1460.78644332199
 20
-1022.500000091537
 30
0.0
 40
2.999999999402689
 50
89.999999943417
 51
270.0000000030832
  0
LINE
  5
15A
  8
LAYER_01
 10
-1460.786443321433
 20
-1032.500000093321
 30
0.0
 11
-1460.786443321829
 21
-1025.50000009094
 31
0.0
  0
ARC
  5
15B
  8
LAYER_01
 10
-1460.786443321272
 20
-1035.500000092727
 30
0.0
 40
2.9999999994061
 50
90.00000000308319
 51
270.0000000030832
  0
LINE
  5
15C
  8
LAYER_01
 10
-1431.01209277776
 20
-1038.500000090501
 30
0.0
 11
-1460.78644332111
 21
-1038.500000092133
 31
0.0
  0
LINE
  5
15D
  8
LAYER_01
 10
-1431.012092780297
 20
-1045.473907234883
 30
0.0
 11
-1431.01209277776
 21
-1038.500000090501
 31
0.0
  0
ARC
  5
15E
  8
LAYER_01
 10
-1431.012092782782
 20
-1048.473907234883
 30
0.0
 40
3.0
 50
90.0000000144823
 51
253.0835510861376
  0
LINE
  5
15F
  8
LAYER_01
 10
-1428.884994986213
 20
-1052.256484229464
 30
0.0
 11
-1431.885023395874
 21
-1051.344097497692
 31
0.0
  0
ARC
  5
160
  8
LAYER_01
 10
-1421.812092782095
 20
-1029.000000089998
 30
0.0
 40
24.30822906174544
 50
253.0841182890442
 51
336.9948320141725
  0
LINE
  5
161
  8
LAYER_01
 10
-1382.83774224129
 20
-1038.500000087868
 30
0.0
 11
-1399.437106745404
 21
-1038.500000088744
 31
0.0
  0
ARC
  5
162
  8
LAYER_01
 10
-1382.837742241129
 20
-1035.500000088462
 30
0.0
 40
2.9999999994061
 50
269.9999999969168
 51
89.99999999691681
  0
LINE
  5
163
  8
LAYER_01
 10
-1382.837742240572
 20
-1025.500000086674
 30
0.0
 11
-1382.837742240968
 21
-1032.500000089055
 31
0.0
  0
ARC
  5
164
  8
LAYER_01
 10
-1382.837742240411
 20
-1022.500000087268
 30
0.0
 40
2.9999999994061
 50
269.9999999969168
 51
89.99999999691681
  0
LINE
  5
165
  8
LAYER_01
 10
-1412.612092785041
 20
-1019.500000089496
 30
0.0
 11
-1382.837742240249
 21
-1019.500000087862
 31
0.0
  0
LINE
  5
166
  8
LAYER_01
 10
-1412.612092782504
 20
-1012.526092945114
 30
0.0
 11
-1412.612092785041
 21
-1019.500000089496
 31
0.0
  0
ARC
  5
167
  8
LAYER_01
 10
-1412.612092780018
 20
-1009.526092945114
 30
0.0
 40
3.0
 50
270.0000000144823
 51
73.08355108613756
  0
LINE
  5
168
  8
LAYER_01
 10
-1414.739190576588
 20
-1005.743515950533
 30
0.0
 11
-1411.739162166926
 21
-1006.655902682304
 31
0.0
  0
ARC
  5
169
  8
LAYER_01
 10
-1421.812092780706
 20
-1029.000000089999
 30
0.0
 40
24.30822906174544
 50
73.08411828904416
 51
156.9948320141723
  0
LINE
  5
16A
  8
LAYER_01
 10
-1460.786443319028
 20
-1019.500000092133
 30
0.0
 11
-1444.187078817397
 21
-1019.500000091252
 31
0.0
  0
LINE
  5
16B
  8
DEFAULT
 10
-1425.978789347084
 20
-859.173913660456
 30
0.0
 11
-1574.937122681362
 21
-871.6304352694428
 31
0.0
  0
ARC
  5
16C
  8
DEFAULT
 10
-1421.812122679916
 20
-909.0000000900031
 30
0.0
 40
50.0
 50
85.21980783290543
 51
94.78019184777499
  0
LINE
  5
16D
  8
DEFAULT
 10
-1268.68712247244
 20
-871.6304352868506
 30
0.0
 11
-1417.645455735061
 21
-859.1739136836768
 31
0.0
  0
ARC
  5
16E
  8
DEFAULT
 10
-1271.812122680985
 20
-909.0000000916029
 30
0.0
 40
37.5
 50
274.7801919082031
 51
85.21980783305526
  0
LINE
  5
16F
  8
DEFAULT
 10
-1417.645455960188
 20
-958.8260865151547
 30
0.0
 11
-1268.687122641197
 21
-946.369564910467
 31
0.0
  0
ARC
  5
170
  8
DEFAULT
 10
-1421.812122679916
 20
-909.0000000900031
 30
0.0
 40
50.0
 50
265.2198081426239
 51
274.7801919082158
  0
LINE
  5
171
  8
DEFAULT
 10
-1574.937122687623
 20
-946.3695649132396
 30
0.0
 11
-1425.978789355433
 21
-958.8260865188518
 31
0.0
  0
ARC
  5
172
  8
DEFAULT
 10
-1571.812122680986
 20
-909.0000000916029
 30
0.0
 40
37.5
 50
94.78019184777611
 51
265.2198081426249
  0
ARC
  5
173
  8
LAYER_01
 10
-1460.786473220506
 20
-902.5000000915416
 30
0.0
 40
2.999999999402689
 50
89.999999943417
 51
270.0000000030832
  0
LINE
  5
174
  8
LAYER_01
 10
-1460.786473219949
 20
-912.5000000933255
 30
0.0
 11
-1460.786473220345
 21
-905.5000000909445
 31
0.0
  0
ARC
  5
175
  8
LAYER_01
 10
-1460.786473219787
 20
-915.5000000927316
 30
0.0
 40
2.9999999994061
 50
90.00000000308319
 51
270.0000000030832
  0
LINE
  5
176
  8
LAYER_01
 10
-1431.012122676276
 20
-918.5000000905052
 30
0.0
 11
-1460.786473219626
 21
-918.5000000921377
 31
0.0
  0
LINE
  5
177
  8
LAYER_01
 10
-1431.012122678813
 20
-925.4739072348875
 30
0.0
 11
-1431.012122676276
 21
-918.5000000905052
 31
0.0
  0
ARC
  5
178
  8
LAYER_01
 10
-1431.012122681298
 20
-928.4739072348871
 30
0.0
 40
3.0
 50
90.0000000144823
 51
253.0835510861376
  0
LINE
  5
179
  8
LAYER_01
 10
-1428.885024884729
 20
-932.2564842294682
 30
0.0
 11
-1431.88505329439
 21
-931.344097497697
 31
0.0
  0
ARC
  5
17A
  8
LAYER_01
 10
-1421.812122680611
 20
-909.0000000900022
 30
0.0
 40
24.30822906174544
 50
253.0841182890442
 51
336.994832014172
  0
LINE
  5
17B
  8
LAYER_01
 10
-1382.837772139806
 20
-918.5000000878722
 30
0.0
 11
-1399.43713664392
 21
-918.5000000887485
 31
0.0
  0
ARC
  5
17C
  8
LAYER_01
 10
-1382.837772139645
 20
-915.5000000884661
 30
0.0
 40
2.9999999994061
 50
269.9999999969168
 51
89.99999999691681
  0
LINE
  5
17D
  8
LAYER_01
 10
-1382.837772139088
 20
-905.5000000866789
 30
0.0
 11
-1382.837772139483
 21
-912.50000008906
 31
0.0
  0
ARC
  5
17E
  8
LAYER_01
 10
-1382.837772138926
 20
-902.5000000872728
 30
0.0
 40
2.9999999994061
 50
269.9999999969168
 51
89.99999999691681
  0
LINE
  5
17F
  8
LAYER_01
 10
-1412.612122683557
 20
-899.5000000895002
 30
0.0
 11
-1382.837772138765
 21
-899.5000000878667
 31
0.0
  0
LINE
  5
180
  8
LAYER_01
 10
-1412.612122681019
 20
-892.5260929451188
 30
0.0
 11
-1412.612122683557
 21
-899.5000000895002
 31
0.0
  0
ARC
  5
181
  8
LAYER_01
 10
-1412.612122678534
 20
-889.5260929451183
 30
0.0
 40
3.0
 50
270.0000000144823
 51
73.08355108613756
  0
LINE
  5
182
  8
LAYER_01
 10
-1414.739220475104
 20
-885.7435159505371
 30
0.0
 11
-1411.739192065442
 21
-886.6559026823084
 31
0.0
  0
ARC
  5
183
  8
LAYER_01
 10
-1421.812122679222
 20
-909.0000000900031
 30
0.0
 40
24.30822906174544
 50
73.08411828904416
 51
156.994832014172
  0
LINE
  5
184
  8
LAYER_01
 10
-1460.786473217543
 20
-899.5000000921377
 30
0.0
 11
-1444.187108715913
 21
-899.5000000912564
 31
0.0
  0
ARC
  5
185
  8
LAYER_01
 10
-1065.786473220505
 20
-902.5000000967686
 30
0.0
 40
2.999999999402689
 50
89.999999943417
 51
270.0000000030832
  0
LINE
  5
186
  8
LAYER_01
 10
-1065.786473219948
 20
-912.5000000985526
 30
0.0
 11
-1065.786473220344
 21
-905.5000000961716
 31
0.0
  0
ARC
  5
187
  8
LAYER_01
 10
-1065.786473219787
 20
-915.5000000979587
 30
0.0
 40
2.9999999994061
 50
90.00000000308319
 51
270.0000000030832
  0
LINE
  5
188
  8
LAYER_01
 10
-1036.012122676275
 20
-918.5000000957323
 30
0.0
 11
-1065.786473219625
 21
-918.5000000973648
 31
0.0
  0
LINE
  5
189
  8
LAYER_01
 10
-1036.012122678812
 20
-925.4739072401146
 30
0.0
 11
-1036.012122676275
 21
-918.5000000957323
 31
0.0
  0
ARC
  5
18A
  8
LAYER_01
 10
-1036.012122681297
 20
-928.4739072401142
 30
0.0
 40
3.0
 50
90.0000000144823
 51
253.0835510861376
  0
LINE
  5
18B
  8
LAYER_01
 10
-1033.885024884728
 20
-932.2564842346953
 30
0.0
 11
-1036.885053294389
 21
-931.3440975029241
 31
0.0
  0
ARC
  5
18C
  8
LAYER_01
 10
-1026.81212268061
 20
-909.0000000952293
 30
0.0
 40
24.30822906174544
 50
253.0841182890442
 51
336.994832014172
  0
LINE
  5
18D
  8
LAYER_01
 10
-987.8377721398053
 20
-918.5000000930993
 30
0.0
 11
-1004.437136643919
 21
-918.5000000939756
 31
0.0
  0
ARC
  5
18E
  8
LAYER_01
 10
-987.8377721396439
 20
-915.5000000936932
 30
0.0
 40
2.9999999994061
 50
269.9999999969168
 51
89.99999999691681
  0
LINE
  5
18F
  8
LAYER_01
 10
-987.8377721390868
 20
-905.500000091906
 30
0.0
 11
-987.8377721394825
 21
-912.5000000942871
 31
0.0
  0
ARC
  5
190
  8
LAYER_01
 10
-987.8377721389254
 20
-902.5000000924999
 30
0.0
 40
2.9999999994061
 50
269.9999999969168
 51
89.99999999691681
  0
LINE
  5
191
  8
LAYER_01
 10
-1017.612122683556
 20
-899.5000000947273
 30
0.0
 11
-987.837772138764
 21
-899.5000000930938
 31
0.0
  0
LINE
  5
192
  8
LAYER_01
 10
-1017.612122681018
 20
-892.5260929503459
 30
0.0
 11
-1017.612122683556
 21
-899.5000000947273
 31
0.0
  0
ARC
  5
193
  8
LAYER_01
 10
-1017.612122678533
 20
-889.5260929503454
 30
0.0
 40
3.0
 50
270.0000000144823
 51
73.08355108613549
  0
LINE
  5
194
  8
LAYER_01
 10
-1019.739220475103
 20
-885.7435159557642
 30
0.0
 11
-1016.739192065441
 21
-886.6559026875354
 31
0.0
  0
ARC
  5
195
  8
LAYER_01
 10
-1026.812122679221
 20
-909.0000000952302
 30
0.0
 40
24.30822906174544
 50
73.08411828904416
 51
156.994832014172
  0
LINE
  5
196
  8
LAYER_01
 10
-1065.786473217542
 20
-899.5000000973648
 30
0.0
 11
-1049.187108715912
 21
-899.5000000964835
 31
0.0
  0
LINE
  5
197
  8
DEFAULT
 10
-1030.978789347083
 20
-859.1739136656831
 30
0.0
 11
-1179.937122681361
 21
-871.6304352746699
 31
0.0
  0
ARC
  5
198
  8
DEFAULT
 10
-1026.812122679915
 20
-909.0000000952302
 30
0.0
 40
50.0
 50
85.21980783290556
 51
94.78019184777499
  0
LINE
  5
199
  8
DEFAULT
 10
-873.6871224724391
 20
-871.6304352920777
 30
0.0
 11
-1022.64545573506
 21
-859.1739136889039
 31
0.0
  0
ARC
  5
19A
  8
DEFAULT
 10
-876.812122680984
 20
-909.00000009683
 30
0.0
 40
37.5
 50
274.7801919082031
 51
85.21980783305541
  0
LINE
  5
19B
  8
DEFAULT
 10
-1022.645455960187
 20
-958.8260865203815
 30
0.0
 11
-873.6871226411959
 21
-946.3695649156941
 31
0.0
  0
ARC
  5
19C
  8
DEFAULT
 10
-1026.812122679915
 20
-909.0000000952302
 30
0.0
 40
50.0
 50
265.2198081426239
 51
274.7801919082158
  0
LINE
  5
19D
  8
DEFAULT
 10
-1179.937122687622
 20
-946.3695649184667
 30
0.0
 11
-1030.978789355432
 21
-958.8260865240786
 31
0.0
  0
ARC
  5
19E
  8
DEFAULT
 10
-1176.812122680985
 20
-909.00000009683
 30
0.0
 40
37.5
 50
94.78019184777611
 51
265.2198081426249
  0
ARC
  5
19F
  8
LAYER_01
 10
-1065.786443321989
 20
-1022.500000096764
 30
0.0
 40
2.999999999402689
 50
89.999999943417
 51
270.0000000030832
  0
LINE
  5
1A0
  8
LAYER_01
 10
-1065.786443321432
 20
-1032.500000098548
 30
0.0
 11
-1065.786443321828
 21
-1025.500000096167
 31
0.0
  0
ARC
  5
1A1
  8
LAYER_01
 10
-1065.786443321271
 20
-1035.500000097954
 30
0.0
 40
2.9999999994061
 50
90.00000000308319
 51
270.0000000030832
  0
LINE
  5
1A2
  8
LAYER_01
 10
-1036.012092777759
 20
-1038.500000095728
 30
0.0
 11
-1065.786443321109
 21
-1038.50000009736
 31
0.0
  0
LINE
  5
1A3
  8
LAYER_01
 10
-1036.012092780296
 20
-1045.47390724011
 30
0.0
 11
-1036.012092777759
 21
-1038.500000095728
 31
0.0
  0
ARC
  5
1A4
  8
LAYER_01
 10
-1036.012092782782
 20
-1048.473907240109
 30
0.0
 40
3.0
 50
90.0000000144823
 51
253.0835510861376
  0
LINE
  5
1A5
  8
LAYER_01
 10
-1033.884994986212
 20
-1052.256484234691
 30
0.0
 11
-1036.885023395874
 21
-1051.344097502919
 31
0.0
  0
ARC
  5
1A6
  8
LAYER_01
 10
-1026.812092782094
 20
-1029.000000095225
 30
0.0
 40
24.30822906174544
 50
253.0841182890442
 51
336.9948320141725
  0
LINE
  5
1A7
  8
LAYER_01
 10
-987.8377422412896
 20
-1038.500000093095
 30
0.0
 11
-1004.437106745403
 21
-1038.500000093971
 31
0.0
  0
ARC
  5
1A8
  8
LAYER_01
 10
-987.8377422411281
 20
-1035.500000093688
 30
0.0
 40
2.9999999994061
 50
269.9999999969168
 51
89.99999999691681
  0
LINE
  5
1A9
  8
LAYER_01
 10
-987.8377422405711
 20
-1025.500000091901
 30
0.0
 11
-987.8377422409667
 21
-1032.500000094282
 31
0.0
  0
ARC
  5
1AA
  8
LAYER_01
 10
-987.8377422404096
 20
-1022.500000092495
 30
0.0
 40
2.9999999994061
 50
269.9999999969168
 51
89.99999999691681
  0
LINE
  5
1AB
  8
LAYER_01
 10
-1017.61209278504
 20
-1019.500000094723
 30
0.0
 11
-987.8377422402482
 21
-1019.500000093089
 31
0.0
  0
LINE
  5
1AC
  8
LAYER_01
 10
-1017.612092782503
 20
-1012.526092950342
 30
0.0
 11
-1017.61209278504
 21
-1019.500000094723
 31
0.0
  0
ARC
  5
1AD
  8
LAYER_01
 10
-1017.612092780018
 20
-1009.526092950341
 30
0.0
 40
3.0
 50
270.0000000144823
 51
73.08355108613549
  0
LINE
  5
1AE
  8
LAYER_01
 10
-1019.739190576587
 20
-1005.743515955759
 30
0.0
 11
-1016.739162166926
 21
-1006.655902687531
 31
0.0
  0
ARC
  5
1AF
  8
LAYER_01
 10
-1026.812092780705
 20
-1029.000000095225
 30
0.0
 40
24.30822906174544
 50
73.08411828904416
 51
156.9948320141723
  0
LINE
  5
1B0
  8
LAYER_01
 10
-1065.786443319027
 20
-1019.50000009736
 30
0.0
 11
-1049.187078817396
 21
-1019.500000096479
 31
0.0
  0
LINE
  5
1B1
  8
DEFAULT
 10
-1030.978759448567
 20
-979.1739136656784
 30
0.0
 11
-1179.937092782846
 21
-991.6304352746652
 31
0.0
  0
ARC
  5
1B2
  8
DEFAULT
 10
-1026.8120927814
 20
-1029.000000095225
 30
0.0
 40
50.0
 50
85.21980783290556
 51
94.78019184777499
  0
LINE
  5
1B3
  8
DEFAULT
 10
-873.6870925739233
 20
-991.6304352920729
 30
0.0
 11
-1022.645425836544
 21
-979.1739136888996
 31
0.0
  0
ARC
  5
1B4
  8
DEFAULT
 10
-876.8120927824682
 20
-1029.000000096825
 30
0.0
 40
37.5
 50
274.7801919082033
 51
85.21980783305544
  0
LINE
  5
1B5
  8
DEFAULT
 10
-1022.645426061671
 20
-1078.826086520377
 30
0.0
 11
-873.6870927426801
 21
-1066.369564915689
 31
0.0
  0
ARC
  5
1B6
  8
DEFAULT
 10
-1026.8120927814
 20
-1029.000000095225
 30
0.0
 40
50.0
 50
265.2198081426239
 51
274.7801919082158
  0
LINE
  5
1B7
  8
DEFAULT
 10
-1179.937092789106
 20
-1066.369564918462
 30
0.0
 11
-1030.978759456916
 21
-1078.826086524074
 31
0.0
  0
ARC
  5
1B8
  8
DEFAULT
 10
-1176.812092782469
 20
-1029.000000096825
 30
0.0
 40
37.5
 50
94.78019184777611
 51
265.2198081426251
  0
ARC
  5
1B9
  8
LAYER_01
 10
-670.786473220504
 20
-902.500000187003
 30
0.0
 40
2.999999999402689
 50
89.999999943417
 51
270.0000000030832
  0
LINE
  5
1BA
  8
LAYER_01
 10
-670.786473219947
 20
-912.500000188787
 30
0.0
 11
-670.7864732203426
 21
-905.5000001864059
 31
0.0
  0
ARC
  5
1BB
  8
LAYER_01
 10
-670.7864732197855
 20
-915.5000001881931
 30
0.0
 40
2.9999999994061
 50
90.00000000308319
 51
270.0000000030832
  0
LINE
  5
1BC
  8
LAYER_01
 10
-641.0121226762736
 20
-918.5000001859667
 30
0.0
 11
-670.7864732196241
 21
-918.5000001875992
 31
0.0
  0
LINE
  5
1BD
  8
LAYER_01
 10
-641.0121226788111
 20
-925.473907330349
 30
0.0
 11
-641.0121226762736
 21
-918.5000001859667
 31
0.0
  0
ARC
  5
1BE
  8
LAYER_01
 10
-641.0121226812963
 20
-928.4739073303485
 30
0.0
 40
3.0
 50
90.0000000144823
 51
253.0835510861355
  0
LINE
  5
1BF
  8
LAYER_01
 10
-638.8850248847267
 20
-932.2564843249297
 30
0.0
 11
-641.8850532943883
 21
-931.3440975931585
 31
0.0
  0
ARC
  5
1C0
  8
LAYER_01
 10
-631.8121226806089
 20
-909.0000001854637
 30
0.0
 40
24.30822906174544
 50
253.0841182890442
 51
336.9948320141722
  0
LINE
  5
1C1
  8
LAYER_01
 10
-592.8377721398043
 20
-918.5000001833337
 30
0.0
 11
-609.4371366439178
 21
-918.50000018421
 31
0.0
  0
ARC
  5
1C2
  8
LAYER_01
 10
-592.8377721396429
 20
-915.5000001839276
 30
0.0
 40
2.9999999994061
 50
269.9999999969168
 51
89.99999999691681
  0
LINE
  5
1C3
  8
LAYER_01
 10
-592.8377721390858
 20
-905.5000001821404
 30
0.0
 11
-592.8377721394814
 21
-912.5000001845215
 31
0.0
  0
ARC
  5
1C4
  8
LAYER_01
 10
-592.8377721389244
 20
-902.5000001827343
 30
0.0
 40
2.9999999994061
 50
269.9999999969168
 51
89.99999999691681
  0
LINE
  5
1C5
  8
LAYER_01
 10
-622.612122683555
 20
-899.5000001849617
 30
0.0
 11
-592.837772138763
 21
-899.5000001833282
 31
0.0
  0
LINE
  5
1C6
  8
LAYER_01
 10
-622.6121226810175
 20
-892.5260930405802
 30
0.0
 11
-622.612122683555
 21
-899.5000001849617
 31
0.0
  0
ARC
  5
1C7
  8
LAYER_01
 10
-622.6121226785323
 20
-889.5260930405798
 30
0.0
 40
3.0
 50
270.0000000144823
 51
73.08355108613549
  0
LINE
  5
1C8
  8
LAYER_01
 10
-624.7392204751019
 20
-885.7435160459986
 30
0.0
 11
-621.7391920654403
 21
-886.6559027777698
 31
0.0
  0
ARC
  5
1C9
  8
LAYER_01
 10
-631.8121226792197
 20
-909.0000001854646
 30
0.0
 40
24.30822906174544
 50
73.08411828904416
 51
156.9948320141724
  0
LINE
  5
1CA
  8
LAYER_01
 10
-670.7864732175414
 20
-899.5000001875992
 30
0.0
 11
-654.1871087159108
 21
-899.5000001867179
 31
0.0
  0
LINE
  5
1CB
  8
DEFAULT
 10
-635.9787893470819
 20
-859.1739137559175
 30
0.0
 11
-784.9371226813604
 21
-871.6304353649043
 31
0.0
  0
ARC
  5
1CC
  8
DEFAULT
 10
-631.8121226799143
 20
-909.0000001854646
 30
0.0
 40
50.0
 50
85.21980783290556
 51
94.78019184777499
  0
LINE
  5
1CD
  8
DEFAULT
 10
-478.6871224724381
 20
-871.630435382312
 30
0.0
 11
-627.6454557350586
 21
-859.1739137791383
 31
0.0
  0
ARC
  5
1CE
  8
DEFAULT
 10
-481.812122680983
 20
-909.0000001870644
 30
0.0
 40
37.5
 50
274.7801919082031
 51
85.21980783305534
  0
LINE
  5
1CF
  8
DEFAULT
 10
-627.6454559601858
 20
-958.8260866106161
 30
0.0
 11
-478.6871226411948
 21
-946.3695650059285
 31
0.0
  0
ARC
  5
1D0
  8
DEFAULT
 10
-631.8121226799143
 20
-909.0000001854646
 30
0.0
 40
50.0
 50
265.2198081426239
 51
274.7801919082158
  0
LINE
  5
1D1
  8
DEFAULT
 10
-784.9371226876211
 20
-946.3695650087011
 30
0.0
 11
-635.9787893554311
 21
-958.8260866143132
 31
0.0
  0
ARC
  5
1D2
  8
DEFAULT
 10
-781.8121226809841
 20
-909.0000001870644
 30
0.0
 40
37.5
 50
94.78019184777611
 51
265.2198081426246
  0
ARC
  5
1D3
  8
LAYER_01
 10
-670.7864433219883
 20
-1022.500000186998
 30
0.0
 40
2.999999999402689
 50
89.999999943417
 51
270.0000000030832
  0
LINE
  5
1D4
  8
LAYER_01
 10
-670.7864433214312
 20
-1032.500000188782
 30
0.0
 11
-670.7864433218268
 21
-1025.500000186401
 31
0.0
  0
ARC
  5
1D5
  8
LAYER_01
 10
-670.7864433212698
 20
-1035.500000188189
 30
0.0
 40
2.9999999994061
 50
90.00000000308319
 51
270.0000000030832
  0
LINE
  5
1D6
  8
LAYER_01
 10
-641.0120927777579
 20
-1038.500000185962
 30
0.0
 11
-670.7864433211083
 21
-1038.500000187595
 31
0.0
  0
LINE
  5
1D7
  8
LAYER_01
 10
-641.0120927802953
 20
-1045.473907330344
 30
0.0
 11
-641.0120927777579
 21
-1038.500000185962
 31
0.0
  0
ARC
  5
1D8
  8
LAYER_01
 10
-641.0120927827805
 20
-1048.473907330344
 30
0.0
 40
3.0
 50
90.0000000144823
 51
253.0835510861355
  0
LINE
  5
1D9
  8
LAYER_01
 10
-638.8849949862109
 20
-1052.256484324925
 30
0.0
 11
-641.8850233958725
 21
-1051.344097593154
 31
0.0
  0
ARC
  5
1DA
  8
LAYER_01
 10
-631.8120927820931
 20
-1029.000000185459
 30
0.0
 40
24.30822906174544
 50
253.0841182890442
 51
336.9948320141726
  0
LINE
  5
1DB
  8
LAYER_01
 10
-592.8377422412885
 20
-1038.500000183329
 30
0.0
 11
-609.437106745402
 21
-1038.500000184205
 31
0.0
  0
ARC
  5
1DC
  8
LAYER_01
 10
-592.8377422411271
 20
-1035.500000183923
 30
0.0
 40
2.9999999994061
 50
269.9999999969168
 51
89.99999999691681
  0
LINE
  5
1DD
  8
LAYER_01
 10
-592.83774224057
 20
-1025.500000182136
 30
0.0
 11
-592.8377422409657
 21
-1032.500000184517
 31
0.0
  0
ARC
  5
1DE
  8
LAYER_01
 10
-592.8377422404086
 20
-1022.50000018273
 30
0.0
 40
2.9999999994061
 50
269.9999999969168
 51
89.99999999691681
  0
LINE
  5
1DF
  8
LAYER_01
 10
-622.6120927850392
 20
-1019.500000184957
 30
0.0
 11
-592.8377422402472
 21
-1019.500000183324
 31
0.0
  0
LINE
  5
1E0
  8
LAYER_01
 10
-622.6120927825017
 20
-1012.526093040576
 30
0.0
 11
-622.6120927850392
 21
-1019.500000184957
 31
0.0
  0
ARC
  5
1E1
  8
LAYER_01
 10
-622.6120927800165
 20
-1009.526093040575
 30
0.0
 40
3.0
 50
270.0000000144823
 51
73.08355108613549
  0
LINE
  5
1E2
  8
LAYER_01
 10
-624.7391905765861
 20
-1005.743516045994
 30
0.0
 11
-621.7391621669245
 21
-1006.655902777765
 31
0.0
  0
ARC
  5
1E3
  8
LAYER_01
 10
-631.8120927807039
 20
-1029.00000018546
 30
0.0
 40
24.30822906174544
 50
73.08411828904416
 51
156.9948320141724
  0
LINE
  5
1E4
  8
LAYER_01
 10
-670.7864433190256
 20
-1019.500000187595
 30
0.0
 11
-654.187078817395
 21
-1019.500000186713
 31
0.0
  0
LINE
  5
1E5
  8
DEFAULT
 10
-635.9787594485662
 20
-979.173913755913
 30
0.0
 11
-784.9370927828446
 21
-991.6304353648998
 31
0.0
  0
ARC
  5
1E6
  8
DEFAULT
 10
-631.8120927813985
 20
-1029.00000018546
 30
0.0
 40
50.0
 50
85.21980783290556
 51
94.78019184777499
  0
LINE
  5
1E7
  8
DEFAULT
 10
-478.6870925739223
 20
-991.6304353823075
 30
0.0
 11
-627.6454258365428
 21
-979.1739137791337
 31
0.0
  0
ARC
  5
1E8
  8
DEFAULT
 10
-481.8120927824672
 20
-1029.00000018706
 30
0.0
 40
37.5
 50
274.7801919082032
 51
85.21980783305541
  0
LINE
  5
1E9
  8
DEFAULT
 10
-627.64542606167
 20
-1078.826086610612
 30
0.0
 11
-478.6870927426791
 21
-1066.369565005924
 31
0.0
  0
ARC
  5
1EA
  8
DEFAULT
 10
-631.8120927813985
 20
-1029.00000018546
 30
0.0
 40
50.0
 50
265.2198081426239
 51
274.7801919082158
  0
LINE
  5
1EB
  8
DEFAULT
 10
-784.9370927891053
 20
-1066.369565008697
 30
0.0
 11
-635.9787594569153
 21
-1078.826086614309
 31
0.0
  0
ARC
  5
1EC
  8
DEFAULT
 10
-781.8120927824683
 20
-1029.00000018706
 30
0.0
 40
37.5
 50
94.78019184777611
 51
265.2198081426246
  0
ARC
  5
1ED
  8
LAYER_01
 10
-1457.562092784021
 20
-565.3776733922202
 30
0.0
 40
2.999999999402689
 50
359.999999943417
 51
180.0000000030832
  0
LINE
  5
1EE
  8
LAYER_01
 10
-1467.562092785806
 20
-565.3776733927773
 30
0.0
 11
-1460.562092783425
 21
-565.3776733923817
 31
0.0
  0
ARC
  5
1EF
  8
LAYER_01
 10
-1470.562092785212
 20
-565.3776733929387
 30
0.0
 40
2.9999999994061
 50
0.0000000030831873
 51
180.0000000030832
  0
LINE
  5
1F0
  8
LAYER_01
 10
-1473.562092782986
 20
-595.1520239364506
 30
0.0
 11
-1473.562092784618
 21
-565.3776733931002
 31
0.0
  0
LINE
  5
1F1
  8
LAYER_01
 10
-1480.535999927367
 20
-595.1520239339131
 30
0.0
 11
-1473.562092782986
 21
-595.1520239364506
 31
0.0
  0
ARC
  5
1F2
  8
LAYER_01
 10
-1483.535999927367
 20
-595.152023931428
 30
0.0
 40
3.0
 50
0.0000000144822953
 51
163.0835510861355
  0
LINE
  5
1F3
  8
LAYER_01
 10
-1487.318576921948
 20
-597.2791217279976
 30
0.0
 11
-1486.406190190178
 21
-594.279093318336
 31
0.0
  0
ARC
  5
1F4
  8
LAYER_01
 10
-1464.062092782483
 20
-604.3520239321153
 30
0.0
 40
24.30822906174544
 50
163.0841182890442
 51
246.9948320141726
  0
LINE
  5
1F5
  8
LAYER_01
 10
-1473.562092780353
 20
-643.32637447292
 30
0.0
 11
-1473.562092781228
 21
-626.7270099688064
 31
0.0
  0
ARC
  5
1F6
  8
LAYER_01
 10
-1470.562092780947
 20
-643.3263744730814
 30
0.0
 40
2.9999999994061
 50
179.9999999969168
 51
359.9999999969168
  0
LINE
  5
1F7
  8
LAYER_01
 10
-1460.562092779159
 20
-643.3263744736385
 30
0.0
 11
-1467.562092781541
 21
-643.3263744732428
 31
0.0
  0
ARC
  5
1F8
  8
LAYER_01
 10
-1457.562092779753
 20
-643.3263744737999
 30
0.0
 40
2.9999999994061
 50
179.9999999969168
 51
359.9999999969168
  0
LINE
  5
1F9
  8
LAYER_01
 10
-1454.56209278198
 20
-613.5520239291693
 30
0.0
 11
-1454.562092780347
 21
-643.3263744739613
 31
0.0
  0
LINE
  5
1FA
  8
LAYER_01
 10
-1447.588185637598
 20
-613.5520239317068
 30
0.0
 11
-1454.56209278198
 21
-613.5520239291693
 31
0.0
  0
ARC
  5
1FB
  8
LAYER_01
 10
-1444.588185637599
 20
-613.552023934192
 30
0.0
 40
3.0
 50
180.0000000144823
 51
343.0835510861355
  0
LINE
  5
1FC
  8
LAYER_01
 10
-1440.805608643018
 20
-611.4249261376224
 30
0.0
 11
-1441.717995374788
 21
-614.424954547284
 31
0.0
  0
ARC
  5
1FD
  8
LAYER_01
 10
-1464.062092782483
 20
-604.3520239335046
 30
0.0
 40
24.30822906174544
 50
343.0841182890442
 51
66.99483201417264
  0
LINE
  5
1FE
  8
LAYER_01
 10
-1454.562092784617
 20
-565.3776733951829
 30
0.0
 11
-1454.562092783735
 21
-581.9770378968135
 31
0.0
  0
LINE
  5
1FF
  8
DEFAULT
 10
-1446.812092782484
 20
-359.704047866077
 30
0.0
 11
-1356.812092782489
 21
-359.704047866077
 31
0.0
  0
LINE
  5
200
  8
DEFAULT
 10
-1446.812092782484
 20
-379.7040478660429
 30
0.0
 11
-1446.812092782484
 21
-359.704047866077
 31
0.0
  0
LINE
  5
201
  8
DEFAULT
 10
-1419.812092782481
 20
-379.7040478660429
 30
0.0
 11
-1446.812092782484
 21
-379.7040478660429
 31
0.0
  0
ARC
  5
202
  8
DEFAULT
 10
-1419.812092782322
 20
-382.7040478654478
 30
0.0
 40
2.999999999404963
 50
270.0000000030397
 51
90.00000000317004
  0
LINE
  5
203
  8
DEFAULT
 10
-1419.812092782483
 20
-407.9540478658398
 30
0.0
 11
-1419.812092782163
 21
-385.7040478648528
 31
0.0
  0
ARC
  5
204
  8
DEFAULT
 10
-1422.812092782453
 20
-407.9540478657409
 30
0.0
 40
2.999999999969987
 50
179.999999998111
 51
359.9999999980676
  0
LINE
  5
205
  8
DEFAULT
 10
-1502.312092782547
 20
-407.954047865642
 30
0.0
 11
-1425.812092782423
 21
-407.954047865642
 31
0.0
  0
ARC
  5
206
  8
DEFAULT
 10
-1505.312092782515
 20
-407.954047865742
 30
0.0
 40
2.999999999967713
 50
180.0000000019107
 51
0.0000000019107076
  0
LINE
  5
207
  8
DEFAULT
 10
-1508.312092782805
 20
-385.7040478648551
 30
0.0
 11
-1508.312092782482
 21
-407.9540478658421
 31
0.0
  0
ARC
  5
208
  8
DEFAULT
 10
-1508.312092782644
 20
-382.704047865449
 30
0.0
 40
2.9999999994061
 50
89.99999999691681
 51
269.9999999969168
  0
LINE
  5
209
  8
DEFAULT
 10
-1481.312092782486
 20
-379.7040478660429
 30
0.0
 11
-1508.312092782482
 21
-379.7040478660429
 31
0.0
  0
LINE
  5
20A
  8
DEFAULT
 10
-1481.312092782486
 20
-359.704047866077
 30
0.0
 11
-1481.312092782486
 21
-379.7040478660429
 31
0.0
  0
LINE
  5
20B
  8
DEFAULT
 10
-1571.312092782481
 20
-359.704047866077
 30
0.0
 11
-1481.312092782486
 21
-359.704047866077
 31
0.0
  0
LINE
  5
20C
  8
DEFAULT
 10
-1571.312092782478
 20
-379.7040478660429
 30
0.0
 11
-1571.312092782481
 21
-359.704047866077
 31
0.0
  0
LINE
  5
20D
  8
DEFAULT
 10
-1553.31209278248
 20
-379.7040478660417
 30
0.0
 11
-1571.312092782478
 21
-379.7040478660429
 31
0.0
  0
ARC
  5
20E
  8
DEFAULT
 10
-1553.312092782321
 20
-382.7040478654467
 30
0.0
 40
2.999999999404963
 50
270.0000000030397
 51
90.00000000317004
  0
LINE
  5
20F
  8
DEFAULT
 10
-1553.31209278248
 20
-839.0000000001023
 30
0.0
 11
-1553.312092782162
 21
-385.7040478648516
 31
0.0
  0
LINE
  5
210
  8
DEFAULT
 10
-1481.312092782486
 20
-839.0000000001023
 30
0.0
 11
-1553.31209278248
 21
-839.0000000001023
 31
0.0
  0
LINE
  5
211
  8
DEFAULT
 10
-1481.312092782486
 20
-819.0000000001364
 30
0.0
 11
-1481.312092782486
 21
-839.0000000001023
 31
0.0
  0
LINE
  5
212
  8
DEFAULT
 10
-1508.312092782482
 20
-819.0000000001364
 30
0.0
 11
-1481.312092782486
 21
-819.0000000001364
 31
0.0
  0
ARC
  5
213
  8
DEFAULT
 10
-1508.312092782644
 20
-816.0000000007303
 30
0.0
 40
2.9999999994061
 50
90.00000000308319
 51
270.0000000030832
  0
LINE
  5
214
  8
DEFAULT
 10
-1508.312092782482
 20
-790.7500000003372
 30
0.0
 11
-1508.312092782805
 21
-813.0000000013242
 31
0.0
  0
ARC
  5
215
  8
DEFAULT
 10
-1505.312092782515
 20
-790.7500000004372
 30
0.0
 40
2.999999999967713
 50
359.9999999980893
 51
179.9999999980893
  0
LINE
  5
216
  8
DEFAULT
 10
-1481.312092782486
 20
-790.7500000005361
 30
0.0
 11
-1502.312092782547
 21
-790.7500000005373
 31
0.0
  0
LINE
  5
217
  8
DEFAULT
 10
-1481.312092782486
 20
-772.7500000005377
 30
0.0
 11
-1481.312092782486
 21
-790.7500000005361
 31
0.0
  0
ARC
  5
218
  8
DEFAULT
 10
-1478.312092782519
 20
-772.7500000006378
 30
0.0
 40
2.999999999967713
 50
359.9999999980893
 51
179.9999999980893
  0
LINE
  5
219
  8
DEFAULT
 10
-1469.312092782422
 20
-772.7500000005377
 30
0.0
 11
-1475.312092782551
 21
-772.7500000007378
 31
0.0
  0
ARC
  5
21A
  8
DEFAULT
 10
-1466.312092782455
 20
-772.7500000006378
 30
0.0
 40
2.999999999967713
 50
359.9999999980893
 51
179.9999999980893
  0
LINE
  5
21B
  8
DEFAULT
 10
-1463.312092782487
 20
-839.0000000001023
 30
0.0
 11
-1463.312092782487
 21
-772.7500000007378
 31
0.0
  0
LINE
  5
21C
  8
DEFAULT
 10
-1374.812092782485
 20
-839.0000000001023
 30
0.0
 11
-1463.312092782487
 21
-839.0000000001023
 31
0.0
  0
LINE
  5
21D
  8
DEFAULT
 10
-1374.812092782485
 20
-385.7040478648528
 30
0.0
 11
-1374.812092782485
 21
-839.0000000001023
 31
0.0
  0
ARC
  5
21E
  8
DEFAULT
 10
-1374.812092782649
 20
-382.7040478654467
 30
0.0
 40
2.999999999404963
 50
89.99999999682997
 51
269.9999999969603
  0
LINE
  5
21F
  8
DEFAULT
 10
-1356.812092782492
 20
-379.7040478660429
 30
0.0
 11
-1374.81209278249
 21
-379.7040478660417
 31
0.0
  0
LINE
  5
220
  8
DEFAULT
 10
-1356.812092782489
 20
-359.704047866077
 30
0.0
 11
-1356.812092782492
 21
-379.7040478660429
 31
0.0
  0
LINE
  5
221
  8
DEFAULT
 10
-1230.312092782488
 20
-839.0000000001023
 30
0.0
 11
-1140.312092782494
 21
-839.0000000001023
 31
0.0
  0
LINE
  5
222
  8
DEFAULT
 10
-1230.312092782488
 20
-819.0000000001364
 30
0.0
 11
-1230.312092782488
 21
-839.0000000001023
 31
0.0
  0
LINE
  5
223
  8
DEFAULT
 10
-1203.312092782486
 20
-819.0000000001364
 30
0.0
 11
-1230.312092782488
 21
-819.0000000001364
 31
0.0
  0
ARC
  5
224
  8
DEFAULT
 10
-1203.312092782327
 20
-816.0000000007315
 30
0.0
 40
2.999999999404963
 50
269.99999999683
 51
89.99999999696024
  0
LINE
  5
225
  8
DEFAULT
 10
-1203.312092782488
 20
-790.7500000003395
 30
0.0
 11
-1203.312092782167
 21
-813.0000000013265
 31
0.0
  0
ARC
  5
226
  8
DEFAULT
 10
-1206.312092782458
 20
-790.7500000004384
 30
0.0
 40
2.999999999969987
 50
0.0000000019324202
 51
180.000000001889
  0
LINE
  5
227
  8
DEFAULT
 10
-1285.812092782552
 20
-790.7500000005373
 30
0.0
 11
-1209.312092782428
 21
-790.7500000005373
 31
0.0
  0
ARC
  5
228
  8
DEFAULT
 10
-1288.812092782519
 20
-790.7500000004372
 30
0.0
 40
2.999999999967713
 50
359.9999999980893
 51
179.9999999980893
  0
LINE
  5
229
  8
DEFAULT
 10
-1291.81209278281
 20
-813.0000000013242
 30
0.0
 11
-1291.812092782487
 21
-790.7500000003372
 31
0.0
  0
ARC
  5
22A
  8
DEFAULT
 10
-1291.812092782649
 20
-816.0000000007303
 30
0.0
 40
2.9999999994061
 50
90.00000000308319
 51
270.0000000030832
  0
LINE
  5
22B
  8
DEFAULT
 10
-1264.812092782491
 20
-819.0000000001364
 30
0.0
 11
-1291.812092782487
 21
-819.0000000001364
 31
0.0
  0
LINE
  5
22C
  8
DEFAULT
 10
-1264.812092782491
 20
-839.0000000001023
 30
0.0
 11
-1264.812092782491
 21
-819.0000000001364
 31
0.0
  0
LINE
  5
22D
  8
DEFAULT
 10
-1354.812092782485
 20
-839.0000000001023
 30
0.0
 11
-1264.812092782491
 21
-839.0000000001023
 31
0.0
  0
LINE
  5
22E
  8
DEFAULT
 10
-1354.812092782483
 20
-819.0000000001364
 30
0.0
 11
-1354.812092782485
 21
-839.0000000001023
 31
0.0
  0
LINE
  5
22F
  8
DEFAULT
 10
-1336.812092782485
 20
-819.0000000001376
 30
0.0
 11
-1354.812092782483
 21
-819.0000000001364
 31
0.0
  0
ARC
  5
230
  8
DEFAULT
 10
-1336.812092782326
 20
-816.0000000007326
 30
0.0
 40
2.999999999404963
 50
269.99999999683
 51
89.99999999696024
  0
LINE
  5
231
  8
DEFAULT
 10
-1336.812092782485
 20
-359.704047866077
 30
0.0
 11
-1336.812092782166
 21
-813.0000000013276
 31
0.0
  0
LINE
  5
232
  8
DEFAULT
 10
-1264.812092782491
 20
-359.704047866077
 30
0.0
 11
-1336.812092782485
 21
-359.704047866077
 31
0.0
  0
LINE
  5
233
  8
DEFAULT
 10
-1264.812092782491
 20
-379.7040478660429
 30
0.0
 11
-1264.812092782491
 21
-359.704047866077
 31
0.0
  0
LINE
  5
234
  8
DEFAULT
 10
-1291.812092782487
 20
-379.7040478660429
 30
0.0
 11
-1264.812092782491
 21
-379.7040478660429
 31
0.0
  0
ARC
  5
235
  8
DEFAULT
 10
-1291.812092782649
 20
-382.704047865449
 30
0.0
 40
2.9999999994061
 50
89.99999999691681
 51
269.9999999969168
  0
LINE
  5
236
  8
DEFAULT
 10
-1291.812092782487
 20
-407.9540478658421
 30
0.0
 11
-1291.81209278281
 21
-385.7040478648551
 31
0.0
  0
ARC
  5
237
  8
DEFAULT
 10
-1288.812092782519
 20
-407.954047865742
 30
0.0
 40
2.999999999967713
 50
180.0000000019107
 51
0.0000000019107076
  0
LINE
  5
238
  8
DEFAULT
 10
-1264.812092782491
 20
-407.9540478656431
 30
0.0
 11
-1285.812092782552
 21
-407.954047865642
 31
0.0
  0
LINE
  5
239
  8
DEFAULT
 10
-1264.812092782491
 20
-425.9540478656415
 30
0.0
 11
-1264.812092782491
 21
-407.9540478656431
 31
0.0
  0
ARC
  5
23A
  8
DEFAULT
 10
-1261.812092782523
 20
-425.9540478655415
 30
0.0
 40
2.999999999967713
 50
180.0000000019107
 51
0.0000000019107076
  0
LINE
  5
23B
  8
DEFAULT
 10
-1252.812092782427
 20
-425.9540478656415
 30
0.0
 11
-1258.812092782556
 21
-425.9540478654415
 31
0.0
  0
ARC
  5
23C
  8
DEFAULT
 10
-1249.812092782459
 20
-425.9540478655415
 30
0.0
 40
2.999999999967713
 50
180.0000000019107
 51
0.0000000019107076
  0
LINE
  5
23D
  8
DEFAULT
 10
-1246.812092782492
 20
-359.704047866077
 30
0.0
 11
-1246.812092782492
 21
-425.9540478654415
 31
0.0
  0
LINE
  5
23E
  8
DEFAULT
 10
-1158.31209278249
 20
-359.704047866077
 30
0.0
 11
-1246.812092782492
 21
-359.704047866077
 31
0.0
  0
LINE
  5
23F
  8
DEFAULT
 10
-1158.31209278249
 20
-813.0000000013265
 30
0.0
 11
-1158.31209278249
 21
-359.704047866077
 31
0.0
  0
ARC
  5
240
  8
DEFAULT
 10
-1158.312092782654
 20
-816.0000000007326
 30
0.0
 40
2.999999999404963
 50
90.00000000303977
 51
270.00000000317
  0
LINE
  5
241
  8
DEFAULT
 10
-1140.312092782496
 20
-819.0000000001364
 30
0.0
 11
-1158.312092782495
 21
-819.0000000001376
 31
0.0
  0
LINE
  5
242
  8
DEFAULT
 10
-1140.312092782494
 20
-839.0000000001023
 30
0.0
 11
-1140.312092782496
 21
-819.0000000001364
 31
0.0
  0
ARC
  5
243
  8
LAYER_01
 10
-1241.062092784026
 20
-633.326374473959
 30
0.0
 40
2.999999999402689
 50
179.9999999969168
 51
0.0000000565830008
  0
LINE
  5
244
  8
LAYER_01
 10
-1251.062092785811
 20
-633.326374473402
 30
0.0
 11
-1244.06209278343
 21
-633.3263744737976
 31
0.0
  0
ARC
  5
245
  8
LAYER_01
 10
-1254.062092785217
 20
-633.3263744732405
 30
0.0
 40
2.9999999994061
 50
179.9999999969168
 51
359.9999999969168
  0
LINE
  5
246
  8
LAYER_01
 10
-1257.06209278299
 20
-603.5520239297286
 30
0.0
 11
-1257.062092784623
 21
-633.3263744730791
 31
0.0
  0
LINE
  5
247
  8
LAYER_01
 10
-1264.035999927372
 20
-603.5520239322661
 30
0.0
 11
-1257.06209278299
 21
-603.5520239297286
 31
0.0
  0
ARC
  5
248
  8
LAYER_01
 10
-1267.035999927371
 20
-603.5520239347513
 30
0.0
 40
3.0
 50
196.9164489138645
 51
359.9999999855177
  0
LINE
  5
249
  8
LAYER_01
 10
-1270.818576921953
 20
-601.4249261381817
 30
0.0
 11
-1269.906190190182
 21
-604.4249545478433
 31
0.0
  0
ARC
  5
24A
  8
LAYER_01
 10
-1247.562092782488
 20
-594.3520239340639
 30
0.0
 40
24.30822906174544
 50
113.0051679858274
 51
196.9158817109555
  0
LINE
  5
24B
  8
LAYER_01
 10
-1257.062092780357
 20
-555.3776733932593
 30
0.0
 11
-1257.062092781233
 21
-571.9770378973728
 31
0.0
  0
ARC
  5
24C
  8
LAYER_01
 10
-1254.062092780951
 20
-555.3776733930979
 30
0.0
 40
2.9999999994061
 50
0.0000000030831873
 51
180.0000000030832
  0
LINE
  5
24D
  8
LAYER_01
 10
-1244.062092779164
 20
-555.3776733925408
 30
0.0
 11
-1251.062092781545
 21
-555.3776733929365
 31
0.0
  0
ARC
  5
24E
  8
LAYER_01
 10
-1241.062092779758
 20
-555.3776733923794
 30
0.0
 40
2.9999999994061
 50
0.0000000030831873
 51
180.0000000030832
  0
LINE
  5
24F
  8
LAYER_01
 10
-1238.062092781985
 20
-585.15202393701
 30
0.0
 11
-1238.062092780352
 21
-555.377673392218
 31
0.0
  0
LINE
  5
250
  8
LAYER_01
 10
-1231.088185637603
 20
-585.1520239344725
 30
0.0
 11
-1238.062092781985
 21
-585.15202393701
 31
0.0
  0
ARC
  5
251
  8
LAYER_01
 10
-1228.088185637604
 20
-585.1520239319873
 30
0.0
 40
3.0
 50
16.91644891386451
 51
179.9999999855177
  0
LINE
  5
252
  8
LAYER_01
 10
-1224.305608643022
 20
-587.2791217285569
 30
0.0
 11
-1225.217995374793
 21
-584.2790933188953
 31
0.0
  0
ARC
  5
253
  8
LAYER_01
 10
-1247.562092782488
 20
-594.3520239326747
 30
0.0
 40
24.30822906174544
 50
293.0051679858274
 51
16.91588171095578
  0
LINE
  5
254
  8
LAYER_01
 10
-1238.062092784622
 20
-633.3263744709964
 30
0.0
 11
-1238.06209278374
 21
-616.7270099693658
 31
0.0
  0
ARC
  5
255
  8
LAYER_01
 10
-1069.562092784008
 20
-565.377673392313
 30
0.0
 40
2.999999999402689
 50
359.999999943417
 51
180.0000000030832
  0
LINE
  5
256
  8
LAYER_01
 10
-1079.562092785793
 20
-565.3776733928701
 30
0.0
 11
-1072.562092783412
 21
-565.3776733924744
 31
0.0
  0
ARC
  5
257
  8
LAYER_01
 10
-1082.562092785199
 20
-565.3776733930315
 30
0.0
 40
2.9999999994061
 50
0.0000000030831873
 51
180.0000000030832
  0
LINE
  5
258
  8
LAYER_01
 10
-1085.562092782973
 20
-595.1520239365434
 30
0.0
 11
-1085.562092784605
 21
-565.3776733931929
 31
0.0
  0
LINE
  5
259
  8
LAYER_01
 10
-1092.535999927354
 20
-595.1520239340059
 30
0.0
 11
-1085.562092782973
 21
-595.1520239365434
 31
0.0
  0
ARC
  5
25A
  8
LAYER_01
 10
-1095.535999927353
 20
-595.1520239315207
 30
0.0
 40
3.0
 50
0.0000000144822953
 51
163.0835510861355
  0
LINE
  5
25B
  8
LAYER_01
 10
-1099.318576921935
 20
-597.2791217280903
 30
0.0
 11
-1098.406190190164
 21
-594.2790933184287
 31
0.0
  0
ARC
  5
25C
  8
LAYER_01
 10
-1076.06209278247
 20
-604.3520239322081
 30
0.0
 40
24.30822906174544
 50
163.0841182890442
 51
246.9948320141726
  0
LINE
  5
25D
  8
LAYER_01
 10
-1085.56209278034
 20
-643.3263744730127
 30
0.0
 11
-1085.562092781215
 21
-626.7270099688992
 31
0.0
  0
ARC
  5
25E
  8
LAYER_01
 10
-1082.562092780933
 20
-643.3263744731742
 30
0.0
 40
2.9999999994061
 50
179.9999999969168
 51
359.9999999969168
  0
LINE
  5
25F
  8
LAYER_01
 10
-1072.562092779146
 20
-643.3263744737312
 30
0.0
 11
-1079.562092781527
 21
-643.3263744733356
 31
0.0
  0
ARC
  5
260
  8
LAYER_01
 10
-1069.56209277974
 20
-643.3263744738927
 30
0.0
 40
2.9999999994061
 50
179.9999999969168
 51
359.9999999969168
  0
LINE
  5
261
  8
LAYER_01
 10
-1066.562092781967
 20
-613.5520239292621
 30
0.0
 11
-1066.562092780334
 21
-643.3263744740541
 31
0.0
  0
LINE
  5
262
  8
LAYER_01
 10
-1059.588185637585
 20
-613.5520239317996
 30
0.0
 11
-1066.562092781967
 21
-613.5520239292621
 31
0.0
  0
ARC
  5
263
  8
LAYER_01
 10
-1056.588185637586
 20
-613.5520239342848
 30
0.0
 40
3.0
 50
180.0000000144823
 51
343.0835510861355
  0
LINE
  5
264
  8
LAYER_01
 10
-1052.805608643004
 20
-611.4249261377151
 30
0.0
 11
-1053.717995374775
 21
-614.4249545473767
 31
0.0
  0
ARC
  5
265
  8
LAYER_01
 10
-1076.06209278247
 20
-604.3520239335974
 30
0.0
 40
24.30822906174544
 50
343.0841182890441
 51
66.99483201417215
  0
LINE
  5
266
  8
LAYER_01
 10
-1066.562092784604
 20
-565.3776733952757
 30
0.0
 11
-1066.562092783722
 21
-581.9770378969063
 31
0.0
  0
LINE
  5
267
  8
DEFAULT
 10
-1031.812092782443
 20
-839.0000000001257
 30
0.0
 11
-1031.812092782461
 21
-675.1989860415163
 31
0.0
  0
LINE
  5
268
  8
DEFAULT
 10
-1120.312092782494
 20
-839.0000000001098
 30
0.0
 11
-1031.812092782445
 21
-839.0000000002804
 31
0.0
  0
LINE
  5
269
  8
DEFAULT
 10
-1120.312092782492
 20
-675.1989860584943
 30
0.0
 11
-1120.312092782494
 21
-839.0000000001098
 31
0.0
  0
LINE
  5
26A
  8
DEFAULT
 10
-1125.888179207622
 20
-608.5186906526312
 30
0.0
 11
-1120.312092782492
 21
-675.1989860584943
 31
0.0
  0
ARC
  5
26B
  8
DEFAULT
 10
-1076.062092782471
 20
-604.3520239329027
 30
0.0
 40
50.0
 50
175.2198081426239
 51
184.7801919082158
  0
LINE
  5
26C
  8
DEFAULT
 10
-1120.312092782492
 20
-533.5050618063563
 30
0.0
 11
-1125.88817921132
 21
-600.1853572573859
 31
0.0
  0
LINE
  5
26D
  8
DEFAULT
 10
-1120.31209278249
 20
-407.9540478658644
 30
0.0
 11
-1120.312092782492
 21
-533.5050618063563
 31
0.0
  0
LINE
  5
26E
  8
DEFAULT
 10
-1099.312092782429
 20
-407.9540478656654
 30
0.0
 11
-1120.31209278249
 21
-407.9540478658644
 31
0.0
  0
ARC
  5
26F
  8
DEFAULT
 10
-1096.312092782458
 20
-407.9540478657643
 30
0.0
 40
2.999999999971124
 50
179.999999998111
 51
359.9999999980676
  0
LINE
  5
270
  8
DEFAULT
 10
-1093.312092782169
 20
-385.7040478648762
 30
0.0
 11
-1093.312092782487
 21
-407.9540478658632
 31
0.0
  0
ARC
  5
271
  8
DEFAULT
 10
-1093.31209278233
 20
-382.7040478654735
 30
0.0
 40
2.999999999402689
 50
270.0000000030832
 51
90.00000000312662
  0
LINE
  5
272
  8
DEFAULT
 10
-1120.31209278249
 20
-379.7040478660663
 30
0.0
 11
-1093.312092782491
 21
-379.7040478660708
 31
0.0
  0
LINE
  5
273
  8
DEFAULT
 10
-1120.31209278249
 20
-359.7040478661004
 30
0.0
 11
-1120.31209278249
 21
-379.7040478660663
 31
0.0
  0
LINE
  5
274
  8
DEFAULT
 10
-1031.812092782493
 20
-359.7040478661004
 30
0.0
 11
-1120.31209278249
 21
-359.7040478661004
 31
0.0
  0
LINE
  5
275
  8
DEFAULT
 10
-1031.812092782495
 20
-379.7040478660663
 30
0.0
 11
-1031.812092782493
 21
-359.7040478661004
 31
0.0
  0
LINE
  5
276
  8
DEFAULT
 10
-1058.812092782491
 20
-379.7040478660663
 30
0.0
 11
-1031.812092782495
 21
-379.7040478660663
 31
0.0
  0
ARC
  5
277
  8
DEFAULT
 10
-1058.812092782651
 20
-382.7040478654712
 30
0.0
 40
2.999999999404963
 50
89.99999999693853
 51
269.9999999968951
  0
LINE
  5
278
  8
DEFAULT
 10
-1058.812092782491
 20
-407.9540478658655
 30
0.0
 11
-1058.812092782812
 21
-385.7040478648762
 31
0.0
  0
ARC
  5
279
  8
DEFAULT
 10
-1055.81209278252
 20
-407.9540478657666
 30
0.0
 40
2.999999999971124
 50
180.000000001889
 51
0.0000000019324202
  0
LINE
  5
27A
  8
DEFAULT
 10
-1031.812092782495
 20
-407.9540478658644
 30
0.0
 11
-1052.812092782549
 21
-407.9540478656677
 31
0.0
  0
LINE
  5
27B
  8
DEFAULT
 10
-1031.812092782479
 20
-533.5050618231194
 30
0.0
 11
-1031.812092782495
 21
-407.9540478658644
 31
0.0
  0
LINE
  5
27C
  8
DEFAULT
 10
-1026.236006352924
 20
-600.1853572657351
 30
0.0
 11
-1031.812092782479
 21
-533.5050618231194
 31
0.0
  0
ARC
  5
27D
  8
DEFAULT
 10
-1076.062092782471
 20
-604.3520239329027
 30
0.0
 40
50.0
 50
355.2198078329054
 51
4.780191847774978
  0
LINE
  5
27E
  8
DEFAULT
 10
-1031.812092782461
 20
-675.1989860415163
 30
0.0
 11
-1026.236006376144
 21
-608.5186908777584
 31
0.0
  0
ARC
  5
27F
  8
LAYER_01
 10
-949.562092784008
 20
-565.3776733703912
 30
0.0
 40
2.999999999402689
 50
359.999999943417
 51
180.0000000030832
  0
LINE
  5
280
  8
LAYER_01
 10
-959.5620927857929
 20
-565.3776733709483
 30
0.0
 11
-952.5620927834118
 21
-565.3776733705527
 31
0.0
  0
ARC
  5
281
  8
LAYER_01
 10
-962.562092785199
 20
-565.3776733711097
 30
0.0
 40
2.9999999994061
 50
0.0000000030831873
 51
180.0000000030832
  0
LINE
  5
282
  8
LAYER_01
 10
-965.5620927829725
 20
-595.1520239146216
 30
0.0
 11
-965.562092784605
 21
-565.3776733712712
 31
0.0
  0
LINE
  5
283
  8
LAYER_01
 10
-972.5359999273539
 20
-595.1520239120841
 30
0.0
 11
-965.5620927829725
 21
-595.1520239146216
 31
0.0
  0
ARC
  5
284
  8
LAYER_01
 10
-975.5359999273535
 20
-595.1520239095989
 30
0.0
 40
3.0
 50
0.0000000144822953
 51
163.0835510861355
  0
LINE
  5
285
  8
LAYER_01
 10
-979.3185769219347
 20
-597.2791217061686
 30
0.0
 11
-978.4061901901644
 21
-594.279093296507
 31
0.0
  0
ARC
  5
286
  8
LAYER_01
 10
-956.0620927824696
 20
-604.3520239102863
 30
0.0
 40
24.30822906174544
 50
163.0841182890441
 51
246.9948320141724
  0
LINE
  5
287
  8
LAYER_01
 10
-965.5620927803395
 20
-643.3263744510909
 30
0.0
 11
-965.5620927812149
 21
-626.7270099469774
 31
0.0
  0
ARC
  5
288
  8
LAYER_01
 10
-962.5620927809334
 20
-643.3263744512524
 30
0.0
 40
2.9999999994061
 50
179.9999999969168
 51
359.9999999969168
  0
LINE
  5
289
  8
LAYER_01
 10
-952.5620927791463
 20
-643.3263744518094
 30
0.0
 11
-959.5620927815273
 21
-643.3263744514138
 31
0.0
  0
ARC
  5
28A
  8
LAYER_01
 10
-949.5620927797402
 20
-643.3263744519709
 30
0.0
 40
2.9999999994061
 50
179.9999999969168
 51
359.9999999969168
  0
LINE
  5
28B
  8
LAYER_01
 10
-946.5620927819666
 20
-613.5520239073403
 30
0.0
 11
-946.5620927803341
 21
-643.3263744521323
 31
0.0
  0
LINE
  5
28C
  8
LAYER_01
 10
-939.5881856375852
 20
-613.5520239098778
 30
0.0
 11
-946.5620927819666
 21
-613.5520239073403
 31
0.0
  0
ARC
  5
28D
  8
LAYER_01
 10
-936.5881856375856
 20
-613.552023912363
 30
0.0
 40
3.0
 50
180.0000000144823
 51
343.0835510861355
  0
LINE
  5
28E
  8
LAYER_01
 10
-932.8056086430045
 20
-611.4249261157934
 30
0.0
 11
-933.7179953747748
 21
-614.424954525455
 31
0.0
  0
ARC
  5
28F
  8
LAYER_01
 10
-956.0620927824696
 20
-604.3520239116756
 30
0.0
 40
24.30822906174544
 50
343.0841182890442
 51
66.9948320141724
  0
LINE
  5
290
  8
LAYER_01
 10
-946.5620927846041
 20
-565.3776733733539
 30
0.0
 11
-946.5620927837219
 21
-581.9770378749845
 31
0.0
  0
LINE
  5
291
  8
DEFAULT
 10
-911.8120927824427
 20
-838.999999978204
 30
0.0
 11
-911.8120927824609
 21
-675.1989860195945
 31
0.0
  0
LINE
  5
292
  8
DEFAULT
 10
-1000.312092782494
 20
-838.999999978188
 30
0.0
 11
-911.812092782445
 21
-838.9999999783586
 31
0.0
  0
LINE
  5
293
  8
DEFAULT
 10
-1000.312092782492
 20
-675.1989860365725
 30
0.0
 11
-1000.312092782494
 21
-838.999999978188
 31
0.0
  0
LINE
  5
294
  8
DEFAULT
 10
-1005.888179207622
 20
-608.5186906307094
 30
0.0
 11
-1000.312092782492
 21
-675.1989860365725
 31
0.0
  0
ARC
  5
295
  8
DEFAULT
 10
-956.0620927824707
 20
-604.352023910981
 30
0.0
 40
50.0
 50
175.2198081426239
 51
184.7801919082158
  0
LINE
  5
296
  8
DEFAULT
 10
-1000.312092782492
 20
-533.5050617844345
 30
0.0
 11
-1005.88817921132
 21
-600.1853572354642
 31
0.0
  0
LINE
  5
297
  8
DEFAULT
 10
-1000.31209278249
 20
-407.9540478439426
 30
0.0
 11
-1000.312092782492
 21
-533.5050617844345
 31
0.0
  0
LINE
  5
298
  8
DEFAULT
 10
-979.3120927824291
 20
-407.9540478437436
 30
0.0
 11
-1000.31209278249
 21
-407.9540478439426
 31
0.0
  0
ARC
  5
299
  8
DEFAULT
 10
-976.312092782458
 20
-407.9540478438425
 30
0.0
 40
2.999999999971124
 50
179.999999998111
 51
359.9999999980676
  0
LINE
  5
29A
  8
DEFAULT
 10
-973.3120927821685
 20
-385.7040478429544
 30
0.0
 11
-973.3120927824868
 21
-407.9540478439415
 31
0.0
  0
ARC
  5
29B
  8
DEFAULT
 10
-973.31209278233
 20
-382.7040478435517
 30
0.0
 40
2.999999999402689
 50
270.0000000030832
 51
90.00000000312662
  0
LINE
  5
29C
  8
DEFAULT
 10
-1000.31209278249
 20
-379.7040478441445
 30
0.0
 11
-973.3120927824914
 21
-379.704047844149
 31
0.0
  0
LINE
  5
29D
  8
DEFAULT
 10
-1000.31209278249
 20
-359.7040478441786
 30
0.0
 11
-1000.31209278249
 21
-379.7040478441445
 31
0.0
  0
LINE
  5
29E
  8
DEFAULT
 10
-911.8120927824928
 20
-359.7040478441786
 30
0.0
 11
-1000.31209278249
 21
-359.7040478441786
 31
0.0
  0
LINE
  5
29F
  8
DEFAULT
 10
-911.812092782495
 20
-379.7040478441445
 30
0.0
 11
-911.8120927824928
 21
-359.7040478441786
 31
0.0
  0
LINE
  5
2A0
  8
DEFAULT
 10
-938.8120927824909
 20
-379.7040478441445
 30
0.0
 11
-911.812092782495
 21
-379.7040478441445
 31
0.0
  0
ARC
  5
2A1
  8
DEFAULT
 10
-938.8120927826512
 20
-382.7040478435495
 30
0.0
 40
2.999999999404963
 50
89.99999999693853
 51
269.9999999968951
  0
LINE
  5
2A2
  8
DEFAULT
 10
-938.8120927824909
 20
-407.9540478439437
 30
0.0
 11
-938.8120927828115
 21
-385.7040478429544
 31
0.0
  0
ARC
  5
2A3
  8
DEFAULT
 10
-935.8120927825198
 20
-407.9540478438448
 30
0.0
 40
2.999999999971124
 50
180.000000001889
 51
0.0000000019324202
  0
LINE
  5
2A4
  8
DEFAULT
 10
-911.812092782495
 20
-407.9540478439426
 30
0.0
 11
-932.8120927825487
 21
-407.9540478437459
 31
0.0
  0
LINE
  5
2A5
  8
DEFAULT
 10
-911.8120927824791
 20
-533.5050618011976
 30
0.0
 11
-911.812092782495
 21
-407.9540478439426
 31
0.0
  0
LINE
  5
2A6
  8
DEFAULT
 10
-906.2360063529238
 20
-600.1853572438133
 30
0.0
 11
-911.8120927824791
 21
-533.5050618011976
 31
0.0
  0
ARC
  5
2A7
  8
DEFAULT
 10
-956.0620927824707
 20
-604.352023910981
 30
0.0
 40
50.0
 50
355.2198078329054
 51
4.780191847774988
  0
LINE
  5
2A8
  8
DEFAULT
 10
-911.8120927824609
 20
-675.1989860195945
 30
0.0
 11
-906.2360063761444
 21
-608.5186908558367
 31
0.0
  0
ARC
  5
2A9
  8
DEFAULT
 10
-777.2382852016299
 20
-648.8266805998032
 30
0.0
 40
2.999999999971124
 50
180.0000000019324
 51
0.0000000019324202
  0
LINE
  5
2AA
  8
DEFAULT
 10
-752.5620927825637
 20
-648.8266805997578
 30
0.0
 11
-774.2382852016588
 21
-648.8266805997021
 31
0.0
  0
LINE
  5
2AB
  8
DEFAULT
 10
-713.3120927824482
 20
-770.7499999786805
 30
0.0
 11
-752.5620927825637
 21
-648.8266805997578
 31
0.0
  0
LINE
  5
2AC
  8
DEFAULT
 10
-713.3120927824482
 20
-838.9999999782115
 30
0.0
 11
-713.3120927824482
 21
-770.7499999786805
 31
0.0
  0
LINE
  5
2AD
  8
DEFAULT
 10
-785.3120927824441
 20
-838.9999999782115
 30
0.0
 11
-713.3120927824482
 21
-838.9999999782115
 31
0.0
  0
LINE
  5
2AE
  8
DEFAULT
 10
-785.3120927824464
 20
-818.9999999782456
 30
0.0
 11
-785.3120927824441
 21
-838.9999999782115
 31
0.0
  0
LINE
  5
2AF
  8
DEFAULT
 10
-758.3120927824482
 20
-818.9999999782456
 30
0.0
 11
-785.3120927824464
 21
-818.9999999782456
 31
0.0
  0
ARC
  5
2B0
  8
DEFAULT
 10
-758.3120927822868
 20
-815.9999999788406
 30
0.0
 40
2.999999999404963
 50
269.9999999969168
 51
89.99999999691681
  0
LINE
  5
2B1
  8
DEFAULT
 10
-758.3120927824482
 20
-790.7499999784463
 30
0.0
 11
-758.3120927821253
 21
-812.9999999794356
 31
0.0
  0
ARC
  5
2B2
  8
DEFAULT
 10
-761.3120927824159
 20
-790.7499999785464
 30
0.0
 40
2.999999999967713
 50
0.0000000019107076
 51
180.0000000019107
  0
LINE
  5
2B3
  8
DEFAULT
 10
-806.3120927824455
 20
-790.7499999786464
 30
0.0
 11
-764.3120927823836
 21
-790.7499999786464
 31
0.0
  0
LINE
  5
2B4
  8
DEFAULT
 10
-806.3120927824455
 20
-770.7499999786805
 30
0.0
 11
-806.3120927824455
 21
-790.7499999786464
 31
0.0
  0
LINE
  5
2B5
  8
DEFAULT
 10
-779.3120927824496
 20
-770.7499999786805
 30
0.0
 11
-806.3120927824455
 21
-770.7499999786805
 31
0.0
  0
ARC
  5
2B6
  8
DEFAULT
 10
-779.3120927822881
 20
-767.7499999792744
 30
0.0
 40
2.9999999994061
 50
269.9999999969168
 51
89.99999999691681
  0
LINE
  5
2B7
  8
DEFAULT
 10
-779.3120927824496
 20
-742.4999999788813
 30
0.0
 11
-779.3120927821267
 21
-764.7499999798683
 31
0.0
  0
ARC
  5
2B8
  8
DEFAULT
 10
-782.3120927824173
 20
-742.4999999789814
 30
0.0
 40
2.999999999967713
 50
0.0000000019107076
 51
180.0000000019107
  0
LINE
  5
2B9
  8
DEFAULT
 10
-806.3120927824455
 20
-742.4999999790803
 30
0.0
 11
-785.312092782385
 21
-742.4999999790814
 31
0.0
  0
LINE
  5
2BA
  8
DEFAULT
 10
-806.3120927824455
 20
-724.4999999790818
 30
0.0
 11
-806.3120927824455
 21
-742.4999999790803
 31
0.0
  0
ARC
  5
2BB
  8
DEFAULT
 10
-809.3120927824132
 20
-724.4999999791819
 30
0.0
 40
2.999999999967713
 50
0.0000000019107076
 51
180.0000000019107
  0
LINE
  5
2BC
  8
DEFAULT
 10
-818.3120927825096
 20
-724.4999999790818
 30
0.0
 11
-812.3120927823809
 21
-724.4999999792819
 31
0.0
  0
ARC
  5
2BD
  8
DEFAULT
 10
-821.3120927824773
 20
-724.4999999791819
 30
0.0
 40
2.999999999967713
 50
0.0000000019107076
 51
180.0000000019107
  0
LINE
  5
2BE
  8
DEFAULT
 10
-824.312092782445
 20
-790.7499999786464
 30
0.0
 11
-824.312092782445
 21
-724.4999999792819
 31
0.0
  0
LINE
  5
2BF
  8
DEFAULT
 10
-840.8120927825073
 20
-790.7499999786464
 30
0.0
 11
-824.312092782445
 21
-790.7499999786464
 31
0.0
  0
ARC
  5
2C0
  8
DEFAULT
 10
-843.812092782475
 20
-790.7499999785464
 30
0.0
 40
2.999999999967713
 50
359.9999999980893
 51
179.9999999980893
  0
LINE
  5
2C1
  8
DEFAULT
 10
-846.8120927827702
 20
-812.9999999794334
 30
0.0
 11
-846.8120927824427
 21
-790.7499999784463
 31
0.0
  0
ARC
  5
2C2
  8
DEFAULT
 10
-846.8120927826064
 20
-815.9999999788395
 30
0.0
 40
2.9999999994061
 50
90.00000000303977
 51
270.0000000031266
  0
LINE
  5
2C3
  8
DEFAULT
 10
-819.8120927824491
 20
-818.9999999782456
 30
0.0
 11
-846.8120927824427
 21
-818.9999999782456
 31
0.0
  0
LINE
  5
2C4
  8
DEFAULT
 10
-819.8120927824491
 20
-838.9999999782115
 30
0.0
 11
-819.8120927824491
 21
-818.9999999782456
 31
0.0
  0
LINE
  5
2C5
  8
DEFAULT
 10
-891.8120927824427
 20
-838.9999999782115
 30
0.0
 11
-819.8120927824491
 21
-838.9999999782115
 31
0.0
  0
LINE
  5
2C6
  8
DEFAULT
 10
-891.8120927824427
 20
-770.7499999777767
 30
0.0
 11
-891.8120927824427
 21
-838.9999999782115
 31
0.0
  0
LINE
  5
2C7
  8
DEFAULT
 10
-852.5620927826001
 20
-648.8266805997748
 30
0.0
 11
-891.8120927824427
 21
-770.7499999777767
 31
0.0
  0
LINE
  5
2C8
  8
DEFAULT
 10
-830.8859003635221
 20
-648.8266805997021
 30
0.0
 11
-852.5620927826001
 21
-648.8266805997748
 31
0.0
  0
ARC
  5
2C9
  8
DEFAULT
 10
-827.8859003635532
 20
-648.8266805998021
 30
0.0
 40
2.99999999996885
 50
179.9999999980893
 51
359.9999999980893
  0
LINE
  5
2CA
  8
DEFAULT
 10
-824.8859003637617
 20
-636.3266806000954
 30
0.0
 11
-824.8859003635844
 21
-648.8266805999021
 31
0.0
  0
ARC
  5
2CB
  8
DEFAULT
 10
-824.8859003636105
 20
-633.3266806006893
 30
0.0
 40
2.9999999994061
 50
269.9999999969385
 51
89.99999999693853
  0
LINE
  5
2CC
  8
DEFAULT
 10
-840.5094247032807
 20
-630.3266805998474
 30
0.0
 11
-824.8859003634502
 21
-630.3266806012832
 31
0.0
  0
ARC
  5
2CD
  8
DEFAULT
 10
-802.5620927823682
 20
-639.3266806045162
 30
0.0
 40
38.99999999999925
 50
110.7318154581667
 51
166.6576361958628
  0
LINE
  5
2CE
  8
DEFAULT
 10
-788.7563179361482
 20
-602.8520239111979
 30
0.0
 11
-816.3678676285938
 21
-602.8520239112001
 31
0.0
  0
ARC
  5
2CF
  8
DEFAULT
 10
-802.5620927823682
 20
-639.3266806045162
 30
0.0
 40
38.99999999999925
 50
13.34236380478852
 51
69.2681845418417
  0
LINE
  5
2D0
  8
DEFAULT
 10
-780.238285201734
 20
-630.3266806012855
 30
0.0
 11
-764.6147608615579
 21
-630.3266805994165
 31
0.0
  0
ARC
  5
2D1
  8
DEFAULT
 10
-780.2382852015714
 20
-633.3266806006905
 30
0.0
 40
2.999999999404963
 50
90.00000000306147
 51
270.0000000031049
  0
LINE
  5
2D2
  8
DEFAULT
 10
-780.2382852015987
 20
-648.8266805999044
 30
0.0
 11
-780.2382852014089
 21
-636.3266806000954
 31
0.0
  0
ARC
  5
2D3
  8
DEFAULT
 10
-578.7382852016353
 20
-648.8266805998107
 30
0.0
 40
2.999999999971124
 50
180.0000000019324
 51
0.0000000019324202
  0
LINE
  5
2D4
  8
DEFAULT
 10
-554.0620927825692
 20
-648.8266805997653
 30
0.0
 11
-575.7382852016642
 21
-648.8266805997096
 31
0.0
  0
LINE
  5
2D5
  8
DEFAULT
 10
-514.8120927824536
 20
-770.749999978688
 30
0.0
 11
-554.0620927825692
 21
-648.8266805997653
 31
0.0
  0
LINE
  5
2D6
  8
DEFAULT
 10
-514.8120927824536
 20
-838.999999978219
 30
0.0
 11
-514.8120927824536
 21
-770.749999978688
 31
0.0
  0
LINE
  5
2D7
  8
DEFAULT
 10
-586.8120927824496
 20
-838.999999978219
 30
0.0
 11
-514.8120927824536
 21
-838.999999978219
 31
0.0
  0
LINE
  5
2D8
  8
DEFAULT
 10
-586.8120927824518
 20
-818.9999999782531
 30
0.0
 11
-586.8120927824496
 21
-838.999999978219
 31
0.0
  0
LINE
  5
2D9
  8
DEFAULT
 10
-559.8120927824536
 20
-818.9999999782531
 30
0.0
 11
-586.8120927824518
 21
-818.9999999782531
 31
0.0
  0
ARC
  5
2DA
  8
DEFAULT
 10
-559.8120927822922
 20
-815.9999999788481
 30
0.0
 40
2.999999999404963
 50
269.9999999969168
 51
89.99999999691681
  0
LINE
  5
2DB
  8
DEFAULT
 10
-559.8120927824536
 20
-790.7499999784538
 30
0.0
 11
-559.8120927821308
 21
-812.9999999794431
 31
0.0
  0
ARC
  5
2DC
  8
DEFAULT
 10
-562.8120927824214
 20
-790.7499999785539
 30
0.0
 40
2.999999999967713
 50
0.0000000019107076
 51
180.0000000019107
  0
LINE
  5
2DD
  8
DEFAULT
 10
-607.8120927824509
 20
-790.7499999786539
 30
0.0
 11
-565.8120927823891
 21
-790.7499999786539
 31
0.0
  0
LINE
  5
2DE
  8
DEFAULT
 10
-607.8120927824509
 20
-770.749999978688
 30
0.0
 11
-607.8120927824509
 21
-790.7499999786539
 31
0.0
  0
LINE
  5
2DF
  8
DEFAULT
 10
-580.812092782455
 20
-770.749999978688
 30
0.0
 11
-607.8120927824509
 21
-770.749999978688
 31
0.0
  0
ARC
  5
2E0
  8
DEFAULT
 10
-580.8120927822936
 20
-767.7499999792819
 30
0.0
 40
2.9999999994061
 50
269.9999999969168
 51
89.99999999691681
  0
LINE
  5
2E1
  8
DEFAULT
 10
-580.812092782455
 20
-742.4999999788888
 30
0.0
 11
-580.8120927821321
 21
-764.7499999798758
 31
0.0
  0
ARC
  5
2E2
  8
DEFAULT
 10
-583.8120927824227
 20
-742.4999999789889
 30
0.0
 40
2.999999999967713
 50
0.0000000019107076
 51
180.0000000019107
  0
LINE
  5
2E3
  8
DEFAULT
 10
-607.8120927824509
 20
-742.4999999790878
 30
0.0
 11
-586.8120927823904
 21
-742.4999999790889
 31
0.0
  0
LINE
  5
2E4
  8
DEFAULT
 10
-607.8120927824509
 20
-724.4999999790894
 30
0.0
 11
-607.8120927824509
 21
-742.4999999790878
 31
0.0
  0
ARC
  5
2E5
  8
DEFAULT
 10
-610.8120927824186
 20
-724.4999999791894
 30
0.0
 40
2.999999999967713
 50
0.0000000019107076
 51
180.0000000019107
  0
LINE
  5
2E6
  8
DEFAULT
 10
-619.812092782515
 20
-724.4999999790894
 30
0.0
 11
-613.8120927823863
 21
-724.4999999792894
 31
0.0
  0
ARC
  5
2E7
  8
DEFAULT
 10
-622.8120927824828
 20
-724.4999999791894
 30
0.0
 40
2.999999999967713
 50
0.0000000019107076
 51
180.0000000019107
  0
LINE
  5
2E8
  8
DEFAULT
 10
-625.8120927824505
 20
-790.7499999786539
 30
0.0
 11
-625.8120927824505
 21
-724.4999999792894
 31
0.0
  0
LINE
  5
2E9
  8
DEFAULT
 10
-642.3120927825128
 20
-790.7499999786539
 30
0.0
 11
-625.8120927824505
 21
-790.7499999786539
 31
0.0
  0
ARC
  5
2EA
  8
DEFAULT
 10
-645.3120927824805
 20
-790.7499999785539
 30
0.0
 40
2.999999999967713
 50
359.9999999980893
 51
179.9999999980893
  0
LINE
  5
2EB
  8
DEFAULT
 10
-648.3120927827756
 20
-812.9999999794409
 30
0.0
 11
-648.3120927824482
 21
-790.7499999784538
 31
0.0
  0
ARC
  5
2EC
  8
DEFAULT
 10
-648.3120927826119
 20
-815.999999978847
 30
0.0
 40
2.9999999994061
 50
90.00000000303977
 51
270.0000000031266
  0
LINE
  5
2ED
  8
DEFAULT
 10
-621.3120927824546
 20
-818.9999999782531
 30
0.0
 11
-648.3120927824482
 21
-818.9999999782531
 31
0.0
  0
LINE
  5
2EE
  8
DEFAULT
 10
-621.3120927824546
 20
-838.999999978219
 30
0.0
 11
-621.3120927824546
 21
-818.9999999782531
 31
0.0
  0
LINE
  5
2EF
  8
DEFAULT
 10
-693.3120927824482
 20
-838.999999978219
 30
0.0
 11
-621.3120927824546
 21
-838.999999978219
 31
0.0
  0
LINE
  5
2F0
  8
DEFAULT
 10
-693.3120927824482
 20
-770.7499999777842
 30
0.0
 11
-693.3120927824482
 21
-838.999999978219
 31
0.0
  0
LINE
  5
2F1
  8
DEFAULT
 10
-654.0620927826055
 20
-648.8266805997823
 30
0.0
 11
-693.3120927824482
 21
-770.7499999777842
 31
0.0
  0
LINE
  5
2F2
  8
DEFAULT
 10
-632.3859003635275
 20
-648.8266805997096
 30
0.0
 11
-654.0620927826055
 21
-648.8266805997823
 31
0.0
  0
ARC
  5
2F3
  8
DEFAULT
 10
-629.3859003635587
 20
-648.8266805998096
 30
0.0
 40
2.99999999996885
 50
179.9999999980893
 51
359.9999999980893
  0
LINE
  5
2F4
  8
DEFAULT
 10
-626.3859003637672
 20
-636.3266806001029
 30
0.0
 11
-626.3859003635898
 21
-648.8266805999097
 31
0.0
  0
ARC
  5
2F5
  8
DEFAULT
 10
-626.385900363616
 20
-633.3266806006968
 30
0.0
 40
2.9999999994061
 50
269.9999999969385
 51
89.99999999693853
  0
LINE
  5
2F6
  8
DEFAULT
 10
-642.0094247032862
 20
-630.3266805998549
 30
0.0
 11
-626.3859003634557
 21
-630.3266806012907
 31
0.0
  0
ARC
  5
2F7
  8
DEFAULT
 10
-604.0620927823736
 20
-639.3266806045237
 30
0.0
 40
38.99999999999925
 50
110.7318154581667
 51
166.6576361958628
  0
LINE
  5
2F8
  8
DEFAULT
 10
-590.2563179361537
 20
-602.8520239112054
 30
0.0
 11
-617.8678676285992
 21
-602.8520239112077
 31
0.0
  0
ARC
  5
2F9
  8
DEFAULT
 10
-604.0620927823736
 20
-639.3266806045237
 30
0.0
 40
38.99999999999925
 50
13.34236380478852
 51
69.2681845418417
  0
LINE
  5
2FA
  8
DEFAULT
 10
-581.7382852017395
 20
-630.326680601293
 30
0.0
 11
-566.1147608615634
 21
-630.326680599424
 31
0.0
  0
ARC
  5
2FB
  8
DEFAULT
 10
-581.7382852015769
 20
-633.326680600698
 30
0.0
 40
2.999999999404963
 50
90.00000000306147
 51
270.0000000031049
  0
LINE
  5
2FC
  8
DEFAULT
 10
-581.7382852016042
 20
-648.8266805999119
 30
0.0
 11
-581.7382852014143
 21
-636.3266806001029
 31
0.0
  0
LINE
  5
2FD
  8
DEFAULT
 10
-370.3120927824625
 20
-976.750000000533
 30
0.0
 11
-370.3120927824625
 21
-1079.000000000098
 31
0.0
  0
LINE
  5
2FE
  8
DEFAULT
 10
-424.3120927824611
 20
-976.7500000005316
 30
0.0
 11
-370.3120927824625
 21
-976.750000000533
 31
0.0
  0
LINE
  5
2FF
  8
DEFAULT
 10
-424.3120927824611
 20
-1079.000000000097
 30
0.0
 11
-424.3120927824611
 21
-976.7500000005316
 31
0.0
  0
LINE
  5
300
  8
DEFAULT
 10
-406.3120927824616
 20
-1079.000000000097
 30
0.0
 11
-424.3120927824611
 21
-1079.000000000097
 31
0.0
  0
LINE
  5
301
  8
DEFAULT
 10
-406.3120927824616
 20
-1043.000000000099
 30
0.0
 11
-406.3120927824616
 21
-1079.000000000097
 31
0.0
  0
ARC
  5
302
  8
DEFAULT
 10
-403.3120927824939
 20
-1043.000000000199
 30
0.0
 40
2.999999999967713
 50
359.9999999980893
 51
179.9999999980893
  0
LINE
  5
303
  8
DEFAULT
 10
-394.3120927823975
 20
-1043.000000000099
 30
0.0
 11
-400.3120927825262
 21
-1043.000000000098
 31
0.0
  0
ARC
  5
304
  8
DEFAULT
 10
-391.3120927824298
 20
-1043.000000000199
 30
0.0
 40
2.999999999967713
 50
359.9999999980893
 51
179.9999999980893
  0
LINE
  5
305
  8
DEFAULT
 10
-388.3120927824621
 20
-1079.000000000098
 30
0.0
 11
-388.3120927824621
 21
-1043.000000000299
 31
0.0
  0
LINE
  5
306
  8
DEFAULT
 10
-370.3120927824625
 20
-1079.000000000098
 30
0.0
 11
-388.3120927824621
 21
-1079.000000000098
 31
0.0
  0
LINE
  5
307
  8
DEFAULT
 10
-370.3120927824625
 20
-854.5000000009682
 30
0.0
 11
-370.3120927824625
 21
-956.750000000533
 31
0.0
  0
LINE
  5
308
  8
DEFAULT
 10
-424.3120927824611
 20
-854.5000000009668
 30
0.0
 11
-370.3120927824625
 21
-854.5000000009682
 31
0.0
  0
LINE
  5
309
  8
DEFAULT
 10
-424.3120927824611
 20
-956.750000000532
 30
0.0
 11
-424.3120927824611
 21
-854.5000000009668
 31
0.0
  0
LINE
  5
30A
  8
DEFAULT
 10
-406.3120927824616
 20
-956.750000000532
 30
0.0
 11
-424.3120927824611
 21
-956.750000000532
 31
0.0
  0
LINE
  5
30B
  8
DEFAULT
 10
-406.3120927824616
 20
-920.7500000005339
 30
0.0
 11
-406.3120927824616
 21
-956.750000000532
 31
0.0
  0
ARC
  5
30C
  8
DEFAULT
 10
-403.3120927824939
 20
-920.7500000006339
 30
0.0
 40
2.999999999967713
 50
359.9999999980893
 51
179.9999999980893
  0
LINE
  5
30D
  8
DEFAULT
 10
-394.3120927823975
 20
-920.7500000005339
 30
0.0
 11
-400.3120927825262
 21
-920.750000000533
 31
0.0
  0
ARC
  5
30E
  8
DEFAULT
 10
-391.3120927824298
 20
-920.7500000006339
 30
0.0
 40
2.999999999967713
 50
359.9999999980893
 51
179.9999999980893
  0
LINE
  5
30F
  8
DEFAULT
 10
-388.3120927824621
 20
-956.750000000533
 30
0.0
 11
-388.3120927824621
 21
-920.750000000734
 31
0.0
  0
LINE
  5
310
  8
DEFAULT
 10
-370.3120927824625
 20
-956.750000000533
 30
0.0
 11
-388.3120927824621
 21
-956.750000000533
 31
0.0
  0
LINE
  5
311
  8
DEFAULT
 10
-370.3120927824625
 20
-732.2500000014034
 30
0.0
 11
-370.3120927824625
 21
-834.5000000009682
 31
0.0
  0
LINE
  5
312
  8
DEFAULT
 10
-424.3120927824611
 20
-732.250000001402
 30
0.0
 11
-370.3120927824625
 21
-732.2500000014034
 31
0.0
  0
LINE
  5
313
  8
DEFAULT
 10
-424.3120927824611
 20
-834.5000000009672
 30
0.0
 11
-424.3120927824611
 21
-732.250000001402
 31
0.0
  0
LINE
  5
314
  8
DEFAULT
 10
-406.3120927824616
 20
-834.5000000009672
 30
0.0
 11
-424.3120927824611
 21
-834.5000000009672
 31
0.0
  0
LINE
  5
315
  8
DEFAULT
 10
-406.3120927824616
 20
-798.5000000009691
 30
0.0
 11
-406.3120927824616
 21
-834.5000000009672
 31
0.0
  0
ARC
  5
316
  8
DEFAULT
 10
-403.3120927824939
 20
-798.5000000010691
 30
0.0
 40
2.999999999967713
 50
359.9999999980893
 51
179.9999999980893
  0
LINE
  5
317
  8
DEFAULT
 10
-394.3120927823975
 20
-798.5000000009691
 30
0.0
 11
-400.3120927825262
 21
-798.5000000009682
 31
0.0
  0
ARC
  5
318
  8
DEFAULT
 10
-391.3120927824298
 20
-798.5000000010691
 30
0.0
 40
2.999999999967713
 50
359.9999999980893
 51
179.9999999980893
  0
LINE
  5
319
  8
DEFAULT
 10
-388.3120927824621
 20
-834.5000000009682
 30
0.0
 11
-388.3120927824621
 21
-798.5000000011692
 31
0.0
  0
LINE
  5
31A
  8
DEFAULT
 10
-370.3120927824625
 20
-834.5000000009682
 30
0.0
 11
-388.3120927824621
 21
-834.5000000009682
 31
0.0
  0
LINE
  5
31B
  8
DEFAULT
 10
-370.3120927824625
 20
-610.0000000018385
 30
0.0
 11
-370.3120927824625
 21
-712.2500000014034
 31
0.0
  0
LINE
  5
31C
  8
DEFAULT
 10
-424.3120927824611
 20
-610.0000000018372
 30
0.0
 11
-370.3120927824625
 21
-610.0000000018385
 31
0.0
  0
LINE
  5
31D
  8
DEFAULT
 10
-424.3120927824611
 20
-712.2500000014024
 30
0.0
 11
-424.3120927824611
 21
-610.0000000018372
 31
0.0
  0
LINE
  5
31E
  8
DEFAULT
 10
-406.3120927824616
 20
-712.2500000014024
 30
0.0
 11
-424.3120927824611
 21
-712.2500000014024
 31
0.0
  0
LINE
  5
31F
  8
DEFAULT
 10
-406.3120927824616
 20
-676.2500000014043
 30
0.0
 11
-406.3120927824616
 21
-712.2500000014024
 31
0.0
  0
ARC
  5
320
  8
DEFAULT
 10
-403.3120927824939
 20
-676.2500000015043
 30
0.0
 40
2.999999999967713
 50
359.9999999980893
 51
179.9999999980893
  0
LINE
  5
321
  8
DEFAULT
 10
-394.3120927823975
 20
-676.2500000014043
 30
0.0
 11
-400.3120927825262
 21
-676.2500000014034
 31
0.0
  0
ARC
  5
322
  8
DEFAULT
 10
-391.3120927824298
 20
-676.2500000015043
 30
0.0
 40
2.999999999967713
 50
359.9999999980893
 51
179.9999999980893
  0
LINE
  5
323
  8
DEFAULT
 10
-388.3120927824621
 20
-712.2500000014034
 30
0.0
 11
-388.3120927824621
 21
-676.2500000016043
 31
0.0
  0
LINE
  5
324
  8
DEFAULT
 10
-370.3120927824625
 20
-712.2500000014034
 30
0.0
 11
-388.3120927824621
 21
-712.2500000014034
 31
0.0
  0
LINE
  5
325
  8
DEFAULT
 10
-376.6147608615734
 20
-381.3266806230436
 30
0.0
 11
-392.2382852017483
 21
-381.3266806249126
 31
0.0
  0
ARC
  5
326
  8
DEFAULT
 10
-414.5620927823734
 20
-390.3266806281342
 30
0.0
 40
38.99999999998783
 50
13.34236380477816
 51
69.26818454184439
  0
LINE
  5
327
  8
DEFAULT
 10
-428.3678676286047
 20
-353.8520239348272
 30
0.0
 11
-400.7563179361591
 21
-353.8520239348261
 31
0.0
  0
ARC
  5
328
  8
DEFAULT
 10
-414.5620927823802
 20
-390.3266806281433
 30
0.0
 40
38.99999999999925
 50
110.7318154581641
 51
166.6576361958628
  0
LINE
  5
329
  8
DEFAULT
 10
-436.8859003634623
 20
-381.3266806249103
 30
0.0
 11
-452.5094247032928
 21
-381.3266806234744
 31
0.0
  0
ARC
  5
32A
  8
DEFAULT
 10
-436.8859003636226
 20
-384.3266806243164
 30
0.0
 40
2.9999999994061
 50
269.9999999968951
 51
89.99999999693853
  0
LINE
  5
32B
  8
DEFAULT
 10
-436.8859003635964
 20
-399.8266806235292
 30
0.0
 11
-436.8859003637829
 21
-387.3266806237225
 31
0.0
  0
ARC
  5
32C
  8
DEFAULT
 10
-439.8859003635653
 20
-399.8266806234292
 30
0.0
 40
2.99999999996885
 50
179.9999999980893
 51
359.9999999980893
  0
LINE
  5
32D
  8
DEFAULT
 10
-458.8120927824639
 20
-399.8266806233598
 30
0.0
 11
-442.8859003635341
 21
-399.8266806233291
 31
0.0
  0
LINE
  5
32E
  8
DEFAULT
 10
-458.8120927824593
 20
-541.7500000020746
 30
0.0
 11
-458.8120927824639
 21
-399.8266806233598
 31
0.0
  0
LINE
  5
32F
  8
DEFAULT
 10
-437.8120927823988
 20
-541.7500000022735
 30
0.0
 11
-458.8120927824593
 21
-541.7500000020746
 31
0.0
  0
ARC
  5
330
  8
DEFAULT
 10
-434.8120927824266
 20
-541.7500000021746
 30
0.0
 40
2.99999999997226
 50
0.0000000019324202
 51
180.000000001889
  0
LINE
  5
331
  8
DEFAULT
 10
-431.8120927821383
 20
-564.0000000030627
 30
0.0
 11
-431.8120927824543
 21
-541.7500000020757
 31
0.0
  0
ARC
  5
332
  8
DEFAULT
 10
-431.8120927822997
 20
-567.0000000024654
 30
0.0
 40
2.999999999402689
 50
269.9999999968734
 51
89.99999999691681
  0
LINE
  5
333
  8
DEFAULT
 10
-458.8120927824593
 20
-570.0000000018726
 30
0.0
 11
-431.8120927824611
 21
-570.0000000018681
 31
0.0
  0
LINE
  5
334
  8
DEFAULT
 10
-458.8120927824593
 20
-590.0000000018385
 30
0.0
 11
-458.8120927824593
 21
-570.0000000018726
 31
0.0
  0
LINE
  5
335
  8
DEFAULT
 10
-370.3120927824625
 20
-590.0000000018385
 30
0.0
 11
-458.8120927824593
 21
-590.0000000018385
 31
0.0
  0
LINE
  5
336
  8
DEFAULT
 10
-370.3120927824648
 20
-570.0000000018726
 30
0.0
 11
-370.3120927824625
 21
-590.0000000018385
 31
0.0
  0
LINE
  5
337
  8
DEFAULT
 10
-397.3120927824607
 20
-570.0000000018726
 30
0.0
 11
-370.3120927824648
 21
-570.0000000018726
 31
0.0
  0
ARC
  5
338
  8
DEFAULT
 10
-397.3120927826221
 20
-567.0000000024677
 30
0.0
 40
2.999999999404963
 50
90.00000000308319
 51
270.0000000030832
  0
LINE
  5
339
  8
DEFAULT
 10
-397.3120927824607
 20
-541.7500000020734
 30
0.0
 11
-397.3120927827836
 21
-564.0000000030627
 31
0.0
  0
ARC
  5
33A
  8
DEFAULT
 10
-394.3120927824907
 20
-541.7500000021735
 30
0.0
 40
2.999999999969987
 50
359.9999999980893
 51
179.9999999980893
  0
LINE
  5
33B
  8
DEFAULT
 10
-370.3120927824648
 20
-541.7500000020746
 30
0.0
 11
-391.3120927825207
 21
-541.7500000020746
 31
0.0
  0
LINE
  5
33C
  8
DEFAULT
 10
-370.3120927824125
 20
-399.8266806233439
 30
0.0
 11
-370.3120927824648
 21
-541.7500000020746
 31
0.0
  0
LINE
  5
33D
  8
DEFAULT
 10
-386.2382852016708
 20
-399.8266806233291
 30
0.0
 11
-370.3120927824125
 21
-399.8266806233439
 31
0.0
  0
ARC
  5
33E
  8
DEFAULT
 10
-389.2382852016431
 20
-399.8266806234269
 30
0.0
 40
2.99999999997226
 50
180.0000000019541
 51
0.0000000018672824
  0
LINE
  5
33F
  8
DEFAULT
 10
-392.2382852014232
 20
-387.3266806237225
 30
0.0
 11
-392.2382852016153
 21
-399.8266806235247
 31
0.0
  0
ARC
  5
340
  8
DEFAULT
 10
-392.2382852015858
 20
-384.3266806243175
 30
0.0
 40
2.999999999404963
 50
90.00000000306147
 51
270.0000000030615
  0
LINE
  5
341
  8
DEFAULT
 10
-485.114760861572
 20
-381.3266806230438
 30
0.0
 11
-500.738285201747
 21
-381.3266806249128
 31
0.0
  0
ARC
  5
342
  8
DEFAULT
 10
-523.062092782372
 20
-390.3266806281345
 30
0.0
 40
38.99999999998783
 50
13.34236380477816
 51
69.2681845418443
  0
LINE
  5
343
  8
DEFAULT
 10
-536.8678676286033
 20
-353.8520239348275
 30
0.0
 11
-509.2563179361578
 21
-353.8520239348263
 31
0.0
  0
ARC
  5
344
  8
DEFAULT
 10
-523.0620927823788
 20
-390.3266806281435
 30
0.0
 40
38.99999999999925
 50
110.7318154581642
 51
166.6576361958628
  0
LINE
  5
345
  8
DEFAULT
 10
-545.3859003634609
 20
-381.3266806249105
 30
0.0
 11
-561.0094247032914
 21
-381.3266806234747
 31
0.0
  0
ARC
  5
346
  8
DEFAULT
 10
-545.3859003636212
 20
-384.3266806243166
 30
0.0
 40
2.9999999994061
 50
269.9999999968951
 51
89.99999999693853
  0
LINE
  5
347
  8
DEFAULT
 10
-545.385900363595
 20
-399.8266806235295
 30
0.0
 11
-545.3859003637815
 21
-387.3266806237227
 31
0.0
  0
ARC
  5
348
  8
DEFAULT
 10
-548.3859003635639
 20
-399.8266806234294
 30
0.0
 40
2.99999999996885
 50
179.9999999980893
 51
359.9999999980893
  0
LINE
  5
349
  8
DEFAULT
 10
-567.3120927824625
 20
-399.8266806233601
 30
0.0
 11
-551.3859003635328
 21
-399.8266806233294
 31
0.0
  0
LINE
  5
34A
  8
DEFAULT
 10
-567.312092782458
 20
-541.7500000020748
 30
0.0
 11
-567.3120927824625
 21
-399.8266806233601
 31
0.0
  0
LINE
  5
34B
  8
DEFAULT
 10
-546.3120927823975
 20
-541.7500000022737
 30
0.0
 11
-567.312092782458
 21
-541.7500000020748
 31
0.0
  0
ARC
  5
34C
  8
DEFAULT
 10
-543.3120927824252
 20
-541.7500000021748
 30
0.0
 40
2.99999999997226
 50
0.0000000019324202
 51
180.000000001889
  0
LINE
  5
34D
  8
DEFAULT
 10
-540.3120927821369
 20
-564.000000003063
 30
0.0
 11
-540.312092782453
 21
-541.7500000020759
 31
0.0
  0
ARC
  5
34E
  8
DEFAULT
 10
-540.3120927822984
 20
-567.0000000024656
 30
0.0
 40
2.999999999402689
 50
269.9999999968734
 51
89.99999999691681
  0
LINE
  5
34F
  8
DEFAULT
 10
-567.312092782458
 20
-570.0000000018729
 30
0.0
 11
-540.3120927824598
 21
-570.0000000018683
 31
0.0
  0
LINE
  5
350
  8
DEFAULT
 10
-567.312092782458
 20
-590.0000000018388
 30
0.0
 11
-567.312092782458
 21
-570.0000000018729
 31
0.0
  0
LINE
  5
351
  8
DEFAULT
 10
-478.8120927824611
 20
-590.0000000018388
 30
0.0
 11
-567.312092782458
 21
-590.0000000018388
 31
0.0
  0
LINE
  5
352
  8
DEFAULT
 10
-478.8120927824634
 20
-570.0000000018729
 30
0.0
 11
-478.8120927824611
 21
-590.0000000018388
 31
0.0
  0
LINE
  5
353
  8
DEFAULT
 10
-505.8120927824593
 20
-570.0000000018729
 30
0.0
 11
-478.8120927824634
 21
-570.0000000018729
 31
0.0
  0
ARC
  5
354
  8
DEFAULT
 10
-505.8120927826208
 20
-567.0000000024679
 30
0.0
 40
2.999999999404963
 50
90.00000000308319
 51
270.0000000030832
  0
LINE
  5
355
  8
DEFAULT
 10
-505.8120927824593
 20
-541.7500000020736
 30
0.0
 11
-505.8120927827822
 21
-564.000000003063
 31
0.0
  0
ARC
  5
356
  8
DEFAULT
 10
-502.8120927824893
 20
-541.7500000021737
 30
0.0
 40
2.999999999969987
 50
359.9999999980893
 51
179.9999999980893
  0
LINE
  5
357
  8
DEFAULT
 10
-478.8120927824634
 20
-541.7500000020748
 30
0.0
 11
-499.8120927825194
 21
-541.7500000020748
 31
0.0
  0
LINE
  5
358
  8
DEFAULT
 10
-478.8120927824111
 20
-399.8266806233441
 30
0.0
 11
-478.8120927824634
 21
-541.7500000020748
 31
0.0
  0
LINE
  5
359
  8
DEFAULT
 10
-494.7382852016694
 20
-399.8266806233294
 30
0.0
 11
-478.8120927824111
 21
-399.8266806233441
 31
0.0
  0
ARC
  5
35A
  8
DEFAULT
 10
-497.7382852016417
 20
-399.8266806234271
 30
0.0
 40
2.99999999997226
 50
180.0000000019541
 51
0.0000000018672824
  0
LINE
  5
35B
  8
DEFAULT
 10
-500.7382852014218
 20
-387.3266806237227
 30
0.0
 11
-500.738285201614
 21
-399.8266806235249
 31
0.0
  0
ARC
  5
35C
  8
DEFAULT
 10
-500.7382852015844
 20
-384.3266806243178
 30
0.0
 40
2.999999999404963
 50
90.00000000306147
 51
270.0000000030615
  0
ARC
  5
35D
  8
DEFAULT
 10
-594.9134660267794
 20
-561.3423107755375
 30
0.0
 40
2.999999999702709
 50
0.0000000030593035
 51
180.0000000091649
  0
LINE
  5
35E
  8
DEFAULT
 10
-591.9134660270767
 20
-575.3423107765561
 30
0.0
 11
-591.9134660270767
 21
-561.3423107753774
 31
0.0
  0
ARC
  5
35F
  8
DEFAULT
 10
-594.9134660267783
 20
-575.3423107763958
 30
0.0
 40
2.999999999701686
 50
179.9999999939096
 51
359.9999999969385
  0
ARC
  5
360
  8
DEFAULT
 10
-600.913466026184
 20
-575.3423107760798
 30
0.0
 40
2.999999999703959
 50
0.0000000000542815
 51
180.0000000030832
  0
LINE
  5
361
  8
DEFAULT
 10
-603.9134660258868
 20
-578.3423107758019
 30
0.0
 11
-603.9134660258879
 21
-575.3423107762412
 31
0.0
  0
LINE
  5
362
  8
DEFAULT
 10
-691.4134660278365
 20
-578.3423107758019
 30
0.0
 11
-603.9134660258868
 21
-578.3423107758019
 31
0.0
  0
LINE
  5
363
  8
DEFAULT
 10
-691.4134660278343
 20
-575.3423107762412
 30
0.0
 11
-691.4134660278365
 21
-578.3423107758019
 31
0.0
  0
ARC
  5
364
  8
DEFAULT
 10
-694.4134660275375
 20
-575.3423107760796
 30
0.0
 40
2.999999999703277
 50
359.9999999969147
 51
179.9999999999696
  0
ARC
  5
365
  8
DEFAULT
 10
-700.4134660269432
 20
-575.342310776397
 30
0.0
 40
2.999999999702368
 50
180.0000000030419
 51
0.0000000060882093
  0
LINE
  5
366
  8
DEFAULT
 10
-703.4134660266456
 20
-561.3423107753774
 30
0.0
 11
-703.4134660266456
 21
-575.3423107765561
 31
0.0
  0
ARC
  5
367
  8
DEFAULT
 10
-700.4134660269427
 20
-561.3423107755377
 30
0.0
 40
2.999999999702823
 50
359.9999999938879
 51
179.9999999969385
  0
ARC
  5
368
  8
DEFAULT
 10
-694.4134660275371
 20
-561.3423107758572
 30
0.0
 40
2.999999999702823
 50
180.0000000000108
 51
0.0000000030614747
  0
LINE
  5
369
  8
DEFAULT
 10
-691.4134660278343
 20
-558.342310775836
 30
0.0
 11
-691.4134660278343
 21
-561.3423107756969
 31
0.0
  0
LINE
  5
36A
  8
DEFAULT
 10
-603.9134660258879
 20
-558.342310775836
 30
0.0
 11
-691.4134660278343
 21
-558.342310775836
 31
0.0
  0
LINE
  5
36B
  8
DEFAULT
 10
-603.9134660258879
 20
-561.3423107756969
 30
0.0
 11
-603.9134660258879
 21
-558.342310775836
 31
0.0
  0
ARC
  5
36C
  8
DEFAULT
 10
-600.9134660261851
 20
-561.3423107758572
 30
0.0
 40
2.999999999702823
 50
179.9999999969385
 51
359.9999999999891
  0
ARC
  5
36D
  8
DEFAULT
 10
-726.4134660263483
 20
-561.3423107755375
 30
0.0
 40
2.999999999702709
 50
0.0000000030593035
 51
180.0000000091649
  0
LINE
  5
36E
  8
DEFAULT
 10
-723.4134660266456
 20
-575.3423107765561
 30
0.0
 11
-723.4134660266456
 21
-561.3423107753774
 31
0.0
  0
ARC
  5
36F
  8
DEFAULT
 10
-726.4134660263472
 20
-575.3423107763958
 30
0.0
 40
2.999999999701686
 50
179.9999999939096
 51
359.9999999969385
  0
ARC
  5
370
  8
DEFAULT
 10
-732.4134660257529
 20
-575.3423107760798
 30
0.0
 40
2.999999999703959
 50
0.0000000000542815
 51
180.0000000030832
  0
LINE
  5
371
  8
DEFAULT
 10
-735.4134660254557
 20
-578.3423107758019
 30
0.0
 11
-735.4134660254568
 21
-575.3423107762412
 31
0.0
  0
LINE
  5
372
  8
DEFAULT
 10
-822.9134660274054
 20
-578.3423107758019
 30
0.0
 11
-735.4134660254557
 21
-578.3423107758019
 31
0.0
  0
LINE
  5
373
  8
DEFAULT
 10
-822.9134660274032
 20
-575.3423107762412
 30
0.0
 11
-822.9134660274054
 21
-578.3423107758019
 31
0.0
  0
ARC
  5
374
  8
DEFAULT
 10
-825.9134660271064
 20
-575.3423107760796
 30
0.0
 40
2.999999999703277
 50
359.9999999969147
 51
179.9999999999696
  0
ARC
  5
375
  8
DEFAULT
 10
-831.9134660265121
 20
-575.342310776397
 30
0.0
 40
2.999999999702368
 50
180.0000000030419
 51
0.0000000060882093
  0
LINE
  5
376
  8
DEFAULT
 10
-834.9134660262145
 20
-561.3423107753774
 30
0.0
 11
-834.9134660262145
 21
-575.3423107765561
 31
0.0
  0
ARC
  5
377
  8
DEFAULT
 10
-831.9134660265116
 20
-561.3423107755377
 30
0.0
 40
2.999999999702823
 50
359.9999999938879
 51
179.9999999969385
  0
ARC
  5
378
  8
DEFAULT
 10
-825.913466027106
 20
-561.3423107758572
 30
0.0
 40
2.999999999702823
 50
180.0000000000108
 51
0.0000000030614747
  0
LINE
  5
379
  8
DEFAULT
 10
-822.9134660274032
 20
-558.342310775836
 30
0.0
 11
-822.9134660274032
 21
-561.3423107756969
 31
0.0
  0
LINE
  5
37A
  8
DEFAULT
 10
-735.4134660254568
 20
-558.342310775836
 30
0.0
 11
-822.9134660274032
 21
-558.342310775836
 31
0.0
  0
LINE
  5
37B
  8
DEFAULT
 10
-735.4134660254568
 20
-561.3423107756969
 30
0.0
 11
-735.4134660254568
 21
-558.342310775836
 31
0.0
  0
ARC
  5
37C
  8
DEFAULT
 10
-732.413466025754
 20
-561.3423107758572
 30
0.0
 40
2.999999999702823
 50
179.9999999969385
 51
359.9999999999891
  0
LINE
  5
37D
  8
DEFAULT
 10
-444.3120927839493
 20
-724.3120927860684
 30
0.0
 11
-444.3120927838322
 21
-743.9829056719952
 31
0.0
  0
ARC
  5
37E
  8
DEFAULT
 10
-446.8120927836537
 20
-724.3120927858502
 30
0.0
 40
2.499999999706688
 50
359.9999999849662
 51
179.9999999799897
  0
ARC
  5
37F
  8
DEFAULT
 10
-452.8120927830582
 20
-724.3120927855955
 30
0.0
 40
3.499999999700094
 50
180.0000000136789
 51
0.000000010124269
  0
LINE
  5
380
  8
DEFAULT
 10
-456.3120927827606
 20
-710.3120927836221
 30
0.0
 11
-456.3120927827583
 21
-724.3120927864311
 31
0.0
  0
ARC
  5
381
  8
DEFAULT
 10
-452.8120927830582
 20
-710.3120927850148
 30
0.0
 40
3.499999999702368
 50
359.9999999772018
 51
179.9999999772018
  0
ARC
  5
382
  8
DEFAULT
 10
-446.8120927836515
 20
-710.312092786346
 30
0.0
 40
2.499999999704414
 50
180.000000001407
 51
0.0000000014069756
  0
LINE
  5
383
  8
DEFAULT
 10
-444.3120927824611
 20
-610.0000000018349
 30
0.0
 11
-444.312092783947
 21
-710.3120927862847
 31
0.0
  0
LINE
  5
384
  8
DEFAULT
 10
-540.3120927842997
 20
-610.0000000018372
 30
0.0
 11
-444.3120927824611
 21
-610.0000000018349
 31
0.0
  0
LINE
  5
385
  8
DEFAULT
 10
-540.3120927842997
 20
-643.7211422007158
 30
0.0
 11
-540.3120927842997
 21
-610.0000000018372
 31
0.0
  0
LINE
  5
386
  8
DEFAULT
 10
-489.31209278388
 20
-643.7211422007113
 30
0.0
 11
-540.3120927842997
 21
-643.7211422007158
 31
0.0
  0
ARC
  5
387
  8
DEFAULT
 10
-489.3120927840403
 20
-646.7211422001185
 30
0.0
 40
2.999999999407237
 50
269.9999999969385
 51
89.99999999693853
  0
LINE
  5
388
  8
DEFAULT
 10
-489.3120927835992
 20
-743.9829056719964
 30
0.0
 11
-489.3120927842006
 21
-649.7211421995257
 31
0.0
  0
LINE
  5
389
  8
DEFAULT
 10
-444.3120927838322
 20
-743.9829056719952
 30
0.0
 11
-489.3120927835992
 21
-743.9829056719964
 31
0.0
  0
ARC
  5
38A
  8
DEFAULT
 10
-400.5000000001719
 20
-162.7723292716148
 30
0.0
 40
2.999999999703959
 50
180.0000000030875
 51
0.0000000030875298
  0
ARC
  5
38B
  8
DEFAULT
 10
-406.4999999995775
 20
-162.7723292712985
 30
0.0
 40
2.999999999701686
 50
359.9999999939118
 51
179.9999999969385
  0
LINE
  5
38C
  8
DEFAULT
 10
-409.4999999992791
 20
-176.7723292723172
 30
0.0
 11
-409.4999999992792
 21
-162.7723292711382
 31
0.0
  0
ARC
  5
38D
  8
DEFAULT
 10
-406.4999999995763
 20
-176.7723292721569
 30
0.0
 40
2.999999999702766
 50
180.0000000030615
 51
0.0000000061142644
  0
ARC
  5
38E
  8
DEFAULT
 10
-400.5000000001708
 20
-176.7723292718372
 30
0.0
 40
2.999999999702823
 50
359.9999999969385
 51
179.9999999999913
  0
LINE
  5
38F
  8
DEFAULT
 10
-397.5000000004684
 20
-186.6329003703931
 30
0.0
 11
-397.5000000004679
 21
-176.7723292719975
 31
0.0
  0
LINE
  5
390
  8
DEFAULT
 10
-346.5000000000487
 20
-186.6329003703886
 30
0.0
 11
-397.5000000004684
 21
-186.6329003703931
 31
0.0
  0
ARC
  5
391
  8
DEFAULT
 10
-346.500000000209
 20
-189.6329003697958
 30
0.0
 40
2.999999999407237
 50
269.9999999969385
 51
89.99999999693853
  0
LINE
  5
392
  8
DEFAULT
 10
-346.4999999997679
 20
-286.8946638416737
 30
0.0
 11
-346.5000000003693
 21
-192.6329003692031
 31
0.0
  0
LINE
  5
393
  8
DEFAULT
 10
-301.5000000000009
 20
-286.8946638416726
 30
0.0
 11
-346.4999999997679
 21
-286.8946638416737
 31
0.0
  0
LINE
  5
394
  8
DEFAULT
 10
-301.500000000118
 20
-267.2238509557458
 30
0.0
 11
-301.5000000000009
 21
-286.8946638416726
 31
0.0
  0
ARC
  5
395
  8
DEFAULT
 10
-303.9999999998219
 20
-267.2238509555275
 30
0.0
 40
2.49999999970612
 50
359.9999999849662
 51
179.9999999799897
  0
ARC
  5
396
  8
DEFAULT
 10
-309.9999999992275
 20
-267.2238509552728
 30
0.0
 40
3.499999999699526
 50
180.0000000136789
 51
0.000000010124269
  0
LINE
  5
397
  8
DEFAULT
 10
-313.4999999989293
 20
-253.2238509532995
 30
0.0
 11
-313.499999998927
 21
-267.2238509561084
 31
0.0
  0
ARC
  5
398
  8
DEFAULT
 10
-309.9999999992269
 20
-253.2238509546921
 30
0.0
 40
3.499999999702368
 50
359.9999999772018
 51
179.9999999772018
  0
ARC
  5
399
  8
DEFAULT
 10
-303.9999999998201
 20
-253.2238509560234
 30
0.0
 40
2.499999999704414
 50
180.000000001407
 51
0.0000000014069756
  0
LINE
  5
39A
  8
DEFAULT
 10
-301.4999999986298
 20
-152.9117581715122
 30
0.0
 11
-301.5000000001157
 21
-253.223850955962
 31
0.0
  0
LINE
  5
39B
  8
DEFAULT
 10
-397.5000000004684
 20
-152.9117581715145
 30
0.0
 11
-301.4999999986298
 21
-152.9117581715122
 31
0.0
  0
LINE
  5
39C
  8
DEFAULT
 10
-397.5000000004679
 20
-162.7723292714531
 30
0.0
 11
-397.5000000004684
 21
-152.9117581715145
 31
0.0
  0
LINE
  5
39D
  8
DEFAULT
 10
-918.5886473052749
 20
-193.6867359905698
 30
0.0
 11
-928.449218403769
 21
-193.6867359907176
 31
0.0
  0
ARC
  5
39E
  8
DEFAULT
 10
-918.5886473052133
 20
-191.1867359908656
 30
0.0
 40
2.499999999704102
 50
269.9999999985878
 51
89.99999999858782
  0
ARC
  5
39F
  8
DEFAULT
 10
-918.5886473065448
 20
-185.1867359914588
 30
0.0
 40
3.499999999702794
 50
90.00000002279077
 51
270.0000000228056
  0
LINE
  5
3A0
  8
DEFAULT
 10
-904.5886473022699
 20
-181.6867359917558
 30
0.0
 11
-918.588647307937
 21
-181.6867359917558
 31
0.0
  0
ARC
  5
3A1
  8
DEFAULT
 10
-904.5886473036626
 20
-185.1867359914588
 30
0.0
 40
3.499999999702794
 50
269.9999999772018
 51
89.99999997720178
  0
ARC
  5
3A2
  8
DEFAULT
 10
-904.5886473049939
 20
-191.1867359908656
 30
0.0
 40
2.499999999704102
 50
90.00000000140697
 51
270.0000000014174
  0
LINE
  5
3A3
  8
DEFAULT
 10
-794.4663127336084
 20
-193.6867359898604
 30
0.0
 11
-904.588647304932
 21
-193.6867359905698
 31
0.0
  0
LINE
  5
3A4
  8
DEFAULT
 10
-794.4663127336096
 20
-148.6867359900934
 30
0.0
 11
-794.4663127336084
 21
-193.6867359898604
 31
0.0
  0
LINE
  5
3A5
  8
DEFAULT
 10
-814.1371256195364
 20
-148.6867359902105
 30
0.0
 11
-794.4663127336096
 21
-148.6867359900934
 31
0.0
  0
ARC
  5
3A6
  8
DEFAULT
 10
-814.1371256197547
 20
-151.1867359899145
 30
0.0
 40
2.49999999970612
 50
89.99999998496621
 51
269.9999999799897
  0
ARC
  5
3A7
  8
DEFAULT
 10
-814.1371256200091
 20
-157.1867359893201
 30
0.0
 40
3.499999999699526
 50
270.0000000136752
 51
90.000000010128
  0
LINE
  5
3A8
  8
DEFAULT
 10
-828.1371256219827
 20
-160.6867359890218
 30
0.0
 11
-814.1371256191737
 21
-160.6867359890196
 31
0.0
  0
ARC
  5
3A9
  8
DEFAULT
 10
-828.13712562059
 20
-157.1867359893195
 30
0.0
 40
3.499999999702368
 50
89.99999997720178
 51
269.9999999772018
  0
ARC
  5
3AA
  8
DEFAULT
 10
-828.1371256192588
 20
-151.1867359899127
 30
0.0
 40
2.499999999704414
 50
270.000000001407
 51
90.00000000140697
  0
LINE
  5
3AB
  8
DEFAULT
 10
-928.4492184037699
 20
-148.6867359887224
 30
0.0
 11
-828.1371256193202
 21
-148.6867359902083
 31
0.0
  0
LINE
  5
3AC
  8
DEFAULT
 10
-928.449218403769
 20
-193.6867359907176
 30
0.0
 11
-928.4492184037699
 21
-148.6867359887224
 31
0.0
  0
LINE
  5
3AD
  8
DEFAULT
 10
-582.4663127350827
 20
-21.00000000016757
 30
0.0
 11
-571.3329285135401
 21
-21.00000000000318
 31
0.0
  0
ARC
  5
3AE
  8
DEFAULT
 10
-582.4663127351446
 20
-23.49999999987199
 30
0.0
 40
2.499999999704414
 50
89.99999999858261
 51
269.9999999985826
  0
ARC
  5
3AF
  8
DEFAULT
 10
-582.4663127338131
 20
-29.49999999927877
 30
0.0
 40
3.499999999702595
 50
270.0000000227945
 51
90.00000002280939
  0
LINE
  5
3B0
  8
DEFAULT
 10
-608.4663127344743
 20
-32.99999999898137
 30
0.0
 11
-582.4663127324206
 21
-32.99999999898137
 31
0.0
  0
ARC
  5
3B1
  8
DEFAULT
 10
-608.4663127330818
 20
-29.49999999927877
 30
0.0
 40
3.499999999702595
 50
89.99999997719063
 51
269.9999999772055
  0
ARC
  5
3B2
  8
DEFAULT
 10
-608.4663127317513
 20
-23.49999999987199
 30
0.0
 40
2.499999999704414
 50
270.0000000014382
 51
90.00000000139656
  0
LINE
  5
3B3
  8
DEFAULT
 10
-635.4663127362178
 20
-21.00000000016757
 30
0.0
 11
-608.4663127318122
 21
-21.00000000056775
 31
0.0
  0
ARC
  5
3B4
  8
DEFAULT
 10
-635.4663127362787
 20
-23.49999999987199
 30
0.0
 40
2.499999999704414
 50
89.99999999860344
 51
269.9999999985618
  0
ARC
  5
3B5
  8
DEFAULT
 10
-635.4663127349481
 20
-29.49999999927877
 30
0.0
 40
3.499999999702595
 50
270.0000000227945
 51
90.00000002280939
  0
LINE
  5
3B6
  8
DEFAULT
 10
-661.4663127356093
 20
-32.99999999898137
 30
0.0
 11
-635.4663127335557
 21
-32.99999999898137
 31
0.0
  0
ARC
  5
3B7
  8
DEFAULT
 10
-661.466312734216
 20
-29.49999999927877
 30
0.0
 40
3.499999999702595
 50
89.99999997720552
 51
269.9999999771907
  0
ARC
  5
3B8
  8
DEFAULT
 10
-661.4663127328863
 20
-23.49999999987199
 30
0.0
 40
2.499999999704414
 50
270.0000000014382
 51
90.00000000139656
  0
LINE
  5
3B9
  8
DEFAULT
 10
-672.5996969544881
 20
-21.00000000000114
 30
0.0
 11
-661.4663127329472
 21
-21.00000000016757
 31
0.0
  0
ARC
  5
3BA
  8
DEFAULT
 10
-714.4663127340104
 20
6.334712055732098
 30
0.0
 40
50.0
 50
269.9999999999998
 51
326.8594816540316
  0
LINE
  5
3BB
  8
DEFAULT
 10
-888.983312090098
 20
-43.6652879442679
 30
0.0
 11
-714.4663127340104
 21
-43.6652879442679
 31
0.0
  0
ARC
  5
3BC
  8
DEFAULT
 10
-888.983312090098
 20
-81.1652879442679
 30
0.0
 40
37.5
 50
90.0
 51
270.0
  0
ARC
  5
3BD
  8
DEFAULT
 10
-689.4663127340104
 20
-143.6652879442679
 30
0.0
 40
25.0
 50
0.000000000005211
 51
90.00000000000522
  0
LINE
  5
3BE
  8
DEFAULT
 10
-664.4663127340141
 20
-173.686735990965
 30
0.0
 11
-664.4663127340104
 21
-143.6652879442656
 31
0.0
  0
ARC
  5
3BF
  8
DEFAULT
 10
-621.9663127340141
 20
-173.6867359909622
 30
0.0
 40
42.49999999999978
 50
180.0000000000001
 51
0.0000000000030653
  0
LINE
  5
3C0
  8
DEFAULT
 10
-579.4663127340195
 20
-143.6652879442656
 30
0.0
 11
-579.4663127340141
 21
-173.6867359909604
 31
0.0
  0
ARC
  5
3C1
  8
DEFAULT
 10
-554.4663127340195
 20
-143.6652879442679
 30
0.0
 40
25.0
 50
89.9999999999948
 51
179.9999999999948
  0
ARC
  5
3C2
  8
DEFAULT
 10
-354.9493133773235
 20
-81.1652879442679
 30
0.0
 40
37.5
 50
269.9999999999993
 51
90.0
  0
LINE
  5
3C3
  8
DEFAULT
 10
-529.4663127340195
 20
-43.6652879442679
 30
0.0
 11
-354.9493133773235
 21
-43.6652879442679
 31
0.0
  0
ARC
  5
3C4
  8
DEFAULT
 10
-529.4663127340195
 20
6.334712055732098
 30
0.0
 40
50.0
 50
213.1405183459712
 51
269.9999999999998
  0
LINE
  5
3C5
  8
DEFAULT
 10
-1360.501550087561
 20
-101.9999999978845
 30
0.0
 11
-1360.50155008703
 21
-170.9999999987003
 31
0.0
  0
ARC
  5
3C6
  8
DEFAULT
 10
-1360.501550087401
 20
-98.99999999848092
 30
0.0
 40
2.999999999403599
 50
89.99999999694288
 51
269.9999999970557
  0
LINE
  5
3C7
  8
DEFAULT
 10
-1342.501550087222
 20
-95.99999999907595
 30
0.0
 11
-1360.501550087241
 21
-95.99999999907732
 31
0.0
  0
ARC
  5
3C8
  8
DEFAULT
 10
-1342.501550087061
 20
-98.99999999847978
 30
0.0
 40
2.999999999403826
 50
270.0000000030788
 51
90.00000000313095
  0
LINE
  5
3C9
  8
DEFAULT
 10
-1342.50155008723
 20
-170.9999999986996
 30
0.0
 11
-1342.5015500869
 21
-101.9999999978836
 31
0.0
  0
LINE
  5
3CA
  8
DEFAULT
 10
-1158.001550087226
 20
-170.9999999986996
 30
0.0
 11
-1342.50155008723
 21
-170.9999999986996
 31
0.0
  0
LINE
  5
3CB
  8
DEFAULT
 10
-1158.00155008756
 20
-101.9999999978832
 30
0.0
 11
-1158.001550087226
 21
-170.9999999986996
 31
0.0
  0
ARC
  5
3CC
  8
DEFAULT
 10
-1158.001550087398
 20
-98.99999999847955
 30
0.0
 40
2.999999999403599
 50
89.99999999691246
 51
269.9999999969863
  0
LINE
  5
3CD
  8
DEFAULT
 10
-1140.001550087218
 20
-95.9999999990755
 30
0.0
 11
-1158.001550087236
 21
-95.99999999907595
 31
0.0
  0
ARC
  5
3CE
  8
DEFAULT
 10
-1140.001550087057
 20
-98.9999999984791
 30
0.0
 40
2.999999999403599
 50
270.0000000030745
 51
90.00000000316135
  0
LINE
  5
3CF
  8
DEFAULT
 10
-1140.001550086889
 20
-170.9999999986996
 30
0.0
 11
-1140.001550086896
 21
-101.9999999978827
 31
0.0
  0
LINE
  5
3D0
  8
DEFAULT
 10
-1020.001550087284
 20
-170.9999999986996
 30
0.0
 11
-1140.001550086889
 21
-170.9999999986996
 31
0.0
  0
ARC
  5
3D1
  8
DEFAULT
 10
-1020.001550087267
 20
-95.99999999907641
 30
0.0
 40
74.99999999962324
 50
269.9999999999872
 51
89.99999999998715
  0
LINE
  5
3D2
  8
DEFAULT
 10
-1480.501574254367
 20
-20.99999999945703
 30
0.0
 11
-1020.00155008725
 21
-20.99999999945317
 31
0.0
  0
ARC
  5
3D3
  8
DEFAULT
 10
-1480.501550087228
 20
-95.99999999907641
 30
0.0
 40
74.99999999962324
 50
90.00001846233437
 51
270.0000184623344
  0
LINE
  5
3D4
  8
DEFAULT
 10
-1360.50155008703
 20
-170.9999999987003
 30
0.0
 11
-1480.501525920089
 21
-170.9999999986958
 31
0.0
  0
LINE
  5
3D5
  8
DEFAULT
 10
-281.5000000000009
 20
-191.8946638416724
 30
0.0
 11
-281.500000000005
 21
-116.8946638416669
 31
0.0
  0
LINE
  5
3D6
  8
DEFAULT
 10
-261.5000000000009
 20
-191.8946638416724
 30
0.0
 11
-281.5000000000009
 21
-191.8946638416724
 31
0.0
  0
LINE
  5
3D7
  8
DEFAULT
 10
-261.5000000003342
 20
-160.3946638404777
 30
0.0
 11
-261.5000000000009
 21
-191.8946638416724
 31
0.0
  0
ARC
  5
3D8
  8
DEFAULT
 10
-261.5000000001683
 20
-157.3946638410739
 30
0.0
 40
2.999999999403826
 50
89.99999999682997
 51
269.9999999970037
  0
LINE
  5
3D9
  8
DEFAULT
 10
-243.5000000000027
 20
-154.3946638416687
 30
0.0
 11
-261.5000000000023
 21
-154.3946638416701
 31
0.0
  0
ARC
  5
3DA
  8
DEFAULT
 10
-243.4999999998367
 20
-157.3946638410725
 30
0.0
 40
2.999999999403826
 50
270.0000000029963
 51
90.00000000317004
  0
LINE
  5
3DB
  8
DEFAULT
 10
-243.5000000000027
 20
-191.894663841671
 30
0.0
 11
-243.4999999996708
 21
-160.3946638404764
 31
0.0
  0
LINE
  5
3DC
  8
DEFAULT
 10
-58.99999999999864
 20
-191.894663841671
 30
0.0
 11
-243.5000000000027
 21
-191.894663841671
 31
0.0
  0
LINE
  5
3DD
  8
DEFAULT
 10
-59.00000000033197
 20
-160.3946638404764
 30
0.0
 11
-58.99999999999864
 21
-191.894663841671
 31
0.0
  0
ARC
  5
3DE
  8
DEFAULT
 10
-59.00000000016598
 20
-157.3946638410725
 30
0.0
 40
2.999999999403826
 50
89.99999999682997
 51
269.9999999970037
  0
LINE
  5
3DF
  8
DEFAULT
 10
-41.00000000000045
 20
-154.3946638416678
 30
0.0
 11
-59.0
 21
-154.3946638416687
 31
0.0
  0
ARC
  5
3E0
  8
DEFAULT
 10
-40.99999999983447
 20
-157.3946638410716
 30
0.0
 40
2.999999999403826
 50
270.0000000029963
 51
90.00000000317004
  0
LINE
  5
3E1
  8
DEFAULT
 10
-40.99999999983243
 20
-191.8946638416717
 30
0.0
 11
-40.99999999966849
 21
-160.3946638404755
 31
0.0
  0
LINE
  5
3E2
  8
DEFAULT
 10
-21.0
 20
-191.8946638416724
 30
0.0
 11
-40.99999999983243
 21
-191.8946638416717
 31
0.0
  0
LINE
  5
3E3
  8
DEFAULT
 10
-21.00000000002228
 20
-116.894663841671
 30
0.0
 11
-21.0
 21
-191.8946638416724
 31
0.0
  0
LINE
  5
3E4
  8
DEFAULT
 10
-281.500000000005
 20
-116.8946638416669
 30
0.0
 11
-21.00000000002228
 21
-116.894663841671
 31
0.0
  0
LINE
  5
3E5
  8
DEFAULT
 10
-281.5000000000009
 20
-286.8946638416726
 30
0.0
 11
-281.500000000005
 21
-211.8946638416671
 31
0.0
  0
LINE
  5
3E6
  8
DEFAULT
 10
-261.5000000000009
 20
-286.8946638416726
 30
0.0
 11
-281.5000000000009
 21
-286.8946638416726
 31
0.0
  0
LINE
  5
3E7
  8
DEFAULT
 10
-261.5000000003342
 20
-255.394663840478
 30
0.0
 11
-261.5000000000009
 21
-286.8946638416726
 31
0.0
  0
ARC
  5
3E8
  8
DEFAULT
 10
-261.5000000001683
 20
-252.3946638410741
 30
0.0
 40
2.999999999403826
 50
89.99999999682997
 51
269.9999999970037
  0
LINE
  5
3E9
  8
DEFAULT
 10
-243.5000000000027
 20
-249.3946638416689
 30
0.0
 11
-261.5000000000023
 21
-249.3946638416703
 31
0.0
  0
ARC
  5
3EA
  8
DEFAULT
 10
-243.4999999998367
 20
-252.3946638410728
 30
0.0
 40
2.999999999403826
 50
270.0000000029963
 51
90.00000000317004
  0
LINE
  5
3EB
  8
DEFAULT
 10
-243.5000000000027
 20
-286.8946638416712
 30
0.0
 11
-243.4999999996708
 21
-255.3946638404766
 31
0.0
  0
LINE
  5
3EC
  8
DEFAULT
 10
-58.99999999999864
 20
-286.8946638416712
 30
0.0
 11
-243.5000000000027
 21
-286.8946638416712
 31
0.0
  0
LINE
  5
3ED
  8
DEFAULT
 10
-59.00000000033197
 20
-255.3946638404766
 30
0.0
 11
-58.99999999999864
 21
-286.8946638416712
 31
0.0
  0
ARC
  5
3EE
  8
DEFAULT
 10
-59.00000000016598
 20
-252.3946638410728
 30
0.0
 40
2.999999999403826
 50
89.99999999682997
 51
269.9999999970037
  0
LINE
  5
3EF
  8
DEFAULT
 10
-41.00000000000045
 20
-249.394663841668
 30
0.0
 11
-59.0
 21
-249.3946638416689
 31
0.0
  0
ARC
  5
3F0
  8
DEFAULT
 10
-40.99999999983447
 20
-252.3946638410719
 30
0.0
 40
2.999999999403826
 50
270.0000000029963
 51
90.00000000317004
  0
LINE
  5
3F1
  8
DEFAULT
 10
-40.99999999983243
 20
-286.8946638416719
 30
0.0
 11
-40.99999999966849
 21
-255.3946638404757
 31
0.0
  0
LINE
  5
3F2
  8
DEFAULT
 10
-21.0
 20
-286.8946638416726
 30
0.0
 11
-40.99999999983243
 21
-286.8946638416719
 31
0.0
  0
LINE
  5
3F3
  8
DEFAULT
 10
-21.00000000002228
 20
-211.8946638416712
 30
0.0
 11
-21.0
 21
-286.8946638416726
 31
0.0
  0
LINE
  5
3F4
  8
DEFAULT
 10
-281.500000000005
 20
-211.8946638416671
 30
0.0
 11
-21.00000000002228
 21
-211.8946638416712
 31
0.0
  0
ARC
  5
3F5
  8
DEFAULT
 10
-628.3881227207767
 20
-397.6513797654614
 30
0.0
 40
39.00000000053734
 50
20.7318154586467
 51
76.65763619581611
  0
LINE
  5
3F6
  8
DEFAULT
 10
-591.9134660270547
 20
-411.4571546110457
 30
0.0
 11
-591.9134660270729
 21
-383.84560491874
 31
0.0
  0
ARC
  5
3F7
  8
DEFAULT
 10
-628.3881352551185
 20
-397.6513654995712
 30
0.0
 40
39.00001677290887
 50
283.3423768860878
 51
339.2681714603137
  0
LINE
  5
3F8
  8
DEFAULT
 10
-619.388122717389
 20
-419.9751873455828
 30
0.0
 11
-619.3881227155223
 21
-435.5987116857577
 31
0.0
  0
ARC
  5
3F9
  8
DEFAULT
 10
-622.3881227167951
 20
-419.9751873457442
 30
0.0
 40
2.9999999994061
 50
0.0000000030831873
 51
180.0000000030832
  0
LINE
  5
3FA
  8
DEFAULT
 10
-637.8881227160102
 20
-419.9751873457169
 30
0.0
 11
-625.3881227162012
 21
-419.9751873459056
 31
0.0
  0
ARC
  5
3FB
  8
DEFAULT
 10
-637.888122715909
 20
-422.9751873456869
 30
0.0
 40
2.999999999969987
 50
90.00000000188899
 51
270.0000000019324
  0
LINE
  5
3FC
  8
DEFAULT
 10
-637.8881227158329
 20
-435.5987116857043
 30
0.0
 11
-637.8881227158079
 21
-425.9751873456569
 31
0.0
  0
LINE
  5
3FD
  8
DEFAULT
 10
-685.8881227158222
 20
-435.5987116856907
 30
0.0
 11
-637.8881227158329
 21
-435.5987116857043
 31
0.0
  0
LINE
  5
3FE
  8
DEFAULT
 10
-685.8881227158472
 20
-425.9751873457001
 30
0.0
 11
-685.8881227158222
 21
-435.5987116856907
 31
0.0
  0
ARC
  5
3FF
  8
DEFAULT
 10
-685.8881227157472
 20
-422.975187345729
 30
0.0
 40
2.999999999971124
 50
269.9999999980893
 51
89.9999999980893
  0
LINE
  5
400
  8
DEFAULT
 10
-698.3881227154538
 20
-419.9751873459443
 30
0.0
 11
-685.8881227156471
 21
-419.9751873457578
 31
0.0
  0
ARC
  5
401
  8
DEFAULT
 10
-701.38812271486
 20
-419.975187345784
 30
0.0
 40
2.9999999994061
 50
359.9999999969385
 51
179.9999999969385
  0
LINE
  5
402
  8
DEFAULT
 10
-704.3881227161316
 20
-435.5987116857987
 30
0.0
 11
-704.388122714266
 21
-419.9751873456237
 31
0.0
  0
ARC
  5
403
  8
DEFAULT
 10
-695.3881101765381
 20
-397.651365499625
 30
0.0
 40
39.00001677289577
 50
200.7318285396121
 51
256.6576231139117
  0
LINE
  5
404
  8
DEFAULT
 10
-731.8627794043695
 20
-383.8456049188177
 30
0.0
 11
-731.8627794046076
 21
-411.4571546110475
 31
0.0
  0
ARC
  5
405
  8
DEFAULT
 10
-695.3881227110311
 20
-397.6513797649863
 30
0.0
 40
38.99999999999997
 50
103.3423638041406
 51
159.2681845419228
  0
LINE
  5
406
  8
DEFAULT
 10
-704.3881227142638
 20
-375.3275721839052
 30
0.0
 11
-704.3881227157019
 21
-359.7040478440736
 31
0.0
  0
ARC
  5
407
  8
DEFAULT
 10
-701.3881227148588
 20
-375.3275721837449
 30
0.0
 40
2.999999999404963
 50
180.0000000031049
 51
0.0000000030614747
  0
LINE
  5
408
  8
DEFAULT
 10
-685.8881227156471
 20
-375.3275721837711
 30
0.0
 11
-698.3881227154538
 21
-375.3275721835846
 31
0.0
  0
ARC
  5
409
  8
DEFAULT
 10
-685.8881227157472
 20
-372.3275721838022
 30
0.0
 40
2.99999999996885
 50
270.0000000019107
 51
90.0000000019107
  0
LINE
  5
40A
  8
DEFAULT
 10
-685.8881227158154
 20
-359.7040478440736
 30
0.0
 11
-685.8881227158472
 21
-369.3275721838334
 31
0.0
  0
LINE
  5
40B
  8
DEFAULT
 10
-637.8881227158408
 20
-359.7040478440326
 30
0.0
 11
-685.8881227158154
 21
-359.7040478440736
 31
0.0
  0
LINE
  5
40C
  8
DEFAULT
 10
-637.8881227158124
 20
-369.3275721837924
 30
0.0
 11
-637.8881227158408
 21
-359.7040478440326
 31
0.0
  0
ARC
  5
40D
  8
DEFAULT
 10
-637.8881227159102
 20
-372.3275721837624
 30
0.0
 40
2.999999999969987
 50
89.99999999804587
 51
269.9999999981328
  0
LINE
  5
40E
  8
DEFAULT
 10
-625.3881227162012
 20
-375.3275721835391
 30
0.0
 11
-637.888122716008
 21
-375.3275721837324
 31
0.0
  0
ARC
  5
40F
  8
DEFAULT
 10
-622.3881227167951
 20
-375.3275721837028
 30
0.0
 40
2.9999999994061
 50
179.9999999969602
 51
359.9999999968734
  0
LINE
  5
410
  8
DEFAULT
 10
-619.3881227159532
 20
-359.7040478440326
 30
0.0
 11
-619.388122717389
 21
-375.3275721838666
 31
0.0
  0
ARC
  5
411
  8
DEFAULT
 10
-788.3374360984919
 20
-397.6513797655664
 30
0.0
 40
39.00000000053734
 50
20.7318154586467
 51
76.65763619581611
  0
LINE
  5
412
  8
DEFAULT
 10
-751.86277940477
 20
-411.4571546111507
 30
0.0
 11
-751.8627794047882
 21
-383.8456049188451
 31
0.0
  0
ARC
  5
413
  8
DEFAULT
 10
-788.3374486328343
 20
-397.6513654996758
 30
0.0
 40
39.00001677290942
 50
283.3423768860883
 51
339.2681714603132
  0
LINE
  5
414
  8
DEFAULT
 10
-779.3374360951043
 20
-419.9751873456878
 30
0.0
 11
-779.3374360932376
 21
-435.5987116858628
 31
0.0
  0
ARC
  5
415
  8
DEFAULT
 10
-782.3374360945104
 20
-419.9751873458492
 30
0.0
 40
2.9999999994061
 50
0.0000000030831873
 51
180.0000000030832
  0
LINE
  5
416
  8
DEFAULT
 10
-797.8374360937255
 20
-419.975187345822
 30
0.0
 11
-785.3374360939165
 21
-419.9751873460107
 31
0.0
  0
ARC
  5
417
  8
DEFAULT
 10
-797.8374360936243
 20
-422.9751873457919
 30
0.0
 40
2.999999999969987
 50
90.00000000188899
 51
270.0000000019324
  0
LINE
  5
418
  8
DEFAULT
 10
-797.8374360935481
 20
-435.5987116858093
 30
0.0
 11
-797.8374360935231
 21
-425.9751873457619
 31
0.0
  0
LINE
  5
419
  8
DEFAULT
 10
-845.8374360935375
 20
-435.5987116857957
 30
0.0
 11
-797.8374360935481
 21
-435.5987116858093
 31
0.0
  0
LINE
  5
41A
  8
DEFAULT
 10
-845.8374360935625
 20
-425.9751873458051
 30
0.0
 11
-845.8374360935375
 21
-435.5987116857957
 31
0.0
  0
ARC
  5
41B
  8
DEFAULT
 10
-845.8374360934624
 20
-422.975187345834
 30
0.0
 40
2.999999999971124
 50
269.9999999980893
 51
89.9999999980893
  0
LINE
  5
41C
  8
DEFAULT
 10
-858.3374360931691
 20
-419.9751873460493
 30
0.0
 11
-845.8374360933624
 21
-419.9751873458629
 31
0.0
  0
ARC
  5
41D
  8
DEFAULT
 10
-861.3374360925752
 20
-419.975187345889
 30
0.0
 40
2.9999999994061
 50
359.9999999969385
 51
179.9999999969385
  0
LINE
  5
41E
  8
DEFAULT
 10
-864.3374360938469
 20
-435.5987116859037
 30
0.0
 11
-864.3374360919813
 21
-419.9751873457287
 31
0.0
  0
ARC
  5
41F
  8
DEFAULT
 10
-855.3374235542534
 20
-397.6513654997302
 30
0.0
 40
39.00001677289571
 50
200.7318285396118
 51
256.6576231139117
  0
LINE
  5
420
  8
DEFAULT
 10
-891.8120927820848
 20
-383.8456049189228
 30
0.0
 11
-891.8120927823229
 21
-411.4571546111525
 31
0.0
  0
ARC
  5
421
  8
DEFAULT
 10
-855.3374360887465
 20
-397.6513797650913
 30
0.0
 40
38.9999999999999
 50
103.3423638041405
 51
159.2681845419229
  0
LINE
  5
422
  8
DEFAULT
 10
-864.337436091979
 20
-375.3275721840103
 30
0.0
 11
-864.3374360934172
 21
-359.7040478441786
 31
0.0
  0
ARC
  5
423
  8
DEFAULT
 10
-861.3374360925741
 20
-375.32757218385
 30
0.0
 40
2.999999999404963
 50
180.0000000031049
 51
0.0000000030614747
  0
LINE
  5
424
  8
DEFAULT
 10
-845.8374360933624
 20
-375.3275721838761
 30
0.0
 11
-858.3374360931691
 21
-375.3275721836897
 31
0.0
  0
ARC
  5
425
  8
DEFAULT
 10
-845.8374360934624
 20
-372.3275721839073
 30
0.0
 40
2.99999999996885
 50
270.0000000019107
 51
90.0000000019107
  0
LINE
  5
426
  8
DEFAULT
 10
-845.8374360935306
 20
-359.7040478441786
 30
0.0
 11
-845.8374360935625
 21
-369.3275721839384
 31
0.0
  0
LINE
  5
427
  8
DEFAULT
 10
-797.8374360935561
 20
-359.7040478441377
 30
0.0
 11
-845.8374360935306
 21
-359.7040478441786
 31
0.0
  0
LINE
  5
428
  8
DEFAULT
 10
-797.8374360935277
 20
-369.3275721838975
 30
0.0
 11
-797.8374360935561
 21
-359.7040478441377
 31
0.0
  0
ARC
  5
429
  8
DEFAULT
 10
-797.8374360936255
 20
-372.3275721838675
 30
0.0
 40
2.999999999969987
 50
89.99999999804587
 51
269.9999999981328
  0
LINE
  5
42A
  8
DEFAULT
 10
-785.3374360939165
 20
-375.3275721836442
 30
0.0
 11
-797.8374360937232
 21
-375.3275721838374
 31
0.0
  0
ARC
  5
42B
  8
DEFAULT
 10
-782.3374360945104
 20
-375.3275721838079
 30
0.0
 40
2.9999999994061
 50
179.9999999969602
 51
359.9999999968734
  0
LINE
  5
42C
  8
DEFAULT
 10
-779.3374360936684
 20
-359.7040478441376
 30
0.0
 11
-779.3374360951043
 21
-375.3275721839716
 31
0.0
  0
ARC
  5
42D
  8
DEFAULT
 10
-788.337436098514
 20
-493.5460436071984
 30
0.0
 40
39.00000000053747
 50
20.73181545864672
 51
76.6576361958158
  0
LINE
  5
42E
  8
DEFAULT
 10
-751.8627794047919
 20
-507.3518184527826
 30
0.0
 11
-751.8627794048101
 21
-479.740268760477
 31
0.0
  0
ARC
  5
42F
  8
DEFAULT
 10
-788.3374486328557
 20
-493.5460293413084
 30
0.0
 40
39.00001677290865
 50
283.3423768860879
 51
339.268171460314
  0
LINE
  5
430
  8
DEFAULT
 10
-779.3374360951262
 20
-515.8698511873197
 30
0.0
 11
-779.3374360932595
 21
-531.4933755274947
 31
0.0
  0
ARC
  5
431
  8
DEFAULT
 10
-782.3374360945323
 20
-515.8698511874811
 30
0.0
 40
2.9999999994061
 50
0.0000000030831873
 51
180.0000000030832
  0
LINE
  5
432
  8
DEFAULT
 10
-797.8374360937474
 20
-515.8698511874538
 30
0.0
 11
-785.3374360939384
 21
-515.8698511876426
 31
0.0
  0
ARC
  5
433
  8
DEFAULT
 10
-797.8374360936463
 20
-518.8698511874238
 30
0.0
 40
2.999999999969987
 50
90.00000000188899
 51
270.0000000019324
  0
LINE
  5
434
  8
DEFAULT
 10
-797.8374360935701
 20
-531.4933755274412
 30
0.0
 11
-797.8374360935451
 21
-521.8698511873938
 31
0.0
  0
LINE
  5
435
  8
DEFAULT
 10
-845.8374360935594
 20
-531.4933755274276
 30
0.0
 11
-797.8374360935701
 21
-531.4933755274412
 31
0.0
  0
LINE
  5
436
  8
DEFAULT
 10
-845.8374360935844
 20
-521.869851187437
 30
0.0
 11
-845.8374360935594
 21
-531.4933755274276
 31
0.0
  0
ARC
  5
437
  8
DEFAULT
 10
-845.8374360934844
 20
-518.8698511874659
 30
0.0
 40
2.999999999971124
 50
269.9999999980893
 51
89.9999999980893
  0
LINE
  5
438
  8
DEFAULT
 10
-858.3374360931911
 20
-515.8698511876812
 30
0.0
 11
-845.8374360933843
 21
-515.8698511874948
 31
0.0
  0
ARC
  5
439
  8
DEFAULT
 10
-861.3374360925972
 20
-515.8698511875209
 30
0.0
 40
2.9999999994061
 50
359.9999999969385
 51
179.9999999969385
  0
LINE
  5
43A
  8
DEFAULT
 10
-864.3374360938689
 20
-531.4933755275356
 30
0.0
 11
-864.3374360920033
 21
-515.8698511873606
 31
0.0
  0
ARC
  5
43B
  8
DEFAULT
 10
-855.3374235542758
 20
-493.5460293413623
 30
0.0
 40
39.00001677289519
 50
200.7318285396116
 51
256.6576231139123
  0
LINE
  5
43C
  8
DEFAULT
 10
-891.8120927821067
 20
-479.7402687605547
 30
0.0
 11
-891.8120927823448
 21
-507.3518184527844
 31
0.0
  0
ARC
  5
43D
  8
DEFAULT
 10
-855.3374360887676
 20
-493.5460436067239
 30
0.0
 40
39.00000000000075
 50
103.3423638041414
 51
159.2681845419223
  0
LINE
  5
43E
  8
DEFAULT
 10
-864.337436092001
 20
-471.2222360256421
 30
0.0
 11
-864.3374360934391
 21
-455.5987116858105
 31
0.0
  0
ARC
  5
43F
  8
DEFAULT
 10
-861.337436092596
 20
-471.2222360254818
 30
0.0
 40
2.999999999404963
 50
180.0000000031049
 51
0.0000000030614747
  0
LINE
  5
440
  8
DEFAULT
 10
-845.8374360933843
 20
-471.222236025508
 30
0.0
 11
-858.3374360931911
 21
-471.2222360253215
 31
0.0
  0
ARC
  5
441
  8
DEFAULT
 10
-845.8374360934844
 20
-468.2222360255391
 30
0.0
 40
2.99999999996885
 50
270.0000000019107
 51
90.0000000019107
  0
LINE
  5
442
  8
DEFAULT
 10
-845.8374360935526
 20
-455.5987116858105
 30
0.0
 11
-845.8374360935844
 21
-465.2222360255703
 31
0.0
  0
LINE
  5
443
  8
DEFAULT
 10
-797.837436093578
 20
-455.5987116857696
 30
0.0
 11
-845.8374360935526
 21
-455.5987116858105
 31
0.0
  0
LINE
  5
444
  8
DEFAULT
 10
-797.8374360935496
 20
-465.2222360255294
 30
0.0
 11
-797.837436093578
 21
-455.5987116857696
 31
0.0
  0
ARC
  5
445
  8
DEFAULT
 10
-797.8374360936474
 20
-468.2222360254993
 30
0.0
 40
2.999999999969987
 50
89.99999999804587
 51
269.9999999981328
  0
LINE
  5
446
  8
DEFAULT
 10
-785.3374360939384
 20
-471.2222360252761
 30
0.0
 11
-797.8374360937452
 21
-471.2222360254693
 31
0.0
  0
ARC
  5
447
  8
DEFAULT
 10
-782.3374360945323
 20
-471.2222360254398
 30
0.0
 40
2.9999999994061
 50
179.9999999969602
 51
359.9999999968734
  0
LINE
  5
448
  8
DEFAULT
 10
-779.3374360936904
 20
-455.5987116857695
 30
0.0
 11
-779.3374360951262
 21
-471.2222360256035
 31
0.0
  0
ARC
  5
449
  8
DEFAULT
 10
-628.3881227207987
 20
-493.5460436070933
 30
0.0
 40
39.00000000053747
 50
20.73181545864672
 51
76.6576361958158
  0
LINE
  5
44A
  8
DEFAULT
 10
-591.9134660270767
 20
-507.3518184526775
 30
0.0
 11
-591.9134660270948
 21
-479.7402687603719
 31
0.0
  0
ARC
  5
44B
  8
DEFAULT
 10
-628.3881352551402
 20
-493.5460293412035
 30
0.0
 40
39.00001677290849
 50
283.3423768860877
 51
339.2681714603137
  0
LINE
  5
44C
  8
DEFAULT
 10
-619.388122717411
 20
-515.8698511872146
 30
0.0
 11
-619.3881227155442
 21
-531.4933755273896
 31
0.0
  0
ARC
  5
44D
  8
DEFAULT
 10
-622.3881227168171
 20
-515.8698511873761
 30
0.0
 40
2.9999999994061
 50
0.0000000030831873
 51
180.0000000030832
  0
LINE
  5
44E
  8
DEFAULT
 10
-637.8881227160322
 20
-515.8698511873488
 30
0.0
 11
-625.3881227162232
 21
-515.8698511875375
 31
0.0
  0
ARC
  5
44F
  8
DEFAULT
 10
-637.888122715931
 20
-518.8698511873188
 30
0.0
 40
2.999999999969987
 50
90.00000000188899
 51
270.0000000019324
  0
LINE
  5
450
  8
DEFAULT
 10
-637.8881227158548
 20
-531.4933755273362
 30
0.0
 11
-637.8881227158298
 21
-521.8698511872888
 31
0.0
  0
LINE
  5
451
  8
DEFAULT
 10
-685.8881227158441
 20
-531.4933755273225
 30
0.0
 11
-637.8881227158548
 21
-531.4933755273362
 31
0.0
  0
LINE
  5
452
  8
DEFAULT
 10
-685.8881227158691
 20
-521.869851187332
 30
0.0
 11
-685.8881227158441
 21
-531.4933755273225
 31
0.0
  0
ARC
  5
453
  8
DEFAULT
 10
-685.8881227157691
 20
-518.8698511873608
 30
0.0
 40
2.999999999971124
 50
269.9999999980893
 51
89.9999999980893
  0
LINE
  5
454
  8
DEFAULT
 10
-698.3881227154758
 20
-515.8698511875762
 30
0.0
 11
-685.888122715669
 21
-515.8698511873897
 31
0.0
  0
ARC
  5
455
  8
DEFAULT
 10
-701.3881227148819
 20
-515.8698511874159
 30
0.0
 40
2.9999999994061
 50
359.9999999969385
 51
179.9999999969385
  0
LINE
  5
456
  8
DEFAULT
 10
-704.3881227161536
 20
-531.4933755274305
 30
0.0
 11
-704.388122714288
 21
-515.8698511872556
 31
0.0
  0
ARC
  5
457
  8
DEFAULT
 10
-695.388110176561
 20
-493.546029341258
 30
0.0
 40
39.0000167728945
 50
200.7318285396108
 51
256.6576231139125
  0
LINE
  5
458
  8
DEFAULT
 10
-731.8627794043915
 20
-479.7402687604495
 30
0.0
 11
-731.8627794046296
 21
-507.3518184526793
 31
0.0
  0
ARC
  5
459
  8
DEFAULT
 10
-695.3881227110525
 20
-493.5460436066191
 30
0.0
 40
39.00000000000099
 50
103.3423638041411
 51
159.2681845419218
  0
LINE
  5
45A
  8
DEFAULT
 10
-704.3881227142857
 20
-471.2222360255371
 30
0.0
 11
-704.3881227157239
 21
-455.5987116857054
 31
0.0
  0
ARC
  5
45B
  8
DEFAULT
 10
-701.3881227148808
 20
-471.2222360253768
 30
0.0
 40
2.999999999404963
 50
180.0000000031049
 51
0.0000000030614747
  0
LINE
  5
45C
  8
DEFAULT
 10
-685.888122715669
 20
-471.2222360254029
 30
0.0
 11
-698.3881227154758
 21
-471.2222360252165
 31
0.0
  0
ARC
  5
45D
  8
DEFAULT
 10
-685.8881227157691
 20
-468.2222360254341
 30
0.0
 40
2.99999999996885
 50
270.0000000019107
 51
90.0000000019107
  0
LINE
  5
45E
  8
DEFAULT
 10
-685.8881227158373
 20
-455.5987116857054
 30
0.0
 11
-685.8881227158691
 21
-465.2222360254652
 31
0.0
  0
LINE
  5
45F
  8
DEFAULT
 10
-637.8881227158628
 20
-455.5987116856645
 30
0.0
 11
-685.8881227158373
 21
-455.5987116857054
 31
0.0
  0
LINE
  5
460
  8
DEFAULT
 10
-637.8881227158344
 20
-465.2222360254243
 30
0.0
 11
-637.8881227158628
 21
-455.5987116856645
 31
0.0
  0
ARC
  5
461
  8
DEFAULT
 10
-637.8881227159321
 20
-468.2222360253943
 30
0.0
 40
2.999999999969987
 50
89.99999999804587
 51
269.9999999981328
  0
LINE
  5
462
  8
DEFAULT
 10
-625.3881227162232
 20
-471.222236025171
 30
0.0
 11
-637.8881227160299
 21
-471.2222360253643
 31
0.0
  0
ARC
  5
463
  8
DEFAULT
 10
-622.3881227168171
 20
-471.2222360253347
 30
0.0
 40
2.9999999994061
 50
179.9999999969602
 51
359.9999999968734
  0
LINE
  5
464
  8
DEFAULT
 10
-619.3881227159751
 20
-455.5987116856645
 30
0.0
 11
-619.388122717411
 21
-471.2222360254984
 31
0.0
  0
CIRCLE
  5
465
  8
LAYER_01
 10
-993.983312090303
 20
-273.6867359908556
 30
0.0
 40
15.0
  0
CIRCLE
  5
466
  8
LAYER_01
 10
-459.9493133775267
 20
-273.6867359908533
 30
0.0
 40
15.0
  0
CIRCLE
  5
467
  8
LAYER_01
 10
-726.9663127336097
 20
-181.1652879441635
 30
0.0
 40
20.0
  0
CIRCLE
  5
468
  8
LAYER_06
 10
-916.7462564651975
 20
-338.9714623769214
 30
0.0
 40
3.0
  0
CIRCLE
  5
469
  8
LAYER_06
 10
-1649.646178922895
 20
-643.4473235835494
 30
0.0
 40
3.0
  0
CIRCLE
  5
46A
  8
LAYER_06
 10
-2026.75079174418
 20
-1076.633177064811
 30
0.0
 40
3.0
  0
CIRCLE
  5
46B
  8
LAYER_06
 10
-2026.785801441974
 20
-23.10647565627187
 30
0.0
 40
3.0
  0
CIRCLE
  5
46C
  8
LAYER_01
 10
-1666.812092782471
 20
-1029.000000001698
 30
0.0
 40
15.0
  0
CIRCLE
  5
46D
  8
LAYER_01
 10
-1966.812092782473
 20
-1029.000000001698
 30
0.0
 40
15.0
  0
CIRCLE
  5
46E
  8
LAYER_01
 10
-1666.812122680987
 20
-909.0000000017021
 30
0.0
 40
15.0
  0
CIRCLE
  5
46F
  8
LAYER_01
 10
-1966.812122680989
 20
-909.0000000017021
 30
0.0
 40
15.0
  0
CIRCLE
  5
470
  8
LAYER_01
 10
-1271.81209278247
 20
-1029.000000091598
 30
0.0
 40
15.0
  0
CIRCLE
  5
471
  8
LAYER_01
 10
-1571.812092782473
 20
-1029.000000091598
 30
0.0
 40
15.0
  0
CIRCLE
  5
472
  8
LAYER_01
 10
-1271.812122680986
 20
-909.0000000916029
 30
0.0
 40
15.0
  0
CIRCLE
  5
473
  8
LAYER_01
 10
-1571.812122680988
 20
-909.0000000916029
 30
0.0
 40
15.0
  0
CIRCLE
  5
474
  8
LAYER_01
 10
-1176.812122680987
 20
-909.00000009683
 30
0.0
 40
15.0
  0
CIRCLE
  5
475
  8
LAYER_01
 10
-876.8121226809851
 20
-909.00000009683
 30
0.0
 40
15.0
  0
CIRCLE
  5
476
  8
LAYER_01
 10
-1176.812092782472
 20
-1029.000000096825
 30
0.0
 40
15.0
  0
CIRCLE
  5
477
  8
LAYER_01
 10
-876.8120927824693
 20
-1029.000000096825
 30
0.0
 40
15.0
  0
CIRCLE
  5
478
  8
LAYER_01
 10
-781.8121226809864
 20
-909.0000001870644
 30
0.0
 40
15.0
  0
CIRCLE
  5
479
  8
LAYER_01
 10
-481.8121226809841
 20
-909.0000001870644
 30
0.0
 40
15.0
  0
CIRCLE
  5
47A
  8
LAYER_01
 10
-781.8120927824706
 20
-1029.00000018706
 30
0.0
 40
15.0
  0
CIRCLE
  5
47B
  8
LAYER_01
 10
-481.8120927824683
 20
-1029.00000018706
 30
0.0
 40
15.0
  0
CIRCLE
  5
47C
  8
LAYER_06
 10
-1223.932643609102
 20
-971.1161074367974
 30
0.0
 40
3.0
  0
CIRCLE
  5
47D
  8
LAYER_06
 10
-705.8465111872274
 20
-647.1959098599696
 30
0.0
 40
3.0
  0
CIRCLE
  5
47E
  8
LAYER_06
 10
-459.216028721377
 20
-813.5395640114596
 30
0.0
 40
3.0
  0
CIRCLE
  5
47F
  8
LAYER_06
 10
-1613.191047721618
 20
-201.7703167786369
 30
0.0
 40
3.0
  0
CIRCLE
  5
480
  8
LAYER_06
 10
-172.3779322873494
 20
-67.29467819157844
 30
0.0
 40
3.0
  0
CIRCLE
  5
481
  8
LAYER_06
 10
-54.91237520000174
 20
-1050.408061339222
 30
0.0
 40
3.0
  0
CIRCLE
  5
482
  8
LAYER_01
 10
-354.9493133773217
 20
-81.16528794427018
 30
0.0
 40
15.0
  0
CIRCLE
  5
483
  8
LAYER_01
 10
-888.983312090098
 20
-81.16528794427245
 30
0.0
 40
15.0
  0
CIRCLE
  5
484
  8
LAYER_01
 10
-621.966312734015
 20
-173.6867359909622
 30
0.0
 40
20.0
  0
ENDSEC
  0
EOF
