  0
SECTION
  2
HEADER
  9
$ACADVER
  1
AC1024
  9
$ACADMAINTVER
 70
     6
  9
$DWGCODEPAGE
  3
UNDEFINED
  9
$INSBASE
 10
0.0
 20
0.0
 30
0.0
  9
$EXTMIN
 10
1.000000000000000E+20
 20
1.000000000000000E+20
 30
1.000000000000000E+20
  9
$EXTMAX
 10
-1.000000000000000E+20
 20
-1.000000000000000E+20
 30
-1.000000000000000E+20
  9
$LIMMIN
 10
0.0
 20
0.0
  9
$LIMMAX
 10
12.0
 20
9.0
  9
$ORTHOMODE
 70
     0
  9
$REGENMODE
 70
     1
  9
$FILLMODE
 70
     1
  9
$QTEXTMODE
 70
     0
  9
$MIRRTEXT
 70
     1
  9
$LTSCALE
 40
1.0
  9
$ATTMODE
 70
     1
  9
$TEXTSIZE
 40
0.2
  9
$TRACEWID
 40
0.05
  9
$TEXTSTYLE
  7
Standard
  9
$CLAYER
  8
0
  9
$CELTYPE
  6
ByLayer
  9
$CECOLOR
 62
   256
  9
$CELTSCALE
 40
1.0
  9
$DISPSILH
 70
     0
  9
$DIMSCALE
 40
1.0
  9
$DIMASZ
 40
0.18
  9
$DIMEXO
 40
0.0625
  9
$DIMDLI
 40
0.38
  9
$DIMRND
 40
0.0
  9
$DIMDLE
 40
0.0
  9
$DIMEXE
 40
0.18
  9
$DIMTP
 40
0.0
  9
$DIMTM
 40
0.0
  9
$DIMTXT
 40
0.18
  9
$DIMCEN
 40
0.09
  9
$DIMTSZ
 40
0.0
  9
$DIMTOL
 70
     0
  9
$DIMLIM
 70
     0
  9
$DIMTIH
 70
     1
  9
$DIMTOH
 70
     1
  9
$DIMSE1
 70
     0
  9
$DIMSE2
 70
     0
  9
$DIMTAD
 70
     0
  9
$DIMZIN
 70
     0
  9
$DIMBLK
  1

  9
$DIMASO
 70
     1
  9
$DIMSHO
 70
     1
  9
$DIMPOST
  1

  9
$DIMAPOST
  1

  9
$DIMALT
 70
     0
  9
$DIMALTD
 70
     2
  9
$DIMALTF
 40
25.4
  9
$DIMLFAC
 40
1.0
  9
$DIMTOFL
 70
     0
  9
$DIMTVP
 40
0.0
  9
$DIMTIX
 70
     0
  9
$DIMSOXD
 70
     0
  9
$DIMSAH
 70
     0
  9
$DIMBLK1
  1

  9
$DIMBLK2
  1

  9
$DIMSTYLE
  2
Standard
  9
$DIMCLRD
 70
     0
  9
$DIMCLRE
 70
     0
  9
$DIMCLRT
 70
     0
  9
$DIMTFAC
 40
1.0
  9
$DIMGAP
 40
0.09
  9
$DIMJUST
 70
     0
  9
$DIMSD1
 70
     0
  9
$DIMSD2
 70
     0
  9
$DIMTOLJ
 70
     1
  9
$DIMTZIN
 70
     0
  9
$DIMALTZ
 70
     0
  9
$DIMALTTZ
 70
     0
  9
$DIMUPT
 70
     0
  9
$DIMDEC
 70
     4
  9
$DIMTDEC
 70
     4
  9
$DIMALTU
 70
     2
  9
$DIMALTTD
 70
     2
  9
$DIMTXSTY
  7
Standard
  9
$DIMAUNIT
 70
     0
  9
$DIMADEC
 70
     0
  9
$DIMALTRND
 40
0.0
  9
$DIMAZIN
 70
     0
  9
$DIMDSEP
 70
    46
  9
$DIMATFIT
 70
     3
  9
$DIMFRAC
 70
     0
  9
$DIMLDRBLK
  1

  9
$DIMLUNIT
 70
     2
  9
$DIMLWD
 70
    -2
  9
$DIMLWE
 70
    -2
  9
$DIMTMOVE
 70
     0
  9
$DIMFXL
 40
1.0
  9
$DIMFXLON
 70
     0
  9
$DIMJOGANG
 40
0.7853981633974483
  9
$DIMTFILL
 70
     0
  9
$DIMTFILLCLR
 70
     0
  9
$DIMARCSYM
 70
     0
  9
$DIMLTYPE
  6

  9
$DIMLTEX1
  6

  9
$DIMLTEX2
  6

  9
$DIMTXTDIRECTION
 70
     0
  9
$LUNITS
 70
     2
  9
$LUPREC
 70
     4
  9
$SKETCHINC
 40
0.1
  9
$FILLETRAD
 40
0.5
  9
$AUNITS
 70
     0
  9
$AUPREC
 70
     0
  9
$MENU
  1
.
  9
$ELEVATION
 40
0.0
  9
$PELEVATION
 40
0.0
  9
$THICKNESS
 40
0.0
  9
$LIMCHECK
 70
     0
  9
$CHAMFERA
 40
0.5
  9
$CHAMFERB
 40
0.5
  9
$CHAMFERC
 40
1.0
  9
$CHAMFERD
 40
0.0
  9
$SKPOLY
 70
     0
  9
$TDCREATE
 40
2457191.637094907
  9
$TDUCREATE
 40
2457191.595428241
  9
$TDUPDATE
 40
2457191.637094907
  9
$TDUUPDATE
 40
2457191.595428241
  9
$TDINDWG
 40
0.0000000116
  9
$TDUSRTIMER
 40
0.0000000116
  9
$USRTIMER
 70
     1
  9
$ANGBASE
 50
0.0
  9
$ANGDIR
 70
     0
  9
$PDMODE
 70
     0
  9
$PDSIZE
 40
0.0
  9
$PLINEWID
 40
0.0
  9
$SPLFRAME
 70
     0
  9
$SPLINETYPE
 70
     6
  9
$SPLINESEGS
 70
     8
  9
$HANDSEED
  5
4A9
  9
$SURFTAB1
 70
     6
  9
$SURFTAB2
 70
     6
  9
$SURFTYPE
 70
     6
  9
$SURFU
 70
     6
  9
$SURFV
 70
     6
  9
$UCSBASE
  2

  9
$UCSNAME
  2

  9
$UCSORG
 10
0.0
 20
0.0
 30
0.0
  9
$UCSXDIR
 10
1.0
 20
0.0
 30
0.0
  9
$UCSYDIR
 10
0.0
 20
1.0
 30
0.0
  9
$UCSORTHOREF
  2

  9
$UCSORTHOVIEW
 70
     0
  9
$UCSORGTOP
 10
0.0
 20
0.0
 30
0.0
  9
$UCSORGBOTTOM
 10
0.0
 20
0.0
 30
0.0
  9
$UCSORGLEFT
 10
0.0
 20
0.0
 30
0.0
  9
$UCSORGRIGHT
 10
0.0
 20
0.0
 30
0.0
  9
$UCSORGFRONT
 10
0.0
 20
0.0
 30
0.0
  9
$UCSORGBACK
 10
0.0
 20
0.0
 30
0.0
  9
$PUCSBASE
  2

  9
$PUCSNAME
  2

  9
$PUCSORG
 10
0.0
 20
0.0
 30
0.0
  9
$PUCSXDIR
 10
1.0
 20
0.0
 30
0.0
  9
$PUCSYDIR
 10
0.0
 20
1.0
 30
0.0
  9
$PUCSORTHOREF
  2

  9
$PUCSORTHOVIEW
 70
     0
  9
$PUCSORGTOP
 10
0.0
 20
0.0
 30
0.0
  9
$PUCSORGBOTTOM
 10
0.0
 20
0.0
 30
0.0
  9
$PUCSORGLEFT
 10
0.0
 20
0.0
 30
0.0
  9
$PUCSORGRIGHT
 10
0.0
 20
0.0
 30
0.0
  9
$PUCSORGFRONT
 10
0.0
 20
0.0
 30
0.0
  9
$PUCSORGBACK
 10
0.0
 20
0.0
 30
0.0
  9
$USERI1
 70
     0
  9
$USERI2
 70
     0
  9
$USERI3
 70
     0
  9
$USERI4
 70
     0
  9
$USERI5
 70
     0
  9
$USERR1
 40
0.0
  9
$USERR2
 40
0.0
  9
$USERR3
 40
0.0
  9
$USERR4
 40
0.0
  9
$USERR5
 40
0.0
  9
$WORLDVIEW
 70
     1
  9
$SHADEDGE
 70
     3
  9
$SHADEDIF
 70
    70
  9
$TILEMODE
 70
     1
  9
$MAXACTVP
 70
    64
  9
$PINSBASE
 10
0.0
 20
0.0
 30
0.0
  9
$PLIMCHECK
 70
     0
  9
$PEXTMIN
 10
1.000000000000000E+20
 20
1.000000000000000E+20
 30
1.000000000000000E+20
  9
$PEXTMAX
 10
-1.000000000000000E+20
 20
-1.000000000000000E+20
 30
-1.000000000000000E+20
  9
$PLIMMIN
 10
0.0
 20
0.0
  9
$PLIMMAX
 10
12.0
 20
9.0
  9
$UNITMODE
 70
     0
  9
$VISRETAIN
 70
     1
  9
$PLINEGEN
 70
     0
  9
$PSLTSCALE
 70
     1
  9
$TREEDEPTH
 70
  3020
  9
$CMLSTYLE
  2
Standard
  9
$CMLJUST
 70
     0
  9
$CMLSCALE
 40
1.0
  9
$PROXYGRAPHICS
 70
     1
  9
$MEASUREMENT
 70
     0
  9
$CELWEIGHT
370
    -1
  9
$ENDCAPS
280
     0
  9
$JOINSTYLE
280
     0
  9
$LWDISPLAY
290
     1
  9
$INSUNITS
 70
     1
  9
$HYPERLINKBASE
  1

  9
$STYLESHEET
  1

  9
$XEDIT
290
     1
  9
$CEPSNTYPE
380
     0
  9
$PSTYLEMODE
290
     1
  9
$FINGERPRINTGUID
  2
{FBCBC0FB-3D36-79DB-3362-BD12B2C00D52}
  9
$VERSIONGUID
  2
{FAEB1C32-E019-11D5-929B-00C0DF256EC4}
  9
$EXTNAMES
290
     1
  9
$PSVPSCALE
 40
0.0
  9
$OLESTARTUP
290
     0
  9
$SORTENTS
280
   127
  9
$INDEXCTL
280
     0
  9
$HIDETEXT
280
     1
  9
$XCLIPFRAME
280
     2
  9
$HALOGAP
280
     0
  9
$OBSCOLOR
 70
   257
  9
$OBSLTYPE
280
     0
  9
$INTERSECTIONDISPLAY
280
     0
  9
$INTERSECTIONCOLOR
 70
   257
  9
$DIMASSOC
280
     2
  9
$PROJECTNAME
  1

  9
$CAMERADISPLAY
290
     0
  9
$LENSLENGTH
 40
50.0
  9
$CAMERAHEIGHT
 40
0.0
  9
$STEPSPERSEC
 40
2.0
  9
$STEPSIZE
 40
6.0
  9
$3DDWFPREC
 40
2.0
  9
$PSOLWIDTH
 40
0.25
  9
$PSOLHEIGHT
 40
4.0
  9
$LOFTANG1
 40
1.570796326794897
  9
$LOFTANG2
 40
1.570796326794897
  9
$LOFTMAG1
 40
0.0
  9
$LOFTMAG2
 40
0.0
  9
$LOFTPARAM
 70
     7
  9
$LOFTNORMALS
280
     1
  9
$LATITUDE
 40
37.795
  9
$LONGITUDE
 40
-122.394
  9
$NORTHDIRECTION
 40
0.0
  9
$TIMEZONE
 70
 -8000
  9
$LIGHTGLYPHDISPLAY
280
     1
  9
$TILEMODELIGHTSYNCH
280
     1
  9
$CMATERIAL
347
3C
  9
$SOLIDHIST
280
     1
  9
$SHOWHIST
280
     1
  9
$DWFFRAME
280
     2
  9
$DGNFRAME
280
     2
  9
$REALWORLDSCALE
290
     1
  9
$INTERFERECOLOR
 62
   256
  9
$CSHADOW
280
     0
  9
$SHADOWPLANELOCATION
 40
0.0
  0
ENDSEC
  0
SECTION
  2
CLASSES
  0
CLASS
  1
ACDBDICTIONARYWDFLT
  2
AcDbDictionaryWithDefault
  3
ObjectDBX Classes
 90
        0
 91
        4
280
     0
281
     0
  0
CLASS
  1
VISUALSTYLE
  2
AcDbVisualStyle
  3
ObjectDBX Classes
 90
     4095
 91
        4
280
     0
281
     0
  0
CLASS
  1
MATERIAL
  2
AcDbMaterial
  3
ObjectDBX Classes
 90
     1153
 91
        4
280
     0
281
     0
  0
CLASS
  1
SUN
  2
AcDbSun
  3
SCENEOE
 90
     1024
 91
        4
280
     0
281
     0
  0
ENDSEC
  0
SECTION
  2
TABLES
  0
TABLE
  2
VPORT
  5
8
330
0
100
AcDbSymbolTable
 70
     1
  0
VPORT
  5
29
330
8
100
AcDbSymbolTableRecord
100
AcDbViewportTableRecord
  2
*Active
 70
     0
 10
0.0
 20
0.0
 11
1.0
 21
1.0
 12
0.0
 22
0.0
 13
0.0
 23
0.0
 14
0.5
 24
0.5
 15
0.5
 25
0.5
 16
0.0
 26
0.0
 36
1.0
 17
750.000263701389
 27
-750.000263701389
 37
0.0
 40
1219.999999695
 41
1.229508629326048
 42
50.0
 43
0.0
 44
0.0
 50
0.0
 51
0.0
 71
     0
 72
   100
 73
     1
 74
     3
 75
     0
 76
     0
 77
     0
 78
     0
281
     0
 65
     1
110
0.0
120
0.0
130
0.0
111
1.0
121
0.0
131
0.0
112
0.0
122
1.0
132
0.0
 79
     0
146
0.0
 60
     3
 61
     5
292
     1
282
     1
141
0.0
142
0.0
 63
   250
361
3F
  0
ENDTAB
  0
TABLE
  2
LTYPE
  5
5
330
0
100
AcDbSymbolTable
 70
     1
  0
LTYPE
  5
14
330
5
100
AcDbSymbolTableRecord
100
AcDbLinetypeTableRecord
  2
ByBlock
 70
     0
  3

 72
    65
 73
     0
 40
0.0
  0
LTYPE
  5
15
330
5
100
AcDbSymbolTableRecord
100
AcDbLinetypeTableRecord
  2
ByLayer
 70
     0
  3

 72
    65
 73
     0
 40
0.0
  0
LTYPE
  5
16
330
5
100
AcDbSymbolTableRecord
100
AcDbLinetypeTableRecord
  2
Continuous
 70
     0
  3
Solid line
 72
    65
 73
     0
 40
0.0
  0
ENDTAB
  0
TABLE
  2
LAYER
  5
2
330
0
100
AcDbSymbolTable
 70
     2
  0
LAYER
  5
10
330
2
100
AcDbSymbolTableRecord
100
AcDbLayerTableRecord
  2
0
 70
     0
 62
     7
  6
Continuous
370
    -3
390
F
347
3E
  0
LAYER
  5
40
330
2
100
AcDbSymbolTableRecord
100
AcDbLayerTableRecord
  2
Layer 1
 70
     0
 62
     7
  6
Continuous
370
    -3
390
F
347
3E
  0
ENDTAB
  0
TABLE
  2
STYLE
  5
3
330
0
100
AcDbSymbolTable
 70
     1
  0
STYLE
  5
11
330
3
100
AcDbSymbolTableRecord
100
AcDbTextStyleTableRecord
  2
Standard
 70
     0
 40
0.0
 41
1.0
 50
0.0
 71
     0
 42
0.2
  3
txt
  4

  0
ENDTAB
  0
TABLE
  2
VIEW
  5
6
330
0
100
AcDbSymbolTable
 70
     0
  0
ENDTAB
  0
TABLE
  2
UCS
  5
7
330
0
100
AcDbSymbolTable
 70
     0
  0
ENDTAB
  0
TABLE
  2
APPID
  5
9
330
0
100
AcDbSymbolTable
 70
     1
  0
APPID
  5
12
330
9
100
AcDbSymbolTableRecord
100
AcDbRegAppTableRecord
  2
ACAD
 70
     0
  0
ENDTAB
  0
TABLE
  2
DIMSTYLE
  5
A
330
0
100
AcDbSymbolTable
 70
     1
100
AcDbDimStyleTable
  0
DIMSTYLE
105
27
330
A
100
AcDbSymbolTableRecord
100
AcDbDimStyleTableRecord
  2
Standard
 70
     0
178
     0
340
11
  0
ENDTAB
  0
TABLE
  2
BLOCK_RECORD
  5
1
330
0
100
AcDbSymbolTable
 70
     9
  0
BLOCK_RECORD
  5
1F
330
1
100
AcDbSymbolTableRecord
100
AcDbBlockTableRecord
  2
*Model_Space
340
22
 70
     0
280
     1
281
     0
  0
BLOCK_RECORD
  5
1B
330
1
100
AcDbSymbolTableRecord
100
AcDbBlockTableRecord
  2
*Paper_Space
340
1E
 70
     0
280
     1
281
     0
  0
BLOCK_RECORD
  5
23
330
1
100
AcDbSymbolTableRecord
100
AcDbBlockTableRecord
  2
*Paper_Space0
340
26
 70
     0
280
     1
281
     0
  0
BLOCK_RECORD
  5
287
330
1
100
AcDbSymbolTableRecord
100
AcDbBlockTableRecord
  2
block 2
340
0
102
{BLKREFS
331
288
102
}
 70
     0
280
     1
281
     0
  0
BLOCK_RECORD
  5
28B
330
1
100
AcDbSymbolTableRecord
100
AcDbBlockTableRecord
  2
block 3
340
0
102
{BLKREFS
331
28C
102
}
 70
     0
280
     1
281
     0
  0
BLOCK_RECORD
  5
298
330
1
100
AcDbSymbolTableRecord
100
AcDbBlockTableRecord
  2
block 4
340
0
102
{BLKREFS
331
299
102
}
 70
     0
280
     1
281
     0
  0
BLOCK_RECORD
  5
29C
330
1
100
AcDbSymbolTableRecord
100
AcDbBlockTableRecord
  2
block 5
340
0
102
{BLKREFS
331
29D
102
}
 70
     0
280
     1
281
     0
  0
BLOCK_RECORD
  5
342
330
1
100
AcDbSymbolTableRecord
100
AcDbBlockTableRecord
  2
block 6
340
0
102
{BLKREFS
331
343
102
}
 70
     0
280
     1
281
     0
  0
BLOCK_RECORD
  5
35C
330
1
100
AcDbSymbolTableRecord
100
AcDbBlockTableRecord
  2
block 7
340
0
102
{BLKREFS
331
35D
102
}
 70
     0
280
     1
281
     0
  0
BLOCK_RECORD
  5
376
330
1
100
AcDbSymbolTableRecord
100
AcDbBlockTableRecord
  2
block 8
340
0
102
{BLKREFS
331
377
102
}
 70
     0
280
     1
281
     0
  0
BLOCK_RECORD
  5
390
330
1
100
AcDbSymbolTableRecord
100
AcDbBlockTableRecord
  2
block 9
340
0
102
{BLKREFS
331
391
102
}
 70
     0
280
     1
281
     0
  0
ENDTAB
  0
ENDSEC
  0
SECTION
  2
BLOCKS
  0
BLOCK
  5
20
330
1F
100
AcDbEntity
  8
0
100
AcDbBlockBegin
  2
*Model_Space
 70
     0
 10
0.0
 20
0.0
 30
0.0
  3
*Model_Space
  1

  0
ENDBLK
  5
21
330
1F
100
AcDbEntity
  8
0
100
AcDbBlockEnd
  0
BLOCK
  5
1C
330
1B
100
AcDbEntity
 67
     1
  8
0
100
AcDbBlockBegin
  2
*Paper_Space
 70
     0
 10
0.0
 20
0.0
 30
0.0
  3
*Paper_Space
  1

  0
ENDBLK
  5
1D
330
1B
100
AcDbEntity
 67
     1
  8
0
100
AcDbBlockEnd
  0
BLOCK
  5
24
330
23
100
AcDbEntity
  8
0
100
AcDbBlockBegin
  2
*Paper_Space0
 70
     0
 10
0.0
 20
0.0
 30
0.0
  3
*Paper_Space0
  1

  0
ENDBLK
  5
25
330
23
100
AcDbEntity
  8
0
100
AcDbBlockEnd
  0
BLOCK
  5
289
330
287
100
AcDbEntity
  8
0
100
AcDbBlockBegin
  2
block 2
 70
     0
 10
0.0
 20
0.0
 30
0.0
  3
block 2
  1

  0
INSERT
  5
28C
330
287
100
AcDbEntity
  8
Layer 1
100
AcDbBlockReference
  2
block 3
 10
0.0
 20
0.0
 30
0.0
  0
ENDBLK
  5
28A
330
287
100
AcDbEntity
  8
0
100
AcDbBlockEnd
  0
BLOCK
  5
28D
330
28B
100
AcDbEntity
  8
0
100
AcDbBlockBegin
  2
block 3
 70
     0
 10
0.0
 20
0.0
 30
0.0
  3
block 3
  1

  0
SPLINE
  5
28F
330
28B
100
AcDbEntity
  8
Layer 1
 62
     7
370
    35
100
AcDbSpline
210
0.0
220
0.0
230
1.0
 70
    11
 71
     3
 72
   158
 73
   154
 74
     0
 42
0.0000000001
 43
0.0000000001
 12
1.0
 22
0.0
 32
0.0
 13
1.0
 23
0.0
 33
0.0
 40
0.0
 40
0.0
 40
0.0
 40
0.0
 40
1.0
 40
1.0
 40
1.0
 40
2.0
 40
2.0
 40
2.0
 40
3.0
 40
3.0
 40
3.0
 40
4.0
 40
4.0
 40
4.0
 40
5.0
 40
5.0
 40
5.0
 40
6.0
 40
6.0
 40
6.0
 40
7.0
 40
7.0
 40
7.0
 40
8.0
 40
8.0
 40
8.0
 40
9.0
 40
9.0
 40
9.0
 40
10.0
 40
10.0
 40
10.0
 40
11.0
 40
11.0
 40
11.0
 40
12.0
 40
12.0
 40
12.0
 40
13.0
 40
13.0
 40
13.0
 40
14.0
 40
14.0
 40
14.0
 40
15.0
 40
15.0
 40
15.0
 40
16.0
 40
16.0
 40
16.0
 40
17.0
 40
17.0
 40
17.0
 40
18.0
 40
18.0
 40
18.0
 40
19.0
 40
19.0
 40
19.0
 40
20.0
 40
20.0
 40
20.0
 40
21.0
 40
21.0
 40
21.0
 40
22.0
 40
22.0
 40
22.0
 40
23.0
 40
23.0
 40
23.0
 40
24.0
 40
24.0
 40
24.0
 40
25.0
 40
25.0
 40
25.0
 40
26.0
 40
26.0
 40
26.0
 40
27.0
 40
27.0
 40
27.0
 40
28.0
 40
28.0
 40
28.0
 40
29.0
 40
29.0
 40
29.0
 40
30.0
 40
30.0
 40
30.0
 40
31.0
 40
31.0
 40
31.0
 40
32.0
 40
32.0
 40
32.0
 40
33.0
 40
33.0
 40
33.0
 40
34.0
 40
34.0
 40
34.0
 40
35.0
 40
35.0
 40
35.0
 40
36.0
 40
36.0
 40
36.0
 40
37.0
 40
37.0
 40
37.0
 40
38.0
 40
38.0
 40
38.0
 40
39.0
 40
39.0
 40
39.0
 40
40.0
 40
40.0
 40
40.0
 40
41.0
 40
41.0
 40
41.0
 40
42.0
 40
42.0
 40
42.0
 40
43.0
 40
43.0
 40
43.0
 40
44.0
 40
44.0
 40
44.0
 40
45.0
 40
45.0
 40
45.0
 40
46.0
 40
46.0
 40
46.0
 40
47.0
 40
47.0
 40
47.0
 40
48.0
 40
48.0
 40
48.0
 40
49.0
 40
49.0
 40
49.0
 40
50.0
 40
50.0
 40
50.0
 40
51.0
 40
51.0
 40
51.0
 40
51.0
 10
354.3015797577008
 20
-865.8646655990992
 30
0.0
 10
354.3015797577008
 20
-865.8646655990992
 30
0.0
 10
348.8615586680235
 20
-865.8646655990992
 30
0.0
 10
348.8615586680235
 20
-865.8646655990992
 30
0.0
 10
346.9200751073109
 20
-865.8646655990992
 30
0.0
 10
345.3315415790622
 20
-864.2761320708505
 30
0.0
 10
345.3315415790622
 20
-862.334648510138
 30
0.0
 10
345.3315415790622
 20
-862.334648510138
 30
0.0
 10
345.3315415790622
 20
-737.7133147196787
 30
0.0
 10
345.3315415790622
 20
-737.7133147196787
 30
0.0
 10
345.3315415790622
 20
-735.7718311589662
 30
0.0
 10
343.7430941782006
 20
-734.1832976307174
 30
0.0
 10
341.8015675537945
 20
-734.1832976307174
 30
0.0
 10
341.8015675537945
 20
-734.1832976307174
 30
0.0
 10
336.3615464641172
 20
-734.1832976307174
 30
0.0
 10
336.3615464641172
 20
-734.1832976307174
 30
0.0
 10
334.4200629034047
 20
-734.1832976307174
 30
0.0
 10
332.831529375156
 20
-732.5947641024687
 30
0.0
 10
332.831529375156
 20
-730.6532805417562
 30
0.0
 10
332.831529375156
 20
-730.6532805417562
 30
0.0
 10
332.831529375156
 20
-627.1993885591561
 30
0.0
 10
332.831529375156
 20
-627.1993885591561
 30
0.0
 10
332.831529375156
 20
-625.2579049984436
 30
0.0
 10
331.2430389106008
 20
-623.6693714701948
 30
0.0
 10
329.3015122861947
 20
-623.6693714701948
 30
0.0
 10
329.3015122861947
 20
-623.6693714701948
 30
0.0
 10
317.9149549431212
 20
-623.6693714701948
 30
0.0
 10
317.9149549431212
 20
-623.6693714701948
 30
0.0
 10
315.9734929142555
 20
-623.6693714701948
 30
0.0
 10
313.3725534821257
 20
-622.4453290442856
 30
0.0
 10
312.1351182475176
 20
-620.9492963298159
 30
0.0
 10
312.1351182475176
 20
-620.9492963298159
 30
0.0
 10
285.3567355502191
 20
-588.5738392524063
 30
0.0
 10
285.3567355502191
 20
-588.5738392524063
 30
0.0
 10
284.1193218474577
 20
-587.0777204105494
 30
0.0
 10
282.0944454441554
 20
-587.0777204105494
 30
0.0
 10
280.8570102095472
 20
-588.5738392524063
 30
0.0
 10
280.8570102095472
 20
-588.5738392524063
 30
0.0
 10
254.0786490440955
 20
-620.9492963298159
 30
0.0
 10
254.0786490440955
 20
-620.9492963298159
 30
0.0
 10
252.8412353413341
 20
-622.4453290442856
 30
0.0
 10
250.2402959092044
 20
-623.6693714701948
 30
0.0
 10
248.2987908166451
 20
-623.6693714701948
 30
0.0
 10
248.2987908166451
 20
-623.6693714701948
 30
0.0
 10
236.3615134284076
 20
-623.6693714701948
 30
0.0
 10
236.3615134284076
 20
-623.6693714701948
 30
0.0
 10
234.4200298676951
 20
-623.6693714701948
 30
0.0
 10
232.8315178712931
 20
-625.2579049984436
 30
0.0
 10
232.8315178712931
 20
-627.1993885591561
 30
0.0
 10
232.8315178712931
 20
-627.1993885591561
 30
0.0
 10
232.8315178712931
 20
-724.6087743854982
 30
0.0
 10
232.8315178712931
 20
-724.6087743854982
 30
0.0
 10
232.8315178712931
 20
-724.6087743854982
 30
0.0
 10
279.9004794480676
 20
-724.6087743854982
 30
0.0
 10
279.9004794480676
 20
-724.6087743854982
 30
0.0
 10
281.8419845406269
 20
-724.6087743854982
 30
0.0
 10
283.430475005182
 20
-726.197307913747
 30
0.0
 10
283.430475005182
 20
-728.1387914744595
 30
0.0
 10
283.430475005182
 20
-728.1387914744595
 30
0.0
 10
283.430475005182
 20
-730.5791248614362
 30
0.0
 10
283.430475005182
 20
-730.5791248614362
 30
0.0
 10
283.430475005182
 20
-732.5206084221487
 30
0.0
 10
281.8419845406269
 20
-734.1090558230103
 30
0.0
 10
279.9004794480676
 20
-734.1090558230103
 30
0.0
 10
279.9004794480676
 20
-734.1090558230103
 30
0.0
 10
230.0191141719094
 20
-734.1090558230103
 30
0.0
 10
230.0191141719094
 20
-734.1090558230103
 30
0.0
 10
229.7871946502118
 20
-734.157459414578
 30
0.0
 10
229.5472652815109
 20
-734.1832976307174
 30
0.0
 10
229.3015223141787
 20
-734.1832976307174
 30
0.0
 10
229.3015223141787
 20
-734.1832976307174
 30
0.0
 10
223.8615442881949
 20
-734.1832976307174
 30
0.0
 10
223.8615442881949
 20
-734.1832976307174
 30
0.0
 10
221.9200607274824
 20
-734.1832976307174
 30
0.0
 10
220.3315487310805
 20
-735.7718311589662
 30
0.0
 10
220.3315487310805
 20
-737.7133147196787
 30
0.0
 10
220.3315487310805
 20
-737.7133147196787
 30
0.0
 10
220.3315487310805
 20
-856.546112948434
 30
0.0
 10
220.3315487310805
 20
-856.546112948434
 30
0.0
 10
220.3315487310805
 20
-856.546112948434
 30
0.0
 10
279.8894766743616
 20
-856.546112948434
 30
0.0
 10
279.8894766743616
 20
-856.546112948434
 30
0.0
 10
281.8309817669209
 20
-856.546112948434
 30
0.0
 10
283.419472231476
 20
-858.1346464766827
 30
0.0
 10
283.419472231476
 20
-860.0761300373953
 30
0.0
 10
283.419472231476
 20
-860.0761300373953
 30
0.0
 10
283.419472231476
 20
-862.5162050422106
 30
0.0
 10
283.419472231476
 20
-862.5162050422106
 30
0.0
 10
283.419472231476
 20
-864.4576886029232
 30
0.0
 10
281.8309817669209
 20
-866.0461360037847
 30
0.0
 10
279.8894766743616
 20
-866.0461360037847
 30
0.0
 10
279.8894766743616
 20
-866.0461360037847
 30
0.0
 10
213.9494662809616
 20
-866.0461360037847
 30
0.0
 10
213.9494662809616
 20
-866.0461360037847
 30
0.0
 10
213.5629480993633
 20
-866.0461360037847
 30
0.0
 10
213.191502210513
 20
-865.9808514443392
 30
0.0
 10
212.8427078244783
 20
-865.8646655990992
 30
0.0
 10
212.8427078244783
 20
-865.8646655990992
 30
0.0
 10
211.3615751479822
 20
-865.8646655990992
 30
0.0
 10
211.3615751479822
 20
-865.8646655990992
 30
0.0
 10
209.4200915872697
 20
-865.8646655990992
 30
0.0
 10
207.8315795908678
 20
-867.453199127348
 30
0.0
 10
207.8315795908678
 20
-869.3946826880605
 30
0.0
 10
207.8315795908678
 20
-869.3946826880605
 30
0.0
 10
207.8315795908678
 20
-1048.524317246143
 30
0.0
 10
207.8315795908678
 20
-1048.524317246143
 30
0.0
 10
207.8315795908678
 20
-1050.465800806855
 30
0.0
 10
209.4200915872697
 20
-1052.054248207717
 30
0.0
 10
211.3615751479822
 20
-1052.054248207717
 30
0.0
 10
211.3615751479822
 20
-1052.054248207717
 30
0.0
 10
243.2417566856936
 20
-1052.054248207717
 30
0.0
 10
243.2417566856936
 20
-1052.054248207717
 30
0.0
 10
242.9810060211538
 20
-1051.562633081972
 30
0.0
 10
242.8315750044811
 20
-1051.003924721651
 30
0.0
 10
242.8315750044811
 20
-1050.411454425575
 30
0.0
 10
242.8315750044811
 20
-1050.411454425575
 30
0.0
 10
242.8315750044811
 20
-977.4714621749301
 30
0.0
 10
242.8315750044811
 20
-977.4714621749301
 30
0.0
 10
242.8315750044811
 20
-977.1971464469171
 30
0.0
 10
242.8664565962692
 20
-976.9310989480687
 30
0.0
 10
242.9263797258658
 20
-976.6744393344176
 30
0.0
 10
242.8654015357768
 20
-975.7710491707979
 30
0.0
 10
242.8315750044811
 20
-974.860252051885
 30
0.0
 10
242.8315750044811
 20
-973.9414450859689
 30
0.0
 10
242.8315750044811
 20
-951.8500286689657
 30
0.0
 10
260.7401933336085
 20
-933.9414749353786
 30
0.0
 10
282.8315882187649
 20
-933.9414749353786
 30
0.0
 10
304.9229615720745
 20
-933.9414749353786
 30
0.0
 10
322.831579901202
 20
-951.8500286689657
 30
0.0
 10
322.831579901202
 20
-973.9414450859689
 30
0.0
 10
322.831579901202
 20
-974.860252051885
 30
0.0
 10
322.797774901753
 20
-975.7710491707979
 30
0.0
 10
322.7367967116641
 20
-976.6744393344176
 30
0.0
 10
322.7966983094138
 20
-976.9310989480687
 30
0.0
 10
322.831579901202
 20
-977.1971464469171
 30
0.0
 10
322.831579901202
 20
-977.4714621749301
 30
0.0
 10
322.831579901202
 20
-977.4714621749301
 30
0.0
 10
322.831579901202
 20
-1050.411454425575
 30
0.0
 10
322.831579901202
 20
-1050.411454425575
 30
0.0
 10
322.831579901202
 20
-1051.003924721651
 30
0.0
 10
322.6821919482229
 20
-1051.562633081972
 30
0.0
 10
322.4213982199894
 20
-1052.054248207717
 30
0.0
 10
322.4213982199894
 20
-1052.054248207717
 30
0.0
 10
354.3015797577008
 20
-1052.054248207717
 30
0.0
 10
354.3015797577008
 20
-1052.054248207717
 30
0.0
 10
356.2431063821069
 20
-1052.054248207717
 30
0.0
 10
357.8315537829685
 20
-1050.465800806855
 30
0.0
 10
357.8315537829685
 20
-1048.524317246143
 30
0.0
 10
357.8315537829685
 20
-1048.524317246143
 30
0.0
 10
357.8315537829685
 20
-869.3946826880605
 30
0.0
 10
357.8315537829685
 20
-869.3946826880605
 30
0.0
 10
357.8315537829685
 20
-867.453199127348
 30
0.0
 10
356.2431063821069
 20
-865.8646655990992
 30
0.0
 10
354.3015797577008
 20
-865.8646655990992
 30
0.0
  0
SPLINE
  5
290
330
28B
100
AcDbEntity
  8
Layer 1
 62
     7
370
    35
100
AcDbSpline
210
0.0
220
0.0
230
1.0
 70
    11
 71
     3
 72
    56
 73
    52
 74
     0
 42
0.0000000001
 43
0.0000000001
 12
1.0
 22
0.0
 32
0.0
 13
1.0
 23
0.0
 33
0.0
 40
0.0
 40
0.0
 40
0.0
 40
0.0
 40
1.0
 40
1.0
 40
1.0
 40
2.0
 40
2.0
 40
2.0
 40
3.0
 40
3.0
 40
3.0
 40
4.0
 40
4.0
 40
4.0
 40
5.0
 40
5.0
 40
5.0
 40
6.0
 40
6.0
 40
6.0
 40
7.0
 40
7.0
 40
7.0
 40
8.0
 40
8.0
 40
8.0
 40
9.0
 40
9.0
 40
9.0
 40
10.0
 40
10.0
 40
10.0
 40
11.0
 40
11.0
 40
11.0
 40
12.0
 40
12.0
 40
12.0
 40
13.0
 40
13.0
 40
13.0
 40
14.0
 40
14.0
 40
14.0
 40
15.0
 40
15.0
 40
15.0
 40
16.0
 40
16.0
 40
16.0
 40
17.0
 40
17.0
 40
17.0
 40
17.0
 10
272.8284735633338
 20
-657.0692276901435
 30
0.0
 10
272.8284735633338
 20
-657.0692276901435
 30
0.0
 10
272.8284735633338
 20
-680.0092572525509
 30
0.0
 10
272.8284735633338
 20
-680.0092572525509
 30
0.0
 10
272.8284735633338
 20
-680.1385344606349
 30
0.0
 10
272.8203560570967
 20
-680.265916866202
 30
0.0
 10
272.8066402706961
 20
-680.3917489788007
 30
0.0
 10
272.8151022864817
 20
-680.4892451810333
 30
0.0
 10
272.8284735633338
 20
-680.585535599846
 30
0.0
 10
272.8284735633338
 20
-680.6851849867569
 30
0.0
 10
272.8284735633338
 20
-680.6851849867569
 30
0.0
 10
272.8284735633338
 20
-703.6252145491643
 30
0.0
 10
272.8284735633338
 20
-703.6252145491643
 30
0.0
 10
272.8284735633338
 20
-705.5666981098768
 30
0.0
 10
271.2399830987787
 20
-707.1551455107384
 30
0.0
 10
269.2984780062193
 20
-707.1551455107384
 30
0.0
 10
269.2984780062193
 20
-707.1551455107384
 30
0.0
 10
256.3584840451531
 20
-707.1551455107384
 30
0.0
 10
256.3584840451531
 20
-707.1551455107384
 30
0.0
 10
254.4169789525938
 20
-707.1551455107384
 30
0.0
 10
252.8284884880387
 20
-705.5666981098768
 30
0.0
 10
252.8284884880387
 20
-703.6252145491643
 30
0.0
 10
252.8284884880387
 20
-703.6252145491643
 30
0.0
 10
252.8284884880387
 20
-680.6851849867569
 30
0.0
 10
252.8284884880387
 20
-680.6851849867569
 30
0.0
 10
252.8284884880387
 20
-680.585535599846
 30
0.0
 10
252.8418597648908
 20
-680.4892451810333
 30
0.0
 10
252.8503217806765
 20
-680.3917489788007
 30
0.0
 10
252.8366059942758
 20
-680.265916866202
 30
0.0
 10
252.8284884880387
 20
-680.1385344606349
 30
0.0
 10
252.8284884880387
 20
-680.0092572525509
 30
0.0
 10
252.8284884880387
 20
-680.0092572525509
 30
0.0
 10
252.8284884880387
 20
-657.0692276901435
 30
0.0
 10
252.8284884880387
 20
-657.0692276901435
 30
0.0
 10
252.8284884880387
 20
-656.7247181416185
 30
0.0
 10
252.880703216487
 20
-656.3921802999048
 30
0.0
 10
252.9738499856694
 20
-656.0767818082302
 30
0.0
 10
252.8800572610835
 20
-655.2515091847386
 30
0.0
 10
252.8284884880387
 20
-654.4047047144642
 30
0.0
 10
252.8284884880387
 20
-653.5392967285694
 30
0.0
 10
252.8284884880387
 20
-645.2549617425763
 30
0.0
 10
257.3056269214355
 20
-638.5392648584045
 30
0.0
 10
262.8284810256862
 20
-638.5392648584045
 30
0.0
 10
268.3513351299371
 20
-638.5392648584045
 30
0.0
 10
272.8284735633338
 20
-645.2549617425763
 30
0.0
 10
272.8284735633338
 20
-653.5392967285694
 30
0.0
 10
272.8284735633338
 20
-654.4047047144642
 30
0.0
 10
272.776904790289
 20
-655.2515091847386
 30
0.0
 10
272.6831120657031
 20
-656.0767818082302
 30
0.0
 10
272.7762588348855
 20
-656.3921802999048
 30
0.0
 10
272.8284735633338
 20
-656.7247181416185
 30
0.0
 10
272.8284735633338
 20
-657.0692276901435
 30
0.0
  0
SPLINE
  5
291
330
28B
100
AcDbEntity
  8
Layer 1
 62
     7
370
    35
100
AcDbSpline
210
0.0
220
0.0
230
1.0
 70
    11
 71
     3
 72
    56
 73
    52
 74
     0
 42
0.0000000001
 43
0.0000000001
 12
1.0
 22
0.0
 32
0.0
 13
1.0
 23
0.0
 33
0.0
 40
0.0
 40
0.0
 40
0.0
 40
0.0
 40
1.0
 40
1.0
 40
1.0
 40
2.0
 40
2.0
 40
2.0
 40
3.0
 40
3.0
 40
3.0
 40
4.0
 40
4.0
 40
4.0
 40
5.0
 40
5.0
 40
5.0
 40
6.0
 40
6.0
 40
6.0
 40
7.0
 40
7.0
 40
7.0
 40
8.0
 40
8.0
 40
8.0
 40
9.0
 40
9.0
 40
9.0
 40
10.0
 40
10.0
 40
10.0
 40
11.0
 40
11.0
 40
11.0
 40
12.0
 40
12.0
 40
12.0
 40
13.0
 40
13.0
 40
13.0
 40
14.0
 40
14.0
 40
14.0
 40
15.0
 40
15.0
 40
15.0
 40
16.0
 40
16.0
 40
16.0
 40
17.0
 40
17.0
 40
17.0
 40
17.0
 10
257.27186498568
 20
-766.3337899729403
 30
0.0
 10
257.27186498568
 20
-766.3337899729403
 30
0.0
 10
257.27186498568
 20
-789.2737334079604
 30
0.0
 10
257.27186498568
 20
-789.2737334079604
 30
0.0
 10
257.27186498568
 20
-789.4030106160444
 30
0.0
 10
257.2637474794429
 20
-789.5304791489987
 30
0.0
 10
257.2500316930422
 20
-789.6562251342103
 30
0.0
 10
257.2585152406747
 20
-789.7538074638301
 30
0.0
 10
257.27186498568
 20
-789.8500117552557
 30
0.0
 10
257.27186498568
 20
-789.9497472695537
 30
0.0
 10
257.27186498568
 20
-789.9497472695537
 30
0.0
 10
257.27186498568
 20
-835.3896954461277
 30
0.0
 10
257.27186498568
 20
-835.3896954461277
 30
0.0
 10
257.27186498568
 20
-837.3311790068402
 30
0.0
 10
255.6833745211249
 20
-838.9197125350889
 30
0.0
 10
253.7418694285655
 20
-838.9197125350889
 30
0.0
 10
253.7418694285655
 20
-838.9197125350889
 30
0.0
 10
240.8018754674993
 20
-838.9197125350889
 30
0.0
 10
240.8018754674993
 20
-838.9197125350889
 30
0.0
 10
238.86037037494
 20
-838.9197125350889
 30
0.0
 10
237.2718799103849
 20
-837.3311790068402
 30
0.0
 10
237.2718799103849
 20
-835.3896954461277
 30
0.0
 10
237.2718799103849
 20
-835.3896954461277
 30
0.0
 10
237.2718799103849
 20
-789.9497472695537
 30
0.0
 10
237.2718799103849
 20
-789.9497472695537
 30
0.0
 10
237.2718799103849
 20
-789.8500117552557
 30
0.0
 10
237.2852296553902
 20
-789.7538074638301
 30
0.0
 10
237.2937132030226
 20
-789.6562251342103
 30
0.0
 10
237.279997416622
 20
-789.5304791489987
 30
0.0
 10
237.2718799103849
 20
-789.4030106160444
 30
0.0
 10
237.2718799103849
 20
-789.2737334079604
 30
0.0
 10
237.2718799103849
 20
-789.2737334079604
 30
0.0
 10
237.2718799103849
 20
-766.3337899729403
 30
0.0
 10
237.2718799103849
 20
-766.3337899729403
 30
0.0
 10
237.2718799103849
 20
-765.9892804244153
 30
0.0
 10
237.3240946388332
 20
-765.6567425827016
 30
0.0
 10
237.4172414080156
 20
-765.3413440910269
 30
0.0
 10
237.3234486834297
 20
-764.5159853401482
 30
0.0
 10
237.2718799103849
 20
-763.6691808698738
 30
0.0
 10
237.2718799103849
 20
-762.803772883979
 30
0.0
 10
237.2718799103849
 20
-754.519524025373
 30
0.0
 10
241.7490183437816
 20
-747.803741013814
 30
0.0
 10
247.2718724480324
 20
-747.803741013814
 30
0.0
 10
252.7947265522832
 20
-747.803741013814
 30
0.0
 10
257.27186498568
 20
-754.519524025373
 30
0.0
 10
257.27186498568
 20
-762.803772883979
 30
0.0
 10
257.27186498568
 20
-763.6691808698738
 30
0.0
 10
257.2202962126352
 20
-764.5159853401482
 30
0.0
 10
257.1265034880493
 20
-765.3413440910269
 30
0.0
 10
257.2196502572317
 20
-765.6567425827016
 30
0.0
 10
257.27186498568
 20
-765.9892804244153
 30
0.0
 10
257.27186498568
 20
-766.3337899729403
 30
0.0
  0
SPLINE
  5
292
330
28B
100
AcDbEntity
  8
Layer 1
 62
     7
370
    35
100
AcDbSpline
210
0.0
220
0.0
230
1.0
 70
    11
 71
     3
 72
    62
 73
    58
 74
     0
 42
0.0000000001
 43
0.0000000001
 12
1.0
 22
0.0
 32
0.0
 13
1.0
 23
0.0
 33
0.0
 40
0.0
 40
0.0
 40
0.0
 40
0.0
 40
1.0
 40
1.0
 40
1.0
 40
2.0
 40
2.0
 40
2.0
 40
3.0
 40
3.0
 40
3.0
 40
4.0
 40
4.0
 40
4.0
 40
5.0
 40
5.0
 40
5.0
 40
6.0
 40
6.0
 40
6.0
 40
7.0
 40
7.0
 40
7.0
 40
8.0
 40
8.0
 40
8.0
 40
9.0
 40
9.0
 40
9.0
 40
10.0
 40
10.0
 40
10.0
 40
11.0
 40
11.0
 40
11.0
 40
12.0
 40
12.0
 40
12.0
 40
13.0
 40
13.0
 40
13.0
 40
14.0
 40
14.0
 40
14.0
 40
15.0
 40
15.0
 40
15.0
 40
16.0
 40
16.0
 40
16.0
 40
17.0
 40
17.0
 40
17.0
 40
18.0
 40
18.0
 40
18.0
 40
19.0
 40
19.0
 40
19.0
 40
19.0
 10
275.9723815757857
 20
-838.3617793212527
 30
0.0
 10
274.0308764832264
 20
-838.3617793212527
 30
0.0
 10
272.4423860186712
 20
-836.773245793004
 30
0.0
 10
272.4423860186712
 20
-834.8317622322915
 30
0.0
 10
272.4423860186712
 20
-834.8317622322915
 30
0.0
 10
272.4423860186712
 20
-789.3917279283303
 30
0.0
 10
272.4423860186712
 20
-789.3917279283303
 30
0.0
 10
272.4423860186712
 20
-789.2920785414194
 30
0.0
 10
272.4557572955234
 20
-789.1957881226067
 30
0.0
 10
272.464219311309
 20
-789.0982919203741
 30
0.0
 10
272.4505035249084
 20
-788.9724598077754
 30
0.0
 10
272.4423860186712
 20
-788.8450774022083
 30
0.0
 10
272.4423860186712
 20
-788.7158001941242
 30
0.0
 10
272.4423860186712
 20
-788.7158001941242
 30
0.0
 10
272.4423860186712
 20
-765.7757706317169
 30
0.0
 10
272.4423860186712
 20
-765.7757706317169
 30
0.0
 10
272.4423860186712
 20
-765.4312610831919
 30
0.0
 10
272.4946007471195
 20
-765.0987232414782
 30
0.0
 10
272.587747516302
 20
-764.7833247498036
 30
0.0
 10
272.4939547917161
 20
-763.9580521263119
 30
0.0
 10
272.4423860186712
 20
-763.1111615286504
 30
0.0
 10
272.4423860186712
 20
-762.2457535427557
 30
0.0
 10
272.4423860186712
 20
-753.9615046841496
 30
0.0
 10
276.919524452068
 20
-747.2458077999779
 30
0.0
 10
282.4423785563188
 20
-747.2458077999779
 30
0.0
 10
287.9652326605696
 20
-747.2458077999779
 30
0.0
 10
292.4423710939664
 20
-753.9615046841496
 30
0.0
 10
292.4423710939664
 20
-762.2457535427557
 30
0.0
 10
292.4423710939664
 20
-763.1111615286504
 30
0.0
 10
292.3908023209215
 20
-763.9580521263119
 30
0.0
 10
292.2970095963356
 20
-764.7833247498036
 30
0.0
 10
292.3901563655181
 20
-765.0987232414782
 30
0.0
 10
292.4423710939664
 20
-765.4312610831919
 30
0.0
 10
292.4423710939664
 20
-765.7757706317169
 30
0.0
 10
292.4423710939664
 20
-765.7757706317169
 30
0.0
 10
292.4423710939664
 20
-788.7158001941242
 30
0.0
 10
292.4423710939664
 20
-788.7158001941242
 30
0.0
 10
292.4423710939664
 20
-788.8450774022083
 30
0.0
 10
292.4342535877292
 20
-788.9724598077754
 30
0.0
 10
292.4205378013286
 20
-789.098205792987
 30
0.0
 10
292.429021348961
 20
-789.1957881226067
 30
0.0
 10
292.4423926258132
 20
-789.2919924140323
 30
0.0
 10
292.4423926258132
 20
-789.3917279283303
 30
0.0
 10
292.4423926258132
 20
-789.3917279283303
 30
0.0
 10
292.4423926258132
 20
-812.3317574907376
 30
0.0
 10
292.4423926258132
 20
-812.3317574907376
 30
0.0
 10
292.4423926258132
 20
-812.3319297455118
 30
0.0
 10
292.4423710939664
 20
-812.332015872899
 30
0.0
 10
292.4423710939664
 20
-812.3321881276732
 30
0.0
 10
292.4423710939664
 20
-812.3321881276732
 30
0.0
 10
292.4423710939664
 20
-834.8317622322915
 30
0.0
 10
292.4423710939664
 20
-834.8317622322915
 30
0.0
 10
292.4423710939664
 20
-836.773245793004
 30
0.0
 10
290.8538806294113
 20
-838.3617793212527
 30
0.0
 10
288.9123755368519
 20
-838.3617793212527
 30
0.0
 10
288.9123755368519
 20
-838.3617793212527
 30
0.0
 10
275.9723815757857
 20
-838.3617793212527
 30
0.0
 10
275.9723815757857
 20
-838.3617793212527
 30
0.0
  0
SPLINE
  5
293
330
28B
100
AcDbEntity
  8
Layer 1
 62
     7
370
    35
100
AcDbSpline
210
0.0
220
0.0
230
1.0
 70
    11
 71
     3
 72
    38
 73
    34
 74
     0
 42
0.0000000001
 43
0.0000000001
 12
1.0
 22
0.0
 32
0.0
 13
1.0
 23
0.0
 33
0.0
 40
0.0
 40
0.0
 40
0.0
 40
0.0
 40
1.0
 40
1.0
 40
1.0
 40
2.0
 40
2.0
 40
2.0
 40
3.0
 40
3.0
 40
3.0
 40
4.0
 40
4.0
 40
4.0
 40
5.0
 40
5.0
 40
5.0
 40
6.0
 40
6.0
 40
6.0
 40
7.0
 40
7.0
 40
7.0
 40
8.0
 40
8.0
 40
8.0
 40
9.0
 40
9.0
 40
9.0
 40
10.0
 40
10.0
 40
10.0
 40
11.0
 40
11.0
 40
11.0
 40
11.0
 10
260.0216110109257
 20
-897.7365358439524
 30
0.0
 10
260.0216110109257
 20
-897.7365358439524
 30
0.0
 10
260.0216110109257
 20
-920.6765654063597
 30
0.0
 10
260.0216110109257
 20
-920.6765654063597
 30
0.0
 10
260.0216110109257
 20
-922.6180489670724
 30
0.0
 10
258.4331205463706
 20
-924.2064963679338
 30
0.0
 10
256.4916154538113
 20
-924.2064963679338
 30
0.0
 10
256.4916154538113
 20
-924.2064963679338
 30
0.0
 10
243.5516214927451
 20
-924.2064963679338
 30
0.0
 10
243.5516214927451
 20
-924.2064963679338
 30
0.0
 10
241.6101164001857
 20
-924.2064963679338
 30
0.0
 10
240.0216044037838
 20
-922.6180489670724
 30
0.0
 10
240.0216044037838
 20
-920.6765654063597
 30
0.0
 10
240.0216044037838
 20
-920.6765654063597
 30
0.0
 10
240.0216044037838
 20
-897.7365358439524
 30
0.0
 10
240.0216044037838
 20
-897.7365358439524
 30
0.0
 10
240.0216044037838
 20
-897.3920262954274
 30
0.0
 10
240.0738191322321
 20
-897.0594884537137
 30
0.0
 10
240.1669659014146
 20
-896.7440899620391
 30
0.0
 10
240.0731731768286
 20
-895.9188173385475
 30
0.0
 10
240.0216044037838
 20
-895.0719267408859
 30
0.0
 10
240.0216044037838
 20
-894.2065187549912
 30
0.0
 10
240.0216044037838
 20
-885.9222698963852
 30
0.0
 10
244.4987643690274
 20
-879.2064868848263
 30
0.0
 10
250.0216184732782
 20
-879.2064868848263
 30
0.0
 10
255.5444510456822
 20
-879.2064868848263
 30
0.0
 10
260.0216110109257
 20
-885.9222698963852
 30
0.0
 10
260.0216110109257
 20
-894.2065187549912
 30
0.0
 10
260.0216110109257
 20
-895.0719267408859
 30
0.0
 10
259.9700422378809
 20
-895.9188173385475
 30
0.0
 10
259.876249513295
 20
-896.7440899620391
 30
0.0
 10
259.9693962824774
 20
-897.0594884537137
 30
0.0
 10
260.0216110109257
 20
-897.3920262954274
 30
0.0
 10
260.0216110109257
 20
-897.7365358439524
 30
0.0
  0
SPLINE
  5
294
330
28B
100
AcDbEntity
  8
Layer 1
 62
     7
370
    35
100
AcDbSpline
210
0.0
220
0.0
230
1.0
 70
    11
 71
     3
 72
    38
 73
    34
 74
     0
 42
0.0000000001
 43
0.0000000001
 12
1.0
 22
0.0
 32
0.0
 13
1.0
 23
0.0
 33
0.0
 40
0.0
 40
0.0
 40
0.0
 40
0.0
 40
1.0
 40
1.0
 40
1.0
 40
2.0
 40
2.0
 40
2.0
 40
3.0
 40
3.0
 40
3.0
 40
4.0
 40
4.0
 40
4.0
 40
5.0
 40
5.0
 40
5.0
 40
6.0
 40
6.0
 40
6.0
 40
7.0
 40
7.0
 40
7.0
 40
8.0
 40
8.0
 40
8.0
 40
9.0
 40
9.0
 40
9.0
 40
10.0
 40
10.0
 40
10.0
 40
11.0
 40
11.0
 40
11.0
 40
11.0
 10
292.8284801704758
 20
-897.7365358439524
 30
0.0
 10
292.8284801704758
 20
-897.7365358439524
 30
0.0
 10
292.8284801704758
 20
-920.6765654063597
 30
0.0
 10
292.8284801704758
 20
-920.6765654063597
 30
0.0
 10
292.8284801704758
 20
-922.6180489670724
 30
0.0
 10
291.2399897059206
 20
-924.2064963679338
 30
0.0
 10
289.2984846133613
 20
-924.2064963679338
 30
0.0
 10
289.2984846133613
 20
-924.2064963679338
 30
0.0
 10
276.3584906522951
 20
-924.2064963679338
 30
0.0
 10
276.3584906522951
 20
-924.2064963679338
 30
0.0
 10
274.4169855597357
 20
-924.2064963679338
 30
0.0
 10
272.8284735633338
 20
-922.6180489670724
 30
0.0
 10
272.8284735633338
 20
-920.6765654063597
 30
0.0
 10
272.8284735633338
 20
-920.6765654063597
 30
0.0
 10
272.8284735633338
 20
-897.7365358439524
 30
0.0
 10
272.8284735633338
 20
-897.7365358439524
 30
0.0
 10
272.8284735633338
 20
-897.3920262954274
 30
0.0
 10
272.8806882917821
 20
-897.0594884537137
 30
0.0
 10
272.9738350609646
 20
-896.7440899620391
 30
0.0
 10
272.8800423363787
 20
-895.9188173385475
 30
0.0
 10
272.8284735633338
 20
-895.0719267408859
 30
0.0
 10
272.8284735633338
 20
-894.2065187549912
 30
0.0
 10
272.8284735633338
 20
-885.9222698963852
 30
0.0
 10
277.3056335285774
 20
-879.2064868848263
 30
0.0
 10
282.8284876328282
 20
-879.2064868848263
 30
0.0
 10
288.3513202052322
 20
-879.2064868848263
 30
0.0
 10
292.8284801704758
 20
-885.9222698963852
 30
0.0
 10
292.8284801704758
 20
-894.2065187549912
 30
0.0
 10
292.8284801704758
 20
-895.0719267408859
 30
0.0
 10
292.7769113974309
 20
-895.9188173385475
 30
0.0
 10
292.683118672845
 20
-896.7440899620391
 30
0.0
 10
292.7762654420274
 20
-897.0594884537137
 30
0.0
 10
292.8284801704758
 20
-897.3920262954274
 30
0.0
 10
292.8284801704758
 20
-897.7365358439524
 30
0.0
  0
SPLINE
  5
295
330
28B
100
AcDbEntity
  8
Layer 1
 62
     7
370
    35
100
AcDbSpline
210
0.0
220
0.0
230
1.0
 70
    11
 71
     3
 72
    56
 73
    52
 74
     0
 42
0.0000000001
 43
0.0000000001
 12
1.0
 22
0.0
 32
0.0
 13
1.0
 23
0.0
 33
0.0
 40
0.0
 40
0.0
 40
0.0
 40
0.0
 40
1.0
 40
1.0
 40
1.0
 40
2.0
 40
2.0
 40
2.0
 40
3.0
 40
3.0
 40
3.0
 40
4.0
 40
4.0
 40
4.0
 40
5.0
 40
5.0
 40
5.0
 40
6.0
 40
6.0
 40
6.0
 40
7.0
 40
7.0
 40
7.0
 40
8.0
 40
8.0
 40
8.0
 40
9.0
 40
9.0
 40
9.0
 40
10.0
 40
10.0
 40
10.0
 40
11.0
 40
11.0
 40
11.0
 40
12.0
 40
12.0
 40
12.0
 40
13.0
 40
13.0
 40
13.0
 40
14.0
 40
14.0
 40
14.0
 40
15.0
 40
15.0
 40
15.0
 40
16.0
 40
16.0
 40
16.0
 40
17.0
 40
17.0
 40
17.0
 40
17.0
 10
292.4423926258132
 20
-703.6252145491643
 30
0.0
 10
292.4423926258132
 20
-703.6252145491643
 30
0.0
 10
292.4423926258132
 20
-680.6851849867569
 30
0.0
 10
292.4423926258132
 20
-680.6851849867569
 30
0.0
 10
292.4423926258132
 20
-680.585535599846
 30
0.0
 10
292.4557639026653
 20
-680.4892451810333
 30
0.0
 10
292.4642259184509
 20
-680.3917489788007
 30
0.0
 10
292.4505101320503
 20
-680.265916866202
 30
0.0
 10
292.4423926258132
 20
-680.1385344606349
 30
0.0
 10
292.4423926258132
 20
-680.0092572525509
 30
0.0
 10
292.4423926258132
 20
-680.0092572525509
 30
0.0
 10
292.4423926258132
 20
-657.0692276901435
 30
0.0
 10
292.4423926258132
 20
-657.0692276901435
 30
0.0
 10
292.4423926258132
 20
-656.7247181416185
 30
0.0
 10
292.4946073542615
 20
-656.3921802999048
 30
0.0
 10
292.5877541234439
 20
-656.0767818082302
 30
0.0
 10
292.493961398858
 20
-655.2515091847386
 30
0.0
 10
292.4423926258132
 20
-654.4047047144642
 30
0.0
 10
292.4423926258132
 20
-653.5392967285694
 30
0.0
 10
292.4423926258132
 20
-645.2549617425763
 30
0.0
 10
296.9195310592099
 20
-638.5392648584045
 30
0.0
 10
302.4423851634608
 20
-638.5392648584045
 30
0.0
 10
307.9652392677115
 20
-638.5392648584045
 30
0.0
 10
312.4423777011083
 20
-645.2549617425763
 30
0.0
 10
312.4423777011083
 20
-653.5392967285694
 30
0.0
 10
312.4423777011083
 20
-654.4047047144642
 30
0.0
 10
312.3908089280634
 20
-655.2515091847386
 30
0.0
 10
312.2970162034775
 20
-656.0767818082302
 30
0.0
 10
312.39016297266
 20
-656.3921802999048
 30
0.0
 10
312.4423777011083
 20
-656.7247181416185
 30
0.0
 10
312.4423777011083
 20
-657.0692276901435
 30
0.0
 10
312.4423777011083
 20
-657.0692276901435
 30
0.0
 10
312.4423777011083
 20
-680.0092572525509
 30
0.0
 10
312.4423777011083
 20
-680.0092572525509
 30
0.0
 10
312.4423777011083
 20
-680.1385344606349
 30
0.0
 10
312.4342601948712
 20
-680.265916866202
 30
0.0
 10
312.4205444084706
 20
-680.3917489788007
 30
0.0
 10
312.4290064242562
 20
-680.4892451810333
 30
0.0
 10
312.4423777011083
 20
-680.585535599846
 30
0.0
 10
312.4423777011083
 20
-680.6851849867569
 30
0.0
 10
312.4423777011083
 20
-680.6851849867569
 30
0.0
 10
312.4423777011083
 20
-703.6252145491643
 30
0.0
 10
312.4423777011083
 20
-703.6252145491643
 30
0.0
 10
312.4423777011083
 20
-705.5666981098768
 30
0.0
 10
310.8538872365532
 20
-707.1551455107384
 30
0.0
 10
308.9123821439939
 20
-707.1551455107384
 30
0.0
 10
308.9123821439939
 20
-707.1551455107384
 30
0.0
 10
295.9723881829276
 20
-707.1551455107384
 30
0.0
 10
295.9723881829276
 20
-707.1551455107384
 30
0.0
 10
294.0308830903683
 20
-707.1551455107384
 30
0.0
 10
292.4423926258132
 20
-705.5666981098768
 30
0.0
 10
292.4423926258132
 20
-703.6252145491643
 30
0.0
  0
SPLINE
  5
296
330
28B
100
AcDbEntity
  8
Layer 1
 62
     7
370
    35
100
AcDbSpline
210
0.0
220
0.0
230
1.0
 70
    11
 71
     3
 72
    38
 73
    34
 74
     0
 42
0.0000000001
 43
0.0000000001
 12
1.0
 22
0.0
 32
0.0
 13
1.0
 23
0.0
 33
0.0
 40
0.0
 40
0.0
 40
0.0
 40
0.0
 40
1.0
 40
1.0
 40
1.0
 40
2.0
 40
2.0
 40
2.0
 40
3.0
 40
3.0
 40
3.0
 40
4.0
 40
4.0
 40
4.0
 40
5.0
 40
5.0
 40
5.0
 40
6.0
 40
6.0
 40
6.0
 40
7.0
 40
7.0
 40
7.0
 40
8.0
 40
8.0
 40
8.0
 40
9.0
 40
9.0
 40
9.0
 40
10.0
 40
10.0
 40
10.0
 40
11.0
 40
11.0
 40
11.0
 40
11.0
 10
325.635327798179
 20
-897.7365358439524
 30
0.0
 10
325.635327798179
 20
-897.7365358439524
 30
0.0
 10
325.635327798179
 20
-920.6765654063597
 30
0.0
 10
325.635327798179
 20
-920.6765654063597
 30
0.0
 10
325.635327798179
 20
-922.6180489670724
 30
0.0
 10
324.0468803973174
 20
-924.2064963679338
 30
0.0
 10
322.1053537729113
 20
-924.2064963679338
 30
0.0
 10
322.1053537729113
 20
-924.2064963679338
 30
0.0
 10
309.1653598118451
 20
-924.2064963679338
 30
0.0
 10
309.1653598118451
 20
-924.2064963679338
 30
0.0
 10
307.2238547192858
 20
-924.2064963679338
 30
0.0
 10
305.6353427228839
 20
-922.6180489670724
 30
0.0
 10
305.6353427228839
 20
-920.6765654063597
 30
0.0
 10
305.6353427228839
 20
-920.6765654063597
 30
0.0
 10
305.6353427228839
 20
-897.7365358439524
 30
0.0
 10
305.6353427228839
 20
-897.7365358439524
 30
0.0
 10
305.6353427228839
 20
-897.3920262954274
 30
0.0
 10
305.6875574513322
 20
-897.0594884537137
 30
0.0
 10
305.7807042205146
 20
-896.7440899620391
 30
0.0
 10
305.6869114959287
 20
-895.9188173385475
 30
0.0
 10
305.6353427228839
 20
-895.0719267408859
 30
0.0
 10
305.6353427228839
 20
-894.2065187549912
 30
0.0
 10
305.6353427228839
 20
-885.9222698963852
 30
0.0
 10
310.1125026881274
 20
-879.2064868848263
 30
0.0
 10
315.6353567923782
 20
-879.2064868848263
 30
0.0
 10
321.1581678329354
 20
-879.2064868848263
 30
0.0
 10
325.635327798179
 20
-885.9222698963852
 30
0.0
 10
325.635327798179
 20
-894.2065187549912
 30
0.0
 10
325.635327798179
 20
-895.0718406134988
 30
0.0
 10
325.5837374932874
 20
-895.9187312111603
 30
0.0
 10
325.4899447687014
 20
-896.744003834652
 30
0.0
 10
325.5831346015775
 20
-897.0594023263266
 30
0.0
 10
325.635327798179
 20
-897.3919401680403
 30
0.0
 10
325.635327798179
 20
-897.7365358439524
 30
0.0
  0
SPLINE
  5
297
330
28B
100
AcDbEntity
  8
Layer 1
 62
     7
370
    35
100
AcDbSpline
210
0.0
220
0.0
230
1.0
 70
    11
 71
     3
 72
    56
 73
    52
 74
     0
 42
0.0000000001
 43
0.0000000001
 12
1.0
 22
0.0
 32
0.0
 13
1.0
 23
0.0
 33
0.0
 40
0.0
 40
0.0
 40
0.0
 40
0.0
 40
1.0
 40
1.0
 40
1.0
 40
2.0
 40
2.0
 40
2.0
 40
3.0
 40
3.0
 40
3.0
 40
4.0
 40
4.0
 40
4.0
 40
5.0
 40
5.0
 40
5.0
 40
6.0
 40
6.0
 40
6.0
 40
7.0
 40
7.0
 40
7.0
 40
8.0
 40
8.0
 40
8.0
 40
9.0
 40
9.0
 40
9.0
 40
10.0
 40
10.0
 40
10.0
 40
11.0
 40
11.0
 40
11.0
 40
12.0
 40
12.0
 40
12.0
 40
13.0
 40
13.0
 40
13.0
 40
14.0
 40
14.0
 40
14.0
 40
15.0
 40
15.0
 40
15.0
 40
16.0
 40
16.0
 40
16.0
 40
17.0
 40
17.0
 40
17.0
 40
17.0
 10
328.2841755894004
 20
-766.8917231867764
 30
0.0
 10
328.2841755894004
 20
-766.8917231867764
 30
0.0
 10
328.2841755894004
 20
-789.8317527491838
 30
0.0
 10
328.2841755894004
 20
-789.8317527491838
 30
0.0
 10
328.2841755894004
 20
-789.9610299572678
 30
0.0
 10
328.2760796150101
 20
-790.0884123628349
 30
0.0
 10
328.2623422967627
 20
-790.2142444754337
 30
0.0
 10
328.2708258443951
 20
-790.3117406776662
 30
0.0
 10
328.2841755894004
 20
-790.408031096479
 30
0.0
 10
328.2841755894004
 20
-790.5076804833898
 30
0.0
 10
328.2841755894004
 20
-790.5076804833898
 30
0.0
 10
328.2841755894004
 20
-835.947714787351
 30
0.0
 10
328.2841755894004
 20
-835.947714787351
 30
0.0
 10
328.2841755894004
 20
-837.8891983480636
 30
0.0
 10
326.6956420611518
 20
-839.4776457489252
 30
0.0
 10
324.7541585004392
 20
-839.4776457489252
 30
0.0
 10
324.7541585004392
 20
-839.4776457489252
 30
0.0
 10
311.814164539373
 20
-839.4776457489252
 30
0.0
 10
311.814164539373
 20
-839.4776457489252
 30
0.0
 10
309.8726594468137
 20
-839.4776457489252
 30
0.0
 10
308.2841689822585
 20
-837.8891983480636
 30
0.0
 10
308.2841689822585
 20
-835.947714787351
 30
0.0
 10
308.2841689822585
 20
-835.947714787351
 30
0.0
 10
308.2841689822585
 20
-790.5076804833898
 30
0.0
 10
308.2841689822585
 20
-790.5076804833898
 30
0.0
 10
308.2841689822585
 20
-790.408031096479
 30
0.0
 10
308.2975402591106
 20
-790.3117406776662
 30
0.0
 10
308.3060022748963
 20
-790.2142444754337
 30
0.0
 10
308.2922864884957
 20
-790.0884123628349
 30
0.0
 10
308.2841689822585
 20
-789.9610299572678
 30
0.0
 10
308.2841689822585
 20
-789.8317527491838
 30
0.0
 10
308.2841689822585
 20
-789.8317527491838
 30
0.0
 10
308.2841689822585
 20
-766.8917231867764
 30
0.0
 10
308.2841689822585
 20
-766.8917231867764
 30
0.0
 10
308.2841689822585
 20
-766.5472136382515
 30
0.0
 10
308.3363837107069
 20
-766.2146757965377
 30
0.0
 10
308.4295304798893
 20
-765.8992773048631
 30
0.0
 10
308.3357377553033
 20
-765.0739185539844
 30
0.0
 10
308.2841689822585
 20
-764.2271140837099
 30
0.0
 10
308.2841689822585
 20
-763.3617060978152
 30
0.0
 10
308.2841689822585
 20
-755.0774572392091
 30
0.0
 10
312.7613074156553
 20
-748.3617603550374
 30
0.0
 10
318.2841830517529
 20
-748.3617603550374
 30
0.0
 10
323.8070156241569
 20
-748.3617603550374
 30
0.0
 10
328.2841755894004
 20
-755.0774572392091
 30
0.0
 10
328.2841755894004
 20
-763.3617060978152
 30
0.0
 10
328.2841755894004
 20
-764.2271140837099
 30
0.0
 10
328.2325852845088
 20
-765.0739185539844
 30
0.0
 10
328.1387925599229
 20
-765.8992773048631
 30
0.0
 10
328.2319823927989
 20
-766.2146757965377
 30
0.0
 10
328.2841755894004
 20
-766.5472136382515
 30
0.0
 10
328.2841755894004
 20
-766.8917231867764
 30
0.0
  0
ENDBLK
  5
28E
330
28B
100
AcDbEntity
  8
0
100
AcDbBlockEnd
  0
BLOCK
  5
29A
330
298
100
AcDbEntity
  8
0
100
AcDbBlockBegin
  2
block 4
 70
     0
 10
0.0
 20
0.0
 30
0.0
  3
block 4
  1

  0
INSERT
  5
29D
330
298
100
AcDbEntity
  8
Layer 1
100
AcDbBlockReference
  2
block 5
 10
0.0
 20
0.0
 30
0.0
  0
ENDBLK
  5
29B
330
298
100
AcDbEntity
  8
0
100
AcDbBlockEnd
  0
BLOCK
  5
29E
330
29C
100
AcDbEntity
  8
0
100
AcDbBlockBegin
  2
block 5
 70
     0
 10
0.0
 20
0.0
 30
0.0
  3
block 5
  1

  0
SPLINE
  5
2A0
330
29C
100
AcDbEntity
  8
Layer 1
 62
     7
370
    35
100
AcDbSpline
210
0.0
220
0.0
230
1.0
 70
    11
 71
     3
 72
   158
 73
   154
 74
     0
 42
0.0000000001
 43
0.0000000001
 12
1.0
 22
0.0
 32
0.0
 13
1.0
 23
0.0
 33
0.0
 40
0.0
 40
0.0
 40
0.0
 40
0.0
 40
1.0
 40
1.0
 40
1.0
 40
2.0
 40
2.0
 40
2.0
 40
3.0
 40
3.0
 40
3.0
 40
4.0
 40
4.0
 40
4.0
 40
5.0
 40
5.0
 40
5.0
 40
6.0
 40
6.0
 40
6.0
 40
7.0
 40
7.0
 40
7.0
 40
8.0
 40
8.0
 40
8.0
 40
9.0
 40
9.0
 40
9.0
 40
10.0
 40
10.0
 40
10.0
 40
11.0
 40
11.0
 40
11.0
 40
12.0
 40
12.0
 40
12.0
 40
13.0
 40
13.0
 40
13.0
 40
14.0
 40
14.0
 40
14.0
 40
15.0
 40
15.0
 40
15.0
 40
16.0
 40
16.0
 40
16.0
 40
17.0
 40
17.0
 40
17.0
 40
18.0
 40
18.0
 40
18.0
 40
19.0
 40
19.0
 40
19.0
 40
20.0
 40
20.0
 40
20.0
 40
21.0
 40
21.0
 40
21.0
 40
22.0
 40
22.0
 40
22.0
 40
23.0
 40
23.0
 40
23.0
 40
24.0
 40
24.0
 40
24.0
 40
25.0
 40
25.0
 40
25.0
 40
26.0
 40
26.0
 40
26.0
 40
27.0
 40
27.0
 40
27.0
 40
28.0
 40
28.0
 40
28.0
 40
29.0
 40
29.0
 40
29.0
 40
30.0
 40
30.0
 40
30.0
 40
31.0
 40
31.0
 40
31.0
 40
32.0
 40
32.0
 40
32.0
 40
33.0
 40
33.0
 40
33.0
 40
34.0
 40
34.0
 40
34.0
 40
35.0
 40
35.0
 40
35.0
 40
36.0
 40
36.0
 40
36.0
 40
37.0
 40
37.0
 40
37.0
 40
38.0
 40
38.0
 40
38.0
 40
39.0
 40
39.0
 40
39.0
 40
40.0
 40
40.0
 40
40.0
 40
41.0
 40
41.0
 40
41.0
 40
42.0
 40
42.0
 40
42.0
 40
43.0
 40
43.0
 40
43.0
 40
44.0
 40
44.0
 40
44.0
 40
45.0
 40
45.0
 40
45.0
 40
46.0
 40
46.0
 40
46.0
 40
47.0
 40
47.0
 40
47.0
 40
48.0
 40
48.0
 40
48.0
 40
49.0
 40
49.0
 40
49.0
 40
50.0
 40
50.0
 40
50.0
 40
51.0
 40
51.0
 40
51.0
 40
51.0
 10
178.0402025095569
 20
-865.3204158738935
 30
0.0
 10
178.0402025095569
 20
-865.3204158738935
 30
0.0
 10
172.6001814198796
 20
-865.3204158738935
 30
0.0
 10
172.6001814198796
 20
-865.3204158738935
 30
0.0
 10
170.6586763273203
 20
-865.3204158738935
 30
0.0
 10
169.0701858627652
 20
-863.7318823456447
 30
0.0
 10
169.0701858627652
 20
-861.7903987849322
 30
0.0
 10
169.0701858627652
 20
-861.7903987849322
 30
0.0
 10
169.0701858627652
 20
-737.1690649944729
 30
0.0
 10
169.0701858627652
 20
-737.1690649944729
 30
0.0
 10
169.0701858627652
 20
-735.2274953063733
 30
0.0
 10
167.48169539821
 20
-733.6390479055117
 30
0.0
 10
165.5401903056507
 20
-733.6390479055117
 30
0.0
 10
165.5401903056507
 20
-733.6390479055117
 30
0.0
 10
160.1001476841266
 20
-733.6390479055117
 30
0.0
 10
160.1001476841266
 20
-733.6390479055117
 30
0.0
 10
158.1586425915673
 20
-733.6390479055117
 30
0.0
 10
156.5701521270121
 20
-732.050514377263
 30
0.0
 10
156.5701521270121
 20
-730.1090308165504
 30
0.0
 10
156.5701521270121
 20
-730.1090308165504
 30
0.0
 10
156.5701521270121
 20
-626.6550527065633
 30
0.0
 10
156.5701521270121
 20
-626.6550527065633
 30
0.0
 10
156.5701521270121
 20
-624.7135691458507
 30
0.0
 10
154.981661662457
 20
-623.1251217449892
 30
0.0
 10
153.0401565698976
 20
-623.1251217449892
 30
0.0
 10
153.0401565698976
 20
-623.1251217449892
 30
0.0
 10
141.6535992268242
 20
-623.1251217449892
 30
0.0
 10
141.6535992268242
 20
-623.1251217449892
 30
0.0
 10
139.7120941342648
 20
-623.1251217449892
 30
0.0
 10
137.1111762339819
 20
-621.9009931916928
 30
0.0
 10
135.8737409993737
 20
-620.404960477223
 30
0.0
 10
135.8737409993737
 20
-620.404960477223
 30
0.0
 10
109.0953583020753
 20
-588.0295033998134
 30
0.0
 10
109.0953583020753
 20
-588.0295033998134
 30
0.0
 10
107.8579230674671
 20
-586.5334706853437
 30
0.0
 10
105.8330681960115
 20
-586.5334706853437
 30
0.0
 10
104.5956329614033
 20
-588.0295033998134
 30
0.0
 10
104.5956329614033
 20
-588.0295033998134
 30
0.0
 10
77.81727179595164
 20
-620.404960477223
 30
0.0
 10
77.81727179595164
 20
-620.404960477223
 30
0.0
 10
76.57983656134346
 20
-621.9009931916928
 30
0.0
 10
73.97891866106053
 20
-623.1251217449892
 30
0.0
 10
72.03741356850121
 20
-623.1251217449892
 30
0.0
 10
72.03741356850121
 20
-623.1251217449892
 30
0.0
 10
60.10013618026373
 20
-623.1251217449892
 30
0.0
 10
60.10013618026373
 20
-623.1251217449892
 30
0.0
 10
58.15863108770441
 20
-623.1251217449892
 30
0.0
 10
56.57014062314927
 20
-624.7135691458507
 30
0.0
 10
56.57014062314927
 20
-626.6550527065633
 30
0.0
 10
56.57014062314927
 20
-626.6550527065633
 30
0.0
 10
56.57014062314927
 20
-724.0645246602925
 30
0.0
 10
56.57014062314927
 20
-724.0645246602925
 30
0.0
 10
56.57014062314927
 20
-724.0645246602925
 30
0.0
 10
103.6391021999237
 20
-724.0645246602925
 30
0.0
 10
103.6391021999237
 20
-724.0645246602925
 30
0.0
 10
105.580607292483
 20
-724.0645246602925
 30
0.0
 10
107.1690977570382
 20
-725.6529720611541
 30
0.0
 10
107.1690977570382
 20
-727.5944556218666
 30
0.0
 10
107.1690977570382
 20
-727.5944556218666
 30
0.0
 10
107.1690977570382
 20
-730.0347890088433
 30
0.0
 10
107.1690977570382
 20
-730.0347890088433
 30
0.0
 10
107.1690977570382
 20
-731.9762725695559
 30
0.0
 10
105.580607292483
 20
-733.5648060978045
 30
0.0
 10
103.6391021999237
 20
-733.5648060978045
 30
0.0
 10
103.6391021999237
 20
-733.5648060978045
 30
0.0
 10
53.75773692376556
 20
-733.5648060978045
 30
0.0
 10
53.75773692376556
 20
-733.5648060978045
 30
0.0
 10
53.5258174020679
 20
-733.6132096893723
 30
0.0
 10
53.28588803336704
 20
-733.6390479055117
 30
0.0
 10
53.0401450660348
 20
-733.6390479055117
 30
0.0
 10
53.0401450660348
 20
-733.6390479055117
 30
0.0
 10
47.60016704005105
 20
-733.6390479055117
 30
0.0
 10
47.60016704005105
 20
-733.6390479055117
 30
0.0
 10
45.65866194749172
 20
-733.6390479055117
 30
0.0
 10
44.07017148293659
 20
-735.2274953063733
 30
0.0
 10
44.07017148293659
 20
-737.1690649944729
 30
0.0
 10
44.07017148293659
 20
-737.1690649944729
 30
0.0
 10
44.07017148293659
 20
-856.0018632232283
 30
0.0
 10
44.07017148293659
 20
-856.0018632232283
 30
0.0
 10
44.07017148293659
 20
-856.0018632232283
 30
0.0
 10
103.6280994262177
 20
-856.0018632232283
 30
0.0
 10
103.6280994262177
 20
-856.0018632232283
 30
0.0
 10
105.569604518777
 20
-856.0018632232283
 30
0.0
 10
107.1580949833321
 20
-857.5903106240899
 30
0.0
 10
107.1580949833321
 20
-859.5317941848024
 30
0.0
 10
107.1580949833321
 20
-859.5317941848024
 30
0.0
 10
107.1580949833321
 20
-861.9718691896178
 30
0.0
 10
107.1580949833321
 20
-861.9718691896178
 30
0.0
 10
107.1580949833321
 20
-863.9133527503303
 30
0.0
 10
105.569604518777
 20
-865.501886278579
 30
0.0
 10
103.6280994262177
 20
-865.501886278579
 30
0.0
 10
103.6280994262177
 20
-865.501886278579
 30
0.0
 10
37.6880890328177
 20
-865.501886278579
 30
0.0
 10
37.6880890328177
 20
-865.501886278579
 30
0.0
 10
37.30157085121945
 20
-865.501886278579
 30
0.0
 10
36.93012496236917
 20
-865.4366017191335
 30
0.0
 10
36.58135210818119
 20
-865.3204158738935
 30
0.0
 10
36.58135210818119
 20
-865.3204158738935
 30
0.0
 10
35.10019789983837
 20
-865.3204158738935
 30
0.0
 10
35.10019789983837
 20
-865.3204158738935
 30
0.0
 10
33.15869280727904
 20
-865.3204158738935
 30
0.0
 10
31.57020234272391
 20
-866.908863274755
 30
0.0
 10
31.57020234272391
 20
-868.8504329628547
 30
0.0
 10
31.57020234272391
 20
-868.8504329628547
 30
0.0
 10
31.57020234272391
 20
-1047.97998139355
 30
0.0
 10
31.57020234272391
 20
-1047.97998139355
 30
0.0
 10
31.57020234272391
 20
-1049.921464954262
 30
0.0
 10
33.15869280727904
 20
-1051.509998482511
 30
0.0
 10
35.10019789983837
 20
-1051.509998482511
 30
0.0
 10
35.10019789983837
 20
-1051.509998482511
 30
0.0
 10
66.98040096939653
 20
-1051.509998482511
 30
0.0
 10
66.98040096939653
 20
-1051.509998482511
 30
0.0
 10
66.7196287730099
 20
-1051.018383356766
 30
0.0
 10
66.5701977563372
 20
-1050.459588869058
 30
0.0
 10
66.5701977563372
 20
-1049.867118572982
 30
0.0
 10
66.5701977563372
 20
-1049.867118572982
 30
0.0
 10
66.5701977563372
 20
-976.9271263223372
 30
0.0
 10
66.5701977563372
 20
-976.9271263223372
 30
0.0
 10
66.5701977563372
 20
-976.6528105943243
 30
0.0
 10
66.60507934812534
 20
-976.386849222863
 30
0.0
 10
66.66500247772191
 20
-976.1301034818247
 30
0.0
 10
66.60402428763298
 20
-975.226713318205
 30
0.0
 10
66.5701977563372
 20
-974.3159161992921
 30
0.0
 10
66.5701977563372
 20
-973.397109233376
 30
0.0
 10
66.5701977563372
 20
-951.30577894376
 30
0.0
 10
84.47881608546464
 20
-933.3971390827858
 30
0.0
 10
106.5701894387743
 20
-933.3971390827858
 30
0.0
 10
128.6615843239307
 20
-933.3971390827858
 30
0.0
 10
146.5702026530581
 20
-951.30577894376
 30
0.0
 10
146.5702026530581
 20
-973.397109233376
 30
0.0
 10
146.5702026530581
 20
-974.3159161992921
 30
0.0
 10
146.5363761217623
 20
-975.226713318205
 30
0.0
 10
146.4753979316734
 20
-976.1301034818247
 30
0.0
 10
146.53532106127
 20
-976.386849222863
 30
0.0
 10
146.5702026530581
 20
-976.6528105943243
 30
0.0
 10
146.5702026530581
 20
-976.9271263223372
 30
0.0
 10
146.5702026530581
 20
-976.9271263223372
 30
0.0
 10
146.5702026530581
 20
-1049.867118572982
 30
0.0
 10
146.5702026530581
 20
-1049.867118572982
 30
0.0
 10
146.5702026530581
 20
-1050.459588869058
 30
0.0
 10
146.4207716363854
 20
-1051.018383356766
 30
0.0
 10
146.1599994399988
 20
-1051.509998482511
 30
0.0
 10
146.1599994399988
 20
-1051.509998482511
 30
0.0
 10
178.0402025095569
 20
-1051.509998482511
 30
0.0
 10
178.0402025095569
 20
-1051.509998482511
 30
0.0
 10
179.9817076021163
 20
-1051.509998482511
 30
0.0
 10
181.5701980666714
 20
-1049.921464954262
 30
0.0
 10
181.5701980666714
 20
-1047.97998139355
 30
0.0
 10
181.5701980666714
 20
-1047.97998139355
 30
0.0
 10
181.5701980666714
 20
-868.8504329628547
 30
0.0
 10
181.5701980666714
 20
-868.8504329628547
 30
0.0
 10
181.5701980666714
 20
-866.908863274755
 30
0.0
 10
179.9817076021163
 20
-865.3204158738935
 30
0.0
 10
178.0402025095569
 20
-865.3204158738935
 30
0.0
  0
SPLINE
  5
2A1
330
29C
100
AcDbEntity
  8
Layer 1
 62
     7
370
    35
100
AcDbSpline
210
0.0
220
0.0
230
1.0
 70
    11
 71
     3
 72
    56
 73
    52
 74
     0
 42
0.0000000001
 43
0.0000000001
 12
1.0
 22
0.0
 32
0.0
 13
1.0
 23
0.0
 33
0.0
 40
0.0
 40
0.0
 40
0.0
 40
0.0
 40
1.0
 40
1.0
 40
1.0
 40
2.0
 40
2.0
 40
2.0
 40
3.0
 40
3.0
 40
3.0
 40
4.0
 40
4.0
 40
4.0
 40
5.0
 40
5.0
 40
5.0
 40
6.0
 40
6.0
 40
6.0
 40
7.0
 40
7.0
 40
7.0
 40
8.0
 40
8.0
 40
8.0
 40
9.0
 40
9.0
 40
9.0
 40
10.0
 40
10.0
 40
10.0
 40
11.0
 40
11.0
 40
11.0
 40
12.0
 40
12.0
 40
12.0
 40
13.0
 40
13.0
 40
13.0
 40
14.0
 40
14.0
 40
14.0
 40
15.0
 40
15.0
 40
15.0
 40
16.0
 40
16.0
 40
16.0
 40
17.0
 40
17.0
 40
17.0
 40
17.0
 10
96.56709631518996
 20
-656.5249779649378
 30
0.0
 10
96.56709631518996
 20
-656.5249779649378
 30
0.0
 10
96.56709631518996
 20
-679.464921399958
 30
0.0
 10
96.56709631518996
 20
-679.464921399958
 30
0.0
 10
96.56709631518996
 20
-679.594198608042
 30
0.0
 10
96.55895727710606
 20
-679.7215810136091
 30
0.0
 10
96.54524149070541
 20
-679.8474131262079
 30
0.0
 10
96.55372503833783
 20
-679.9449954558276
 30
0.0
 10
96.56709631518996
 20
-680.0411997472531
 30
0.0
 10
96.56709631518996
 20
-680.1409352615511
 30
0.0
 10
96.56709631518996
 20
-680.1409352615511
 30
0.0
 10
96.56709631518996
 20
-703.0808786965714
 30
0.0
 10
96.56709631518996
 20
-703.0808786965714
 30
0.0
 10
96.56709631518996
 20
-705.0223622572839
 30
0.0
 10
94.97860585063484
 20
-706.6108957855326
 30
0.0
 10
93.0371007580755
 20
-706.6108957855326
 30
0.0
 10
93.0371007580755
 20
-706.6108957855326
 30
0.0
 10
80.09710679700929
 20
-706.6108957855326
 30
0.0
 10
80.09710679700929
 20
-706.6108957855326
 30
0.0
 10
78.15560170444995
 20
-706.6108957855326
 30
0.0
 10
76.56711123989481
 20
-705.0223622572839
 30
0.0
 10
76.56711123989481
 20
-703.0808786965714
 30
0.0
 10
76.56711123989481
 20
-703.0808786965714
 30
0.0
 10
76.56711123989481
 20
-680.1409352615511
 30
0.0
 10
76.56711123989481
 20
-680.1409352615511
 30
0.0
 10
76.56711123989481
 20
-680.0411997472531
 30
0.0
 10
76.58048251674694
 20
-679.9449954558276
 30
0.0
 10
76.58896606437938
 20
-679.8474131262079
 30
0.0
 10
76.57525027797872
 20
-679.7215810136091
 30
0.0
 10
76.56711123989481
 20
-679.594198608042
 30
0.0
 10
76.56711123989481
 20
-679.464921399958
 30
0.0
 10
76.56711123989481
 20
-679.464921399958
 30
0.0
 10
76.56711123989481
 20
-656.5249779649378
 30
0.0
 10
76.56711123989481
 20
-656.5249779649378
 30
0.0
 10
76.56711123989481
 20
-656.1803822890257
 30
0.0
 10
76.61932596834313
 20
-655.847930574699
 30
0.0
 10
76.71247273752557
 20
-655.5325320830244
 30
0.0
 10
76.61868001293965
 20
-654.7072594595329
 30
0.0
 10
76.56711123989481
 20
-653.8602827344841
 30
0.0
 10
76.56711123989481
 20
-652.9949608759765
 30
0.0
 10
76.56711123989481
 20
-644.7107120173705
 30
0.0
 10
81.04424967329159
 20
-637.9949290058116
 30
0.0
 10
86.56710377754239
 20
-637.9949290058116
 30
0.0
 10
92.08995788179318
 20
-637.9949290058116
 30
0.0
 10
96.56709631518996
 20
-644.7107120173705
 30
0.0
 10
96.56709631518996
 20
-652.9949608759765
 30
0.0
 10
96.56709631518996
 20
-653.8602827344841
 30
0.0
 10
96.51552754214514
 20
-654.7072594595329
 30
0.0
 10
96.4217348175592
 20
-655.5325320830244
 30
0.0
 10
96.51488158674165
 20
-655.847930574699
 30
0.0
 10
96.56709631518996
 20
-656.1803822890257
 30
0.0
 10
96.56709631518996
 20
-656.5249779649378
 30
0.0
  0
SPLINE
  5
2A2
330
29C
100
AcDbEntity
  8
Layer 1
 62
     7
370
    35
100
AcDbSpline
210
0.0
220
0.0
230
1.0
 70
    11
 71
     3
 72
    56
 73
    52
 74
     0
 42
0.0000000001
 43
0.0000000001
 12
1.0
 22
0.0
 32
0.0
 13
1.0
 23
0.0
 33
0.0
 40
0.0
 40
0.0
 40
0.0
 40
0.0
 40
1.0
 40
1.0
 40
1.0
 40
2.0
 40
2.0
 40
2.0
 40
3.0
 40
3.0
 40
3.0
 40
4.0
 40
4.0
 40
4.0
 40
5.0
 40
5.0
 40
5.0
 40
6.0
 40
6.0
 40
6.0
 40
7.0
 40
7.0
 40
7.0
 40
8.0
 40
8.0
 40
8.0
 40
9.0
 40
9.0
 40
9.0
 40
10.0
 40
10.0
 40
10.0
 40
11.0
 40
11.0
 40
11.0
 40
12.0
 40
12.0
 40
12.0
 40
13.0
 40
13.0
 40
13.0
 40
14.0
 40
14.0
 40
14.0
 40
15.0
 40
15.0
 40
15.0
 40
16.0
 40
16.0
 40
16.0
 40
17.0
 40
17.0
 40
17.0
 40
17.0
 10
81.01048773753615
 20
-765.7894541203474
 30
0.0
 10
81.01048773753615
 20
-765.7894541203474
 30
0.0
 10
81.01048773753615
 20
-788.7294836827547
 30
0.0
 10
81.01048773753615
 20
-788.7294836827547
 30
0.0
 10
81.01048773753615
 20
-788.8587608908388
 30
0.0
 10
81.00237023129903
 20
-788.9861432964059
 30
0.0
 10
80.98865444489837
 20
-789.1119754090046
 30
0.0
 10
80.99711646068403
 20
-789.2094716112372
 30
0.0
 10
81.01048773753615
 20
-789.3057620300499
 30
0.0
 10
81.01048773753615
 20
-789.4054114169608
 30
0.0
 10
81.01048773753615
 20
-789.4054114169608
 30
0.0
 10
81.01048773753615
 20
-834.8454457209219
 30
0.0
 10
81.01048773753615
 20
-834.8454457209219
 30
0.0
 10
81.01048773753615
 20
-836.7869292816345
 30
0.0
 10
79.42199727298102
 20
-838.3754628098832
 30
0.0
 10
77.48049218042168
 20
-838.3754628098832
 30
0.0
 10
77.48049218042168
 20
-838.3754628098832
 30
0.0
 10
64.54049821935547
 20
-838.3754628098832
 30
0.0
 10
64.54049821935547
 20
-838.3754628098832
 30
0.0
 10
62.59899312679614
 20
-838.3754628098832
 30
0.0
 10
61.010502662241
 20
-836.7869292816345
 30
0.0
 10
61.010502662241
 20
-834.8454457209219
 30
0.0
 10
61.010502662241
 20
-834.8454457209219
 30
0.0
 10
61.010502662241
 20
-789.4054114169608
 30
0.0
 10
61.010502662241
 20
-789.4054114169608
 30
0.0
 10
61.010502662241
 20
-789.3057620300499
 30
0.0
 10
61.02387393909313
 20
-789.2094716112372
 30
0.0
 10
61.03233595487877
 20
-789.1119754090046
 30
0.0
 10
61.01862016847812
 20
-788.9861432964059
 30
0.0
 10
61.010502662241
 20
-788.8587608908388
 30
0.0
 10
61.010502662241
 20
-788.7294836827547
 30
0.0
 10
61.010502662241
 20
-788.7294836827547
 30
0.0
 10
61.010502662241
 20
-765.7894541203474
 30
0.0
 10
61.010502662241
 20
-765.7894541203474
 30
0.0
 10
61.010502662241
 20
-765.4449445718224
 30
0.0
 10
61.06271739068932
 20
-765.1124067301087
 30
0.0
 10
61.15586415987176
 20
-764.797008238434
 30
0.0
 10
61.06207143528584
 20
-763.9717356149424
 30
0.0
 10
61.010502662241
 20
-763.1248450172809
 30
0.0
 10
61.010502662241
 20
-762.2594370313861
 30
0.0
 10
61.010502662241
 20
-753.9751881727801
 30
0.0
 10
65.48764109563778
 20
-747.2594912886084
 30
0.0
 10
71.01049519988858
 20
-747.2594912886084
 30
0.0
 10
76.53334930413938
 20
-747.2594912886084
 30
0.0
 10
81.01048773753615
 20
-753.9751881727801
 30
0.0
 10
81.01048773753615
 20
-762.2594370313861
 30
0.0
 10
81.01048773753615
 20
-763.1248450172809
 30
0.0
 10
80.95891896449132
 20
-763.9717356149424
 30
0.0
 10
80.86512623990538
 20
-764.797008238434
 30
0.0
 10
80.95827300908783
 20
-765.1124067301087
 30
0.0
 10
81.01048773753615
 20
-765.4449445718224
 30
0.0
 10
81.01048773753615
 20
-765.7894541203474
 30
0.0
  0
SPLINE
  5
2A3
330
29C
100
AcDbEntity
  8
Layer 1
 62
     7
370
    35
100
AcDbSpline
210
0.0
220
0.0
230
1.0
 70
    11
 71
     3
 72
    56
 73
    52
 74
     0
 42
0.0000000001
 43
0.0000000001
 12
1.0
 22
0.0
 32
0.0
 13
1.0
 23
0.0
 33
0.0
 40
0.0
 40
0.0
 40
0.0
 40
0.0
 40
1.0
 40
1.0
 40
1.0
 40
2.0
 40
2.0
 40
2.0
 40
3.0
 40
3.0
 40
3.0
 40
4.0
 40
4.0
 40
4.0
 40
5.0
 40
5.0
 40
5.0
 40
6.0
 40
6.0
 40
6.0
 40
7.0
 40
7.0
 40
7.0
 40
8.0
 40
8.0
 40
8.0
 40
9.0
 40
9.0
 40
9.0
 40
10.0
 40
10.0
 40
10.0
 40
11.0
 40
11.0
 40
11.0
 40
12.0
 40
12.0
 40
12.0
 40
13.0
 40
13.0
 40
13.0
 40
14.0
 40
14.0
 40
14.0
 40
15.0
 40
15.0
 40
15.0
 40
16.0
 40
16.0
 40
16.0
 40
17.0
 40
17.0
 40
17.0
 40
17.0
 10
99.71100432764183
 20
-837.8174434686598
 30
0.0
 10
97.7694992350825
 20
-837.8174434686598
 30
0.0
 10
96.18100877052737
 20
-836.2289099404111
 30
0.0
 10
96.18100877052737
 20
-834.2874263796986
 30
0.0
 10
96.18100877052737
 20
-834.2874263796986
 30
0.0
 10
96.18100877052737
 20
-788.8473920757374
 30
0.0
 10
96.18100877052737
 20
-788.8473920757374
 30
0.0
 10
96.18100877052737
 20
-788.7477426888265
 30
0.0
 10
96.1943800473795
 20
-788.6514522700138
 30
0.0
 10
96.20284206316514
 20
-788.5539560677812
 30
0.0
 10
96.1891262767645
 20
-788.4281239551825
 30
0.0
 10
96.18100877052737
 20
-788.3007415496154
 30
0.0
 10
96.18100877052737
 20
-788.1714643415314
 30
0.0
 10
96.18100877052737
 20
-788.1714643415314
 30
0.0
 10
96.18100877052737
 20
-765.2315209065112
 30
0.0
 10
96.18100877052737
 20
-765.2315209065112
 30
0.0
 10
96.18100877052737
 20
-764.8869252305991
 30
0.0
 10
96.23322349897569
 20
-764.5544735162724
 30
0.0
 10
96.32637026815813
 20
-764.2390750245978
 30
0.0
 10
96.2325775435722
 20
-763.4138024011062
 30
0.0
 10
96.18100877052737
 20
-762.5668256760575
 30
0.0
 10
96.18100877052737
 20
-761.7015038175499
 30
0.0
 10
96.18100877052737
 20
-753.4171688315568
 30
0.0
 10
100.6581472039241
 20
-746.701471947385
 30
0.0
 10
106.1810013081749
 20
-746.701471947385
 30
0.0
 10
111.7038554124257
 20
-746.701471947385
 30
0.0
 10
116.1809938458225
 20
-753.4171688315568
 30
0.0
 10
116.1809938458225
 20
-761.7015038175499
 30
0.0
 10
116.1809938458225
 20
-762.5668256760575
 30
0.0
 10
116.1294250727777
 20
-763.4138024011062
 30
0.0
 10
116.0356323481918
 20
-764.2390750245978
 30
0.0
 10
116.1287791173742
 20
-764.5544735162724
 30
0.0
 10
116.1809938458225
 20
-764.8869252305991
 30
0.0
 10
116.1809938458225
 20
-765.2315209065112
 30
0.0
 10
116.1809938458225
 20
-765.2315209065112
 30
0.0
 10
116.1809938458225
 20
-788.1714643415314
 30
0.0
 10
116.1809938458225
 20
-788.1714643415314
 30
0.0
 10
116.1809938458225
 20
-788.3007415496154
 30
0.0
 10
116.1728763395854
 20
-788.4281239551825
 30
0.0
 10
116.1591605531847
 20
-788.5539560677812
 30
0.0
 10
116.1676225689704
 20
-788.6514522700138
 30
0.0
 10
116.1809938458225
 20
-788.7477426888265
 30
0.0
 10
116.1809938458225
 20
-788.8473920757374
 30
0.0
 10
116.1809938458225
 20
-788.8473920757374
 30
0.0
 10
116.1809938458225
 20
-834.2874263796986
 30
0.0
 10
116.1809938458225
 20
-834.2874263796986
 30
0.0
 10
116.1809938458225
 20
-836.2289099404111
 30
0.0
 10
114.5925033812674
 20
-837.8174434686598
 30
0.0
 10
112.6509982887081
 20
-837.8174434686598
 30
0.0
 10
112.6509982887081
 20
-837.8174434686598
 30
0.0
 10
99.71100432764183
 20
-837.8174434686598
 30
0.0
 10
99.71100432764183
 20
-837.8174434686598
 30
0.0
  0
SPLINE
  5
2A4
330
29C
100
AcDbEntity
  8
Layer 1
 62
     7
370
    35
100
AcDbSpline
210
0.0
220
0.0
230
1.0
 70
    11
 71
     3
 72
    38
 73
    34
 74
     0
 42
0.0000000001
 43
0.0000000001
 12
1.0
 22
0.0
 32
0.0
 13
1.0
 23
0.0
 33
0.0
 40
0.0
 40
0.0
 40
0.0
 40
0.0
 40
1.0
 40
1.0
 40
1.0
 40
2.0
 40
2.0
 40
2.0
 40
3.0
 40
3.0
 40
3.0
 40
4.0
 40
4.0
 40
4.0
 40
5.0
 40
5.0
 40
5.0
 40
6.0
 40
6.0
 40
6.0
 40
7.0
 40
7.0
 40
7.0
 40
8.0
 40
8.0
 40
8.0
 40
9.0
 40
9.0
 40
9.0
 40
10.0
 40
10.0
 40
10.0
 40
11.0
 40
11.0
 40
11.0
 40
11.0
 10
83.76023376278187
 20
-897.1921999913595
 30
0.0
 10
83.76023376278187
 20
-897.1921999913595
 30
0.0
 10
83.76023376278187
 20
-920.1322295537669
 30
0.0
 10
83.76023376278187
 20
-920.1322295537669
 30
0.0
 10
83.76023376278187
 20
-922.0737131144795
 30
0.0
 10
82.17174329822673
 20
-923.6622466427282
 30
0.0
 10
80.2302382056674
 20
-923.6622466427282
 30
0.0
 10
80.2302382056674
 20
-923.6622466427282
 30
0.0
 10
67.29024424460118
 20
-923.6622466427282
 30
0.0
 10
67.29024424460118
 20
-923.6622466427282
 30
0.0
 10
65.34873915204186
 20
-923.6622466427282
 30
0.0
 10
63.76022715563995
 20
-922.0737131144795
 30
0.0
 10
63.76022715563995
 20
-920.1322295537669
 30
0.0
 10
63.76022715563995
 20
-920.1322295537669
 30
0.0
 10
63.76022715563995
 20
-897.1921999913595
 30
0.0
 10
63.76022715563995
 20
-897.1921999913595
 30
0.0
 10
63.76022715563995
 20
-896.8476904428345
 30
0.0
 10
63.81244188408826
 20
-896.5151526011208
 30
0.0
 10
63.9055886532707
 20
-896.1997541094462
 30
0.0
 10
63.81179592868477
 20
-895.3744814859546
 30
0.0
 10
63.76022715563995
 20
-894.527590888293
 30
0.0
 10
63.76022715563995
 20
-893.6622690297854
 30
0.0
 10
63.76022715563995
 20
-885.3779340437923
 30
0.0
 10
68.2373871208835
 20
-878.6622371596205
 30
0.0
 10
73.7602412251343
 20
-878.6622371596205
 30
0.0
 10
79.28307379753831
 20
-878.6622371596205
 30
0.0
 10
83.76023376278187
 20
-885.3779340437923
 30
0.0
 10
83.76023376278187
 20
-893.6622690297854
 30
0.0
 10
83.76023376278187
 20
-894.527590888293
 30
0.0
 10
83.70866498973703
 20
-895.3744814859546
 30
0.0
 10
83.6148722651511
 20
-896.1997541094462
 30
0.0
 10
83.70801903433355
 20
-896.5151526011208
 30
0.0
 10
83.76023376278187
 20
-896.8476904428345
 30
0.0
 10
83.76023376278187
 20
-897.1921999913595
 30
0.0
  0
SPLINE
  5
2A5
330
29C
100
AcDbEntity
  8
Layer 1
 62
     7
370
    35
100
AcDbSpline
210
0.0
220
0.0
230
1.0
 70
    11
 71
     3
 72
    38
 73
    34
 74
     0
 42
0.0000000001
 43
0.0000000001
 12
1.0
 22
0.0
 32
0.0
 13
1.0
 23
0.0
 33
0.0
 40
0.0
 40
0.0
 40
0.0
 40
0.0
 40
1.0
 40
1.0
 40
1.0
 40
2.0
 40
2.0
 40
2.0
 40
3.0
 40
3.0
 40
3.0
 40
4.0
 40
4.0
 40
4.0
 40
5.0
 40
5.0
 40
5.0
 40
6.0
 40
6.0
 40
6.0
 40
7.0
 40
7.0
 40
7.0
 40
8.0
 40
8.0
 40
8.0
 40
9.0
 40
9.0
 40
9.0
 40
10.0
 40
10.0
 40
10.0
 40
11.0
 40
11.0
 40
11.0
 40
11.0
 10
116.5671029223319
 20
-897.1921999913595
 30
0.0
 10
116.5671029223319
 20
-897.1921999913595
 30
0.0
 10
116.5671029223319
 20
-920.1322295537669
 30
0.0
 10
116.5671029223319
 20
-920.1322295537669
 30
0.0
 10
116.5671029223319
 20
-922.0737131144795
 30
0.0
 10
114.9786124577767
 20
-923.6622466427282
 30
0.0
 10
113.0371073652174
 20
-923.6622466427282
 30
0.0
 10
113.0371073652174
 20
-923.6622466427282
 30
0.0
 10
100.0971134041512
 20
-923.6622466427282
 30
0.0
 10
100.0971134041512
 20
-923.6622466427282
 30
0.0
 10
98.15560831159188
 20
-923.6622466427282
 30
0.0
 10
96.56709631518996
 20
-922.0737131144795
 30
0.0
 10
96.56709631518996
 20
-920.1322295537669
 30
0.0
 10
96.56709631518996
 20
-920.1322295537669
 30
0.0
 10
96.56709631518996
 20
-897.1921999913595
 30
0.0
 10
96.56709631518996
 20
-897.1921999913595
 30
0.0
 10
96.56709631518996
 20
-896.8476904428345
 30
0.0
 10
96.61931104363828
 20
-896.5151526011208
 30
0.0
 10
96.71245781282073
 20
-896.1997541094462
 30
0.0
 10
96.61866508823479
 20
-895.3744814859546
 30
0.0
 10
96.56709631518996
 20
-894.527590888293
 30
0.0
 10
96.56709631518996
 20
-893.6622690297854
 30
0.0
 10
96.56709631518996
 20
-885.3779340437923
 30
0.0
 10
101.0442562804335
 20
-878.6622371596205
 30
0.0
 10
106.5671103846843
 20
-878.6622371596205
 30
0.0
 10
112.0899429570883
 20
-878.6622371596205
 30
0.0
 10
116.5671029223319
 20
-885.3779340437923
 30
0.0
 10
116.5671029223319
 20
-893.6622690297854
 30
0.0
 10
116.5671029223319
 20
-894.527590888293
 30
0.0
 10
116.515534149287
 20
-895.3744814859546
 30
0.0
 10
116.4217414247011
 20
-896.1997541094462
 30
0.0
 10
116.5148881938836
 20
-896.5151526011208
 30
0.0
 10
116.5671029223319
 20
-896.8476904428345
 30
0.0
 10
116.5671029223319
 20
-897.1921999913595
 30
0.0
  0
SPLINE
  5
2A6
330
29C
100
AcDbEntity
  8
Layer 1
 62
     7
370
    35
100
AcDbSpline
210
0.0
220
0.0
230
1.0
 70
    11
 71
     3
 72
    56
 73
    52
 74
     0
 42
0.0000000001
 43
0.0000000001
 12
1.0
 22
0.0
 32
0.0
 13
1.0
 23
0.0
 33
0.0
 40
0.0
 40
0.0
 40
0.0
 40
0.0
 40
1.0
 40
1.0
 40
1.0
 40
2.0
 40
2.0
 40
2.0
 40
3.0
 40
3.0
 40
3.0
 40
4.0
 40
4.0
 40
4.0
 40
5.0
 40
5.0
 40
5.0
 40
6.0
 40
6.0
 40
6.0
 40
7.0
 40
7.0
 40
7.0
 40
8.0
 40
8.0
 40
8.0
 40
9.0
 40
9.0
 40
9.0
 40
10.0
 40
10.0
 40
10.0
 40
11.0
 40
11.0
 40
11.0
 40
12.0
 40
12.0
 40
12.0
 40
13.0
 40
13.0
 40
13.0
 40
14.0
 40
14.0
 40
14.0
 40
15.0
 40
15.0
 40
15.0
 40
16.0
 40
16.0
 40
16.0
 40
17.0
 40
17.0
 40
17.0
 40
17.0
 10
116.1810153776693
 20
-703.0808786965714
 30
0.0
 10
116.1810153776693
 20
-703.0808786965714
 30
0.0
 10
116.1810153776693
 20
-680.1409352615511
 30
0.0
 10
116.1810153776693
 20
-680.1409352615511
 30
0.0
 10
116.1810153776693
 20
-680.0411997472531
 30
0.0
 10
116.1943866545214
 20
-679.9449954558276
 30
0.0
 10
116.2028702021538
 20
-679.8474131262079
 30
0.0
 10
116.1891544157532
 20
-679.7215810136091
 30
0.0
 10
116.1810153776693
 20
-679.594198608042
 30
0.0
 10
116.1810153776693
 20
-679.464921399958
 30
0.0
 10
116.1810153776693
 20
-679.464921399958
 30
0.0
 10
116.1810153776693
 20
-656.5249779649378
 30
0.0
 10
116.1810153776693
 20
-656.5249779649378
 30
0.0
 10
116.1810153776693
 20
-656.1803822890257
 30
0.0
 10
116.2332301061176
 20
-655.847930574699
 30
0.0
 10
116.3263768753001
 20
-655.5325320830244
 30
0.0
 10
116.2325841507141
 20
-654.7072594595329
 30
0.0
 10
116.1810153776693
 20
-653.8602827344841
 30
0.0
 10
116.1810153776693
 20
-652.9949608759765
 30
0.0
 10
116.1810153776693
 20
-644.7107120173705
 30
0.0
 10
120.6581538110661
 20
-637.9949290058116
 30
0.0
 10
126.1810079153169
 20
-637.9949290058116
 30
0.0
 10
131.7038620195677
 20
-637.9949290058116
 30
0.0
 10
136.1810004529644
 20
-644.7107120173705
 30
0.0
 10
136.1810004529644
 20
-652.9949608759765
 30
0.0
 10
136.1810004529644
 20
-653.8602827344841
 30
0.0
 10
136.1294316799196
 20
-654.7072594595329
 30
0.0
 10
136.0356389553337
 20
-655.5325320830244
 30
0.0
 10
136.1287857245161
 20
-655.847930574699
 30
0.0
 10
136.1810004529644
 20
-656.1803822890257
 30
0.0
 10
136.1810004529644
 20
-656.5249779649378
 30
0.0
 10
136.1810004529644
 20
-656.5249779649378
 30
0.0
 10
136.1810004529644
 20
-679.464921399958
 30
0.0
 10
136.1810004529644
 20
-679.464921399958
 30
0.0
 10
136.1810004529644
 20
-679.594198608042
 30
0.0
 10
136.1728614148805
 20
-679.7215810136091
 30
0.0
 10
136.1591456284799
 20
-679.8474131262079
 30
0.0
 10
136.1676291761123
 20
-679.9449954558276
 30
0.0
 10
136.1810004529644
 20
-680.0411997472531
 30
0.0
 10
136.1810004529644
 20
-680.1409352615511
 30
0.0
 10
136.1810004529644
 20
-680.1409352615511
 30
0.0
 10
136.1810004529644
 20
-703.0808786965714
 30
0.0
 10
136.1810004529644
 20
-703.0808786965714
 30
0.0
 10
136.1810004529644
 20
-705.0223622572839
 30
0.0
 10
134.5925099884093
 20
-706.6108957855326
 30
0.0
 10
132.65100489585
 20
-706.6108957855326
 30
0.0
 10
132.65100489585
 20
-706.6108957855326
 30
0.0
 10
119.7110109347838
 20
-706.6108957855326
 30
0.0
 10
119.7110109347838
 20
-706.6108957855326
 30
0.0
 10
117.7695058422244
 20
-706.6108957855326
 30
0.0
 10
116.1810153776693
 20
-705.0223622572839
 30
0.0
 10
116.1810153776693
 20
-703.0808786965714
 30
0.0
  0
SPLINE
  5
2A7
330
29C
100
AcDbEntity
  8
Layer 1
 62
     7
370
    35
100
AcDbSpline
210
0.0
220
0.0
230
1.0
 70
    11
 71
     3
 72
    38
 73
    34
 74
     0
 42
0.0000000001
 43
0.0000000001
 12
1.0
 22
0.0
 32
0.0
 13
1.0
 23
0.0
 33
0.0
 40
0.0
 40
0.0
 40
0.0
 40
0.0
 40
1.0
 40
1.0
 40
1.0
 40
2.0
 40
2.0
 40
2.0
 40
3.0
 40
3.0
 40
3.0
 40
4.0
 40
4.0
 40
4.0
 40
5.0
 40
5.0
 40
5.0
 40
6.0
 40
6.0
 40
6.0
 40
7.0
 40
7.0
 40
7.0
 40
8.0
 40
8.0
 40
8.0
 40
9.0
 40
9.0
 40
9.0
 40
10.0
 40
10.0
 40
10.0
 40
11.0
 40
11.0
 40
11.0
 40
11.0
 10
149.3739720818819
 20
-897.1921999913595
 30
0.0
 10
149.3739720818819
 20
-897.1921999913595
 30
0.0
 10
149.3739720818819
 20
-920.1322295537669
 30
0.0
 10
149.3739720818819
 20
-920.1322295537669
 30
0.0
 10
149.3739720818819
 20
-922.0737131144795
 30
0.0
 10
147.7854816173268
 20
-923.6622466427282
 30
0.0
 10
145.8439765247674
 20
-923.6622466427282
 30
0.0
 10
145.8439765247674
 20
-923.6622466427282
 30
0.0
 10
132.9039825637012
 20
-923.6622466427282
 30
0.0
 10
132.9039825637012
 20
-923.6622466427282
 30
0.0
 10
130.9624774711419
 20
-923.6622466427282
 30
0.0
 10
129.37396547474
 20
-922.0737131144795
 30
0.0
 10
129.37396547474
 20
-920.1322295537669
 30
0.0
 10
129.37396547474
 20
-920.1322295537669
 30
0.0
 10
129.37396547474
 20
-897.1921999913595
 30
0.0
 10
129.37396547474
 20
-897.1921999913595
 30
0.0
 10
129.37396547474
 20
-896.8476904428345
 30
0.0
 10
129.4261802031883
 20
-896.5151526011208
 30
0.0
 10
129.5193269723707
 20
-896.1997541094462
 30
0.0
 10
129.4255342477848
 20
-895.3744814859546
 30
0.0
 10
129.37396547474
 20
-894.527590888293
 30
0.0
 10
129.37396547474
 20
-893.6622690297854
 30
0.0
 10
129.37396547474
 20
-885.3779340437923
 30
0.0
 10
133.8511254399835
 20
-878.6622371596205
 30
0.0
 10
139.3739795442343
 20
-878.6622371596205
 30
0.0
 10
144.8968121166384
 20
-878.6622371596205
 30
0.0
 10
149.3739720818819
 20
-885.3779340437923
 30
0.0
 10
149.3739720818819
 20
-893.6622690297854
 30
0.0
 10
149.3739720818819
 20
-894.527590888293
 30
0.0
 10
149.3224033088371
 20
-895.3744814859546
 30
0.0
 10
149.2286105842512
 20
-896.1997541094462
 30
0.0
 10
149.3217573534336
 20
-896.5151526011208
 30
0.0
 10
149.3739720818819
 20
-896.8476904428345
 30
0.0
 10
149.3739720818819
 20
-897.1921999913595
 30
0.0
  0
SPLINE
  5
2A8
330
29C
100
AcDbEntity
  8
Layer 1
 62
     7
370
    35
100
AcDbSpline
210
0.0
220
0.0
230
1.0
 70
    11
 71
     3
 72
    56
 73
    52
 74
     0
 42
0.0000000001
 43
0.0000000001
 12
1.0
 22
0.0
 32
0.0
 13
1.0
 23
0.0
 33
0.0
 40
0.0
 40
0.0
 40
0.0
 40
0.0
 40
1.0
 40
1.0
 40
1.0
 40
2.0
 40
2.0
 40
2.0
 40
3.0
 40
3.0
 40
3.0
 40
4.0
 40
4.0
 40
4.0
 40
5.0
 40
5.0
 40
5.0
 40
6.0
 40
6.0
 40
6.0
 40
7.0
 40
7.0
 40
7.0
 40
8.0
 40
8.0
 40
8.0
 40
9.0
 40
9.0
 40
9.0
 40
10.0
 40
10.0
 40
10.0
 40
11.0
 40
11.0
 40
11.0
 40
12.0
 40
12.0
 40
12.0
 40
13.0
 40
13.0
 40
13.0
 40
14.0
 40
14.0
 40
14.0
 40
15.0
 40
15.0
 40
15.0
 40
16.0
 40
16.0
 40
16.0
 40
17.0
 40
17.0
 40
17.0
 40
17.0
 10
152.0227768094098
 20
-766.3474734615708
 30
0.0
 10
152.0227768094098
 20
-766.3474734615708
 30
0.0
 10
152.0227768094098
 20
-789.2874168965909
 30
0.0
 10
152.0227768094098
 20
-789.2874168965909
 30
0.0
 10
152.0227768094098
 20
-789.4166941046749
 30
0.0
 10
152.0146593031727
 20
-789.5441626376291
 30
0.0
 10
152.0009435167721
 20
-789.6699086228408
 30
0.0
 10
152.0094270644045
 20
-789.7674909524605
 30
0.0
 10
152.0227768094098
 20
-789.8636952438861
 30
0.0
 10
152.0227768094098
 20
-789.9634307581841
 30
0.0
 10
152.0227768094098
 20
-789.9634307581841
 30
0.0
 10
152.0227768094098
 20
-835.4033789347582
 30
0.0
 10
152.0227768094098
 20
-835.4033789347582
 30
0.0
 10
152.0227768094098
 20
-837.3448624954707
 30
0.0
 10
150.4342863448547
 20
-838.9333960237194
 30
0.0
 10
148.4927812522953
 20
-838.9333960237194
 30
0.0
 10
148.4927812522953
 20
-838.9333960237194
 30
0.0
 10
135.5527872912291
 20
-838.9333960237194
 30
0.0
 10
135.5527872912291
 20
-838.9333960237194
 30
0.0
 10
133.6112821986698
 20
-838.9333960237194
 30
0.0
 10
132.0227917341147
 20
-837.3448624954707
 30
0.0
 10
132.0227917341147
 20
-835.4033789347582
 30
0.0
 10
132.0227917341147
 20
-835.4033789347582
 30
0.0
 10
132.0227917341147
 20
-789.9634307581841
 30
0.0
 10
132.0227917341147
 20
-789.9634307581841
 30
0.0
 10
132.0227917341147
 20
-789.8636952438861
 30
0.0
 10
132.03614147912
 20
-789.7674909524605
 30
0.0
 10
132.0446250267524
 20
-789.6699086228408
 30
0.0
 10
132.0309092403518
 20
-789.5441626376291
 30
0.0
 10
132.0227917341147
 20
-789.4166941046749
 30
0.0
 10
132.0227917341147
 20
-789.2874168965909
 30
0.0
 10
132.0227917341147
 20
-789.2874168965909
 30
0.0
 10
132.0227917341147
 20
-766.3474734615708
 30
0.0
 10
132.0227917341147
 20
-766.3474734615708
 30
0.0
 10
132.0227917341147
 20
-766.0029639130457
 30
0.0
 10
132.075006462563
 20
-765.670426071332
 30
0.0
 10
132.1681532317454
 20
-765.3550275796574
 30
0.0
 10
132.0743605071595
 20
-764.5296688287787
 30
0.0
 10
132.0227917341147
 20
-763.6828643585043
 30
0.0
 10
132.0227917341147
 20
-762.8174563726095
 30
0.0
 10
132.0227917341147
 20
-754.5332075140035
 30
0.0
 10
136.4999301675115
 20
-747.8174245024445
 30
0.0
 10
142.0227842717622
 20
-747.8174245024445
 30
0.0
 10
147.545638376013
 20
-747.8174245024445
 30
0.0
 10
152.0227768094098
 20
-754.5332075140035
 30
0.0
 10
152.0227768094098
 20
-762.8174563726095
 30
0.0
 10
152.0227768094098
 20
-763.6828643585043
 30
0.0
 10
151.971208036365
 20
-764.5296688287787
 30
0.0
 10
151.8774153117791
 20
-765.3550275796574
 30
0.0
 10
151.9705620809615
 20
-765.670426071332
 30
0.0
 10
152.0227768094098
 20
-766.0029639130457
 30
0.0
 10
152.0227768094098
 20
-766.3474734615708
 30
0.0
  0
ENDBLK
  5
29F
330
29C
100
AcDbEntity
  8
0
100
AcDbBlockEnd
  0
BLOCK
  5
344
330
342
100
AcDbEntity
  8
0
100
AcDbBlockBegin
  2
block 6
 70
     0
 10
0.0
 20
0.0
 30
0.0
  3
block 6
  1

  0
POLYLINE
  5
346
330
342
100
AcDbEntity
  8
Layer 1
 62
     7
370
    35
100
AcDb2dPolyline
 66
     1
 10
0.0
 20
0.0
 30
0.0
  0
VERTEX
  5
347
330
346
100
AcDbEntity
  8
Layer 1
 62
     7
370
    35
100
AcDbVertex
100
AcDb2dVertex
 10
113.4305316735386
 20
-1343.314930881158
 30
0.0
  0
VERTEX
  5
348
330
346
100
AcDbEntity
  8
Layer 1
 62
     7
370
    35
100
AcDbVertex
100
AcDb2dVertex
 10
123.5664332280793
 20
-1343.314930881613
 30
0.0
  0
VERTEX
  5
349
330
346
100
AcDbEntity
  8
Layer 1
 62
     7
370
    35
100
AcDbVertex
100
AcDb2dVertex
 10
123.5664332303464
 20
-1292.817281086837
 30
0.0
  0
VERTEX
  5
34A
330
346
100
AcDbEntity
  8
Layer 1
 62
     7
370
    35
100
AcDbVertex
100
AcDb2dVertex
 10
133.0667146678585
 20
-1292.817281087264
 30
0.0
  0
VERTEX
  5
34B
330
346
100
AcDbEntity
  8
Layer 1
 62
     7
370
    35
100
AcDbVertex
100
AcDb2dVertex
 10
133.0667146655914
 20
-1343.31493088204
 30
0.0
  0
VERTEX
  5
34C
330
346
100
AcDbEntity
  8
Layer 1
 62
     7
370
    35
100
AcDbVertex
100
AcDb2dVertex
 10
263.9444279846515
 20
-1343.314930887916
 30
0.0
  0
VERTEX
  5
34D
330
346
100
AcDbEntity
  8
Layer 1
 62
     7
370
    35
100
AcDbVertex
100
AcDb2dVertex
 10
263.9444279869186
 20
-1292.81728109314
 30
0.0
  0
VERTEX
  5
34E
330
346
100
AcDbEntity
  8
Layer 1
 62
     7
370
    35
100
AcDbVertex
100
AcDb2dVertex
 10
273.4447094244307
 20
-1292.817281093566
 30
0.0
  0
VERTEX
  5
34F
330
346
100
AcDbEntity
  8
Layer 1
 62
     7
370
    35
100
AcDbVertex
100
AcDb2dVertex
 10
273.4447094221636
 20
-1343.314930888342
 30
0.0
  0
VERTEX
  5
350
330
346
100
AcDbEntity
  8
Layer 1
 62
     7
370
    35
100
AcDbVertex
100
AcDb2dVertex
 10
283.4304909409345
 20
-1343.314930888791
 30
0.0
  0
VERTEX
  5
351
330
346
100
AcDbEntity
  8
Layer 1
 62
     7
370
    35
100
AcDbVertex
100
AcDb2dVertex
 10
283.4304909454238
 20
-1243.314962448621
 30
0.0
  0
VERTEX
  5
352
330
346
100
AcDbEntity
  8
Layer 1
 62
     7
370
    35
100
AcDbVertex
100
AcDb2dVertex
 10
113.4305316780279
 20
-1243.314962440989
 30
0.0
  0
VERTEX
  5
353
330
346
100
AcDbEntity
  8
Layer 1
 62
     7
370
    35
100
AcDbVertex
100
AcDb2dVertex
 10
113.4305316735386
 20
-1343.314930881158
 30
0.0
  0
SEQEND
  5
354
330
346
100
AcDbEntity
  8
Layer 1
 62
     7
370
    35
  0
POLYLINE
  5
355
330
342
100
AcDbEntity
  8
Layer 1
 62
     7
370
    35
100
AcDb2dPolyline
 66
     1
 10
0.0
 20
0.0
 30
0.0
  0
VERTEX
  5
356
330
355
100
AcDbEntity
  8
Layer 1
 62
     7
370
    35
100
AcDbVertex
100
AcDb2dVertex
 10
185.2525824086751
 20
-1291.237975065239
 30
0.0
  0
VERTEX
  5
357
330
355
100
AcDbEntity
  8
Layer 1
 62
     7
370
    35
100
AcDbVertex
100
AcDb2dVertex
 10
185.2525824068796
 20
-1331.237975055239
 30
0.0
  0
VERTEX
  5
358
330
355
100
AcDbEntity
  8
Layer 1
 62
     7
370
    35
100
AcDbVertex
100
AcDb2dVertex
 10
145.2525824168791
 20
-1331.237975053442
 30
0.0
  0
VERTEX
  5
359
330
355
100
AcDbEntity
  8
Layer 1
 62
     7
370
    35
100
AcDbVertex
100
AcDb2dVertex
 10
145.2525824186752
 20
-1291.237975063442
 30
0.0
  0
VERTEX
  5
35A
330
355
100
AcDbEntity
  8
Layer 1
 62
     7
370
    35
100
AcDbVertex
100
AcDb2dVertex
 10
185.2525824086751
 20
-1291.237975065239
 30
0.0
  0
SEQEND
  5
35B
330
355
100
AcDbEntity
  8
Layer 1
 62
     7
370
    35
  0
ENDBLK
  5
345
330
342
100
AcDbEntity
  8
0
100
AcDbBlockEnd
  0
BLOCK
  5
35E
330
35C
100
AcDbEntity
  8
0
100
AcDbBlockBegin
  2
block 7
 70
     0
 10
0.0
 20
0.0
 30
0.0
  3
block 7
  1

  0
POLYLINE
  5
360
330
35C
100
AcDbEntity
  8
Layer 1
 62
     7
370
    35
100
AcDb2dPolyline
 66
     1
 10
0.0
 20
0.0
 30
0.0
  0
VERTEX
  5
361
330
360
100
AcDbEntity
  8
Layer 1
 62
     7
370
    35
100
AcDbVertex
100
AcDb2dVertex
 10
402.3696688175934
 20
-600.4803799293612
 30
0.0
  0
VERTEX
  5
362
330
360
100
AcDbEntity
  8
Layer 1
 62
     7
370
    35
100
AcDbVertex
100
AcDb2dVertex
 10
402.3696688175934
 20
-610.616281483902
 30
0.0
  0
VERTEX
  5
363
330
360
100
AcDbEntity
  8
Layer 1
 62
     7
370
    35
100
AcDbVertex
100
AcDb2dVertex
 10
452.8673186123691
 20
-610.616281483902
 30
0.0
  0
VERTEX
  5
364
330
360
100
AcDbEntity
  8
Layer 1
 62
     7
370
    35
100
AcDbVertex
100
AcDb2dVertex
 10
452.8673186123691
 20
-620.116562921414
 30
0.0
  0
VERTEX
  5
365
330
360
100
AcDbEntity
  8
Layer 1
 62
     7
370
    35
100
AcDbVertex
100
AcDb2dVertex
 10
402.3696688175934
 20
-620.116562921414
 30
0.0
  0
VERTEX
  5
366
330
360
100
AcDbEntity
  8
Layer 1
 62
     7
370
    35
100
AcDbVertex
100
AcDb2dVertex
 10
402.3696688175934
 20
-750.9942762404742
 30
0.0
  0
VERTEX
  5
367
330
360
100
AcDbEntity
  8
Layer 1
 62
     7
370
    35
100
AcDbVertex
100
AcDb2dVertex
 10
452.8673186123691
 20
-750.9942762404742
 30
0.0
  0
VERTEX
  5
368
330
360
100
AcDbEntity
  8
Layer 1
 62
     7
370
    35
100
AcDbVertex
100
AcDb2dVertex
 10
452.8673186123691
 20
-760.4945576779862
 30
0.0
  0
VERTEX
  5
369
330
360
100
AcDbEntity
  8
Layer 1
 62
     7
370
    35
100
AcDbVertex
100
AcDb2dVertex
 10
402.3696688175934
 20
-760.4945576779862
 30
0.0
  0
VERTEX
  5
36A
330
360
100
AcDbEntity
  8
Layer 1
 62
     7
370
    35
100
AcDbVertex
100
AcDb2dVertex
 10
402.3696688175934
 20
-770.4803391967571
 30
0.0
  0
VERTEX
  5
36B
330
360
100
AcDbEntity
  8
Layer 1
 62
     7
370
    35
100
AcDbVertex
100
AcDb2dVertex
 10
502.3696372577626
 20
-770.4803391967571
 30
0.0
  0
VERTEX
  5
36C
330
360
100
AcDbEntity
  8
Layer 1
 62
     7
370
    35
100
AcDbVertex
100
AcDb2dVertex
 10
502.3696372577626
 20
-600.4803799293612
 30
0.0
  0
VERTEX
  5
36D
330
360
100
AcDbEntity
  8
Layer 1
 62
     7
370
    35
100
AcDbVertex
100
AcDb2dVertex
 10
402.3696688175934
 20
-600.4803799293612
 30
0.0
  0
SEQEND
  5
36E
330
360
100
AcDbEntity
  8
Layer 1
 62
     7
370
    35
  0
POLYLINE
  5
36F
330
35C
100
AcDbEntity
  8
Layer 1
 62
     7
370
    35
100
AcDb2dPolyline
 66
     1
 10
0.0
 20
0.0
 30
0.0
  0
VERTEX
  5
370
330
36F
100
AcDbEntity
  8
Layer 1
 62
     7
370
    35
100
AcDbVertex
100
AcDb2dVertex
 10
454.4466246367373
 20
-672.30243066216
 30
0.0
  0
VERTEX
  5
371
330
36F
100
AcDbEntity
  8
Layer 1
 62
     7
370
    35
100
AcDbVertex
100
AcDb2dVertex
 10
414.4466246467375
 20
-672.30243066216
 30
0.0
  0
VERTEX
  5
372
330
36F
100
AcDbEntity
  8
Layer 1
 62
     7
370
    35
100
AcDbVertex
100
AcDb2dVertex
 10
414.4466246467375
 20
-632.3024306721595
 30
0.0
  0
VERTEX
  5
373
330
36F
100
AcDbEntity
  8
Layer 1
 62
     7
370
    35
100
AcDbVertex
100
AcDb2dVertex
 10
454.4466246367373
 20
-632.3024306721595
 30
0.0
  0
VERTEX
  5
374
330
36F
100
AcDbEntity
  8
Layer 1
 62
     7
370
    35
100
AcDbVertex
100
AcDb2dVertex
 10
454.4466246367373
 20
-672.30243066216
 30
0.0
  0
SEQEND
  5
375
330
36F
100
AcDbEntity
  8
Layer 1
 62
     7
370
    35
  0
ENDBLK
  5
35F
330
35C
100
AcDbEntity
  8
0
100
AcDbBlockEnd
  0
BLOCK
  5
378
330
376
100
AcDbEntity
  8
0
100
AcDbBlockBegin
  2
block 8
 70
     0
 10
0.0
 20
0.0
 30
0.0
  3
block 8
  1

  0
POLYLINE
  5
37A
330
376
100
AcDbEntity
  8
Layer 1
 62
     7
370
    35
100
AcDb2dPolyline
 66
     1
 10
0.0
 20
0.0
 30
0.0
  0
VERTEX
  5
37B
330
37A
100
AcDbEntity
  8
Layer 1
 62
     7
370
    35
100
AcDbVertex
100
AcDb2dVertex
 10
544.2688481771585
 20
-803.4750306557936
 30
0.0
  0
VERTEX
  5
37C
330
37A
100
AcDbEntity
  8
Layer 1
 62
     7
370
    35
100
AcDbVertex
100
AcDb2dVertex
 10
544.2688481771585
 20
-813.6496034071562
 30
0.0
  0
VERTEX
  5
37D
330
37A
100
AcDbEntity
  8
Layer 1
 62
     7
370
    35
100
AcDbVertex
100
AcDb2dVertex
 10
607.2684911057445
 20
-813.6496034071562
 30
0.0
  0
VERTEX
  5
37E
330
37A
100
AcDbEntity
  8
Layer 1
 62
     7
370
    35
100
AcDbVertex
100
AcDb2dVertex
 10
607.2684911057445
 20
-823.149626462507
 30
0.0
  0
VERTEX
  5
37F
330
37A
100
AcDbEntity
  8
Layer 1
 62
     7
370
    35
100
AcDbVertex
100
AcDb2dVertex
 10
544.2688481771585
 20
-823.149626462507
 30
0.0
  0
VERTEX
  5
380
330
37A
100
AcDbEntity
  8
Layer 1
 62
     7
370
    35
100
AcDbVertex
100
AcDb2dVertex
 10
544.2688481771585
 20
-953.6715475453278
 30
0.0
  0
VERTEX
  5
381
330
37A
100
AcDbEntity
  8
Layer 1
 62
     7
370
    35
100
AcDbVertex
100
AcDb2dVertex
 10
607.2684911057445
 20
-953.6715475453278
 30
0.0
  0
VERTEX
  5
382
330
37A
100
AcDbEntity
  8
Layer 1
 62
     7
370
    35
100
AcDbVertex
100
AcDb2dVertex
 10
607.2684911057445
 20
-963.1715706006785
 30
0.0
  0
VERTEX
  5
383
330
37A
100
AcDbEntity
  8
Layer 1
 62
     7
370
    35
100
AcDbVertex
100
AcDb2dVertex
 10
544.2688481771585
 20
-963.1715706006785
 30
0.0
  0
VERTEX
  5
384
330
37A
100
AcDbEntity
  8
Layer 1
 62
     7
370
    35
100
AcDbVertex
100
AcDb2dVertex
 10
544.2688481771585
 20
-973.4749899231895
 30
0.0
  0
VERTEX
  5
385
330
37A
100
AcDbEntity
  8
Layer 1
 62
     7
370
    35
100
AcDbVertex
100
AcDb2dVertex
 10
669.2688410251402
 20
-973.4749899231895
 30
0.0
  0
VERTEX
  5
386
330
37A
100
AcDbEntity
  8
Layer 1
 62
     7
370
    35
100
AcDbVertex
100
AcDb2dVertex
 10
669.2688410251402
 20
-803.4750306557936
 30
0.0
  0
VERTEX
  5
387
330
37A
100
AcDbEntity
  8
Layer 1
 62
     7
370
    35
100
AcDbVertex
100
AcDb2dVertex
 10
544.2688481771585
 20
-803.4750306557936
 30
0.0
  0
SEQEND
  5
388
330
37A
100
AcDbEntity
  8
Layer 1
 62
     7
370
    35
  0
POLYLINE
  5
389
330
376
100
AcDbEntity
  8
Layer 1
 62
     7
370
    35
100
AcDb2dPolyline
 66
     1
 10
0.0
 20
0.0
 30
0.0
  0
VERTEX
  5
38A
330
389
100
AcDbEntity
  8
Layer 1
 62
     7
370
    35
100
AcDbVertex
100
AcDb2dVertex
 10
596.3458053420429
 20
-876.2155802711862
 30
0.0
  0
VERTEX
  5
38B
330
389
100
AcDbEntity
  8
Layer 1
 62
     7
370
    35
100
AcDbVertex
100
AcDb2dVertex
 10
556.3458053520429
 20
-876.2155802711862
 30
0.0
  0
VERTEX
  5
38C
330
389
100
AcDbEntity
  8
Layer 1
 62
     7
370
    35
100
AcDbVertex
100
AcDb2dVertex
 10
556.3458053520429
 20
-836.2155802811857
 30
0.0
  0
VERTEX
  5
38D
330
389
100
AcDbEntity
  8
Layer 1
 62
     7
370
    35
100
AcDbVertex
100
AcDb2dVertex
 10
596.3458053420429
 20
-836.2155802811857
 30
0.0
  0
VERTEX
  5
38E
330
389
100
AcDbEntity
  8
Layer 1
 62
     7
370
    35
100
AcDbVertex
100
AcDb2dVertex
 10
596.3458053420429
 20
-876.2155802711862
 30
0.0
  0
SEQEND
  5
38F
330
389
100
AcDbEntity
  8
Layer 1
 62
     7
370
    35
  0
ENDBLK
  5
379
330
376
100
AcDbEntity
  8
0
100
AcDbBlockEnd
  0
BLOCK
  5
392
330
390
100
AcDbEntity
  8
0
100
AcDbBlockBegin
  2
block 9
 70
     0
 10
0.0
 20
0.0
 30
0.0
  3
block 9
  1

  0
POLYLINE
  5
394
330
390
100
AcDbEntity
  8
Layer 1
 62
     7
370
    35
100
AcDb2dPolyline
 66
     1
 10
0.0
 20
0.0
 30
0.0
  0
VERTEX
  5
395
330
394
100
AcDbEntity
  8
Layer 1
 62
     7
370
    35
100
AcDbVertex
100
AcDb2dVertex
 10
402.3696688175934
 20
-803.4748799328661
 30
0.0
  0
VERTEX
  5
396
330
394
100
AcDbEntity
  8
Layer 1
 62
     7
370
    35
100
AcDbVertex
100
AcDb2dVertex
 10
402.3696688175934
 20
-813.6494526842288
 30
0.0
  0
VERTEX
  5
397
330
394
100
AcDbEntity
  8
Layer 1
 62
     7
370
    35
100
AcDbVertex
100
AcDb2dVertex
 10
465.3693117461794
 20
-813.6494526842288
 30
0.0
  0
VERTEX
  5
398
330
394
100
AcDbEntity
  8
Layer 1
 62
     7
370
    35
100
AcDbVertex
100
AcDb2dVertex
 10
465.3693117461794
 20
-823.1494757395794
 30
0.0
  0
VERTEX
  5
399
330
394
100
AcDbEntity
  8
Layer 1
 62
     7
370
    35
100
AcDbVertex
100
AcDb2dVertex
 10
402.3696688175934
 20
-823.1494757395794
 30
0.0
  0
VERTEX
  5
39A
330
394
100
AcDbEntity
  8
Layer 1
 62
     7
370
    35
100
AcDbVertex
100
AcDb2dVertex
 10
402.3696688175934
 20
-953.6713968224003
 30
0.0
  0
VERTEX
  5
39B
330
394
100
AcDbEntity
  8
Layer 1
 62
     7
370
    35
100
AcDbVertex
100
AcDb2dVertex
 10
465.3693117461794
 20
-953.6713968224003
 30
0.0
  0
VERTEX
  5
39C
330
394
100
AcDbEntity
  8
Layer 1
 62
     7
370
    35
100
AcDbVertex
100
AcDb2dVertex
 10
465.3693117461794
 20
-963.1714198777511
 30
0.0
  0
VERTEX
  5
39D
330
394
100
AcDbEntity
  8
Layer 1
 62
     7
370
    35
100
AcDbVertex
100
AcDb2dVertex
 10
402.3696688175934
 20
-963.1714198777511
 30
0.0
  0
VERTEX
  5
39E
330
394
100
AcDbEntity
  8
Layer 1
 62
     7
370
    35
100
AcDbVertex
100
AcDb2dVertex
 10
402.3696688175934
 20
-973.474839200262
 30
0.0
  0
VERTEX
  5
39F
330
394
100
AcDbEntity
  8
Layer 1
 62
     7
370
    35
100
AcDbVertex
100
AcDb2dVertex
 10
527.3696616655751
 20
-973.474839200262
 30
0.0
  0
VERTEX
  5
3A0
330
394
100
AcDbEntity
  8
Layer 1
 62
     7
370
    35
100
AcDbVertex
100
AcDb2dVertex
 10
527.3696616655751
 20
-803.4748799328661
 30
0.0
  0
VERTEX
  5
3A1
330
394
100
AcDbEntity
  8
Layer 1
 62
     7
370
    35
100
AcDbVertex
100
AcDb2dVertex
 10
402.3696688175934
 20
-803.4748799328661
 30
0.0
  0
SEQEND
  5
3A2
330
394
100
AcDbEntity
  8
Layer 1
 62
     7
370
    35
  0
POLYLINE
  5
3A3
330
390
100
AcDbEntity
  8
Layer 1
 62
     7
370
    35
100
AcDb2dPolyline
 66
     1
 10
0.0
 20
0.0
 30
0.0
  0
VERTEX
  5
3A4
330
3A3
100
AcDbEntity
  8
Layer 1
 62
     7
370
    35
100
AcDbVertex
100
AcDb2dVertex
 10
454.4466259824778
 20
-876.2154295482587
 30
0.0
  0
VERTEX
  5
3A5
330
3A3
100
AcDbEntity
  8
Layer 1
 62
     7
370
    35
100
AcDbVertex
100
AcDb2dVertex
 10
414.4466259924779
 20
-876.2154295482587
 30
0.0
  0
VERTEX
  5
3A6
330
3A3
100
AcDbEntity
  8
Layer 1
 62
     7
370
    35
100
AcDbVertex
100
AcDb2dVertex
 10
414.4466259924779
 20
-836.2154295582583
 30
0.0
  0
VERTEX
  5
3A7
330
3A3
100
AcDbEntity
  8
Layer 1
 62
     7
370
    35
100
AcDbVertex
100
AcDb2dVertex
 10
454.4466259824778
 20
-836.2154295582583
 30
0.0
  0
VERTEX
  5
3A8
330
3A3
100
AcDbEntity
  8
Layer 1
 62
     7
370
    35
100
AcDbVertex
100
AcDb2dVertex
 10
454.4466259824778
 20
-876.2154295482587
 30
0.0
  0
SEQEND
  5
3A9
330
3A3
100
AcDbEntity
  8
Layer 1
 62
     7
370
    35
  0
ENDBLK
  5
393
330
390
100
AcDbEntity
  8
0
100
AcDbBlockEnd
  0
ENDSEC
  0
SECTION
  2
ENTITIES
  0
POLYLINE
  5
41
330
1F
100
AcDbEntity
  8
Layer 1
 62
     7
370
    35
100
AcDb2dPolyline
 66
     1
 10
0.0
 20
0.0
 30
0.0
  0
VERTEX
  5
42
330
41
100
AcDbEntity
  8
Layer 1
 62
     7
370
    35
100
AcDbVertex
100
AcDb2dVertex
 10
109.5988334381765
 20
-407.885255923555
 30
0.0
  0
VERTEX
  5
43
330
41
100
AcDbEntity
  8
Layer 1
 62
     7
370
    35
100
AcDbVertex
100
AcDb2dVertex
 10
94.0766112198348
 20
-407.885255923555
 30
0.0
  0
VERTEX
  5
44
330
41
100
AcDbEntity
  8
Layer 1
 62
     7
370
    35
100
AcDbVertex
100
AcDb2dVertex
 10
94.0766112198348
 20
-377.5463670422508
 30
0.0
  0
VERTEX
  5
45
330
41
100
AcDbEntity
  8
Layer 1
 62
     7
370
    35
100
AcDbVertex
100
AcDb2dVertex
 10
109.5988334381765
 20
-377.5463670422508
 30
0.0
  0
VERTEX
  5
46
330
41
100
AcDbEntity
  8
Layer 1
 62
     7
370
    35
100
AcDbVertex
100
AcDb2dVertex
 10
109.5988334381765
 20
-407.885255923555
 30
0.0
  0
SEQEND
  5
47
330
41
100
AcDbEntity
  8
Layer 1
 62
     7
370
    35
  0
POLYLINE
  5
48
330
1F
100
AcDbEntity
  8
Layer 1
 62
     7
370
    35
100
AcDb2dPolyline
 66
     1
 10
0.0
 20
0.0
 30
0.0
  0
VERTEX
  5
49
330
48
100
AcDbEntity
  8
Layer 1
 62
     7
370
    35
100
AcDbVertex
100
AcDb2dVertex
 10
1048.39364607941
 20
-1013.941442151368
 30
0.0
  0
VERTEX
  5
4A
330
48
100
AcDbEntity
  8
Layer 1
 62
     7
370
    35
100
AcDbVertex
100
AcDb2dVertex
 10
1048.39364607941
 20
-1089.440968092779
 30
0.0
  0
VERTEX
  5
4B
330
48
100
AcDbEntity
  8
Layer 1
 62
     7
370
    35
100
AcDbVertex
100
AcDb2dVertex
 10
1038.893623024059
 20
-1089.440968092779
 30
0.0
  0
VERTEX
  5
4C
330
48
100
AcDbEntity
  8
Layer 1
 62
     7
370
    35
100
AcDbVertex
100
AcDb2dVertex
 10
1038.893623024059
 20
-1013.941442151368
 30
0.0
  0
VERTEX
  5
4D
330
48
100
AcDbEntity
  8
Layer 1
 62
     7
370
    35
100
AcDbVertex
100
AcDb2dVertex
 10
787.7776847730364
 20
-1013.941442151368
 30
0.0
  0
VERTEX
  5
4E
330
48
100
AcDbEntity
  8
Layer 1
 62
     7
370
    35
100
AcDbVertex
100
AcDb2dVertex
 10
787.7776847730364
 20
-1089.440968092779
 30
0.0
  0
VERTEX
  5
4F
330
48
100
AcDbEntity
  8
Layer 1
 62
     7
370
    35
100
AcDbVertex
100
AcDb2dVertex
 10
778.2776617176856
 20
-1089.440968092779
 30
0.0
  0
VERTEX
  5
50
330
48
100
AcDbEntity
  8
Layer 1
 62
     7
370
    35
100
AcDbVertex
100
AcDb2dVertex
 10
778.2776617176856
 20
-1013.941442151368
 30
0.0
  0
VERTEX
  5
51
330
48
100
AcDbEntity
  8
Layer 1
 62
     7
370
    35
100
AcDbVertex
100
AcDb2dVertex
 10
763.3356797064472
 20
-1013.941442151368
 30
0.0
  0
VERTEX
  5
52
330
48
100
AcDbEntity
  8
Layer 1
 62
     7
370
    35
100
AcDbVertex
100
AcDb2dVertex
 10
763.3356797064472
 20
-1163.941416343468
 30
0.0
  0
VERTEX
  5
53
330
48
100
AcDbEntity
  8
Layer 1
 62
     7
370
    35
100
AcDbVertex
100
AcDb2dVertex
 10
1063.335714218036
 20
-1163.941416343468
 30
0.0
  0
VERTEX
  5
54
330
48
100
AcDbEntity
  8
Layer 1
 62
     7
370
    35
100
AcDbVertex
100
AcDb2dVertex
 10
1063.335714218036
 20
-1013.941442151368
 30
0.0
  0
VERTEX
  5
55
330
48
100
AcDbEntity
  8
Layer 1
 62
     7
370
    35
100
AcDbVertex
100
AcDb2dVertex
 10
1048.39364607941
 20
-1013.941442151368
 30
0.0
  0
SEQEND
  5
56
330
48
100
AcDbEntity
  8
Layer 1
 62
     7
370
    35
  0
POLYLINE
  5
57
330
1F
100
AcDbEntity
  8
Layer 1
 62
     7
370
    35
100
AcDb2dPolyline
 66
     1
 10
0.0
 20
0.0
 30
0.0
  0
VERTEX
  5
58
330
57
100
AcDbEntity
  8
Layer 1
 62
     7
370
    35
100
AcDbVertex
100
AcDb2dVertex
 10
650.047509433571
 20
-170.1674912315665
 30
0.0
  0
VERTEX
  5
59
330
57
100
AcDbEntity
  8
Layer 1
 62
     7
370
    35
100
AcDbVertex
100
AcDb2dVertex
 10
420.8035350171407
 20
-170.1674912315665
 30
0.0
  0
VERTEX
  5
5A
330
57
100
AcDbEntity
  8
Layer 1
 62
     7
370
    35
100
AcDbVertex
100
AcDb2dVertex
 10
372.6595313941941
 20
-227.1073834563723
 30
0.0
  0
VERTEX
  5
5B
330
57
100
AcDbEntity
  8
Layer 1
 62
     7
370
    35
100
AcDbVertex
100
AcDb2dVertex
 10
385.7123091687087
 20
-227.1073834563723
 30
0.0
  0
VERTEX
  5
5C
330
57
100
AcDbEntity
  8
Layer 1
 62
     7
370
    35
100
AcDbVertex
100
AcDb2dVertex
 10
385.7123091687087
 20
-320.1675084873607
 30
0.0
  0
VERTEX
  5
5D
330
57
100
AcDbEntity
  8
Layer 1
 62
     7
370
    35
100
AcDbVertex
100
AcDb2dVertex
 10
401.2070136868619
 20
-320.1675084873607
 30
0.0
  0
VERTEX
  5
5E
330
57
100
AcDbEntity
  8
Layer 1
 62
     7
370
    35
100
AcDbVertex
100
AcDb2dVertex
 10
401.2070136868619
 20
-244.667896418562
 30
0.0
  0
VERTEX
  5
5F
330
57
100
AcDbEntity
  8
Layer 1
 62
     7
370
    35
100
AcDbVertex
100
AcDb2dVertex
 10
410.706993678519
 20
-244.667896418562
 30
0.0
  0
VERTEX
  5
60
330
57
100
AcDbEntity
  8
Layer 1
 62
     7
370
    35
100
AcDbVertex
100
AcDb2dVertex
 10
410.706993678519
 20
-320.1675084873607
 30
0.0
  0
VERTEX
  5
61
330
57
100
AcDbEntity
  8
Layer 1
 62
     7
370
    35
100
AcDbVertex
100
AcDb2dVertex
 10
488.1677263522962
 20
-320.1675084873607
 30
0.0
  0
VERTEX
  5
62
330
57
100
AcDbEntity
  8
Layer 1
 62
     7
370
    35
100
AcDbVertex
100
AcDb2dVertex
 10
488.1677263522962
 20
-266.0901891649426
 30
0.0
  0
VERTEX
  5
63
330
57
100
AcDbEntity
  8
Layer 1
 62
     7
370
    35
100
AcDbVertex
100
AcDb2dVertex
 10
582.0526072424534
 20
-266.0901891649426
 30
0.0
  0
VERTEX
  5
64
330
57
100
AcDbEntity
  8
Layer 1
 62
     7
370
    35
100
AcDbVertex
100
AcDb2dVertex
 10
582.0526072424534
 20
-320.1675084873607
 30
0.0
  0
VERTEX
  5
65
330
57
100
AcDbEntity
  8
Layer 1
 62
     7
370
    35
100
AcDbVertex
100
AcDb2dVertex
 10
661.8230180569293
 20
-320.1675084873607
 30
0.0
  0
VERTEX
  5
66
330
57
100
AcDbEntity
  8
Layer 1
 62
     7
370
    35
100
AcDbVertex
100
AcDb2dVertex
 10
661.8230180569293
 20
-244.667896418562
 30
0.0
  0
VERTEX
  5
67
330
57
100
AcDbEntity
  8
Layer 1
 62
     7
370
    35
100
AcDbVertex
100
AcDb2dVertex
 10
671.32304111228
 20
-244.667896418562
 30
0.0
  0
VERTEX
  5
68
330
57
100
AcDbEntity
  8
Layer 1
 62
     7
370
    35
100
AcDbVertex
100
AcDb2dVertex
 10
671.32304111228
 20
-320.1675084873607
 30
0.0
  0
VERTEX
  5
69
330
57
100
AcDbEntity
  8
Layer 1
 62
     7
370
    35
100
AcDbVertex
100
AcDb2dVertex
 10
685.7123436802972
 20
-320.1675084873607
 30
0.0
  0
VERTEX
  5
6A
330
57
100
AcDbEntity
  8
Layer 1
 62
     7
370
    35
100
AcDbVertex
100
AcDb2dVertex
 10
685.7123436802972
 20
-227.1074049882191
 30
0.0
  0
VERTEX
  5
6B
330
57
100
AcDbEntity
  8
Layer 1
 62
     7
370
    35
100
AcDbVertex
100
AcDb2dVertex
 10
698.9789757570587
 20
-227.1074049882191
 30
0.0
  0
VERTEX
  5
6C
330
57
100
AcDbEntity
  8
Layer 1
 62
     7
370
    35
100
AcDbVertex
100
AcDb2dVertex
 10
650.047509433571
 20
-170.1674912315665
 30
0.0
  0
SEQEND
  5
6D
330
57
100
AcDbEntity
  8
Layer 1
 62
     7
370
    35
  0
POLYLINE
  5
6E
330
1F
100
AcDbEntity
  8
Layer 1
 62
     7
370
    35
100
AcDb2dPolyline
 66
     1
 10
0.0
 20
0.0
 30
0.0
  0
VERTEX
  5
6F
330
6E
100
AcDbEntity
  8
Layer 1
 62
     7
370
    35
100
AcDbVertex
100
AcDb2dVertex
 10
451.4927039819077
 20
-310.0726251009414
 30
0.0
  0
VERTEX
  5
70
330
6E
100
AcDbEntity
  8
Layer 1
 62
     7
370
    35
100
AcDbVertex
100
AcDb2dVertex
 10
436.4927151754363
 20
-310.0726251009414
 30
0.0
  0
VERTEX
  5
71
330
6E
100
AcDbEntity
  8
Layer 1
 62
     7
370
    35
100
AcDbVertex
100
AcDb2dVertex
 10
436.4927151754363
 20
-295.0726147626232
 30
0.0
  0
VERTEX
  5
72
330
6E
100
AcDbEntity
  8
Layer 1
 62
     7
370
    35
100
AcDbVertex
100
AcDb2dVertex
 10
451.4927039819077
 20
-295.0726147626232
 30
0.0
  0
VERTEX
  5
73
330
6E
100
AcDbEntity
  8
Layer 1
 62
     7
370
    35
100
AcDbVertex
100
AcDb2dVertex
 10
451.4927039819077
 20
-310.0726251009414
 30
0.0
  0
SEQEND
  5
74
330
6E
100
AcDbEntity
  8
Layer 1
 62
     7
370
    35
  0
POLYLINE
  5
75
330
1F
100
AcDbEntity
  8
Layer 1
 62
     7
370
    35
100
AcDb2dPolyline
 66
     1
 10
0.0
 20
0.0
 30
0.0
  0
VERTEX
  5
76
330
75
100
AcDbEntity
  8
Layer 1
 62
     7
370
    35
100
AcDbVertex
100
AcDb2dVertex
 10
451.4927039819077
 20
-284.3103948488641
 30
0.0
  0
VERTEX
  5
77
330
75
100
AcDbEntity
  8
Layer 1
 62
     7
370
    35
100
AcDbVertex
100
AcDb2dVertex
 10
436.4927151754363
 20
-284.3103948488641
 30
0.0
  0
VERTEX
  5
78
330
75
100
AcDbEntity
  8
Layer 1
 62
     7
370
    35
100
AcDbVertex
100
AcDb2dVertex
 10
436.4927151754363
 20
-269.3104060423927
 30
0.0
  0
VERTEX
  5
79
330
75
100
AcDbEntity
  8
Layer 1
 62
     7
370
    35
100
AcDbVertex
100
AcDb2dVertex
 10
451.4927039819077
 20
-269.3104060423927
 30
0.0
  0
VERTEX
  5
7A
330
75
100
AcDbEntity
  8
Layer 1
 62
     7
370
    35
100
AcDbVertex
100
AcDb2dVertex
 10
451.4927039819077
 20
-284.3103948488641
 30
0.0
  0
SEQEND
  5
7B
330
75
100
AcDbEntity
  8
Layer 1
 62
     7
370
    35
  0
POLYLINE
  5
7C
330
1F
100
AcDbEntity
  8
Layer 1
 62
     7
370
    35
100
AcDb2dPolyline
 66
     1
 10
0.0
 20
0.0
 30
0.0
  0
VERTEX
  5
7D
330
7C
100
AcDbEntity
  8
Layer 1
 62
     7
370
    35
100
AcDbVertex
100
AcDb2dVertex
 10
451.4927039819077
 20
-258.5481645967869
 30
0.0
  0
VERTEX
  5
7E
330
7C
100
AcDbEntity
  8
Layer 1
 62
     7
370
    35
100
AcDbVertex
100
AcDb2dVertex
 10
436.4927151754363
 20
-258.5481645967869
 30
0.0
  0
VERTEX
  5
7F
330
7C
100
AcDbEntity
  8
Layer 1
 62
     7
370
    35
100
AcDbVertex
100
AcDb2dVertex
 10
436.4927151754363
 20
-243.5481757903155
 30
0.0
  0
VERTEX
  5
80
330
7C
100
AcDbEntity
  8
Layer 1
 62
     7
370
    35
100
AcDbVertex
100
AcDb2dVertex
 10
451.4927039819077
 20
-243.5481757903155
 30
0.0
  0
VERTEX
  5
81
330
7C
100
AcDbEntity
  8
Layer 1
 62
     7
370
    35
100
AcDbVertex
100
AcDb2dVertex
 10
451.4927039819077
 20
-258.5481645967869
 30
0.0
  0
SEQEND
  5
82
330
7C
100
AcDbEntity
  8
Layer 1
 62
     7
370
    35
  0
POLYLINE
  5
83
330
1F
100
AcDbEntity
  8
Layer 1
 62
     7
370
    35
100
AcDb2dPolyline
 66
     1
 10
0.0
 20
0.0
 30
0.0
  0
VERTEX
  5
84
330
83
100
AcDbEntity
  8
Layer 1
 62
     7
370
    35
100
AcDbVertex
100
AcDb2dVertex
 10
477.3760508721382
 20
-310.0726035690946
 30
0.0
  0
VERTEX
  5
85
330
83
100
AcDbEntity
  8
Layer 1
 62
     7
370
    35
100
AcDbVertex
100
AcDb2dVertex
 10
462.3760620656669
 20
-310.0726035690946
 30
0.0
  0
VERTEX
  5
86
330
83
100
AcDbEntity
  8
Layer 1
 62
     7
370
    35
100
AcDbVertex
100
AcDb2dVertex
 10
462.3760620656669
 20
-295.0726147626232
 30
0.0
  0
VERTEX
  5
87
330
83
100
AcDbEntity
  8
Layer 1
 62
     7
370
    35
100
AcDbVertex
100
AcDb2dVertex
 10
477.3760508721382
 20
-295.0726147626232
 30
0.0
  0
VERTEX
  5
88
330
83
100
AcDbEntity
  8
Layer 1
 62
     7
370
    35
100
AcDbVertex
100
AcDb2dVertex
 10
477.3760508721382
 20
-310.0726035690946
 30
0.0
  0
SEQEND
  5
89
330
83
100
AcDbEntity
  8
Layer 1
 62
     7
370
    35
  0
POLYLINE
  5
8A
330
1F
100
AcDbEntity
  8
Layer 1
 62
     7
370
    35
100
AcDb2dPolyline
 66
     1
 10
0.0
 20
0.0
 30
0.0
  0
VERTEX
  5
8B
330
8A
100
AcDbEntity
  8
Layer 1
 62
     7
370
    35
100
AcDbVertex
100
AcDb2dVertex
 10
477.3760508721382
 20
-284.3103948488641
 30
0.0
  0
VERTEX
  5
8C
330
8A
100
AcDbEntity
  8
Layer 1
 62
     7
370
    35
100
AcDbVertex
100
AcDb2dVertex
 10
462.3760620656669
 20
-284.3103948488641
 30
0.0
  0
VERTEX
  5
8D
330
8A
100
AcDbEntity
  8
Layer 1
 62
     7
370
    35
100
AcDbVertex
100
AcDb2dVertex
 10
462.3760620656669
 20
-269.310384510546
 30
0.0
  0
VERTEX
  5
8E
330
8A
100
AcDbEntity
  8
Layer 1
 62
     7
370
    35
100
AcDbVertex
100
AcDb2dVertex
 10
477.3760508721382
 20
-269.310384510546
 30
0.0
  0
VERTEX
  5
8F
330
8A
100
AcDbEntity
  8
Layer 1
 62
     7
370
    35
100
AcDbVertex
100
AcDb2dVertex
 10
477.3760508721382
 20
-284.3103948488641
 30
0.0
  0
SEQEND
  5
90
330
8A
100
AcDbEntity
  8
Layer 1
 62
     7
370
    35
  0
POLYLINE
  5
91
330
1F
100
AcDbEntity
  8
Layer 1
 62
     7
370
    35
100
AcDb2dPolyline
 66
     1
 10
0.0
 20
0.0
 30
0.0
  0
VERTEX
  5
92
330
91
100
AcDbEntity
  8
Layer 1
 62
     7
370
    35
100
AcDbVertex
100
AcDb2dVertex
 10
477.3760508721382
 20
-258.5481645967869
 30
0.0
  0
VERTEX
  5
93
330
91
100
AcDbEntity
  8
Layer 1
 62
     7
370
    35
100
AcDbVertex
100
AcDb2dVertex
 10
462.3760620656669
 20
-258.5481645967869
 30
0.0
  0
VERTEX
  5
94
330
91
100
AcDbEntity
  8
Layer 1
 62
     7
370
    35
100
AcDbVertex
100
AcDb2dVertex
 10
462.3760620656669
 20
-243.5481542584687
 30
0.0
  0
VERTEX
  5
95
330
91
100
AcDbEntity
  8
Layer 1
 62
     7
370
    35
100
AcDbVertex
100
AcDb2dVertex
 10
477.3760508721382
 20
-243.5481542584687
 30
0.0
  0
VERTEX
  5
96
330
91
100
AcDbEntity
  8
Layer 1
 62
     7
370
    35
100
AcDbVertex
100
AcDb2dVertex
 10
477.3760508721382
 20
-258.5481645967869
 30
0.0
  0
SEQEND
  5
97
330
91
100
AcDbEntity
  8
Layer 1
 62
     7
370
    35
  0
POLYLINE
  5
98
330
1F
100
AcDbEntity
  8
Layer 1
 62
     7
370
    35
100
AcDb2dPolyline
 66
     1
 10
0.0
 20
0.0
 30
0.0
  0
VERTEX
  5
99
330
98
100
AcDbEntity
  8
Layer 1
 62
     7
370
    35
100
AcDbVertex
100
AcDb2dVertex
 10
503.2593977623688
 20
-258.5481645967869
 30
0.0
  0
VERTEX
  5
9A
330
98
100
AcDbEntity
  8
Layer 1
 62
     7
370
    35
100
AcDbVertex
100
AcDb2dVertex
 10
488.2593658922038
 20
-258.5481645967869
 30
0.0
  0
VERTEX
  5
9B
330
98
100
AcDbEntity
  8
Layer 1
 62
     7
370
    35
100
AcDbVertex
100
AcDb2dVertex
 10
488.2593658922038
 20
-243.5481757903155
 30
0.0
  0
VERTEX
  5
9C
330
98
100
AcDbEntity
  8
Layer 1
 62
     7
370
    35
100
AcDbVertex
100
AcDb2dVertex
 10
503.2593977623688
 20
-243.5481757903155
 30
0.0
  0
VERTEX
  5
9D
330
98
100
AcDbEntity
  8
Layer 1
 62
     7
370
    35
100
AcDbVertex
100
AcDb2dVertex
 10
503.2593977623688
 20
-258.5481645967869
 30
0.0
  0
SEQEND
  5
9E
330
98
100
AcDbEntity
  8
Layer 1
 62
     7
370
    35
  0
POLYLINE
  5
9F
330
1F
100
AcDbEntity
  8
Layer 1
 62
     7
370
    35
100
AcDb2dPolyline
 66
     1
 10
0.0
 20
0.0
 30
0.0
  0
VERTEX
  5
A0
330
9F
100
AcDbEntity
  8
Layer 1
 62
     7
370
    35
100
AcDbVertex
100
AcDb2dVertex
 10
530.3775960655936
 20
-258.5481645967869
 30
0.0
  0
VERTEX
  5
A1
330
9F
100
AcDbEntity
  8
Layer 1
 62
     7
370
    35
100
AcDbVertex
100
AcDb2dVertex
 10
515.3776072591222
 20
-258.5481645967869
 30
0.0
  0
VERTEX
  5
A2
330
9F
100
AcDbEntity
  8
Layer 1
 62
     7
370
    35
100
AcDbVertex
100
AcDb2dVertex
 10
515.3776072591222
 20
-243.5481757903155
 30
0.0
  0
VERTEX
  5
A3
330
9F
100
AcDbEntity
  8
Layer 1
 62
     7
370
    35
100
AcDbVertex
100
AcDb2dVertex
 10
530.3775960655936
 20
-243.5481757903155
 30
0.0
  0
VERTEX
  5
A4
330
9F
100
AcDbEntity
  8
Layer 1
 62
     7
370
    35
100
AcDbVertex
100
AcDb2dVertex
 10
530.3775960655936
 20
-258.5481645967869
 30
0.0
  0
SEQEND
  5
A5
330
9F
100
AcDbEntity
  8
Layer 1
 62
     7
370
    35
  0
POLYLINE
  5
A6
330
1F
100
AcDbEntity
  8
Layer 1
 62
     7
370
    35
100
AcDb2dPolyline
 66
     1
 10
0.0
 20
0.0
 30
0.0
  0
VERTEX
  5
A7
330
A6
100
AcDbEntity
  8
Layer 1
 62
     7
370
    35
100
AcDbVertex
100
AcDb2dVertex
 10
556.2608998921305
 20
-258.5481861286336
 30
0.0
  0
VERTEX
  5
A8
330
A6
100
AcDbEntity
  8
Layer 1
 62
     7
370
    35
100
AcDbVertex
100
AcDb2dVertex
 10
541.2609110856592
 20
-258.5481861286336
 30
0.0
  0
VERTEX
  5
A9
330
A6
100
AcDbEntity
  8
Layer 1
 62
     7
370
    35
100
AcDbVertex
100
AcDb2dVertex
 10
541.2609110856592
 20
-243.5481757903155
 30
0.0
  0
VERTEX
  5
AA
330
A6
100
AcDbEntity
  8
Layer 1
 62
     7
370
    35
100
AcDbVertex
100
AcDb2dVertex
 10
556.2608998921305
 20
-243.5481757903155
 30
0.0
  0
VERTEX
  5
AB
330
A6
100
AcDbEntity
  8
Layer 1
 62
     7
370
    35
100
AcDbVertex
100
AcDb2dVertex
 10
556.2608998921305
 20
-258.5481861286336
 30
0.0
  0
SEQEND
  5
AC
330
A6
100
AcDbEntity
  8
Layer 1
 62
     7
370
    35
  0
POLYLINE
  5
AD
330
1F
100
AcDbEntity
  8
Layer 1
 62
     7
370
    35
100
AcDb2dPolyline
 66
     1
 10
0.0
 20
0.0
 30
0.0
  0
VERTEX
  5
AE
330
AD
100
AcDbEntity
  8
Layer 1
 62
     7
370
    35
100
AcDbVertex
100
AcDb2dVertex
 10
582.144246782361
 20
-258.5481645967869
 30
0.0
  0
VERTEX
  5
AF
330
AD
100
AcDbEntity
  8
Layer 1
 62
     7
370
    35
100
AcDbVertex
100
AcDb2dVertex
 10
567.1442579758898
 20
-258.5481645967869
 30
0.0
  0
VERTEX
  5
B0
330
AD
100
AcDbEntity
  8
Layer 1
 62
     7
370
    35
100
AcDbVertex
100
AcDb2dVertex
 10
567.1442579758898
 20
-243.5481757903155
 30
0.0
  0
VERTEX
  5
B1
330
AD
100
AcDbEntity
  8
Layer 1
 62
     7
370
    35
100
AcDbVertex
100
AcDb2dVertex
 10
582.144246782361
 20
-243.5481757903155
 30
0.0
  0
VERTEX
  5
B2
330
AD
100
AcDbEntity
  8
Layer 1
 62
     7
370
    35
100
AcDbVertex
100
AcDb2dVertex
 10
582.144246782361
 20
-258.5481645967869
 30
0.0
  0
SEQEND
  5
B3
330
AD
100
AcDbEntity
  8
Layer 1
 62
     7
370
    35
  0
POLYLINE
  5
B4
330
1F
100
AcDbEntity
  8
Layer 1
 62
     7
370
    35
100
AcDb2dPolyline
 66
     1
 10
0.0
 20
0.0
 30
0.0
  0
VERTEX
  5
B5
330
B4
100
AcDbEntity
  8
Layer 1
 62
     7
370
    35
100
AcDbVertex
100
AcDb2dVertex
 10
608.0275936725917
 20
-310.0726251009414
 30
0.0
  0
VERTEX
  5
B6
330
B4
100
AcDbEntity
  8
Layer 1
 62
     7
370
    35
100
AcDbVertex
100
AcDb2dVertex
 10
593.0275618024267
 20
-310.0726251009414
 30
0.0
  0
VERTEX
  5
B7
330
B4
100
AcDbEntity
  8
Layer 1
 62
     7
370
    35
100
AcDbVertex
100
AcDb2dVertex
 10
593.0275618024267
 20
-295.07263629447
 30
0.0
  0
VERTEX
  5
B8
330
B4
100
AcDbEntity
  8
Layer 1
 62
     7
370
    35
100
AcDbVertex
100
AcDb2dVertex
 10
608.0275936725917
 20
-295.07263629447
 30
0.0
  0
VERTEX
  5
B9
330
B4
100
AcDbEntity
  8
Layer 1
 62
     7
370
    35
100
AcDbVertex
100
AcDb2dVertex
 10
608.0275936725917
 20
-310.0726251009414
 30
0.0
  0
SEQEND
  5
BA
330
B4
100
AcDbEntity
  8
Layer 1
 62
     7
370
    35
  0
POLYLINE
  5
BB
330
1F
100
AcDbEntity
  8
Layer 1
 62
     7
370
    35
100
AcDb2dPolyline
 66
     1
 10
0.0
 20
0.0
 30
0.0
  0
VERTEX
  5
BC
330
BB
100
AcDbEntity
  8
Layer 1
 62
     7
370
    35
100
AcDbVertex
100
AcDb2dVertex
 10
608.0275936725917
 20
-284.3104163807109
 30
0.0
  0
VERTEX
  5
BD
330
BB
100
AcDbEntity
  8
Layer 1
 62
     7
370
    35
100
AcDbVertex
100
AcDb2dVertex
 10
593.0275618024267
 20
-284.3104163807109
 30
0.0
  0
VERTEX
  5
BE
330
BB
100
AcDbEntity
  8
Layer 1
 62
     7
370
    35
100
AcDbVertex
100
AcDb2dVertex
 10
593.0275618024267
 20
-269.3104060423927
 30
0.0
  0
VERTEX
  5
BF
330
BB
100
AcDbEntity
  8
Layer 1
 62
     7
370
    35
100
AcDbVertex
100
AcDb2dVertex
 10
608.0275936725917
 20
-269.3104060423927
 30
0.0
  0
VERTEX
  5
C0
330
BB
100
AcDbEntity
  8
Layer 1
 62
     7
370
    35
100
AcDbVertex
100
AcDb2dVertex
 10
608.0275936725917
 20
-284.3104163807109
 30
0.0
  0
SEQEND
  5
C1
330
BB
100
AcDbEntity
  8
Layer 1
 62
     7
370
    35
  0
POLYLINE
  5
C2
330
1F
100
AcDbEntity
  8
Layer 1
 62
     7
370
    35
100
AcDb2dPolyline
 66
     1
 10
0.0
 20
0.0
 30
0.0
  0
VERTEX
  5
C3
330
C2
100
AcDbEntity
  8
Layer 1
 62
     7
370
    35
100
AcDbVertex
100
AcDb2dVertex
 10
608.0275936725917
 20
-258.5481861286336
 30
0.0
  0
VERTEX
  5
C4
330
C2
100
AcDbEntity
  8
Layer 1
 62
     7
370
    35
100
AcDbVertex
100
AcDb2dVertex
 10
593.0275618024267
 20
-258.5481861286336
 30
0.0
  0
VERTEX
  5
C5
330
C2
100
AcDbEntity
  8
Layer 1
 62
     7
370
    35
100
AcDbVertex
100
AcDb2dVertex
 10
593.0275618024267
 20
-243.5481757903155
 30
0.0
  0
VERTEX
  5
C6
330
C2
100
AcDbEntity
  8
Layer 1
 62
     7
370
    35
100
AcDbVertex
100
AcDb2dVertex
 10
608.0275936725917
 20
-243.5481757903155
 30
0.0
  0
VERTEX
  5
C7
330
C2
100
AcDbEntity
  8
Layer 1
 62
     7
370
    35
100
AcDbVertex
100
AcDb2dVertex
 10
608.0275936725917
 20
-258.5481861286336
 30
0.0
  0
SEQEND
  5
C8
330
C2
100
AcDbEntity
  8
Layer 1
 62
     7
370
    35
  0
POLYLINE
  5
C9
330
1F
100
AcDbEntity
  8
Layer 1
 62
     7
370
    35
100
AcDb2dPolyline
 66
     1
 10
0.0
 20
0.0
 30
0.0
  0
VERTEX
  5
CA
330
C9
100
AcDbEntity
  8
Layer 1
 62
     7
370
    35
100
AcDbVertex
100
AcDb2dVertex
 10
635.1457489121228
 20
-310.0726251009414
 30
0.0
  0
VERTEX
  5
CB
330
C9
100
AcDbEntity
  8
Layer 1
 62
     7
370
    35
100
AcDbVertex
100
AcDb2dVertex
 10
620.1458031693451
 20
-310.0726251009414
 30
0.0
  0
VERTEX
  5
CC
330
C9
100
AcDbEntity
  8
Layer 1
 62
     7
370
    35
100
AcDbVertex
100
AcDb2dVertex
 10
620.1458031693451
 20
-295.0726147626232
 30
0.0
  0
VERTEX
  5
CD
330
C9
100
AcDbEntity
  8
Layer 1
 62
     7
370
    35
100
AcDbVertex
100
AcDb2dVertex
 10
635.1457489121228
 20
-295.0726147626232
 30
0.0
  0
VERTEX
  5
CE
330
C9
100
AcDbEntity
  8
Layer 1
 62
     7
370
    35
100
AcDbVertex
100
AcDb2dVertex
 10
635.1457489121228
 20
-310.0726251009414
 30
0.0
  0
SEQEND
  5
CF
330
C9
100
AcDbEntity
  8
Layer 1
 62
     7
370
    35
  0
POLYLINE
  5
D0
330
1F
100
AcDbEntity
  8
Layer 1
 62
     7
370
    35
100
AcDb2dPolyline
 66
     1
 10
0.0
 20
0.0
 30
0.0
  0
VERTEX
  5
D1
330
D0
100
AcDbEntity
  8
Layer 1
 62
     7
370
    35
100
AcDbVertex
100
AcDb2dVertex
 10
635.1457489121228
 20
-284.3103948488641
 30
0.0
  0
VERTEX
  5
D2
330
D0
100
AcDbEntity
  8
Layer 1
 62
     7
370
    35
100
AcDbVertex
100
AcDb2dVertex
 10
620.1458031693451
 20
-284.3103948488641
 30
0.0
  0
VERTEX
  5
D3
330
D0
100
AcDbEntity
  8
Layer 1
 62
     7
370
    35
100
AcDbVertex
100
AcDb2dVertex
 10
620.1458031693451
 20
-269.3104060423927
 30
0.0
  0
VERTEX
  5
D4
330
D0
100
AcDbEntity
  8
Layer 1
 62
     7
370
    35
100
AcDbVertex
100
AcDb2dVertex
 10
635.1457489121228
 20
-269.3104060423927
 30
0.0
  0
VERTEX
  5
D5
330
D0
100
AcDbEntity
  8
Layer 1
 62
     7
370
    35
100
AcDbVertex
100
AcDb2dVertex
 10
635.1457489121228
 20
-284.3103948488641
 30
0.0
  0
SEQEND
  5
D6
330
D0
100
AcDbEntity
  8
Layer 1
 62
     7
370
    35
  0
POLYLINE
  5
D7
330
1F
100
AcDbEntity
  8
Layer 1
 62
     7
370
    35
100
AcDb2dPolyline
 66
     1
 10
0.0
 20
0.0
 30
0.0
  0
VERTEX
  5
D8
330
D7
100
AcDbEntity
  8
Layer 1
 62
     7
370
    35
100
AcDbVertex
100
AcDb2dVertex
 10
635.1457489121228
 20
-258.5481861286336
 30
0.0
  0
VERTEX
  5
D9
330
D7
100
AcDbEntity
  8
Layer 1
 62
     7
370
    35
100
AcDbVertex
100
AcDb2dVertex
 10
620.1458031693451
 20
-258.5481861286336
 30
0.0
  0
VERTEX
  5
DA
330
D7
100
AcDbEntity
  8
Layer 1
 62
     7
370
    35
100
AcDbVertex
100
AcDb2dVertex
 10
620.1458031693451
 20
-243.5481757903155
 30
0.0
  0
VERTEX
  5
DB
330
D7
100
AcDbEntity
  8
Layer 1
 62
     7
370
    35
100
AcDbVertex
100
AcDb2dVertex
 10
635.1457489121228
 20
-243.5481757903155
 30
0.0
  0
VERTEX
  5
DC
330
D7
100
AcDbEntity
  8
Layer 1
 62
     7
370
    35
100
AcDbVertex
100
AcDb2dVertex
 10
635.1457489121228
 20
-258.5481861286336
 30
0.0
  0
SEQEND
  5
DD
330
D7
100
AcDbEntity
  8
Layer 1
 62
     7
370
    35
  0
POLYLINE
  5
DE
330
1F
100
AcDbEntity
  8
Layer 1
 62
     7
370
    35
100
AcDb2dPolyline
 66
     1
 10
0.0
 20
0.0
 30
0.0
  0
VERTEX
  5
DF
330
DE
100
AcDbEntity
  8
Layer 1
 62
     7
370
    35
100
AcDbVertex
100
AcDb2dVertex
 10
299.236816670525
 20
-170.0389911226514
 30
0.0
  0
VERTEX
  5
E0
330
DE
100
AcDbEntity
  8
Layer 1
 62
     7
370
    35
100
AcDbVertex
100
AcDb2dVertex
 10
69.99286378594145
 20
-170.0389911226514
 30
0.0
  0
VERTEX
  5
E1
330
DE
100
AcDbEntity
  8
Layer 1
 62
     7
370
    35
100
AcDbVertex
100
AcDb2dVertex
 10
21.84883863114803
 20
-226.9788833474572
 30
0.0
  0
VERTEX
  5
E2
330
DE
100
AcDbEntity
  8
Layer 1
 62
     7
370
    35
100
AcDbVertex
100
AcDb2dVertex
 10
34.90161640566262
 20
-226.9788833474572
 30
0.0
  0
VERTEX
  5
E3
330
DE
100
AcDbEntity
  8
Layer 1
 62
     7
370
    35
100
AcDbVertex
100
AcDb2dVertex
 10
34.90161640566262
 20
-320.0390083784457
 30
0.0
  0
VERTEX
  5
E4
330
DE
100
AcDbEntity
  8
Layer 1
 62
     7
370
    35
100
AcDbVertex
100
AcDb2dVertex
 10
49.94380763182829
 20
-320.0390083784457
 30
0.0
  0
VERTEX
  5
E5
330
DE
100
AcDbEntity
  8
Layer 1
 62
     7
370
    35
100
AcDbVertex
100
AcDb2dVertex
 10
49.94380763182829
 20
-244.6678983712468
 30
0.0
  0
VERTEX
  5
E6
330
DE
100
AcDbEntity
  8
Layer 1
 62
     7
370
    35
100
AcDbVertex
100
AcDb2dVertex
 10
59.44380915533219
 20
-244.6678983712468
 30
0.0
  0
VERTEX
  5
E7
330
DE
100
AcDbEntity
  8
Layer 1
 62
     7
370
    35
100
AcDbVertex
100
AcDb2dVertex
 10
59.44380915533219
 20
-320.0390083784457
 30
0.0
  0
VERTEX
  5
E8
330
DE
100
AcDbEntity
  8
Layer 1
 62
     7
370
    35
100
AcDbVertex
100
AcDb2dVertex
 10
310.5598120018956
 20
-320.0390083784457
 30
0.0
  0
VERTEX
  5
E9
330
DE
100
AcDbEntity
  8
Layer 1
 62
     7
370
    35
100
AcDbVertex
100
AcDb2dVertex
 10
310.5598120018956
 20
-244.6678983712468
 30
0.0
  0
VERTEX
  5
EA
330
DE
100
AcDbEntity
  8
Layer 1
 62
     7
370
    35
100
AcDbVertex
100
AcDb2dVertex
 10
320.0597919935528
 20
-244.6678983712468
 30
0.0
  0
VERTEX
  5
EB
330
DE
100
AcDbEntity
  8
Layer 1
 62
     7
370
    35
100
AcDbVertex
100
AcDb2dVertex
 10
320.0597919935528
 20
-320.0390083784457
 30
0.0
  0
VERTEX
  5
EC
330
DE
100
AcDbEntity
  8
Layer 1
 62
     7
370
    35
100
AcDbVertex
100
AcDb2dVertex
 10
334.9016078535576
 20
-320.0390083784457
 30
0.0
  0
VERTEX
  5
ED
330
DE
100
AcDbEntity
  8
Layer 1
 62
     7
370
    35
100
AcDbVertex
100
AcDb2dVertex
 10
334.9016078535576
 20
-226.978904879304
 30
0.0
  0
VERTEX
  5
EE
330
DE
100
AcDbEntity
  8
Layer 1
 62
     7
370
    35
100
AcDbVertex
100
AcDb2dVertex
 10
348.1682829940127
 20
-226.978904879304
 30
0.0
  0
VERTEX
  5
EF
330
DE
100
AcDbEntity
  8
Layer 1
 62
     7
370
    35
100
AcDbVertex
100
AcDb2dVertex
 10
299.236816670525
 20
-170.0389911226514
 30
0.0
  0
SEQEND
  5
F0
330
DE
100
AcDbEntity
  8
Layer 1
 62
     7
370
    35
  0
POLYLINE
  5
F1
330
1F
100
AcDbEntity
  8
Layer 1
 62
     7
370
    35
100
AcDb2dPolyline
 66
     1
 10
0.0
 20
0.0
 30
0.0
  0
VERTEX
  5
F2
330
F1
100
AcDbEntity
  8
Layer 1
 62
     7
370
    35
100
AcDbVertex
100
AcDb2dVertex
 10
100.590371678954
 20
-306.7239081145761
 30
0.0
  0
VERTEX
  5
F3
330
F1
100
AcDbEntity
  8
Layer 1
 62
     7
370
    35
100
AcDbVertex
100
AcDb2dVertex
 10
85.59036134063584
 20
-306.7239081145761
 30
0.0
  0
VERTEX
  5
F4
330
F1
100
AcDbEntity
  8
Layer 1
 62
     7
370
    35
100
AcDbVertex
100
AcDb2dVertex
 10
85.59036134063584
 20
-291.723897776258
 30
0.0
  0
VERTEX
  5
F5
330
F1
100
AcDbEntity
  8
Layer 1
 62
     7
370
    35
100
AcDbVertex
100
AcDb2dVertex
 10
100.590371678954
 20
-291.723897776258
 30
0.0
  0
VERTEX
  5
F6
330
F1
100
AcDbEntity
  8
Layer 1
 62
     7
370
    35
100
AcDbVertex
100
AcDb2dVertex
 10
100.590371678954
 20
-306.7239081145761
 30
0.0
  0
SEQEND
  5
F7
330
F1
100
AcDbEntity
  8
Layer 1
 62
     7
370
    35
  0
POLYLINE
  5
F8
330
1F
100
AcDbEntity
  8
Layer 1
 62
     7
370
    35
100
AcDb2dPolyline
 66
     1
 10
0.0
 20
0.0
 30
0.0
  0
VERTEX
  5
F9
330
F8
100
AcDbEntity
  8
Layer 1
 62
     7
370
    35
100
AcDbVertex
100
AcDb2dVertex
 10
100.590371678954
 20
-280.9616778624988
 30
0.0
  0
VERTEX
  5
FA
330
F8
100
AcDbEntity
  8
Layer 1
 62
     7
370
    35
100
AcDbVertex
100
AcDb2dVertex
 10
85.59036134063584
 20
-280.9616778624988
 30
0.0
  0
VERTEX
  5
FB
330
F8
100
AcDbEntity
  8
Layer 1
 62
     7
370
    35
100
AcDbVertex
100
AcDb2dVertex
 10
85.59036134063584
 20
-265.9616890560275
 30
0.0
  0
VERTEX
  5
FC
330
F8
100
AcDbEntity
  8
Layer 1
 62
     7
370
    35
100
AcDbVertex
100
AcDb2dVertex
 10
100.590371678954
 20
-265.9616890560275
 30
0.0
  0
VERTEX
  5
FD
330
F8
100
AcDbEntity
  8
Layer 1
 62
     7
370
    35
100
AcDbVertex
100
AcDb2dVertex
 10
100.590371678954
 20
-280.9616778624988
 30
0.0
  0
SEQEND
  5
FE
330
F8
100
AcDbEntity
  8
Layer 1
 62
     7
370
    35
  0
POLYLINE
  5
FF
330
1F
100
AcDbEntity
  8
Layer 1
 62
     7
370
    35
100
AcDb2dPolyline
 66
     1
 10
0.0
 20
0.0
 30
0.0
  0
VERTEX
  5
100
330
FF
100
AcDbEntity
  8
Layer 1
 62
     7
370
    35
100
AcDbVertex
100
AcDb2dVertex
 10
100.590371678954
 20
-255.1994476104216
 30
0.0
  0
VERTEX
  5
101
330
FF
100
AcDbEntity
  8
Layer 1
 62
     7
370
    35
100
AcDbVertex
100
AcDb2dVertex
 10
85.59036134063584
 20
-255.1994476104216
 30
0.0
  0
VERTEX
  5
102
330
FF
100
AcDbEntity
  8
Layer 1
 62
     7
370
    35
100
AcDbVertex
100
AcDb2dVertex
 10
85.59036134063584
 20
-240.1994588039503
 30
0.0
  0
VERTEX
  5
103
330
FF
100
AcDbEntity
  8
Layer 1
 62
     7
370
    35
100
AcDbVertex
100
AcDb2dVertex
 10
100.590371678954
 20
-240.1994588039503
 30
0.0
  0
VERTEX
  5
104
330
FF
100
AcDbEntity
  8
Layer 1
 62
     7
370
    35
100
AcDbVertex
100
AcDb2dVertex
 10
100.590371678954
 20
-255.1994476104216
 30
0.0
  0
SEQEND
  5
105
330
FF
100
AcDbEntity
  8
Layer 1
 62
     7
370
    35
  0
POLYLINE
  5
106
330
1F
100
AcDbEntity
  8
Layer 1
 62
     7
370
    35
100
AcDb2dPolyline
 66
     1
 10
0.0
 20
0.0
 30
0.0
  0
VERTEX
  5
107
330
106
100
AcDbEntity
  8
Layer 1
 62
     7
370
    35
100
AcDbVertex
100
AcDb2dVertex
 10
126.4736970373377
 20
-306.7238865827293
 30
0.0
  0
VERTEX
  5
108
330
106
100
AcDbEntity
  8
Layer 1
 62
     7
370
    35
100
AcDbVertex
100
AcDb2dVertex
 10
111.4737082308664
 20
-306.7238865827293
 30
0.0
  0
VERTEX
  5
109
330
106
100
AcDbEntity
  8
Layer 1
 62
     7
370
    35
100
AcDbVertex
100
AcDb2dVertex
 10
111.4737082308664
 20
-291.723897776258
 30
0.0
  0
VERTEX
  5
10A
330
106
100
AcDbEntity
  8
Layer 1
 62
     7
370
    35
100
AcDbVertex
100
AcDb2dVertex
 10
126.4736970373377
 20
-291.723897776258
 30
0.0
  0
VERTEX
  5
10B
330
106
100
AcDbEntity
  8
Layer 1
 62
     7
370
    35
100
AcDbVertex
100
AcDb2dVertex
 10
126.4736970373377
 20
-306.7238865827293
 30
0.0
  0
SEQEND
  5
10C
330
106
100
AcDbEntity
  8
Layer 1
 62
     7
370
    35
  0
POLYLINE
  5
10D
330
1F
100
AcDbEntity
  8
Layer 1
 62
     7
370
    35
100
AcDb2dPolyline
 66
     1
 10
0.0
 20
0.0
 30
0.0
  0
VERTEX
  5
10E
330
10D
100
AcDbEntity
  8
Layer 1
 62
     7
370
    35
100
AcDbVertex
100
AcDb2dVertex
 10
126.4736970373377
 20
-280.9616778624988
 30
0.0
  0
VERTEX
  5
10F
330
10D
100
AcDbEntity
  8
Layer 1
 62
     7
370
    35
100
AcDbVertex
100
AcDb2dVertex
 10
111.4737082308664
 20
-280.9616778624988
 30
0.0
  0
VERTEX
  5
110
330
10D
100
AcDbEntity
  8
Layer 1
 62
     7
370
    35
100
AcDbVertex
100
AcDb2dVertex
 10
111.4737082308664
 20
-265.9616675241807
 30
0.0
  0
VERTEX
  5
111
330
10D
100
AcDbEntity
  8
Layer 1
 62
     7
370
    35
100
AcDbVertex
100
AcDb2dVertex
 10
126.4736970373377
 20
-265.9616675241807
 30
0.0
  0
VERTEX
  5
112
330
10D
100
AcDbEntity
  8
Layer 1
 62
     7
370
    35
100
AcDbVertex
100
AcDb2dVertex
 10
126.4736970373377
 20
-280.9616778624988
 30
0.0
  0
SEQEND
  5
113
330
10D
100
AcDbEntity
  8
Layer 1
 62
     7
370
    35
  0
POLYLINE
  5
114
330
1F
100
AcDbEntity
  8
Layer 1
 62
     7
370
    35
100
AcDb2dPolyline
 66
     1
 10
0.0
 20
0.0
 30
0.0
  0
VERTEX
  5
115
330
114
100
AcDbEntity
  8
Layer 1
 62
     7
370
    35
100
AcDbVertex
100
AcDb2dVertex
 10
126.4736970373377
 20
-255.1994476104216
 30
0.0
  0
VERTEX
  5
116
330
114
100
AcDbEntity
  8
Layer 1
 62
     7
370
    35
100
AcDbVertex
100
AcDb2dVertex
 10
111.4737082308664
 20
-255.1994476104216
 30
0.0
  0
VERTEX
  5
117
330
114
100
AcDbEntity
  8
Layer 1
 62
     7
370
    35
100
AcDbVertex
100
AcDb2dVertex
 10
111.4737082308664
 20
-240.1994372721035
 30
0.0
  0
VERTEX
  5
118
330
114
100
AcDbEntity
  8
Layer 1
 62
     7
370
    35
100
AcDbVertex
100
AcDb2dVertex
 10
126.4736970373377
 20
-240.1994372721035
 30
0.0
  0
VERTEX
  5
119
330
114
100
AcDbEntity
  8
Layer 1
 62
     7
370
    35
100
AcDbVertex
100
AcDb2dVertex
 10
126.4736970373377
 20
-255.1994476104216
 30
0.0
  0
SEQEND
  5
11A
330
114
100
AcDbEntity
  8
Layer 1
 62
     7
370
    35
  0
POLYLINE
  5
11B
330
1F
100
AcDbEntity
  8
Layer 1
 62
     7
370
    35
100
AcDb2dPolyline
 66
     1
 10
0.0
 20
0.0
 30
0.0
  0
VERTEX
  5
11C
330
11B
100
AcDbEntity
  8
Layer 1
 62
     7
370
    35
100
AcDbVertex
100
AcDb2dVertex
 10
152.3570223957215
 20
-306.7239081145761
 30
0.0
  0
VERTEX
  5
11D
330
11B
100
AcDbEntity
  8
Layer 1
 62
     7
370
    35
100
AcDbVertex
100
AcDb2dVertex
 10
137.3570335892502
 20
-306.7239081145761
 30
0.0
  0
VERTEX
  5
11E
330
11B
100
AcDbEntity
  8
Layer 1
 62
     7
370
    35
100
AcDbVertex
100
AcDb2dVertex
 10
137.3570335892502
 20
-291.723897776258
 30
0.0
  0
VERTEX
  5
11F
330
11B
100
AcDbEntity
  8
Layer 1
 62
     7
370
    35
100
AcDbVertex
100
AcDb2dVertex
 10
152.3570223957215
 20
-291.723897776258
 30
0.0
  0
VERTEX
  5
120
330
11B
100
AcDbEntity
  8
Layer 1
 62
     7
370
    35
100
AcDbVertex
100
AcDb2dVertex
 10
152.3570223957215
 20
-306.7239081145761
 30
0.0
  0
SEQEND
  5
121
330
11B
100
AcDbEntity
  8
Layer 1
 62
     7
370
    35
  0
POLYLINE
  5
122
330
1F
100
AcDbEntity
  8
Layer 1
 62
     7
370
    35
100
AcDb2dPolyline
 66
     1
 10
0.0
 20
0.0
 30
0.0
  0
VERTEX
  5
123
330
122
100
AcDbEntity
  8
Layer 1
 62
     7
370
    35
100
AcDbVertex
100
AcDb2dVertex
 10
152.3570223957215
 20
-280.9616778624988
 30
0.0
  0
VERTEX
  5
124
330
122
100
AcDbEntity
  8
Layer 1
 62
     7
370
    35
100
AcDbVertex
100
AcDb2dVertex
 10
137.3570335892502
 20
-280.9616778624988
 30
0.0
  0
VERTEX
  5
125
330
122
100
AcDbEntity
  8
Layer 1
 62
     7
370
    35
100
AcDbVertex
100
AcDb2dVertex
 10
137.3570335892502
 20
-265.9616890560275
 30
0.0
  0
VERTEX
  5
126
330
122
100
AcDbEntity
  8
Layer 1
 62
     7
370
    35
100
AcDbVertex
100
AcDb2dVertex
 10
152.3570223957215
 20
-265.9616890560275
 30
0.0
  0
VERTEX
  5
127
330
122
100
AcDbEntity
  8
Layer 1
 62
     7
370
    35
100
AcDbVertex
100
AcDb2dVertex
 10
152.3570223957215
 20
-280.9616778624988
 30
0.0
  0
SEQEND
  5
128
330
122
100
AcDbEntity
  8
Layer 1
 62
     7
370
    35
  0
POLYLINE
  5
129
330
1F
100
AcDbEntity
  8
Layer 1
 62
     7
370
    35
100
AcDb2dPolyline
 66
     1
 10
0.0
 20
0.0
 30
0.0
  0
VERTEX
  5
12A
330
129
100
AcDbEntity
  8
Layer 1
 62
     7
370
    35
100
AcDbVertex
100
AcDb2dVertex
 10
152.3570223957215
 20
-255.1994476104216
 30
0.0
  0
VERTEX
  5
12B
330
129
100
AcDbEntity
  8
Layer 1
 62
     7
370
    35
100
AcDbVertex
100
AcDb2dVertex
 10
137.3570335892502
 20
-255.1994476104216
 30
0.0
  0
VERTEX
  5
12C
330
129
100
AcDbEntity
  8
Layer 1
 62
     7
370
    35
100
AcDbVertex
100
AcDb2dVertex
 10
137.3570335892502
 20
-240.1994588039503
 30
0.0
  0
VERTEX
  5
12D
330
129
100
AcDbEntity
  8
Layer 1
 62
     7
370
    35
100
AcDbVertex
100
AcDb2dVertex
 10
152.3570223957215
 20
-240.1994588039503
 30
0.0
  0
VERTEX
  5
12E
330
129
100
AcDbEntity
  8
Layer 1
 62
     7
370
    35
100
AcDbVertex
100
AcDb2dVertex
 10
152.3570223957215
 20
-255.1994476104216
 30
0.0
  0
SEQEND
  5
12F
330
129
100
AcDbEntity
  8
Layer 1
 62
     7
370
    35
  0
POLYLINE
  5
130
330
1F
100
AcDbEntity
  8
Layer 1
 62
     7
370
    35
100
AcDb2dPolyline
 66
     1
 10
0.0
 20
0.0
 30
0.0
  0
VERTEX
  5
131
330
130
100
AcDbEntity
  8
Layer 1
 62
     7
370
    35
100
AcDbVertex
100
AcDb2dVertex
 10
179.4752206989463
 20
-306.7238865827293
 30
0.0
  0
VERTEX
  5
132
330
130
100
AcDbEntity
  8
Layer 1
 62
     7
370
    35
100
AcDbVertex
100
AcDb2dVertex
 10
164.4752318924749
 20
-306.7238865827293
 30
0.0
  0
VERTEX
  5
133
330
130
100
AcDbEntity
  8
Layer 1
 62
     7
370
    35
100
AcDbVertex
100
AcDb2dVertex
 10
164.4752318924749
 20
-291.723897776258
 30
0.0
  0
VERTEX
  5
134
330
130
100
AcDbEntity
  8
Layer 1
 62
     7
370
    35
100
AcDbVertex
100
AcDb2dVertex
 10
179.4752206989463
 20
-291.723897776258
 30
0.0
  0
VERTEX
  5
135
330
130
100
AcDbEntity
  8
Layer 1
 62
     7
370
    35
100
AcDbVertex
100
AcDb2dVertex
 10
179.4752206989463
 20
-306.7238865827293
 30
0.0
  0
SEQEND
  5
136
330
130
100
AcDbEntity
  8
Layer 1
 62
     7
370
    35
  0
POLYLINE
  5
137
330
1F
100
AcDbEntity
  8
Layer 1
 62
     7
370
    35
100
AcDb2dPolyline
 66
     1
 10
0.0
 20
0.0
 30
0.0
  0
VERTEX
  5
138
330
137
100
AcDbEntity
  8
Layer 1
 62
     7
370
    35
100
AcDbVertex
100
AcDb2dVertex
 10
179.4752206989463
 20
-280.9616778624988
 30
0.0
  0
VERTEX
  5
139
330
137
100
AcDbEntity
  8
Layer 1
 62
     7
370
    35
100
AcDbVertex
100
AcDb2dVertex
 10
164.4752318924749
 20
-280.9616778624988
 30
0.0
  0
VERTEX
  5
13A
330
137
100
AcDbEntity
  8
Layer 1
 62
     7
370
    35
100
AcDbVertex
100
AcDb2dVertex
 10
164.4752318924749
 20
-265.9616675241807
 30
0.0
  0
VERTEX
  5
13B
330
137
100
AcDbEntity
  8
Layer 1
 62
     7
370
    35
100
AcDbVertex
100
AcDb2dVertex
 10
179.4752206989463
 20
-265.9616675241807
 30
0.0
  0
VERTEX
  5
13C
330
137
100
AcDbEntity
  8
Layer 1
 62
     7
370
    35
100
AcDbVertex
100
AcDb2dVertex
 10
179.4752206989463
 20
-280.9616778624988
 30
0.0
  0
SEQEND
  5
13D
330
137
100
AcDbEntity
  8
Layer 1
 62
     7
370
    35
  0
POLYLINE
  5
13E
330
1F
100
AcDbEntity
  8
Layer 1
 62
     7
370
    35
100
AcDb2dPolyline
 66
     1
 10
0.0
 20
0.0
 30
0.0
  0
VERTEX
  5
13F
330
13E
100
AcDbEntity
  8
Layer 1
 62
     7
370
    35
100
AcDbVertex
100
AcDb2dVertex
 10
179.4752422307931
 20
-255.1994476104216
 30
0.0
  0
VERTEX
  5
140
330
13E
100
AcDbEntity
  8
Layer 1
 62
     7
370
    35
100
AcDbVertex
100
AcDb2dVertex
 10
164.4752318924749
 20
-255.1994476104216
 30
0.0
  0
VERTEX
  5
141
330
13E
100
AcDbEntity
  8
Layer 1
 62
     7
370
    35
100
AcDbVertex
100
AcDb2dVertex
 10
164.4752318924749
 20
-240.1994588039503
 30
0.0
  0
VERTEX
  5
142
330
13E
100
AcDbEntity
  8
Layer 1
 62
     7
370
    35
100
AcDbVertex
100
AcDb2dVertex
 10
179.4752422307931
 20
-240.1994588039503
 30
0.0
  0
VERTEX
  5
143
330
13E
100
AcDbEntity
  8
Layer 1
 62
     7
370
    35
100
AcDbVertex
100
AcDb2dVertex
 10
179.4752422307931
 20
-255.1994476104216
 30
0.0
  0
SEQEND
  5
144
330
13E
100
AcDbEntity
  8
Layer 1
 62
     7
370
    35
  0
POLYLINE
  5
145
330
1F
100
AcDbEntity
  8
Layer 1
 62
     7
370
    35
100
AcDb2dPolyline
 66
     1
 10
0.0
 20
0.0
 30
0.0
  0
VERTEX
  5
146
330
145
100
AcDbEntity
  8
Layer 1
 62
     7
370
    35
100
AcDbVertex
100
AcDb2dVertex
 10
205.3585675891769
 20
-306.7239081145761
 30
0.0
  0
VERTEX
  5
147
330
145
100
AcDbEntity
  8
Layer 1
 62
     7
370
    35
100
AcDbVertex
100
AcDb2dVertex
 10
190.3585572508587
 20
-306.7239081145761
 30
0.0
  0
VERTEX
  5
148
330
145
100
AcDbEntity
  8
Layer 1
 62
     7
370
    35
100
AcDbVertex
100
AcDb2dVertex
 10
190.3585572508587
 20
-291.7239193081047
 30
0.0
  0
VERTEX
  5
149
330
145
100
AcDbEntity
  8
Layer 1
 62
     7
370
    35
100
AcDbVertex
100
AcDb2dVertex
 10
205.3585675891769
 20
-291.7239193081047
 30
0.0
  0
VERTEX
  5
14A
330
145
100
AcDbEntity
  8
Layer 1
 62
     7
370
    35
100
AcDbVertex
100
AcDb2dVertex
 10
205.3585675891769
 20
-306.7239081145761
 30
0.0
  0
SEQEND
  5
14B
330
145
100
AcDbEntity
  8
Layer 1
 62
     7
370
    35
  0
POLYLINE
  5
14C
330
1F
100
AcDbEntity
  8
Layer 1
 62
     7
370
    35
100
AcDb2dPolyline
 66
     1
 10
0.0
 20
0.0
 30
0.0
  0
VERTEX
  5
14D
330
14C
100
AcDbEntity
  8
Layer 1
 62
     7
370
    35
100
AcDbVertex
100
AcDb2dVertex
 10
205.3585675891769
 20
-280.9616993943457
 30
0.0
  0
VERTEX
  5
14E
330
14C
100
AcDbEntity
  8
Layer 1
 62
     7
370
    35
100
AcDbVertex
100
AcDb2dVertex
 10
190.3585572508587
 20
-280.9616993943457
 30
0.0
  0
VERTEX
  5
14F
330
14C
100
AcDbEntity
  8
Layer 1
 62
     7
370
    35
100
AcDbVertex
100
AcDb2dVertex
 10
190.3585572508587
 20
-265.9616890560275
 30
0.0
  0
VERTEX
  5
150
330
14C
100
AcDbEntity
  8
Layer 1
 62
     7
370
    35
100
AcDbVertex
100
AcDb2dVertex
 10
205.3585675891769
 20
-265.9616890560275
 30
0.0
  0
VERTEX
  5
151
330
14C
100
AcDbEntity
  8
Layer 1
 62
     7
370
    35
100
AcDbVertex
100
AcDb2dVertex
 10
205.3585675891769
 20
-280.9616993943457
 30
0.0
  0
SEQEND
  5
152
330
14C
100
AcDbEntity
  8
Layer 1
 62
     7
370
    35
  0
POLYLINE
  5
153
330
1F
100
AcDbEntity
  8
Layer 1
 62
     7
370
    35
100
AcDb2dPolyline
 66
     1
 10
0.0
 20
0.0
 30
0.0
  0
VERTEX
  5
154
330
153
100
AcDbEntity
  8
Layer 1
 62
     7
370
    35
100
AcDbVertex
100
AcDb2dVertex
 10
205.3585675891769
 20
-255.1994691422684
 30
0.0
  0
VERTEX
  5
155
330
153
100
AcDbEntity
  8
Layer 1
 62
     7
370
    35
100
AcDbVertex
100
AcDb2dVertex
 10
190.3585572508587
 20
-255.1994691422684
 30
0.0
  0
VERTEX
  5
156
330
153
100
AcDbEntity
  8
Layer 1
 62
     7
370
    35
100
AcDbVertex
100
AcDb2dVertex
 10
190.3585572508587
 20
-240.1994588039503
 30
0.0
  0
VERTEX
  5
157
330
153
100
AcDbEntity
  8
Layer 1
 62
     7
370
    35
100
AcDbVertex
100
AcDb2dVertex
 10
205.3585675891769
 20
-240.1994588039503
 30
0.0
  0
VERTEX
  5
158
330
153
100
AcDbEntity
  8
Layer 1
 62
     7
370
    35
100
AcDbVertex
100
AcDb2dVertex
 10
205.3585675891769
 20
-255.1994691422684
 30
0.0
  0
SEQEND
  5
159
330
153
100
AcDbEntity
  8
Layer 1
 62
     7
370
    35
  0
POLYLINE
  5
15A
330
1F
100
AcDbEntity
  8
Layer 1
 62
     7
370
    35
100
AcDb2dPolyline
 66
     1
 10
0.0
 20
0.0
 30
0.0
  0
VERTEX
  5
15B
330
15A
100
AcDbEntity
  8
Layer 1
 62
     7
370
    35
100
AcDbVertex
100
AcDb2dVertex
 10
231.2418929475606
 20
-306.7239081145761
 30
0.0
  0
VERTEX
  5
15C
330
15A
100
AcDbEntity
  8
Layer 1
 62
     7
370
    35
100
AcDbVertex
100
AcDb2dVertex
 10
216.2419041410893
 20
-306.7239081145761
 30
0.0
  0
VERTEX
  5
15D
330
15A
100
AcDbEntity
  8
Layer 1
 62
     7
370
    35
100
AcDbVertex
100
AcDb2dVertex
 10
216.2419041410893
 20
-291.723897776258
 30
0.0
  0
VERTEX
  5
15E
330
15A
100
AcDbEntity
  8
Layer 1
 62
     7
370
    35
100
AcDbVertex
100
AcDb2dVertex
 10
231.2418929475606
 20
-291.723897776258
 30
0.0
  0
VERTEX
  5
15F
330
15A
100
AcDbEntity
  8
Layer 1
 62
     7
370
    35
100
AcDbVertex
100
AcDb2dVertex
 10
231.2418929475606
 20
-306.7239081145761
 30
0.0
  0
SEQEND
  5
160
330
15A
100
AcDbEntity
  8
Layer 1
 62
     7
370
    35
  0
POLYLINE
  5
161
330
1F
100
AcDbEntity
  8
Layer 1
 62
     7
370
    35
100
AcDb2dPolyline
 66
     1
 10
0.0
 20
0.0
 30
0.0
  0
VERTEX
  5
162
330
161
100
AcDbEntity
  8
Layer 1
 62
     7
370
    35
100
AcDbVertex
100
AcDb2dVertex
 10
231.2418929475606
 20
-280.9616778624988
 30
0.0
  0
VERTEX
  5
163
330
161
100
AcDbEntity
  8
Layer 1
 62
     7
370
    35
100
AcDbVertex
100
AcDb2dVertex
 10
216.2419041410893
 20
-280.9616778624988
 30
0.0
  0
VERTEX
  5
164
330
161
100
AcDbEntity
  8
Layer 1
 62
     7
370
    35
100
AcDbVertex
100
AcDb2dVertex
 10
216.2419041410893
 20
-265.9616890560275
 30
0.0
  0
VERTEX
  5
165
330
161
100
AcDbEntity
  8
Layer 1
 62
     7
370
    35
100
AcDbVertex
100
AcDb2dVertex
 10
231.2418929475606
 20
-265.9616890560275
 30
0.0
  0
VERTEX
  5
166
330
161
100
AcDbEntity
  8
Layer 1
 62
     7
370
    35
100
AcDbVertex
100
AcDb2dVertex
 10
231.2418929475606
 20
-280.9616778624988
 30
0.0
  0
SEQEND
  5
167
330
161
100
AcDbEntity
  8
Layer 1
 62
     7
370
    35
  0
POLYLINE
  5
168
330
1F
100
AcDbEntity
  8
Layer 1
 62
     7
370
    35
100
AcDb2dPolyline
 66
     1
 10
0.0
 20
0.0
 30
0.0
  0
VERTEX
  5
169
330
168
100
AcDbEntity
  8
Layer 1
 62
     7
370
    35
100
AcDbVertex
100
AcDb2dVertex
 10
231.2418929475606
 20
-255.1994476104216
 30
0.0
  0
VERTEX
  5
16A
330
168
100
AcDbEntity
  8
Layer 1
 62
     7
370
    35
100
AcDbVertex
100
AcDb2dVertex
 10
216.2419041410893
 20
-255.1994476104216
 30
0.0
  0
VERTEX
  5
16B
330
168
100
AcDbEntity
  8
Layer 1
 62
     7
370
    35
100
AcDbVertex
100
AcDb2dVertex
 10
216.2419041410893
 20
-240.1994588039503
 30
0.0
  0
VERTEX
  5
16C
330
168
100
AcDbEntity
  8
Layer 1
 62
     7
370
    35
100
AcDbVertex
100
AcDb2dVertex
 10
231.2418929475606
 20
-240.1994588039503
 30
0.0
  0
VERTEX
  5
16D
330
168
100
AcDbEntity
  8
Layer 1
 62
     7
370
    35
100
AcDbVertex
100
AcDb2dVertex
 10
231.2418929475606
 20
-255.1994476104216
 30
0.0
  0
SEQEND
  5
16E
330
168
100
AcDbEntity
  8
Layer 1
 62
     7
370
    35
  0
POLYLINE
  5
16F
330
1F
100
AcDbEntity
  8
Layer 1
 62
     7
370
    35
100
AcDb2dPolyline
 66
     1
 10
0.0
 20
0.0
 30
0.0
  0
VERTEX
  5
170
330
16F
100
AcDbEntity
  8
Layer 1
 62
     7
370
    35
100
AcDbVertex
100
AcDb2dVertex
 10
257.1252183059444
 20
-306.7239081145761
 30
0.0
  0
VERTEX
  5
171
330
16F
100
AcDbEntity
  8
Layer 1
 62
     7
370
    35
100
AcDbVertex
100
AcDb2dVertex
 10
242.1252294994731
 20
-306.7239081145761
 30
0.0
  0
VERTEX
  5
172
330
16F
100
AcDbEntity
  8
Layer 1
 62
     7
370
    35
100
AcDbVertex
100
AcDb2dVertex
 10
242.1252294994731
 20
-291.7239193081047
 30
0.0
  0
VERTEX
  5
173
330
16F
100
AcDbEntity
  8
Layer 1
 62
     7
370
    35
100
AcDbVertex
100
AcDb2dVertex
 10
257.1252183059444
 20
-291.7239193081047
 30
0.0
  0
VERTEX
  5
174
330
16F
100
AcDbEntity
  8
Layer 1
 62
     7
370
    35
100
AcDbVertex
100
AcDb2dVertex
 10
257.1252183059444
 20
-306.7239081145761
 30
0.0
  0
SEQEND
  5
175
330
16F
100
AcDbEntity
  8
Layer 1
 62
     7
370
    35
  0
POLYLINE
  5
176
330
1F
100
AcDbEntity
  8
Layer 1
 62
     7
370
    35
100
AcDb2dPolyline
 66
     1
 10
0.0
 20
0.0
 30
0.0
  0
VERTEX
  5
177
330
176
100
AcDbEntity
  8
Layer 1
 62
     7
370
    35
100
AcDbVertex
100
AcDb2dVertex
 10
257.1252183059444
 20
-280.9616993943457
 30
0.0
  0
VERTEX
  5
178
330
176
100
AcDbEntity
  8
Layer 1
 62
     7
370
    35
100
AcDbVertex
100
AcDb2dVertex
 10
242.1252294994731
 20
-280.9616993943457
 30
0.0
  0
VERTEX
  5
179
330
176
100
AcDbEntity
  8
Layer 1
 62
     7
370
    35
100
AcDbVertex
100
AcDb2dVertex
 10
242.1252294994731
 20
-265.9616890560275
 30
0.0
  0
VERTEX
  5
17A
330
176
100
AcDbEntity
  8
Layer 1
 62
     7
370
    35
100
AcDbVertex
100
AcDb2dVertex
 10
257.1252183059444
 20
-265.9616890560275
 30
0.0
  0
VERTEX
  5
17B
330
176
100
AcDbEntity
  8
Layer 1
 62
     7
370
    35
100
AcDbVertex
100
AcDb2dVertex
 10
257.1252183059444
 20
-280.9616993943457
 30
0.0
  0
SEQEND
  5
17C
330
176
100
AcDbEntity
  8
Layer 1
 62
     7
370
    35
  0
POLYLINE
  5
17D
330
1F
100
AcDbEntity
  8
Layer 1
 62
     7
370
    35
100
AcDb2dPolyline
 66
     1
 10
0.0
 20
0.0
 30
0.0
  0
VERTEX
  5
17E
330
17D
100
AcDbEntity
  8
Layer 1
 62
     7
370
    35
100
AcDbVertex
100
AcDb2dVertex
 10
257.1252183059444
 20
-255.1994691422684
 30
0.0
  0
VERTEX
  5
17F
330
17D
100
AcDbEntity
  8
Layer 1
 62
     7
370
    35
100
AcDbVertex
100
AcDb2dVertex
 10
242.1252294994731
 20
-255.1994691422684
 30
0.0
  0
VERTEX
  5
180
330
17D
100
AcDbEntity
  8
Layer 1
 62
     7
370
    35
100
AcDbVertex
100
AcDb2dVertex
 10
242.1252294994731
 20
-240.1994588039503
 30
0.0
  0
VERTEX
  5
181
330
17D
100
AcDbEntity
  8
Layer 1
 62
     7
370
    35
100
AcDbVertex
100
AcDb2dVertex
 10
257.1252183059444
 20
-240.1994588039503
 30
0.0
  0
VERTEX
  5
182
330
17D
100
AcDbEntity
  8
Layer 1
 62
     7
370
    35
100
AcDbVertex
100
AcDb2dVertex
 10
257.1252183059444
 20
-255.1994691422684
 30
0.0
  0
SEQEND
  5
183
330
17D
100
AcDbEntity
  8
Layer 1
 62
     7
370
    35
  0
POLYLINE
  5
184
330
1F
100
AcDbEntity
  8
Layer 1
 62
     7
370
    35
100
AcDb2dPolyline
 66
     1
 10
0.0
 20
0.0
 30
0.0
  0
VERTEX
  5
185
330
184
100
AcDbEntity
  8
Layer 1
 62
     7
370
    35
100
AcDbVertex
100
AcDb2dVertex
 10
284.2434166091692
 20
-306.7239081145761
 30
0.0
  0
VERTEX
  5
186
330
184
100
AcDbEntity
  8
Layer 1
 62
     7
370
    35
100
AcDbVertex
100
AcDb2dVertex
 10
269.2434278026979
 20
-306.7239081145761
 30
0.0
  0
VERTEX
  5
187
330
184
100
AcDbEntity
  8
Layer 1
 62
     7
370
    35
100
AcDbVertex
100
AcDb2dVertex
 10
269.2434278026979
 20
-291.723897776258
 30
0.0
  0
VERTEX
  5
188
330
184
100
AcDbEntity
  8
Layer 1
 62
     7
370
    35
100
AcDbVertex
100
AcDb2dVertex
 10
284.2434166091692
 20
-291.723897776258
 30
0.0
  0
VERTEX
  5
189
330
184
100
AcDbEntity
  8
Layer 1
 62
     7
370
    35
100
AcDbVertex
100
AcDb2dVertex
 10
284.2434166091692
 20
-306.7239081145761
 30
0.0
  0
SEQEND
  5
18A
330
184
100
AcDbEntity
  8
Layer 1
 62
     7
370
    35
  0
POLYLINE
  5
18B
330
1F
100
AcDbEntity
  8
Layer 1
 62
     7
370
    35
100
AcDb2dPolyline
 66
     1
 10
0.0
 20
0.0
 30
0.0
  0
VERTEX
  5
18C
330
18B
100
AcDbEntity
  8
Layer 1
 62
     7
370
    35
100
AcDbVertex
100
AcDb2dVertex
 10
284.2434166091692
 20
-280.9616778624988
 30
0.0
  0
VERTEX
  5
18D
330
18B
100
AcDbEntity
  8
Layer 1
 62
     7
370
    35
100
AcDbVertex
100
AcDb2dVertex
 10
269.2434278026979
 20
-280.9616778624988
 30
0.0
  0
VERTEX
  5
18E
330
18B
100
AcDbEntity
  8
Layer 1
 62
     7
370
    35
100
AcDbVertex
100
AcDb2dVertex
 10
269.2434278026979
 20
-265.9616890560275
 30
0.0
  0
VERTEX
  5
18F
330
18B
100
AcDbEntity
  8
Layer 1
 62
     7
370
    35
100
AcDbVertex
100
AcDb2dVertex
 10
284.2434166091692
 20
-265.9616890560275
 30
0.0
  0
VERTEX
  5
190
330
18B
100
AcDbEntity
  8
Layer 1
 62
     7
370
    35
100
AcDbVertex
100
AcDb2dVertex
 10
284.2434166091692
 20
-280.9616778624988
 30
0.0
  0
SEQEND
  5
191
330
18B
100
AcDbEntity
  8
Layer 1
 62
     7
370
    35
  0
POLYLINE
  5
192
330
1F
100
AcDbEntity
  8
Layer 1
 62
     7
370
    35
100
AcDb2dPolyline
 66
     1
 10
0.0
 20
0.0
 30
0.0
  0
VERTEX
  5
193
330
192
100
AcDbEntity
  8
Layer 1
 62
     7
370
    35
100
AcDbVertex
100
AcDb2dVertex
 10
284.2434596728627
 20
-255.1994691422684
 30
0.0
  0
VERTEX
  5
194
330
192
100
AcDbEntity
  8
Layer 1
 62
     7
370
    35
100
AcDbVertex
100
AcDb2dVertex
 10
269.2434278026979
 20
-255.1994691422684
 30
0.0
  0
VERTEX
  5
195
330
192
100
AcDbEntity
  8
Layer 1
 62
     7
370
    35
100
AcDbVertex
100
AcDb2dVertex
 10
269.2434278026979
 20
-240.1994588039503
 30
0.0
  0
VERTEX
  5
196
330
192
100
AcDbEntity
  8
Layer 1
 62
     7
370
    35
100
AcDbVertex
100
AcDb2dVertex
 10
284.2434596728627
 20
-240.1994588039503
 30
0.0
  0
VERTEX
  5
197
330
192
100
AcDbEntity
  8
Layer 1
 62
     7
370
    35
100
AcDbVertex
100
AcDb2dVertex
 10
284.2434596728627
 20
-255.1994691422684
 30
0.0
  0
SEQEND
  5
198
330
192
100
AcDbEntity
  8
Layer 1
 62
     7
370
    35
  0
POLYLINE
  5
199
330
1F
100
AcDbEntity
  8
Layer 1
 62
     7
370
    35
100
AcDb2dPolyline
 66
     1
 10
0.0
 20
0.0
 30
0.0
  0
VERTEX
  5
19A
330
199
100
AcDbEntity
  8
Layer 1
 62
     7
370
    35
100
AcDbVertex
100
AcDb2dVertex
 10
680.126767306368
 20
-406.4780097792942
 30
0.0
  0
VERTEX
  5
19B
330
199
100
AcDbEntity
  8
Layer 1
 62
     7
370
    35
100
AcDbVertex
100
AcDb2dVertex
 10
680.126767306368
 20
-482.0821804960702
 30
0.0
  0
VERTEX
  5
19C
330
199
100
AcDbEntity
  8
Layer 1
 62
     7
370
    35
100
AcDbVertex
100
AcDb2dVertex
 10
670.6268303784045
 20
-482.0821804960702
 30
0.0
  0
VERTEX
  5
19D
330
199
100
AcDbEntity
  8
Layer 1
 62
     7
370
    35
100
AcDbVertex
100
AcDb2dVertex
 10
670.6268303784045
 20
-406.4780097792942
 30
0.0
  0
VERTEX
  5
19E
330
199
100
AcDbEntity
  8
Layer 1
 62
     7
370
    35
100
AcDbVertex
100
AcDb2dVertex
 10
569.7727797037483
 20
-406.4780097792942
 30
0.0
  0
VERTEX
  5
19F
330
199
100
AcDbEntity
  8
Layer 1
 62
     7
370
    35
100
AcDbVertex
100
AcDb2dVertex
 10
569.7727797037483
 20
-481.9781386124156
 30
0.0
  0
VERTEX
  5
1A0
330
199
100
AcDbEntity
  8
Layer 1
 62
     7
370
    35
100
AcDbVertex
100
AcDb2dVertex
 10
560.2727566483976
 20
-481.9781386124156
 30
0.0
  0
VERTEX
  5
1A1
330
199
100
AcDbEntity
  8
Layer 1
 62
     7
370
    35
100
AcDbVertex
100
AcDb2dVertex
 10
560.2727566483976
 20
-406.4780097792942
 30
0.0
  0
VERTEX
  5
1A2
330
199
100
AcDbEntity
  8
Layer 1
 62
     7
370
    35
100
AcDbVertex
100
AcDb2dVertex
 10
545.1997748813325
 20
-406.4780097792942
 30
0.0
  0
VERTEX
  5
1A3
330
199
100
AcDbEntity
  8
Layer 1
 62
     7
370
    35
100
AcDbVertex
100
AcDb2dVertex
 10
545.1997748813325
 20
-556.4779839713949
 30
0.0
  0
VERTEX
  5
1A4
330
199
100
AcDbEntity
  8
Layer 1
 62
     7
370
    35
100
AcDbVertex
100
AcDb2dVertex
 10
695.1997490734332
 20
-556.4779839713949
 30
0.0
  0
VERTEX
  5
1A5
330
199
100
AcDbEntity
  8
Layer 1
 62
     7
370
    35
100
AcDbVertex
100
AcDb2dVertex
 10
695.1997490734332
 20
-406.4780097792942
 30
0.0
  0
VERTEX
  5
1A6
330
199
100
AcDbEntity
  8
Layer 1
 62
     7
370
    35
100
AcDbVertex
100
AcDb2dVertex
 10
680.126767306368
 20
-406.4780097792942
 30
0.0
  0
SEQEND
  5
1A7
330
199
100
AcDbEntity
  8
Layer 1
 62
     7
370
    35
  0
POLYLINE
  5
1A8
330
1F
100
AcDbEntity
  8
Layer 1
 62
     7
370
    35
100
AcDb2dPolyline
 66
     1
 10
0.0
 20
0.0
 30
0.0
  0
VERTEX
  5
1A9
330
1A8
100
AcDbEntity
  8
Layer 1
 62
     7
370
    35
100
AcDbVertex
100
AcDb2dVertex
 10
1214.919673107322
 20
-225.0726164678984
 30
0.0
  0
VERTEX
  5
1AA
330
1A8
100
AcDbEntity
  8
Layer 1
 62
     7
370
    35
100
AcDbVertex
100
AcDb2dVertex
 10
1214.919673107322
 20
-187.6135764924541
 30
0.0
  0
VERTEX
  5
1AB
330
1A8
100
AcDbEntity
  8
Layer 1
 62
     7
370
    35
100
AcDbVertex
100
AcDb2dVertex
 10
1195.867778309567
 20
-187.6135764924541
 30
0.0
  0
VERTEX
  5
1AC
330
1A8
100
AcDbEntity
  8
Layer 1
 62
     7
370
    35
100
AcDbVertex
100
AcDb2dVertex
 10
1195.867778309567
 20
-204.4249965050698
 30
0.0
  0
VERTEX
  5
1AD
330
1A8
100
AcDbEntity
  8
Layer 1
 62
     7
370
    35
100
AcDbVertex
100
AcDb2dVertex
 10
1150.417150336989
 20
-155.1674949575969
 30
0.0
  0
VERTEX
  5
1AE
330
1A8
100
AcDbEntity
  8
Layer 1
 62
     7
370
    35
100
AcDbVertex
100
AcDb2dVertex
 10
1136.575617951126
 20
-170.1683881016331
 30
0.0
  0
VERTEX
  5
1AF
330
1A8
100
AcDbEntity
  8
Layer 1
 62
     7
370
    35
100
AcDbVertex
100
AcDb2dVertex
 10
1090.544663644058
 20
-170.1683881016331
 30
0.0
  0
VERTEX
  5
1B0
330
1A8
100
AcDbEntity
  8
Layer 1
 62
     7
370
    35
100
AcDbVertex
100
AcDb2dVertex
 10
1090.544663644058
 20
-220.0549210210191
 30
0.0
  0
VERTEX
  5
1B1
330
1A8
100
AcDbEntity
  8
Layer 1
 62
     7
370
    35
100
AcDbVertex
100
AcDb2dVertex
 10
1069.045803650517
 20
-243.3545324246994
 30
0.0
  0
VERTEX
  5
1B2
330
1A8
100
AcDbEntity
  8
Layer 1
 62
     7
370
    35
100
AcDbVertex
100
AcDb2dVertex
 10
1075.417249368326
 20
-243.3545324246994
 30
0.0
  0
VERTEX
  5
1B3
330
1A8
100
AcDbEntity
  8
Layer 1
 62
     7
370
    35
100
AcDbVertex
100
AcDb2dVertex
 10
1075.417249368326
 20
-320.1675010198625
 30
0.0
  0
VERTEX
  5
1B4
330
1A8
100
AcDbEntity
  8
Layer 1
 62
     7
370
    35
100
AcDbVertex
100
AcDb2dVertex
 10
1090.612273642956
 20
-320.1675010198625
 30
0.0
  0
VERTEX
  5
1B5
330
1A8
100
AcDbEntity
  8
Layer 1
 62
     7
370
    35
100
AcDbVertex
100
AcDb2dVertex
 10
1090.612273642956
 20
-244.763834860328
 30
0.0
  0
VERTEX
  5
1B6
330
1A8
100
AcDbEntity
  8
Layer 1
 62
     7
370
    35
100
AcDbVertex
100
AcDb2dVertex
 10
1100.112210570919
 20
-244.763834860328
 30
0.0
  0
VERTEX
  5
1B7
330
1A8
100
AcDbEntity
  8
Layer 1
 62
     7
370
    35
100
AcDbVertex
100
AcDb2dVertex
 10
1100.112210570919
 20
-320.1675010198625
 30
0.0
  0
VERTEX
  5
1B8
330
1A8
100
AcDbEntity
  8
Layer 1
 62
     7
370
    35
100
AcDbVertex
100
AcDb2dVertex
 10
1155.505900878251
 20
-320.1675010198625
 30
0.0
  0
VERTEX
  5
1B9
330
1A8
100
AcDbEntity
  8
Layer 1
 62
     7
370
    35
100
AcDbVertex
100
AcDb2dVertex
 10
1155.505900878251
 20
-252.2671236361215
 30
0.0
  0
VERTEX
  5
1BA
330
1A8
100
AcDbEntity
  8
Layer 1
 62
     7
370
    35
100
AcDbVertex
100
AcDb2dVertex
 10
1191.492851552848
 20
-252.2671236361215
 30
0.0
  0
VERTEX
  5
1BB
330
1A8
100
AcDbEntity
  8
Layer 1
 62
     7
370
    35
100
AcDbVertex
100
AcDb2dVertex
 10
1191.492851552848
 20
-320.1675010198625
 30
0.0
  0
VERTEX
  5
1BC
330
1A8
100
AcDbEntity
  8
Layer 1
 62
     7
370
    35
100
AcDbVertex
100
AcDb2dVertex
 10
1200.966261245576
 20
-320.1675010198625
 30
0.0
  0
VERTEX
  5
1BD
330
1A8
100
AcDbEntity
  8
Layer 1
 62
     7
370
    35
100
AcDbVertex
100
AcDb2dVertex
 10
1200.966261245576
 20
-244.8677906165954
 30
0.0
  0
VERTEX
  5
1BE
330
1A8
100
AcDbEntity
  8
Layer 1
 62
     7
370
    35
100
AcDbVertex
100
AcDb2dVertex
 10
1210.466284300926
 20
-244.8677906165954
 30
0.0
  0
VERTEX
  5
1BF
330
1A8
100
AcDbEntity
  8
Layer 1
 62
     7
370
    35
100
AcDbVertex
100
AcDb2dVertex
 10
1210.466284300926
 20
-320.1675010198625
 30
0.0
  0
VERTEX
  5
1C0
330
1A8
100
AcDbEntity
  8
Layer 1
 62
     7
370
    35
100
AcDbVertex
100
AcDb2dVertex
 10
1225.417223560426
 20
-320.1675010198625
 30
0.0
  0
VERTEX
  5
1C1
330
1A8
100
AcDbEntity
  8
Layer 1
 62
     7
370
    35
100
AcDbVertex
100
AcDb2dVertex
 10
1225.417223560426
 20
-243.3545324246994
 30
0.0
  0
VERTEX
  5
1C2
330
1A8
100
AcDbEntity
  8
Layer 1
 62
     7
370
    35
100
AcDbVertex
100
AcDb2dVertex
 10
1231.788583150847
 20
-243.3545324246994
 30
0.0
  0
VERTEX
  5
1C3
330
1A8
100
AcDbEntity
  8
Layer 1
 62
     7
370
    35
100
AcDbVertex
100
AcDb2dVertex
 10
1214.919673107322
 20
-225.0726164678984
 30
0.0
  0
SEQEND
  5
1C4
330
1A8
100
AcDbEntity
  8
Layer 1
 62
     7
370
    35
  0
POLYLINE
  5
1C5
330
1F
100
AcDbEntity
  8
Layer 1
 62
     7
370
    35
100
AcDb2dPolyline
 66
     1
 10
0.0
 20
0.0
 30
0.0
  0
VERTEX
  5
1C6
330
1C5
100
AcDbEntity
  8
Layer 1
 62
     7
370
    35
100
AcDbVertex
100
AcDb2dVertex
 10
1144.480992433742
 20
-304.2924148964441
 30
0.0
  0
VERTEX
  5
1C7
330
1C5
100
AcDbEntity
  8
Layer 1
 62
     7
370
    35
100
AcDbVertex
100
AcDb2dVertex
 10
1108.494127886532
 20
-304.2924148964441
 30
0.0
  0
VERTEX
  5
1C8
330
1C5
100
AcDbEntity
  8
Layer 1
 62
     7
370
    35
100
AcDbVertex
100
AcDb2dVertex
 10
1108.494127886532
 20
-253.2144818308716
 30
0.0
  0
VERTEX
  5
1C9
330
1C5
100
AcDbEntity
  8
Layer 1
 62
     7
370
    35
100
AcDbVertex
100
AcDb2dVertex
 10
1144.480992433742
 20
-253.2144818308716
 30
0.0
  0
VERTEX
  5
1CA
330
1C5
100
AcDbEntity
  8
Layer 1
 62
     7
370
    35
100
AcDbVertex
100
AcDb2dVertex
 10
1144.480992433742
 20
-304.2924148964441
 30
0.0
  0
SEQEND
  5
1CB
330
1C5
100
AcDbEntity
  8
Layer 1
 62
     7
370
    35
  0
POLYLINE
  5
1CC
330
1F
100
AcDbEntity
  8
Layer 1
 62
     7
370
    35
100
AcDb2dPolyline
 66
     1
 10
0.0
 20
0.0
 30
0.0
  0
VERTEX
  5
1CD
330
1CC
100
AcDbEntity
  8
Layer 1
 62
     7
370
    35
100
AcDbVertex
100
AcDb2dVertex
 10
497.5242019681076
 20
-410.7941128038634
 30
0.0
  0
VERTEX
  5
1CE
330
1CC
100
AcDbEntity
  8
Layer 1
 62
     7
370
    35
100
AcDbVertex
100
AcDb2dVertex
 10
497.5242019681076
 20
-388.0719855308981
 30
0.0
  0
VERTEX
  5
1CF
330
1CC
100
AcDbEntity
  8
Layer 1
 62
     7
370
    35
100
AcDbVertex
100
AcDb2dVertex
 10
476.9908299843086
 20
-388.0719855308981
 30
0.0
  0
VERTEX
  5
1D0
330
1CC
100
AcDbEntity
  8
Layer 1
 62
     7
370
    35
100
AcDbVertex
100
AcDb2dVertex
 10
476.9908299843086
 20
-364.2274461488385
 30
0.0
  0
VERTEX
  5
1D1
330
1CC
100
AcDbEntity
  8
Layer 1
 62
     7
370
    35
100
AcDbVertex
100
AcDb2dVertex
 10
456.8560555481531
 20
-364.2274461488385
 30
0.0
  0
VERTEX
  5
1D2
330
1CC
100
AcDbEntity
  8
Layer 1
 62
     7
370
    35
100
AcDbVertex
100
AcDb2dVertex
 10
456.8560555481531
 20
-341.5053834714135
 30
0.0
  0
VERTEX
  5
1D3
330
1CC
100
AcDbEntity
  8
Layer 1
 62
     7
370
    35
100
AcDbVertex
100
AcDb2dVertex
 10
430.005067463503
 20
-341.5053834714135
 30
0.0
  0
VERTEX
  5
1D4
330
1CC
100
AcDbEntity
  8
Layer 1
 62
     7
370
    35
100
AcDbVertex
100
AcDb2dVertex
 10
430.005067463503
 20
-364.2274461488385
 30
0.0
  0
VERTEX
  5
1D5
330
1CC
100
AcDbEntity
  8
Layer 1
 62
     7
370
    35
100
AcDbVertex
100
AcDb2dVertex
 10
408.6333314933685
 20
-364.2274461488385
 30
0.0
  0
VERTEX
  5
1D6
330
1CC
100
AcDbEntity
  8
Layer 1
 62
     7
370
    35
100
AcDbVertex
100
AcDb2dVertex
 10
408.6333314933685
 20
-388.0719855308981
 30
0.0
  0
VERTEX
  5
1D7
330
1CC
100
AcDbEntity
  8
Layer 1
 62
     7
370
    35
100
AcDbVertex
100
AcDb2dVertex
 10
387.8227154503941
 20
-388.0719855308981
 30
0.0
  0
VERTEX
  5
1D8
330
1CC
100
AcDbEntity
  8
Layer 1
 62
     7
370
    35
100
AcDbVertex
100
AcDb2dVertex
 10
387.8227154503941
 20
-410.7941128038634
 30
0.0
  0
VERTEX
  5
1D9
330
1CC
100
AcDbEntity
  8
Layer 1
 62
     7
370
    35
100
AcDbVertex
100
AcDb2dVertex
 10
367.0120994074196
 20
-410.7941128038634
 30
0.0
  0
VERTEX
  5
1DA
330
1CC
100
AcDbEntity
  8
Layer 1
 62
     7
370
    35
100
AcDbVertex
100
AcDb2dVertex
 10
367.0120994074196
 20
-561.5053700225875
 30
0.0
  0
VERTEX
  5
1DB
330
1CC
100
AcDbEntity
  8
Layer 1
 62
     7
370
    35
100
AcDbVertex
100
AcDb2dVertex
 10
382.4680896650574
 20
-561.5053700225875
 30
0.0
  0
VERTEX
  5
1DC
330
1CC
100
AcDbEntity
  8
Layer 1
 62
     7
370
    35
100
AcDbVertex
100
AcDb2dVertex
 10
382.4680896650574
 20
-486.4044846925129
 30
0.0
  0
VERTEX
  5
1DD
330
1CC
100
AcDbEntity
  8
Layer 1
 62
     7
370
    35
100
AcDbVertex
100
AcDb2dVertex
 10
391.9680265930209
 20
-486.4044846925129
 30
0.0
  0
VERTEX
  5
1DE
330
1CC
100
AcDbEntity
  8
Layer 1
 62
     7
370
    35
100
AcDbVertex
100
AcDb2dVertex
 10
391.9680265930209
 20
-561.5053700225875
 30
0.0
  0
VERTEX
  5
1DF
330
1CC
100
AcDbEntity
  8
Layer 1
 62
     7
370
    35
100
AcDbVertex
100
AcDb2dVertex
 10
492.8220772676772
 20
-561.5053700225875
 30
0.0
  0
VERTEX
  5
1E0
330
1CC
100
AcDbEntity
  8
Layer 1
 62
     7
370
    35
100
AcDbVertex
100
AcDb2dVertex
 10
492.8220772676772
 20
-486.5085265761675
 30
0.0
  0
VERTEX
  5
1E1
330
1CC
100
AcDbEntity
  8
Layer 1
 62
     7
370
    35
100
AcDbVertex
100
AcDb2dVertex
 10
502.3221003230279
 20
-486.5085265761675
 30
0.0
  0
VERTEX
  5
1E2
330
1CC
100
AcDbEntity
  8
Layer 1
 62
     7
370
    35
100
AcDbVertex
100
AcDb2dVertex
 10
502.3221003230279
 20
-561.5053700225875
 30
0.0
  0
VERTEX
  5
1E3
330
1CC
100
AcDbEntity
  8
Layer 1
 62
     7
370
    35
100
AcDbVertex
100
AcDb2dVertex
 10
517.0120735995204
 20
-561.5053700225875
 30
0.0
  0
VERTEX
  5
1E4
330
1CC
100
AcDbEntity
  8
Layer 1
 62
     7
370
    35
100
AcDbVertex
100
AcDb2dVertex
 10
517.0120735995204
 20
-410.7941128038634
 30
0.0
  0
VERTEX
  5
1E5
330
1CC
100
AcDbEntity
  8
Layer 1
 62
     7
370
    35
100
AcDbVertex
100
AcDb2dVertex
 10
497.5242019681076
 20
-410.7941128038634
 30
0.0
  0
SEQEND
  5
1E6
330
1CC
100
AcDbEntity
  8
Layer 1
 62
     7
370
    35
  0
POLYLINE
  5
1E7
330
1F
100
AcDbEntity
  8
Layer 1
 62
     7
370
    35
100
AcDb2dPolyline
 66
     1
 10
0.0
 20
0.0
 30
0.0
  0
VERTEX
  5
1E8
330
1E7
100
AcDbEntity
  8
Layer 1
 62
     7
370
    35
100
AcDbVertex
100
AcDb2dVertex
 10
435.9529386913997
 20
-529.3449730308447
 30
0.0
  0
VERTEX
  5
1E9
330
1E7
100
AcDbEntity
  8
Layer 1
 62
     7
370
    35
100
AcDbVertex
100
AcDb2dVertex
 10
420.9529929486219
 20
-529.3449730308447
 30
0.0
  0
VERTEX
  5
1EA
330
1E7
100
AcDbEntity
  8
Layer 1
 62
     7
370
    35
100
AcDbVertex
100
AcDb2dVertex
 10
420.9529929486219
 20
-514.3449842243733
 30
0.0
  0
VERTEX
  5
1EB
330
1E7
100
AcDbEntity
  8
Layer 1
 62
     7
370
    35
100
AcDbVertex
100
AcDb2dVertex
 10
435.9529386913997
 20
-514.3449842243733
 30
0.0
  0
VERTEX
  5
1EC
330
1E7
100
AcDbEntity
  8
Layer 1
 62
     7
370
    35
100
AcDbVertex
100
AcDb2dVertex
 10
435.9529386913997
 20
-529.3449730308447
 30
0.0
  0
SEQEND
  5
1ED
330
1E7
100
AcDbEntity
  8
Layer 1
 62
     7
370
    35
  0
POLYLINE
  5
1EE
330
1F
100
AcDbEntity
  8
Layer 1
 62
     7
370
    35
100
AcDb2dPolyline
 66
     1
 10
0.0
 20
0.0
 30
0.0
  0
VERTEX
  5
1EF
330
1EE
100
AcDbEntity
  8
Layer 1
 62
     7
370
    35
100
AcDbVertex
100
AcDb2dVertex
 10
435.9529386913997
 20
-503.5827643106142
 30
0.0
  0
VERTEX
  5
1F0
330
1EE
100
AcDbEntity
  8
Layer 1
 62
     7
370
    35
100
AcDbVertex
100
AcDb2dVertex
 10
420.9529929486219
 20
-503.5827643106142
 30
0.0
  0
VERTEX
  5
1F1
330
1EE
100
AcDbEntity
  8
Layer 1
 62
     7
370
    35
100
AcDbVertex
100
AcDb2dVertex
 10
420.9529929486219
 20
-488.5827324404493
 30
0.0
  0
VERTEX
  5
1F2
330
1EE
100
AcDbEntity
  8
Layer 1
 62
     7
370
    35
100
AcDbVertex
100
AcDb2dVertex
 10
435.9529386913997
 20
-488.5827324404493
 30
0.0
  0
VERTEX
  5
1F3
330
1EE
100
AcDbEntity
  8
Layer 1
 62
     7
370
    35
100
AcDbVertex
100
AcDb2dVertex
 10
435.9529386913997
 20
-503.5827643106142
 30
0.0
  0
SEQEND
  5
1F4
330
1EE
100
AcDbEntity
  8
Layer 1
 62
     7
370
    35
  0
POLYLINE
  5
1F5
330
1F
100
AcDbEntity
  8
Layer 1
 62
     7
370
    35
100
AcDb2dPolyline
 66
     1
 10
0.0
 20
0.0
 30
0.0
  0
VERTEX
  5
1F6
330
1F5
100
AcDbEntity
  8
Layer 1
 62
     7
370
    35
100
AcDbVertex
100
AcDb2dVertex
 10
435.9529386913997
 20
-477.8205125266902
 30
0.0
  0
VERTEX
  5
1F7
330
1F5
100
AcDbEntity
  8
Layer 1
 62
     7
370
    35
100
AcDbVertex
100
AcDb2dVertex
 10
420.9529929486219
 20
-477.8205125266902
 30
0.0
  0
VERTEX
  5
1F8
330
1F5
100
AcDbEntity
  8
Layer 1
 62
     7
370
    35
100
AcDbVertex
100
AcDb2dVertex
 10
420.9529929486219
 20
-462.8205667839124
 30
0.0
  0
VERTEX
  5
1F9
330
1F5
100
AcDbEntity
  8
Layer 1
 62
     7
370
    35
100
AcDbVertex
100
AcDb2dVertex
 10
435.9529386913997
 20
-462.8205667839124
 30
0.0
  0
VERTEX
  5
1FA
330
1F5
100
AcDbEntity
  8
Layer 1
 62
     7
370
    35
100
AcDbVertex
100
AcDb2dVertex
 10
435.9529386913997
 20
-477.8205125266902
 30
0.0
  0
SEQEND
  5
1FB
330
1F5
100
AcDbEntity
  8
Layer 1
 62
     7
370
    35
  0
POLYLINE
  5
1FC
330
1F
100
AcDbEntity
  8
Layer 1
 62
     7
370
    35
100
AcDb2dPolyline
 66
     1
 10
0.0
 20
0.0
 30
0.0
  0
VERTEX
  5
1FD
330
1FC
100
AcDbEntity
  8
Layer 1
 62
     7
370
    35
100
AcDbVertex
100
AcDb2dVertex
 10
436.0147781553599
 20
-383.80346916098
 30
0.0
  0
VERTEX
  5
1FE
330
1FC
100
AcDbEntity
  8
Layer 1
 62
     7
370
    35
100
AcDbVertex
100
AcDb2dVertex
 10
451.5370003737016
 20
-383.80346916098
 30
0.0
  0
VERTEX
  5
1FF
330
1FC
100
AcDbEntity
  8
Layer 1
 62
     7
370
    35
100
AcDbVertex
100
AcDb2dVertex
 10
451.5370003737016
 20
-414.1423580422842
 30
0.0
  0
VERTEX
  5
200
330
1FC
100
AcDbEntity
  8
Layer 1
 62
     7
370
    35
100
AcDbVertex
100
AcDb2dVertex
 10
436.0147781553599
 20
-414.1423580422842
 30
0.0
  0
VERTEX
  5
201
330
1FC
100
AcDbEntity
  8
Layer 1
 62
     7
370
    35
100
AcDbVertex
100
AcDb2dVertex
 10
436.0147781553599
 20
-383.80346916098
 30
0.0
  0
SEQEND
  5
202
330
1FC
100
AcDbEntity
  8
Layer 1
 62
     7
370
    35
  0
POLYLINE
  5
203
330
1F
100
AcDbEntity
  8
Layer 1
 62
     7
370
    35
100
AcDb2dPolyline
 66
     1
 10
0.0
 20
0.0
 30
0.0
  0
VERTEX
  5
204
330
203
100
AcDbEntity
  8
Layer 1
 62
     7
370
    35
100
AcDbVertex
100
AcDb2dVertex
 10
463.0711800583181
 20
-529.3449730308447
 30
0.0
  0
VERTEX
  5
205
330
203
100
AcDbEntity
  8
Layer 1
 62
     7
370
    35
100
AcDbVertex
100
AcDb2dVertex
 10
448.0711481881531
 20
-529.3449730308447
 30
0.0
  0
VERTEX
  5
206
330
203
100
AcDbEntity
  8
Layer 1
 62
     7
370
    35
100
AcDbVertex
100
AcDb2dVertex
 10
448.0711481881531
 20
-514.3449842243733
 30
0.0
  0
VERTEX
  5
207
330
203
100
AcDbEntity
  8
Layer 1
 62
     7
370
    35
100
AcDbVertex
100
AcDb2dVertex
 10
463.0711800583181
 20
-514.3449842243733
 30
0.0
  0
VERTEX
  5
208
330
203
100
AcDbEntity
  8
Layer 1
 62
     7
370
    35
100
AcDbVertex
100
AcDb2dVertex
 10
463.0711800583181
 20
-529.3449730308447
 30
0.0
  0
SEQEND
  5
209
330
203
100
AcDbEntity
  8
Layer 1
 62
     7
370
    35
  0
POLYLINE
  5
20A
330
1F
100
AcDbEntity
  8
Layer 1
 62
     7
370
    35
100
AcDb2dPolyline
 66
     1
 10
0.0
 20
0.0
 30
0.0
  0
VERTEX
  5
20B
330
20A
100
AcDbEntity
  8
Layer 1
 62
     7
370
    35
100
AcDbVertex
100
AcDb2dVertex
 10
463.0711800583181
 20
-503.5827643106142
 30
0.0
  0
VERTEX
  5
20C
330
20A
100
AcDbEntity
  8
Layer 1
 62
     7
370
    35
100
AcDbVertex
100
AcDb2dVertex
 10
448.0711481881531
 20
-503.5827643106142
 30
0.0
  0
VERTEX
  5
20D
330
20A
100
AcDbEntity
  8
Layer 1
 62
     7
370
    35
100
AcDbVertex
100
AcDb2dVertex
 10
448.0711481881531
 20
-488.5827324404493
 30
0.0
  0
VERTEX
  5
20E
330
20A
100
AcDbEntity
  8
Layer 1
 62
     7
370
    35
100
AcDbVertex
100
AcDb2dVertex
 10
463.0711800583181
 20
-488.5827324404493
 30
0.0
  0
VERTEX
  5
20F
330
20A
100
AcDbEntity
  8
Layer 1
 62
     7
370
    35
100
AcDbVertex
100
AcDb2dVertex
 10
463.0711800583181
 20
-503.5827643106142
 30
0.0
  0
SEQEND
  5
210
330
20A
100
AcDbEntity
  8
Layer 1
 62
     7
370
    35
  0
POLYLINE
  5
211
330
1F
100
AcDbEntity
  8
Layer 1
 62
     7
370
    35
100
AcDb2dPolyline
 66
     1
 10
0.0
 20
0.0
 30
0.0
  0
VERTEX
  5
212
330
211
100
AcDbEntity
  8
Layer 1
 62
     7
370
    35
100
AcDbVertex
100
AcDb2dVertex
 10
463.0711800583181
 20
-477.8205125266902
 30
0.0
  0
VERTEX
  5
213
330
211
100
AcDbEntity
  8
Layer 1
 62
     7
370
    35
100
AcDbVertex
100
AcDb2dVertex
 10
448.0711481881531
 20
-477.8205125266902
 30
0.0
  0
VERTEX
  5
214
330
211
100
AcDbEntity
  8
Layer 1
 62
     7
370
    35
100
AcDbVertex
100
AcDb2dVertex
 10
448.0711481881531
 20
-462.8205667839124
 30
0.0
  0
VERTEX
  5
215
330
211
100
AcDbEntity
  8
Layer 1
 62
     7
370
    35
100
AcDbVertex
100
AcDb2dVertex
 10
463.0711800583181
 20
-462.8205667839124
 30
0.0
  0
VERTEX
  5
216
330
211
100
AcDbEntity
  8
Layer 1
 62
     7
370
    35
100
AcDbVertex
100
AcDb2dVertex
 10
463.0711800583181
 20
-477.8205125266902
 30
0.0
  0
SEQEND
  5
217
330
211
100
AcDbEntity
  8
Layer 1
 62
     7
370
    35
  0
POLYLINE
  5
218
330
1F
100
AcDbEntity
  8
Layer 1
 62
     7
370
    35
100
AcDb2dPolyline
 66
     1
 10
0.0
 20
0.0
 30
0.0
  0
VERTEX
  5
219
330
218
100
AcDbEntity
  8
Layer 1
 62
     7
370
    35
100
AcDbVertex
100
AcDb2dVertex
 10
1032.192712907235
 20
-225.0726157950282
 30
0.0
  0
VERTEX
  5
21A
330
218
100
AcDbEntity
  8
Layer 1
 62
     7
370
    35
100
AcDbVertex
100
AcDb2dVertex
 10
1032.192712907235
 20
-187.6135758195839
 30
0.0
  0
VERTEX
  5
21B
330
218
100
AcDbEntity
  8
Layer 1
 62
     7
370
    35
100
AcDbVertex
100
AcDb2dVertex
 10
1013.140818109481
 20
-187.6135758195839
 30
0.0
  0
VERTEX
  5
21C
330
218
100
AcDbEntity
  8
Layer 1
 62
     7
370
    35
100
AcDbVertex
100
AcDb2dVertex
 10
1013.140818109481
 20
-204.4249527685061
 30
0.0
  0
VERTEX
  5
21D
330
218
100
AcDbEntity
  8
Layer 1
 62
     7
370
    35
100
AcDbVertex
100
AcDb2dVertex
 10
967.6902762642895
 20
-155.1674942847267
 30
0.0
  0
VERTEX
  5
21E
330
218
100
AcDbEntity
  8
Layer 1
 62
     7
370
    35
100
AcDbVertex
100
AcDb2dVertex
 10
953.848743878427
 20
-170.1683443650693
 30
0.0
  0
VERTEX
  5
21F
330
218
100
AcDbEntity
  8
Layer 1
 62
     7
370
    35
100
AcDbVertex
100
AcDb2dVertex
 10
907.8177895713583
 20
-170.1683443650693
 30
0.0
  0
VERTEX
  5
220
330
218
100
AcDbEntity
  8
Layer 1
 62
     7
370
    35
100
AcDbVertex
100
AcDb2dVertex
 10
907.8177895713583
 20
-220.0548772844554
 30
0.0
  0
VERTEX
  5
221
330
218
100
AcDbEntity
  8
Layer 1
 62
     7
370
    35
100
AcDbVertex
100
AcDb2dVertex
 10
886.318929577818
 20
-243.3545317518292
 30
0.0
  0
VERTEX
  5
222
330
218
100
AcDbEntity
  8
Layer 1
 62
     7
370
    35
100
AcDbVertex
100
AcDb2dVertex
 10
892.6902891682391
 20
-243.3545317518292
 30
0.0
  0
VERTEX
  5
223
330
218
100
AcDbEntity
  8
Layer 1
 62
     7
370
    35
100
AcDbVertex
100
AcDb2dVertex
 10
892.6902891682391
 20
-320.1675003469923
 30
0.0
  0
VERTEX
  5
224
330
218
100
AcDbEntity
  8
Layer 1
 62
     7
370
    35
100
AcDbVertex
100
AcDb2dVertex
 10
908.8743142292973
 20
-320.1675003469923
 30
0.0
  0
VERTEX
  5
225
330
218
100
AcDbEntity
  8
Layer 1
 62
     7
370
    35
100
AcDbVertex
100
AcDb2dVertex
 10
908.8743142292973
 20
-244.5820623369173
 30
0.0
  0
VERTEX
  5
226
330
218
100
AcDbEntity
  8
Layer 1
 62
     7
370
    35
100
AcDbVertex
100
AcDb2dVertex
 10
918.374337284648
 20
-244.5820623369173
 30
0.0
  0
VERTEX
  5
227
330
218
100
AcDbEntity
  8
Layer 1
 62
     7
370
    35
100
AcDbVertex
100
AcDb2dVertex
 10
918.374337284648
 20
-320.1675003469923
 30
0.0
  0
VERTEX
  5
228
330
218
100
AcDbEntity
  8
Layer 1
 62
     7
370
    35
100
AcDbVertex
100
AcDb2dVertex
 10
972.7789406781649
 20
-320.1675003469923
 30
0.0
  0
VERTEX
  5
229
330
218
100
AcDbEntity
  8
Layer 1
 62
     7
370
    35
100
AcDbVertex
100
AcDb2dVertex
 10
972.7789406781649
 20
-252.2670798995577
 30
0.0
  0
VERTEX
  5
22A
330
218
100
AcDbEntity
  8
Layer 1
 62
     7
370
    35
100
AcDbVertex
100
AcDb2dVertex
 10
1008.765891352762
 20
-252.2670798995577
 30
0.0
  0
VERTEX
  5
22B
330
218
100
AcDbEntity
  8
Layer 1
 62
     7
370
    35
100
AcDbVertex
100
AcDb2dVertex
 10
1008.765891352762
 20
-320.1675003469923
 30
0.0
  0
VERTEX
  5
22C
330
218
100
AcDbEntity
  8
Layer 1
 62
     7
370
    35
100
AcDbVertex
100
AcDb2dVertex
 10
1019.228301831917
 20
-320.1675003469923
 30
0.0
  0
VERTEX
  5
22D
330
218
100
AcDbEntity
  8
Layer 1
 62
     7
370
    35
100
AcDbVertex
100
AcDb2dVertex
 10
1019.228301831917
 20
-244.6860611568783
 30
0.0
  0
VERTEX
  5
22E
330
218
100
AcDbEntity
  8
Layer 1
 62
     7
370
    35
100
AcDbVertex
100
AcDb2dVertex
 10
1028.728324887268
 20
-244.6860611568783
 30
0.0
  0
VERTEX
  5
22F
330
218
100
AcDbEntity
  8
Layer 1
 62
     7
370
    35
100
AcDbVertex
100
AcDb2dVertex
 10
1028.728324887268
 20
-320.1675003469923
 30
0.0
  0
VERTEX
  5
230
330
218
100
AcDbEntity
  8
Layer 1
 62
     7
370
    35
100
AcDbVertex
100
AcDb2dVertex
 10
1042.690349487727
 20
-320.1675003469923
 30
0.0
  0
VERTEX
  5
231
330
218
100
AcDbEntity
  8
Layer 1
 62
     7
370
    35
100
AcDbVertex
100
AcDb2dVertex
 10
1042.690349487727
 20
-243.3545317518292
 30
0.0
  0
VERTEX
  5
232
330
218
100
AcDbEntity
  8
Layer 1
 62
     7
370
    35
100
AcDbVertex
100
AcDb2dVertex
 10
1049.061709078148
 20
-243.3545317518292
 30
0.0
  0
VERTEX
  5
233
330
218
100
AcDbEntity
  8
Layer 1
 62
     7
370
    35
100
AcDbVertex
100
AcDb2dVertex
 10
1032.192712907235
 20
-225.0726157950282
 30
0.0
  0
SEQEND
  5
234
330
218
100
AcDbEntity
  8
Layer 1
 62
     7
370
    35
  0
POLYLINE
  5
235
330
1F
100
AcDbEntity
  8
Layer 1
 62
     7
370
    35
100
AcDb2dPolyline
 66
     1
 10
0.0
 20
0.0
 30
0.0
  0
VERTEX
  5
236
330
235
100
AcDbEntity
  8
Layer 1
 62
     7
370
    35
100
AcDbVertex
100
AcDb2dVertex
 10
155.5859381392719
 20
-404.5369783873641
 30
0.0
  0
VERTEX
  5
237
330
235
100
AcDbEntity
  8
Layer 1
 62
     7
370
    35
100
AcDbVertex
100
AcDb2dVertex
 10
155.5859381392719
 20
-381.8149372417859
 30
0.0
  0
VERTEX
  5
238
330
235
100
AcDbEntity
  8
Layer 1
 62
     7
370
    35
100
AcDbVertex
100
AcDb2dVertex
 10
135.0526092191666
 20
-381.8149372417859
 30
0.0
  0
VERTEX
  5
239
330
235
100
AcDbEntity
  8
Layer 1
 62
     7
370
    35
100
AcDbVertex
100
AcDb2dVertex
 10
135.0526092191666
 20
-357.9703332641858
 30
0.0
  0
VERTEX
  5
23A
330
235
100
AcDbEntity
  8
Layer 1
 62
     7
370
    35
100
AcDbVertex
100
AcDb2dVertex
 10
114.917834783011
 20
-357.9703332641858
 30
0.0
  0
VERTEX
  5
23B
330
235
100
AcDbEntity
  8
Layer 1
 62
     7
370
    35
100
AcDbVertex
100
AcDb2dVertex
 10
114.917834783011
 20
-335.2482705867608
 30
0.0
  0
VERTEX
  5
23C
330
235
100
AcDbEntity
  8
Layer 1
 62
     7
370
    35
100
AcDbVertex
100
AcDb2dVertex
 10
88.0668251665141
 20
-335.2482705867608
 30
0.0
  0
VERTEX
  5
23D
330
235
100
AcDbEntity
  8
Layer 1
 62
     7
370
    35
100
AcDbVertex
100
AcDb2dVertex
 10
88.0668251665141
 20
-357.9703332641858
 30
0.0
  0
VERTEX
  5
23E
330
235
100
AcDbEntity
  8
Layer 1
 62
     7
370
    35
100
AcDbVertex
100
AcDb2dVertex
 10
66.69508919637961
 20
-357.9703332641858
 30
0.0
  0
VERTEX
  5
23F
330
235
100
AcDbEntity
  8
Layer 1
 62
     7
370
    35
100
AcDbVertex
100
AcDb2dVertex
 10
66.69508919637961
 20
-381.8149372417859
 30
0.0
  0
VERTEX
  5
240
330
235
100
AcDbEntity
  8
Layer 1
 62
     7
370
    35
100
AcDbVertex
100
AcDb2dVertex
 10
45.88447315340519
 20
-381.8149372417859
 30
0.0
  0
VERTEX
  5
241
330
235
100
AcDbEntity
  8
Layer 1
 62
     7
370
    35
100
AcDbVertex
100
AcDb2dVertex
 10
45.88447315340519
 20
-404.5369783873641
 30
0.0
  0
VERTEX
  5
242
330
235
100
AcDbEntity
  8
Layer 1
 62
     7
370
    35
100
AcDbVertex
100
AcDb2dVertex
 10
25.07383557858397
 20
-404.5369783873641
 30
0.0
  0
VERTEX
  5
243
330
235
100
AcDbEntity
  8
Layer 1
 62
     7
370
    35
100
AcDbVertex
100
AcDb2dVertex
 10
25.07383557858397
 20
-555.2482786697817
 30
0.0
  0
VERTEX
  5
244
330
235
100
AcDbEntity
  8
Layer 1
 62
     7
370
    35
100
AcDbVertex
100
AcDb2dVertex
 10
40.38349540548572
 20
-555.2482786697817
 30
0.0
  0
VERTEX
  5
245
330
235
100
AcDbEntity
  8
Layer 1
 62
     7
370
    35
100
AcDbVertex
100
AcDb2dVertex
 10
40.38349540548572
 20
-479.3777159446087
 30
0.0
  0
VERTEX
  5
246
330
235
100
AcDbEntity
  8
Layer 1
 62
     7
370
    35
100
AcDbVertex
100
AcDb2dVertex
 10
49.88349692898963
 20
-479.3777159446087
 30
0.0
  0
VERTEX
  5
247
330
235
100
AcDbEntity
  8
Layer 1
 62
     7
370
    35
100
AcDbVertex
100
AcDb2dVertex
 10
49.88349692898963
 20
-555.2482786697817
 30
0.0
  0
VERTEX
  5
248
330
235
100
AcDbEntity
  8
Layer 1
 62
     7
370
    35
100
AcDbVertex
100
AcDb2dVertex
 10
73.23284689873823
 20
-555.2482786697817
 30
0.0
  0
VERTEX
  5
249
330
235
100
AcDbEntity
  8
Layer 1
 62
     7
370
    35
100
AcDbVertex
100
AcDb2dVertex
 10
73.23284689873823
 20
-457.6949309158497
 30
0.0
  0
VERTEX
  5
24A
330
235
100
AcDbEntity
  8
Layer 1
 62
     7
370
    35
100
AcDbVertex
100
AcDb2dVertex
 10
130.442597759273
 20
-457.6949309158497
 30
0.0
  0
VERTEX
  5
24B
330
235
100
AcDbEntity
  8
Layer 1
 62
     7
370
    35
100
AcDbVertex
100
AcDb2dVertex
 10
130.442597759273
 20
-555.2482786697817
 30
0.0
  0
VERTEX
  5
24C
330
235
100
AcDbEntity
  8
Layer 1
 62
     7
370
    35
100
AcDbVertex
100
AcDb2dVertex
 10
150.7375045399523
 20
-555.2482786697817
 30
0.0
  0
VERTEX
  5
24D
330
235
100
AcDbEntity
  8
Layer 1
 62
     7
370
    35
100
AcDbVertex
100
AcDb2dVertex
 10
150.7375045399523
 20
-479.4816717008761
 30
0.0
  0
VERTEX
  5
24E
330
235
100
AcDbEntity
  8
Layer 1
 62
     7
370
    35
100
AcDbVertex
100
AcDb2dVertex
 10
160.2375060634563
 20
-479.4816717008761
 30
0.0
  0
VERTEX
  5
24F
330
235
100
AcDbEntity
  8
Layer 1
 62
     7
370
    35
100
AcDbVertex
100
AcDb2dVertex
 10
160.2375060634563
 20
-555.2482786697817
 30
0.0
  0
VERTEX
  5
250
330
235
100
AcDbEntity
  8
Layer 1
 62
     7
370
    35
100
AcDbVertex
100
AcDb2dVertex
 10
175.0738313025315
 20
-555.2482786697817
 30
0.0
  0
VERTEX
  5
251
330
235
100
AcDbEntity
  8
Layer 1
 62
     7
370
    35
100
AcDbVertex
100
AcDb2dVertex
 10
175.0738313025315
 20
-404.5369783873641
 30
0.0
  0
VERTEX
  5
252
330
235
100
AcDbEntity
  8
Layer 1
 62
     7
370
    35
100
AcDbVertex
100
AcDb2dVertex
 10
155.5859381392719
 20
-404.5369783873641
 30
0.0
  0
SEQEND
  5
253
330
235
100
AcDbEntity
  8
Layer 1
 62
     7
370
    35
  0
POLYLINE
  5
254
330
1F
100
AcDbEntity
  8
Layer 1
 62
     7
370
    35
100
AcDb2dPolyline
 66
     1
 10
0.0
 20
0.0
 30
0.0
  0
VERTEX
  5
255
330
254
100
AcDbEntity
  8
Layer 1
 62
     7
370
    35
100
AcDbVertex
100
AcDb2dVertex
 10
351.6897950034947
 20
-1067.71304154724
 30
0.0
  0
VERTEX
  5
256
330
254
100
AcDbEntity
  8
Layer 1
 62
     7
370
    35
100
AcDbVertex
100
AcDb2dVertex
 10
351.6897950034947
 20
-1143.413933319765
 30
0.0
  0
VERTEX
  5
257
330
254
100
AcDbEntity
  8
Layer 1
 62
     7
370
    35
100
AcDbVertex
100
AcDb2dVertex
 10
342.189771948144
 20
-1143.413933319765
 30
0.0
  0
VERTEX
  5
258
330
254
100
AcDbEntity
  8
Layer 1
 62
     7
370
    35
100
AcDbVertex
100
AcDb2dVertex
 10
342.189771948144
 20
-1067.71304154724
 30
0.0
  0
VERTEX
  5
259
330
254
100
AcDbEntity
  8
Layer 1
 62
     7
370
    35
100
AcDbVertex
100
AcDb2dVertex
 10
332.8900811952606
 20
-1067.71304154724
 30
0.0
  0
VERTEX
  5
25A
330
254
100
AcDbEntity
  8
Layer 1
 62
     7
370
    35
100
AcDbVertex
100
AcDb2dVertex
 10
332.8900811952606
 20
-1081.589800034439
 30
0.0
  0
VERTEX
  5
25B
330
254
100
AcDbEntity
  8
Layer 1
 62
     7
370
    35
100
AcDbVertex
100
AcDb2dVertex
 10
319.0538887074002
 20
-1081.589800034439
 30
0.0
  0
VERTEX
  5
25C
330
254
100
AcDbEntity
  8
Layer 1
 62
     7
370
    35
100
AcDbVertex
100
AcDb2dVertex
 10
319.0538887074002
 20
-1067.71304154724
 30
0.0
  0
VERTEX
  5
25D
330
254
100
AcDbEntity
  8
Layer 1
 62
     7
370
    35
100
AcDbVertex
100
AcDb2dVertex
 10
297.8904948867362
 20
-1067.71304154724
 30
0.0
  0
VERTEX
  5
25E
330
254
100
AcDbEntity
  8
Layer 1
 62
     7
370
    35
100
AcDbVertex
100
AcDb2dVertex
 10
297.8904948867362
 20
-1081.589800034439
 30
0.0
  0
VERTEX
  5
25F
330
254
100
AcDbEntity
  8
Layer 1
 62
     7
370
    35
100
AcDbVertex
100
AcDb2dVertex
 10
284.0543023988757
 20
-1081.589800034439
 30
0.0
  0
VERTEX
  5
260
330
254
100
AcDbEntity
  8
Layer 1
 62
     7
370
    35
100
AcDbVertex
100
AcDb2dVertex
 10
284.0543023988757
 20
-1067.71304154724
 30
0.0
  0
VERTEX
  5
261
330
254
100
AcDbEntity
  8
Layer 1
 62
     7
370
    35
100
AcDbVertex
100
AcDb2dVertex
 10
262.8909947055989
 20
-1067.71304154724
 30
0.0
  0
VERTEX
  5
262
330
254
100
AcDbEntity
  8
Layer 1
 62
     7
370
    35
100
AcDbVertex
100
AcDb2dVertex
 10
262.8909947055989
 20
-1081.589800034439
 30
0.0
  0
VERTEX
  5
263
330
254
100
AcDbEntity
  8
Layer 1
 62
     7
370
    35
100
AcDbVertex
100
AcDb2dVertex
 10
249.0547160903513
 20
-1081.589800034439
 30
0.0
  0
VERTEX
  5
264
330
254
100
AcDbEntity
  8
Layer 1
 62
     7
370
    35
100
AcDbVertex
100
AcDb2dVertex
 10
249.0547160903513
 20
-1067.71304154724
 30
0.0
  0
VERTEX
  5
265
330
254
100
AcDbEntity
  8
Layer 1
 62
     7
370
    35
100
AcDbVertex
100
AcDb2dVertex
 10
227.8913222696873
 20
-1067.71304154724
 30
0.0
  0
VERTEX
  5
266
330
254
100
AcDbEntity
  8
Layer 1
 62
     7
370
    35
100
AcDbVertex
100
AcDb2dVertex
 10
227.8913222696873
 20
-1081.589800034439
 30
0.0
  0
VERTEX
  5
267
330
254
100
AcDbEntity
  8
Layer 1
 62
     7
370
    35
100
AcDbVertex
100
AcDb2dVertex
 10
214.0552159092141
 20
-1081.589800034439
 30
0.0
  0
VERTEX
  5
268
330
254
100
AcDbEntity
  8
Layer 1
 62
     7
370
    35
100
AcDbVertex
100
AcDb2dVertex
 10
214.0552159092141
 20
-1067.71304154724
 30
0.0
  0
VERTEX
  5
269
330
254
100
AcDbEntity
  8
Layer 1
 62
     7
370
    35
100
AcDbVertex
100
AcDb2dVertex
 10
201.9106514319985
 20
-1067.71304154724
 30
0.0
  0
VERTEX
  5
26A
330
254
100
AcDbEntity
  8
Layer 1
 62
     7
370
    35
100
AcDbVertex
100
AcDb2dVertex
 10
201.9106514319985
 20
-1143.413933319765
 30
0.0
  0
VERTEX
  5
26B
330
254
100
AcDbEntity
  8
Layer 1
 62
     7
370
    35
100
AcDbVertex
100
AcDb2dVertex
 10
192.4106283766478
 20
-1143.413933319765
 30
0.0
  0
VERTEX
  5
26C
330
254
100
AcDbEntity
  8
Layer 1
 62
     7
370
    35
100
AcDbVertex
100
AcDb2dVertex
 10
192.4106283766478
 20
-1067.71304154724
 30
0.0
  0
VERTEX
  5
26D
330
254
100
AcDbEntity
  8
Layer 1
 62
     7
370
    35
100
AcDbVertex
100
AcDb2dVertex
 10
185.4043376882952
 20
-1067.71304154724
 30
0.0
  0
VERTEX
  5
26E
330
254
100
AcDbEntity
  8
Layer 1
 62
     7
370
    35
100
AcDbVertex
100
AcDb2dVertex
 10
185.4043376882952
 20
-1081.589800034439
 30
0.0
  0
VERTEX
  5
26F
330
254
100
AcDbEntity
  8
Layer 1
 62
     7
370
    35
100
AcDbVertex
100
AcDb2dVertex
 10
171.5681452004348
 20
-1081.589800034439
 30
0.0
  0
VERTEX
  5
270
330
254
100
AcDbEntity
  8
Layer 1
 62
     7
370
    35
100
AcDbVertex
100
AcDb2dVertex
 10
171.5681452004348
 20
-1067.71304154724
 30
0.0
  0
VERTEX
  5
271
330
254
100
AcDbEntity
  8
Layer 1
 62
     7
370
    35
100
AcDbVertex
100
AcDb2dVertex
 10
150.4048375071579
 20
-1067.71304154724
 30
0.0
  0
VERTEX
  5
272
330
254
100
AcDbEntity
  8
Layer 1
 62
     7
370
    35
100
AcDbVertex
100
AcDb2dVertex
 10
150.4048375071579
 20
-1081.589800034439
 30
0.0
  0
VERTEX
  5
273
330
254
100
AcDbEntity
  8
Layer 1
 62
     7
370
    35
100
AcDbVertex
100
AcDb2dVertex
 10
136.5686450192975
 20
-1081.589800034439
 30
0.0
  0
VERTEX
  5
274
330
254
100
AcDbEntity
  8
Layer 1
 62
     7
370
    35
100
AcDbVertex
100
AcDb2dVertex
 10
136.5686450192975
 20
-1067.71304154724
 30
0.0
  0
VERTEX
  5
275
330
254
100
AcDbEntity
  8
Layer 1
 62
     7
370
    35
100
AcDbVertex
100
AcDb2dVertex
 10
115.4052511986335
 20
-1067.71304154724
 30
0.0
  0
VERTEX
  5
276
330
254
100
AcDbEntity
  8
Layer 1
 62
     7
370
    35
100
AcDbVertex
100
AcDb2dVertex
 10
115.4052511986335
 20
-1081.589800034439
 30
0.0
  0
VERTEX
  5
277
330
254
100
AcDbEntity
  8
Layer 1
 62
     7
370
    35
100
AcDbVertex
100
AcDb2dVertex
 10
101.5690587107731
 20
-1081.589800034439
 30
0.0
  0
VERTEX
  5
278
330
254
100
AcDbEntity
  8
Layer 1
 62
     7
370
    35
100
AcDbVertex
100
AcDb2dVertex
 10
101.5690587107731
 20
-1067.71304154724
 30
0.0
  0
VERTEX
  5
279
330
254
100
AcDbEntity
  8
Layer 1
 62
     7
370
    35
100
AcDbVertex
100
AcDb2dVertex
 10
80.4056648901091
 20
-1067.71304154724
 30
0.0
  0
VERTEX
  5
27A
330
254
100
AcDbEntity
  8
Layer 1
 62
     7
370
    35
100
AcDbVertex
100
AcDb2dVertex
 10
80.4056648901091
 20
-1081.589800034439
 30
0.0
  0
VERTEX
  5
27B
330
254
100
AcDbEntity
  8
Layer 1
 62
     7
370
    35
100
AcDbVertex
100
AcDb2dVertex
 10
66.56947240224869
 20
-1081.589800034439
 30
0.0
  0
VERTEX
  5
27C
330
254
100
AcDbEntity
  8
Layer 1
 62
     7
370
    35
100
AcDbVertex
100
AcDb2dVertex
 10
66.56947240224869
 20
-1067.71304154724
 30
0.0
  0
VERTEX
  5
27D
330
254
100
AcDbEntity
  8
Layer 1
 62
     7
370
    35
100
AcDbVertex
100
AcDb2dVertex
 10
61.09874689905909
 20
-1067.71304154724
 30
0.0
  0
VERTEX
  5
27E
330
254
100
AcDbEntity
  8
Layer 1
 62
     7
370
    35
100
AcDbVertex
100
AcDb2dVertex
 10
61.09874689905909
 20
-1143.413933319765
 30
0.0
  0
VERTEX
  5
27F
330
254
100
AcDbEntity
  8
Layer 1
 62
     7
370
    35
100
AcDbVertex
100
AcDb2dVertex
 10
51.59876690740196
 20
-1143.413933319765
 30
0.0
  0
VERTEX
  5
280
330
254
100
AcDbEntity
  8
Layer 1
 62
     7
370
    35
100
AcDbVertex
100
AcDb2dVertex
 10
51.59876690740196
 20
-1067.71304154724
 30
0.0
  0
VERTEX
  5
281
330
254
100
AcDbEntity
  8
Layer 1
 62
     7
370
    35
100
AcDbVertex
100
AcDb2dVertex
 10
34.15810020440536
 20
-1067.71304154724
 30
0.0
  0
VERTEX
  5
282
330
254
100
AcDbEntity
  8
Layer 1
 62
     7
370
    35
100
AcDbVertex
100
AcDb2dVertex
 10
34.15810020440536
 20
-1217.713015739341
 30
0.0
  0
VERTEX
  5
283
330
254
100
AcDbEntity
  8
Layer 1
 62
     7
370
    35
100
AcDbVertex
100
AcDb2dVertex
 10
366.5816508754227
 20
-1217.713015739341
 30
0.0
  0
VERTEX
  5
284
330
254
100
AcDbEntity
  8
Layer 1
 62
     7
370
    35
100
AcDbVertex
100
AcDb2dVertex
 10
366.5816508754227
 20
-1067.71304154724
 30
0.0
  0
VERTEX
  5
285
330
254
100
AcDbEntity
  8
Layer 1
 62
     7
370
    35
100
AcDbVertex
100
AcDb2dVertex
 10
351.6897950034947
 20
-1067.71304154724
 30
0.0
  0
SEQEND
  5
286
330
254
100
AcDbEntity
  8
Layer 1
 62
     7
370
    35
  0
INSERT
  5
288
330
1F
100
AcDbEntity
  8
Layer 1
100
AcDbBlockReference
  2
block 2
 10
0.0
 20
0.0
 30
0.0
  0
INSERT
  5
299
330
1F
100
AcDbEntity
  8
Layer 1
100
AcDbBlockReference
  2
block 4
 10
0.0
 20
0.0
 30
0.0
  0
POLYLINE
  5
2A9
330
1F
100
AcDbEntity
  8
Layer 1
 62
     7
370
    35
100
AcDb2dPolyline
 66
     1
 10
0.0
 20
0.0
 30
0.0
  0
VERTEX
  5
2AA
330
2A9
100
AcDbEntity
  8
Layer 1
 62
     7
370
    35
100
AcDbVertex
100
AcDb2dVertex
 10
1380.698229087202
 20
-1180.794099785398
 30
0.0
  0
VERTEX
  5
2AB
330
2A9
100
AcDbEntity
  8
Layer 1
 62
     7
370
    35
100
AcDbVertex
100
AcDb2dVertex
 10
1380.698229087202
 20
-1256.293625726809
 30
0.0
  0
VERTEX
  5
2AC
330
2A9
100
AcDbEntity
  8
Layer 1
 62
     7
370
    35
100
AcDbVertex
100
AcDb2dVertex
 10
1371.198206031851
 20
-1256.293625726809
 30
0.0
  0
VERTEX
  5
2AD
330
2A9
100
AcDbEntity
  8
Layer 1
 62
     7
370
    35
100
AcDbVertex
100
AcDb2dVertex
 10
1371.198206031851
 20
-1180.794099785398
 30
0.0
  0
VERTEX
  5
2AE
330
2A9
100
AcDbEntity
  8
Layer 1
 62
     7
370
    35
100
AcDbVertex
100
AcDb2dVertex
 10
1350.013969383501
 20
-1180.794099785398
 30
0.0
  0
VERTEX
  5
2AF
330
2A9
100
AcDbEntity
  8
Layer 1
 62
     7
370
    35
100
AcDbVertex
100
AcDb2dVertex
 10
1350.013969383501
 20
-1194.735712195107
 30
0.0
  0
VERTEX
  5
2B0
330
2A9
100
AcDbEntity
  8
Layer 1
 62
     7
370
    35
100
AcDbVertex
100
AcDb2dVertex
 10
1335.014023640723
 20
-1194.735712195107
 30
0.0
  0
VERTEX
  5
2B1
330
2A9
100
AcDbEntity
  8
Layer 1
 62
     7
370
    35
100
AcDbVertex
100
AcDb2dVertex
 10
1335.014023640723
 20
-1180.794099785398
 30
0.0
  0
VERTEX
  5
2B2
330
2A9
100
AcDbEntity
  8
Layer 1
 62
     7
370
    35
100
AcDbVertex
100
AcDb2dVertex
 10
1312.070548982831
 20
-1180.794099785398
 30
0.0
  0
VERTEX
  5
2B3
330
2A9
100
AcDbEntity
  8
Layer 1
 62
     7
370
    35
100
AcDbVertex
100
AcDb2dVertex
 10
1312.070548982831
 20
-1194.735798322494
 30
0.0
  0
VERTEX
  5
2B4
330
2A9
100
AcDbEntity
  8
Layer 1
 62
     7
370
    35
100
AcDbVertex
100
AcDb2dVertex
 10
1297.070603240053
 20
-1194.735798322494
 30
0.0
  0
VERTEX
  5
2B5
330
2A9
100
AcDbEntity
  8
Layer 1
 62
     7
370
    35
100
AcDbVertex
100
AcDb2dVertex
 10
1297.070603240053
 20
-1180.794099785398
 30
0.0
  0
VERTEX
  5
2B6
330
2A9
100
AcDbEntity
  8
Layer 1
 62
     7
370
    35
100
AcDbVertex
100
AcDb2dVertex
 10
1272.918761340709
 20
-1180.794099785398
 30
0.0
  0
VERTEX
  5
2B7
330
2A9
100
AcDbEntity
  8
Layer 1
 62
     7
370
    35
100
AcDbVertex
100
AcDb2dVertex
 10
1272.918761340709
 20
-1194.735712195107
 30
0.0
  0
VERTEX
  5
2B8
330
2A9
100
AcDbEntity
  8
Layer 1
 62
     7
370
    35
100
AcDbVertex
100
AcDb2dVertex
 10
1257.918643343157
 20
-1194.735712195107
 30
0.0
  0
VERTEX
  5
2B9
330
2A9
100
AcDbEntity
  8
Layer 1
 62
     7
370
    35
100
AcDbVertex
100
AcDb2dVertex
 10
1257.918643343157
 20
-1180.794099785398
 30
0.0
  0
VERTEX
  5
2BA
330
2A9
100
AcDbEntity
  8
Layer 1
 62
     7
370
    35
100
AcDbVertex
100
AcDb2dVertex
 10
1234.975254812651
 20
-1180.794099785398
 30
0.0
  0
VERTEX
  5
2BB
330
2A9
100
AcDbEntity
  8
Layer 1
 62
     7
370
    35
100
AcDbVertex
100
AcDb2dVertex
 10
1234.975254812651
 20
-1194.735798322494
 30
0.0
  0
VERTEX
  5
2BC
330
2A9
100
AcDbEntity
  8
Layer 1
 62
     7
370
    35
100
AcDbVertex
100
AcDb2dVertex
 10
1219.975222942486
 20
-1194.735798322494
 30
0.0
  0
VERTEX
  5
2BD
330
2A9
100
AcDbEntity
  8
Layer 1
 62
     7
370
    35
100
AcDbVertex
100
AcDb2dVertex
 10
1219.975222942486
 20
-1180.794099785398
 30
0.0
  0
VERTEX
  5
2BE
330
2A9
100
AcDbEntity
  8
Layer 1
 62
     7
370
    35
100
AcDbVertex
100
AcDb2dVertex
 10
1197.031834411981
 20
-1180.794099785398
 30
0.0
  0
VERTEX
  5
2BF
330
2A9
100
AcDbEntity
  8
Layer 1
 62
     7
370
    35
100
AcDbVertex
100
AcDb2dVertex
 10
1197.031834411981
 20
-1194.735712195107
 30
0.0
  0
VERTEX
  5
2C0
330
2A9
100
AcDbEntity
  8
Layer 1
 62
     7
370
    35
100
AcDbVertex
100
AcDb2dVertex
 10
1182.031802541816
 20
-1194.735712195107
 30
0.0
  0
VERTEX
  5
2C1
330
2A9
100
AcDbEntity
  8
Layer 1
 62
     7
370
    35
100
AcDbVertex
100
AcDb2dVertex
 10
1182.031802541816
 20
-1180.794099785398
 30
0.0
  0
VERTEX
  5
2C2
330
2A9
100
AcDbEntity
  8
Layer 1
 62
     7
370
    35
100
AcDbVertex
100
AcDb2dVertex
 10
1159.088327883924
 20
-1180.794099785398
 30
0.0
  0
VERTEX
  5
2C3
330
2A9
100
AcDbEntity
  8
Layer 1
 62
     7
370
    35
100
AcDbVertex
100
AcDb2dVertex
 10
1159.088327883924
 20
-1194.735798322494
 30
0.0
  0
VERTEX
  5
2C4
330
2A9
100
AcDbEntity
  8
Layer 1
 62
     7
370
    35
100
AcDbVertex
100
AcDb2dVertex
 10
1144.088382141146
 20
-1194.735798322494
 30
0.0
  0
VERTEX
  5
2C5
330
2A9
100
AcDbEntity
  8
Layer 1
 62
     7
370
    35
100
AcDbVertex
100
AcDb2dVertex
 10
1144.088382141146
 20
-1180.794099785398
 30
0.0
  0
VERTEX
  5
2C6
330
2A9
100
AcDbEntity
  8
Layer 1
 62
     7
370
    35
100
AcDbVertex
100
AcDb2dVertex
 10
1120.082267780828
 20
-1180.794099785398
 30
0.0
  0
VERTEX
  5
2C7
330
2A9
100
AcDbEntity
  8
Layer 1
 62
     7
370
    35
100
AcDbVertex
100
AcDb2dVertex
 10
1120.082267780828
 20
-1256.293625726809
 30
0.0
  0
VERTEX
  5
2C8
330
2A9
100
AcDbEntity
  8
Layer 1
 62
     7
370
    35
100
AcDbVertex
100
AcDb2dVertex
 10
1110.582244725477
 20
-1256.293625726809
 30
0.0
  0
VERTEX
  5
2C9
330
2A9
100
AcDbEntity
  8
Layer 1
 62
     7
370
    35
100
AcDbVertex
100
AcDb2dVertex
 10
1110.582244725477
 20
-1180.794099785398
 30
0.0
  0
VERTEX
  5
2CA
330
2A9
100
AcDbEntity
  8
Layer 1
 62
     7
370
    35
100
AcDbVertex
100
AcDb2dVertex
 10
1095.640262714239
 20
-1180.794099785398
 30
0.0
  0
VERTEX
  5
2CB
330
2A9
100
AcDbEntity
  8
Layer 1
 62
     7
370
    35
100
AcDbVertex
100
AcDb2dVertex
 10
1095.640262714239
 20
-1330.794073977498
 30
0.0
  0
VERTEX
  5
2CC
330
2A9
100
AcDbEntity
  8
Layer 1
 62
     7
370
    35
100
AcDbVertex
100
AcDb2dVertex
 10
1395.640297225827
 20
-1330.794073977498
 30
0.0
  0
VERTEX
  5
2CD
330
2A9
100
AcDbEntity
  8
Layer 1
 62
     7
370
    35
100
AcDbVertex
100
AcDb2dVertex
 10
1395.640297225827
 20
-1180.794099785398
 30
0.0
  0
VERTEX
  5
2CE
330
2A9
100
AcDbEntity
  8
Layer 1
 62
     7
370
    35
100
AcDbVertex
100
AcDb2dVertex
 10
1380.698229087202
 20
-1180.794099785398
 30
0.0
  0
SEQEND
  5
2CF
330
2A9
100
AcDbEntity
  8
Layer 1
 62
     7
370
    35
  0
POLYLINE
  5
2D0
330
1F
100
AcDbEntity
  8
Layer 1
 62
     7
370
    35
100
AcDb2dPolyline
 66
     1
 10
0.0
 20
0.0
 30
0.0
  0
VERTEX
  5
2D1
330
2D0
100
AcDbEntity
  8
Layer 1
 62
     7
370
    35
100
AcDbVertex
100
AcDb2dVertex
 10
325.8500877837312
 20
-405.7667375185941
 30
0.0
  0
VERTEX
  5
2D2
330
2D0
100
AcDbEntity
  8
Layer 1
 62
     7
370
    35
100
AcDbVertex
100
AcDb2dVertex
 10
325.8500877837312
 20
-383.0446533093224
 30
0.0
  0
VERTEX
  5
2D3
330
2D0
100
AcDbEntity
  8
Layer 1
 62
     7
370
    35
100
AcDbVertex
100
AcDb2dVertex
 10
305.3167588636258
 20
-383.0446533093224
 30
0.0
  0
VERTEX
  5
2D4
330
2D0
100
AcDbEntity
  8
Layer 1
 62
     7
370
    35
100
AcDbVertex
100
AcDb2dVertex
 10
305.3167588636258
 20
-359.2000708635691
 30
0.0
  0
VERTEX
  5
2D5
330
2D0
100
AcDbEntity
  8
Layer 1
 62
     7
370
    35
100
AcDbVertex
100
AcDb2dVertex
 10
285.1819844274702
 20
-359.2000708635691
 30
0.0
  0
VERTEX
  5
2D6
330
2D0
100
AcDbEntity
  8
Layer 1
 62
     7
370
    35
100
AcDbVertex
100
AcDb2dVertex
 10
285.1819844274702
 20
-336.4780081861442
 30
0.0
  0
VERTEX
  5
2D7
330
2D0
100
AcDbEntity
  8
Layer 1
 62
     7
370
    35
100
AcDbVertex
100
AcDb2dVertex
 10
258.3309963428201
 20
-336.4780081861442
 30
0.0
  0
VERTEX
  5
2D8
330
2D0
100
AcDbEntity
  8
Layer 1
 62
     7
370
    35
100
AcDbVertex
100
AcDb2dVertex
 10
258.3309963428201
 20
-359.2000708635691
 30
0.0
  0
VERTEX
  5
2D9
330
2D0
100
AcDbEntity
  8
Layer 1
 62
     7
370
    35
100
AcDbVertex
100
AcDb2dVertex
 10
236.9592603726857
 20
-359.2000708635691
 30
0.0
  0
VERTEX
  5
2DA
330
2D0
100
AcDbEntity
  8
Layer 1
 62
     7
370
    35
100
AcDbVertex
100
AcDb2dVertex
 10
236.9592603726857
 20
-383.0446533093224
 30
0.0
  0
VERTEX
  5
2DB
330
2D0
100
AcDbEntity
  8
Layer 1
 62
     7
370
    35
100
AcDbVertex
100
AcDb2dVertex
 10
216.1486227978644
 20
-383.0446533093224
 30
0.0
  0
VERTEX
  5
2DC
330
2D0
100
AcDbEntity
  8
Layer 1
 62
     7
370
    35
100
AcDbVertex
100
AcDb2dVertex
 10
216.1486227978644
 20
-405.7667375185941
 30
0.0
  0
VERTEX
  5
2DD
330
2D0
100
AcDbEntity
  8
Layer 1
 62
     7
370
    35
100
AcDbVertex
100
AcDb2dVertex
 10
195.3379852230432
 20
-405.7667375185941
 30
0.0
  0
VERTEX
  5
2DE
330
2D0
100
AcDbEntity
  8
Layer 1
 62
     7
370
    35
100
AcDbVertex
100
AcDb2dVertex
 10
195.3379852230432
 20
-556.4779947373182
 30
0.0
  0
VERTEX
  5
2DF
330
2D0
100
AcDbEntity
  8
Layer 1
 62
     7
370
    35
100
AcDbVertex
100
AcDb2dVertex
 10
210.5689676818006
 20
-556.4779947373182
 30
0.0
  0
VERTEX
  5
2E0
330
2D0
100
AcDbEntity
  8
Layer 1
 62
     7
370
    35
100
AcDbVertex
100
AcDb2dVertex
 10
210.5689676818006
 20
-479.4297261205126
 30
0.0
  0
VERTEX
  5
2E1
330
2D0
100
AcDbEntity
  8
Layer 1
 62
     7
370
    35
100
AcDbVertex
100
AcDb2dVertex
 10
220.0689692053045
 20
-479.4297261205126
 30
0.0
  0
VERTEX
  5
2E2
330
2D0
100
AcDbEntity
  8
Layer 1
 62
     7
370
    35
100
AcDbVertex
100
AcDb2dVertex
 10
220.0689692053045
 20
-556.4779947373182
 30
0.0
  0
VERTEX
  5
2E3
330
2D0
100
AcDbEntity
  8
Layer 1
 62
     7
370
    35
100
AcDbVertex
100
AcDb2dVertex
 10
320.9229552844204
 20
-556.4779947373182
 30
0.0
  0
VERTEX
  5
2E4
330
2D0
100
AcDbEntity
  8
Layer 1
 62
     7
370
    35
100
AcDbVertex
100
AcDb2dVertex
 10
320.9229552844204
 20
-479.53368187678
 30
0.0
  0
VERTEX
  5
2E5
330
2D0
100
AcDbEntity
  8
Layer 1
 62
     7
370
    35
100
AcDbVertex
100
AcDb2dVertex
 10
330.4229783397711
 20
-479.53368187678
 30
0.0
  0
VERTEX
  5
2E6
330
2D0
100
AcDbEntity
  8
Layer 1
 62
     7
370
    35
100
AcDbVertex
100
AcDb2dVertex
 10
330.4229783397711
 20
-556.4779947373182
 30
0.0
  0
VERTEX
  5
2E7
330
2D0
100
AcDbEntity
  8
Layer 1
 62
     7
370
    35
100
AcDbVertex
100
AcDb2dVertex
 10
345.3380024788375
 20
-556.4779947373182
 30
0.0
  0
VERTEX
  5
2E8
330
2D0
100
AcDbEntity
  8
Layer 1
 62
     7
370
    35
100
AcDbVertex
100
AcDb2dVertex
 10
345.3380024788375
 20
-405.7667375185941
 30
0.0
  0
VERTEX
  5
2E9
330
2D0
100
AcDbEntity
  8
Layer 1
 62
     7
370
    35
100
AcDbVertex
100
AcDb2dVertex
 10
325.8500877837312
 20
-405.7667375185941
 30
0.0
  0
SEQEND
  5
2EA
330
2D0
100
AcDbEntity
  8
Layer 1
 62
     7
370
    35
  0
POLYLINE
  5
2EB
330
1F
100
AcDbEntity
  8
Layer 1
 62
     7
370
    35
100
AcDb2dPolyline
 66
     1
 10
0.0
 20
0.0
 30
0.0
  0
VERTEX
  5
2EC
330
2EB
100
AcDbEntity
  8
Layer 1
 62
     7
370
    35
100
AcDbVertex
100
AcDb2dVertex
 10
264.2788675707168
 20
-524.3175977455753
 30
0.0
  0
VERTEX
  5
2ED
330
2EB
100
AcDbEntity
  8
Layer 1
 62
     7
370
    35
100
AcDbVertex
100
AcDb2dVertex
 10
249.2788787642455
 20
-524.3175977455753
 30
0.0
  0
VERTEX
  5
2EE
330
2EB
100
AcDbEntity
  8
Layer 1
 62
     7
370
    35
100
AcDbVertex
100
AcDb2dVertex
 10
249.2788787642455
 20
-509.317608939104
 30
0.0
  0
VERTEX
  5
2EF
330
2EB
100
AcDbEntity
  8
Layer 1
 62
     7
370
    35
100
AcDbVertex
100
AcDb2dVertex
 10
264.2788675707168
 20
-509.317608939104
 30
0.0
  0
VERTEX
  5
2F0
330
2EB
100
AcDbEntity
  8
Layer 1
 62
     7
370
    35
100
AcDbVertex
100
AcDb2dVertex
 10
264.2788675707168
 20
-524.3175977455753
 30
0.0
  0
SEQEND
  5
2F1
330
2EB
100
AcDbEntity
  8
Layer 1
 62
     7
370
    35
  0
POLYLINE
  5
2F2
330
1F
100
AcDbEntity
  8
Layer 1
 62
     7
370
    35
100
AcDb2dPolyline
 66
     1
 10
0.0
 20
0.0
 30
0.0
  0
VERTEX
  5
2F3
330
2F2
100
AcDbEntity
  8
Layer 1
 62
     7
370
    35
100
AcDbVertex
100
AcDb2dVertex
 10
264.2788675707168
 20
-498.5553890253449
 30
0.0
  0
VERTEX
  5
2F4
330
2F2
100
AcDbEntity
  8
Layer 1
 62
     7
370
    35
100
AcDbVertex
100
AcDb2dVertex
 10
249.2788787642455
 20
-498.5553890253449
 30
0.0
  0
VERTEX
  5
2F5
330
2F2
100
AcDbEntity
  8
Layer 1
 62
     7
370
    35
100
AcDbVertex
100
AcDb2dVertex
 10
249.2788787642455
 20
-483.5554002188736
 30
0.0
  0
VERTEX
  5
2F6
330
2F2
100
AcDbEntity
  8
Layer 1
 62
     7
370
    35
100
AcDbVertex
100
AcDb2dVertex
 10
264.2788675707168
 20
-483.5554002188736
 30
0.0
  0
VERTEX
  5
2F7
330
2F2
100
AcDbEntity
  8
Layer 1
 62
     7
370
    35
100
AcDbVertex
100
AcDb2dVertex
 10
264.2788675707168
 20
-498.5553890253449
 30
0.0
  0
SEQEND
  5
2F8
330
2F2
100
AcDbEntity
  8
Layer 1
 62
     7
370
    35
  0
POLYLINE
  5
2F9
330
1F
100
AcDbEntity
  8
Layer 1
 62
     7
370
    35
100
AcDb2dPolyline
 66
     1
 10
0.0
 20
0.0
 30
0.0
  0
VERTEX
  5
2FA
330
2F9
100
AcDbEntity
  8
Layer 1
 62
     7
370
    35
100
AcDbVertex
100
AcDb2dVertex
 10
264.2788675707168
 20
-472.7931803051144
 30
0.0
  0
VERTEX
  5
2FB
330
2F9
100
AcDbEntity
  8
Layer 1
 62
     7
370
    35
100
AcDbVertex
100
AcDb2dVertex
 10
249.2788787642455
 20
-472.7931803051144
 30
0.0
  0
VERTEX
  5
2FC
330
2F9
100
AcDbEntity
  8
Layer 1
 62
     7
370
    35
100
AcDbVertex
100
AcDb2dVertex
 10
249.2788787642455
 20
-457.7931484349495
 30
0.0
  0
VERTEX
  5
2FD
330
2F9
100
AcDbEntity
  8
Layer 1
 62
     7
370
    35
100
AcDbVertex
100
AcDb2dVertex
 10
264.2788675707168
 20
-457.7931484349495
 30
0.0
  0
VERTEX
  5
2FE
330
2F9
100
AcDbEntity
  8
Layer 1
 62
     7
370
    35
100
AcDbVertex
100
AcDb2dVertex
 10
264.2788675707168
 20
-472.7931803051144
 30
0.0
  0
SEQEND
  5
2FF
330
2F9
100
AcDbEntity
  8
Layer 1
 62
     7
370
    35
  0
POLYLINE
  5
300
330
1F
100
AcDbEntity
  8
Layer 1
 62
     7
370
    35
100
AcDb2dPolyline
 66
     1
 10
0.0
 20
0.0
 30
0.0
  0
VERTEX
  5
301
330
300
100
AcDbEntity
  8
Layer 1
 62
     7
370
    35
100
AcDbVertex
100
AcDb2dVertex
 10
264.3407500983707
 20
-378.7760938757107
 30
0.0
  0
VERTEX
  5
302
330
300
100
AcDbEntity
  8
Layer 1
 62
     7
370
    35
100
AcDbVertex
100
AcDb2dVertex
 10
279.8629723167123
 20
-378.7760938757107
 30
0.0
  0
VERTEX
  5
303
330
300
100
AcDbEntity
  8
Layer 1
 62
     7
370
    35
100
AcDbVertex
100
AcDb2dVertex
 10
279.8629723167123
 20
-409.1149827570149
 30
0.0
  0
VERTEX
  5
304
330
300
100
AcDbEntity
  8
Layer 1
 62
     7
370
    35
100
AcDbVertex
100
AcDb2dVertex
 10
264.3407500983707
 20
-409.1149827570149
 30
0.0
  0
VERTEX
  5
305
330
300
100
AcDbEntity
  8
Layer 1
 62
     7
370
    35
100
AcDbVertex
100
AcDb2dVertex
 10
264.3407500983707
 20
-378.7760938757107
 30
0.0
  0
SEQEND
  5
306
330
300
100
AcDbEntity
  8
Layer 1
 62
     7
370
    35
  0
POLYLINE
  5
307
330
1F
100
AcDbEntity
  8
Layer 1
 62
     7
370
    35
100
AcDb2dPolyline
 66
     1
 10
0.0
 20
0.0
 30
0.0
  0
VERTEX
  5
308
330
307
100
AcDbEntity
  8
Layer 1
 62
     7
370
    35
100
AcDbVertex
100
AcDb2dVertex
 10
291.3970658739416
 20
-524.3175977455753
 30
0.0
  0
VERTEX
  5
309
330
307
100
AcDbEntity
  8
Layer 1
 62
     7
370
    35
100
AcDbVertex
100
AcDb2dVertex
 10
276.3970770674703
 20
-524.3175977455753
 30
0.0
  0
VERTEX
  5
30A
330
307
100
AcDbEntity
  8
Layer 1
 62
     7
370
    35
100
AcDbVertex
100
AcDb2dVertex
 10
276.3970770674703
 20
-509.317608939104
 30
0.0
  0
VERTEX
  5
30B
330
307
100
AcDbEntity
  8
Layer 1
 62
     7
370
    35
100
AcDbVertex
100
AcDb2dVertex
 10
291.3970658739416
 20
-509.317608939104
 30
0.0
  0
VERTEX
  5
30C
330
307
100
AcDbEntity
  8
Layer 1
 62
     7
370
    35
100
AcDbVertex
100
AcDb2dVertex
 10
291.3970658739416
 20
-524.3175977455753
 30
0.0
  0
SEQEND
  5
30D
330
307
100
AcDbEntity
  8
Layer 1
 62
     7
370
    35
  0
POLYLINE
  5
30E
330
1F
100
AcDbEntity
  8
Layer 1
 62
     7
370
    35
100
AcDb2dPolyline
 66
     1
 10
0.0
 20
0.0
 30
0.0
  0
VERTEX
  5
30F
330
30E
100
AcDbEntity
  8
Layer 1
 62
     7
370
    35
100
AcDbVertex
100
AcDb2dVertex
 10
291.3970658739416
 20
-498.5553890253449
 30
0.0
  0
VERTEX
  5
310
330
30E
100
AcDbEntity
  8
Layer 1
 62
     7
370
    35
100
AcDbVertex
100
AcDb2dVertex
 10
276.3970770674703
 20
-498.5553890253449
 30
0.0
  0
VERTEX
  5
311
330
30E
100
AcDbEntity
  8
Layer 1
 62
     7
370
    35
100
AcDbVertex
100
AcDb2dVertex
 10
276.3970770674703
 20
-483.5554002188736
 30
0.0
  0
VERTEX
  5
312
330
30E
100
AcDbEntity
  8
Layer 1
 62
     7
370
    35
100
AcDbVertex
100
AcDb2dVertex
 10
291.3970658739416
 20
-483.5554002188736
 30
0.0
  0
VERTEX
  5
313
330
30E
100
AcDbEntity
  8
Layer 1
 62
     7
370
    35
100
AcDbVertex
100
AcDb2dVertex
 10
291.3970658739416
 20
-498.5553890253449
 30
0.0
  0
SEQEND
  5
314
330
30E
100
AcDbEntity
  8
Layer 1
 62
     7
370
    35
  0
POLYLINE
  5
315
330
1F
100
AcDbEntity
  8
Layer 1
 62
     7
370
    35
100
AcDb2dPolyline
 66
     1
 10
0.0
 20
0.0
 30
0.0
  0
VERTEX
  5
316
330
315
100
AcDbEntity
  8
Layer 1
 62
     7
370
    35
100
AcDbVertex
100
AcDb2dVertex
 10
291.3971089376352
 20
-472.7931803051144
 30
0.0
  0
VERTEX
  5
317
330
315
100
AcDbEntity
  8
Layer 1
 62
     7
370
    35
100
AcDbVertex
100
AcDb2dVertex
 10
276.3970770674703
 20
-472.7931803051144
 30
0.0
  0
VERTEX
  5
318
330
315
100
AcDbEntity
  8
Layer 1
 62
     7
370
    35
100
AcDbVertex
100
AcDb2dVertex
 10
276.3970770674703
 20
-457.7931484349495
 30
0.0
  0
VERTEX
  5
319
330
315
100
AcDbEntity
  8
Layer 1
 62
     7
370
    35
100
AcDbVertex
100
AcDb2dVertex
 10
291.3971089376352
 20
-457.7931484349495
 30
0.0
  0
VERTEX
  5
31A
330
315
100
AcDbEntity
  8
Layer 1
 62
     7
370
    35
100
AcDbVertex
100
AcDb2dVertex
 10
291.3971089376352
 20
-472.7931803051144
 30
0.0
  0
SEQEND
  5
31B
330
315
100
AcDbEntity
  8
Layer 1
 62
     7
370
    35
  0
SPLINE
  5
31C
330
1F
100
AcDbEntity
  8
Layer 1
 62
     7
370
    35
100
AcDbSpline
210
0.0
220
0.0
230
1.0
 70
    11
 71
     3
 72
   164
 73
   160
 74
     0
 42
0.0000000001
 43
0.0000000001
 12
1.0
 22
0.0
 32
0.0
 13
1.0
 23
0.0
 33
0.0
 40
0.0
 40
0.0
 40
0.0
 40
0.0
 40
1.0
 40
1.0
 40
1.0
 40
2.0
 40
2.0
 40
2.0
 40
3.0
 40
3.0
 40
3.0
 40
4.0
 40
4.0
 40
4.0
 40
5.0
 40
5.0
 40
5.0
 40
6.0
 40
6.0
 40
6.0
 40
7.0
 40
7.0
 40
7.0
 40
8.0
 40
8.0
 40
8.0
 40
9.0
 40
9.0
 40
9.0
 40
10.0
 40
10.0
 40
10.0
 40
11.0
 40
11.0
 40
11.0
 40
12.0
 40
12.0
 40
12.0
 40
13.0
 40
13.0
 40
13.0
 40
14.0
 40
14.0
 40
14.0
 40
15.0
 40
15.0
 40
15.0
 40
16.0
 40
16.0
 40
16.0
 40
17.0
 40
17.0
 40
17.0
 40
18.0
 40
18.0
 40
18.0
 40
19.0
 40
19.0
 40
19.0
 40
20.0
 40
20.0
 40
20.0
 40
21.0
 40
21.0
 40
21.0
 40
22.0
 40
22.0
 40
22.0
 40
23.0
 40
23.0
 40
23.0
 40
24.0
 40
24.0
 40
24.0
 40
25.0
 40
25.0
 40
25.0
 40
26.0
 40
26.0
 40
26.0
 40
27.0
 40
27.0
 40
27.0
 40
28.0
 40
28.0
 40
28.0
 40
29.0
 40
29.0
 40
29.0
 40
30.0
 40
30.0
 40
30.0
 40
31.0
 40
31.0
 40
31.0
 40
32.0
 40
32.0
 40
32.0
 40
33.0
 40
33.0
 40
33.0
 40
34.0
 40
34.0
 40
34.0
 40
35.0
 40
35.0
 40
35.0
 40
36.0
 40
36.0
 40
36.0
 40
37.0
 40
37.0
 40
37.0
 40
38.0
 40
38.0
 40
38.0
 40
39.0
 40
39.0
 40
39.0
 40
40.0
 40
40.0
 40
40.0
 40
41.0
 40
41.0
 40
41.0
 40
42.0
 40
42.0
 40
42.0
 40
43.0
 40
43.0
 40
43.0
 40
44.0
 40
44.0
 40
44.0
 40
45.0
 40
45.0
 40
45.0
 40
46.0
 40
46.0
 40
46.0
 40
47.0
 40
47.0
 40
47.0
 40
48.0
 40
48.0
 40
48.0
 40
49.0
 40
49.0
 40
49.0
 40
50.0
 40
50.0
 40
50.0
 40
51.0
 40
51.0
 40
51.0
 40
52.0
 40
52.0
 40
52.0
 40
53.0
 40
53.0
 40
53.0
 40
53.0
 10
1017.033885349222
 20
-836.4306135523703
 30
0.0
 10
1017.033885349222
 20
-836.4306135523703
 30
0.0
 10
1017.033885349222
 20
-736.1617123458838
 30
0.0
 10
1017.033885349222
 20
-736.1617123458838
 30
0.0
 10
1017.033885349222
 20
-736.1617123458838
 30
0.0
 10
990.3981296050133
 20
-736.1617123458838
 30
0.0
 10
990.3981296050133
 20
-736.1617123458838
 30
0.0
 10
990.3981296050133
 20
-736.1617123458838
 30
0.0
 10
990.3981296050133
 20
-751.0596832622982
 30
0.0
 10
990.3981296050133
 20
-751.0596832622982
 30
0.0
 10
990.3981296050133
 20
-751.0596832622982
 30
0.0
 10
975.3981838622356
 20
-751.0596832622982
 30
0.0
 10
975.3981838622356
 20
-751.0596832622982
 30
0.0
 10
975.3981838622356
 20
-751.0596832622982
 30
0.0
 10
975.3981838622356
 20
-736.1617123458838
 30
0.0
 10
975.3981838622356
 20
-736.1617123458838
 30
0.0
 10
975.3981838622356
 20
-736.1617123458838
 30
0.0
 10
948.7624281180264
 20
-736.1617123458838
 30
0.0
 10
948.7624281180264
 20
-736.1617123458838
 30
0.0
 10
948.7624281180264
 20
-736.1617123458838
 30
0.0
 10
948.7624281180264
 20
-836.4306135523703
 30
0.0
 10
948.7624281180264
 20
-836.4306135523703
 30
0.0
 10
948.7624281180264
 20
-836.4306135523703
 30
0.0
 10
930.7036682212824
 20
-836.4306135523703
 30
0.0
 10
930.7036682212824
 20
-836.4306135523703
 30
0.0
 10
930.7036682212824
 20
-836.4306135523703
 30
0.0
 10
930.7036682212824
 20
-849.6398847893024
 30
0.0
 10
930.7036682212824
 20
-849.6398847893024
 30
0.0
 10
930.7036682212824
 20
-849.6398847893024
 30
0.0
 10
915.7036363511176
 20
-849.6398847893024
 30
0.0
 10
915.7036363511176
 20
-849.6398847893024
 30
0.0
 10
915.7036363511176
 20
-849.6398847893024
 30
0.0
 10
915.7036363511176
 20
-836.4306135523703
 30
0.0
 10
915.7036363511176
 20
-836.4306135523703
 30
0.0
 10
915.7036363511176
 20
-836.4306135523703
 30
0.0
 10
892.760247820612
 20
-836.4306135523703
 30
0.0
 10
892.760247820612
 20
-836.4306135523703
 30
0.0
 10
892.760247820612
 20
-836.4306135523703
 30
0.0
 10
892.760247820612
 20
-849.6399709166895
 30
0.0
 10
892.760247820612
 20
-849.6399709166895
 30
0.0
 10
892.760247820612
 20
-849.6399709166895
 30
0.0
 10
877.7602159504471
 20
-849.6399709166895
 30
0.0
 10
877.7602159504471
 20
-849.6399709166895
 30
0.0
 10
877.7602159504471
 20
-849.6399709166895
 30
0.0
 10
877.7602159504471
 20
-836.4306135523703
 30
0.0
 10
877.7602159504471
 20
-836.4306135523703
 30
0.0
 10
877.7602159504471
 20
-836.4306135523703
 30
0.0
 10
854.8167412925545
 20
-836.4306135523703
 30
0.0
 10
854.8167412925545
 20
-836.4306135523703
 30
0.0
 10
854.8167412925545
 20
-836.4306135523703
 30
0.0
 10
854.8167412925545
 20
-849.6398847893024
 30
0.0
 10
854.8167412925545
 20
-849.6398847893024
 30
0.0
 10
854.8167412925545
 20
-849.6398847893024
 30
0.0
 10
839.8167955497767
 20
-849.6398847893024
 30
0.0
 10
839.8167955497767
 20
-849.6398847893024
 30
0.0
 10
839.8167955497767
 20
-849.6398847893024
 30
0.0
 10
839.8167955497767
 20
-836.4306135523703
 30
0.0
 10
839.8167955497767
 20
-836.4306135523703
 30
0.0
 10
839.8167955497767
 20
-836.4306135523703
 30
0.0
 10
816.8733208918841
 20
-836.4306135523703
 30
0.0
 10
816.8733208918841
 20
-836.4306135523703
 30
0.0
 10
816.8733208918841
 20
-836.4306135523703
 30
0.0
 10
816.8733208918841
 20
-849.6399709166895
 30
0.0
 10
816.8733208918841
 20
-849.6399709166895
 30
0.0
 10
816.8733208918841
 20
-849.6399709166895
 30
0.0
 10
801.8733751491063
 20
-849.6399709166895
 30
0.0
 10
801.8733751491063
 20
-849.6399709166895
 30
0.0
 10
801.8733751491063
 20
-849.6399709166895
 30
0.0
 10
801.8733751491063
 20
-836.4306135523703
 30
0.0
 10
801.8733751491063
 20
-836.4306135523703
 30
0.0
 10
801.8733751491063
 20
-836.4306135523703
 30
0.0
 10
785.3118537502519
 20
-836.4306135523703
 30
0.0
 10
785.3118537502519
 20
-836.4306135523703
 30
0.0
 10
785.3118537502519
 20
-836.4306135523703
 30
0.0
 10
785.3118537502519
 20
-736.1617123458838
 30
0.0
 10
785.3118537502519
 20
-736.1617123458838
 30
0.0
 10
785.3118537502519
 20
-736.1617123458838
 30
0.0
 10
758.67618413343
 20
-736.1617123458838
 30
0.0
 10
758.67618413343
 20
-736.1617123458838
 30
0.0
 10
758.67618413343
 20
-736.1617123458838
 30
0.0
 10
758.67618413343
 20
-751.0596832622982
 30
0.0
 10
758.67618413343
 20
-751.0596832622982
 30
0.0
 10
758.67618413343
 20
-751.0596832622982
 30
0.0
 10
743.676152263265
 20
-751.0596832622982
 30
0.0
 10
743.676152263265
 20
-751.0596832622982
 30
0.0
 10
743.676152263265
 20
-751.0596832622982
 30
0.0
 10
743.676152263265
 20
-736.1617123458838
 30
0.0
 10
743.676152263265
 20
-736.1617123458838
 30
0.0
 10
743.676152263265
 20
-736.1617123458838
 30
0.0
 10
717.0403965190559
 20
-736.1617123458838
 30
0.0
 10
717.0403965190559
 20
-736.1617123458838
 30
0.0
 10
717.0403965190559
 20
-736.1617123458838
 30
0.0
 10
717.0403965190559
 20
-836.4306135523703
 30
0.0
 10
717.0403965190559
 20
-836.4306135523703
 30
0.0
 10
717.0403965190559
 20
-836.4306135523703
 30
0.0
 10
717.0403965190559
 20
-986.1616980418473
 30
0.0
 10
717.0403965190559
 20
-986.1616980418473
 30
0.0
 10
717.0403965190559
 20
-986.1616980418473
 30
0.0
 10
717.0403965190559
 20
-986.430587744471
 30
0.0
 10
717.0403965190559
 20
-986.430587744471
 30
0.0
 10
717.0403965190559
 20
-986.430587744471
 30
0.0
 10
731.9823785302943
 20
-986.430587744471
 30
0.0
 10
731.9823785302943
 20
-986.430587744471
 30
0.0
 10
731.9823785302943
 20
-986.430587744471
 30
0.0
 10
731.9823785302943
 20
-910.9308895482852
 30
0.0
 10
731.9823785302943
 20
-910.9308895482852
 30
0.0
 10
731.9823785302943
 20
-910.9308895482852
 30
0.0
 10
741.482401585645
 20
-910.9308895482852
 30
0.0
 10
741.482401585645
 20
-910.9308895482852
 30
0.0
 10
741.482401585645
 20
-910.9308895482852
 30
0.0
 10
741.482401585645
 20
-986.430587744471
 30
0.0
 10
741.482401585645
 20
-986.430587744471
 30
0.0
 10
741.482401585645
 20
-986.430587744471
 30
0.0
 10
827.0404005605662
 20
-986.430587744471
 30
0.0
 10
827.0404005605662
 20
-986.430587744471
 30
0.0
 10
827.0404005605662
 20
-986.430587744471
 30
0.0
 10
827.0404005605662
 20
-916.0501291845923
 30
0.0
 10
827.0404005605662
 20
-916.0501291845923
 30
0.0
 10
827.0404005605662
 20
-915.8083696089149
 30
0.0
 10
827.0453098216328
 20
-915.5678158166572
 30
0.0
 10
827.0495300636022
 20
-915.3270036422383
 30
0.0
 10
827.0453098216328
 20
-915.0868804869164
 30
0.0
 10
827.0404005605662
 20
-914.8467573315945
 30
0.0
 10
827.0404005605662
 20
-914.6056006476269
 30
0.0
 10
827.0404005605662
 20
-892.5141842306238
 30
0.0
 10
844.9490404215405
 20
-874.6056304970367
 30
0.0
 10
867.0404568385437
 20
-874.6056304970367
 30
0.0
 10
889.1317871281598
 20
-874.6056304970367
 30
0.0
 10
907.040426989134
 20
-892.5141842306238
 30
0.0
 10
907.040426989134
 20
-914.6056006476269
 30
0.0
 10
907.040426989134
 20
-914.8467573315945
 30
0.0
 10
907.0355177280675
 20
-915.0868804869164
 30
0.0
 10
907.0312974860981
 20
-915.3270036422383
 30
0.0
 10
907.0355177280675
 20
-915.5678158166572
 30
0.0
 10
907.040426989134
 20
-915.8083696089149
 30
0.0
 10
907.040426989134
 20
-916.0501291845923
 30
0.0
 10
907.040426989134
 20
-916.0501291845923
 30
0.0
 10
907.040426989134
 20
-986.430587744471
 30
0.0
 10
907.040426989134
 20
-986.430587744471
 30
0.0
 10
907.040426989134
 20
-986.430587744471
 30
0.0
 10
992.5984259640553
 20
-986.430587744471
 30
0.0
 10
992.5984259640553
 20
-986.430587744471
 30
0.0
 10
992.5984259640553
 20
-986.430587744471
 30
0.0
 10
992.5984259640553
 20
-910.9308895482852
 30
0.0
 10
992.5984259640553
 20
-910.9308895482852
 30
0.0
 10
992.5984259640553
 20
-910.9308895482852
 30
0.0
 10
1002.098362892019
 20
-910.9308895482852
 30
0.0
 10
1002.098362892019
 20
-910.9308895482852
 30
0.0
 10
1002.098362892019
 20
-910.9308895482852
 30
0.0
 10
1002.098362892019
 20
-986.430587744471
 30
0.0
 10
1002.098362892019
 20
-986.430587744471
 30
0.0
 10
1002.098362892019
 20
-986.430587744471
 30
0.0
 10
1017.040431030644
 20
-986.430587744471
 30
0.0
 10
1017.040431030644
 20
-986.430587744471
 30
0.0
 10
1017.040431030644
 20
-986.430587744471
 30
0.0
 10
1017.040431030644
 20
-836.4306135523703
 30
0.0
 10
1017.040431030644
 20
-836.4306135523703
 30
0.0
 10
1017.040431030644
 20
-836.4306135523703
 30
0.0
 10
1017.033885349222
 20
-836.4306135523703
 30
0.0
 10
1017.033885349222
 20
-836.4306135523703
 30
0.0
  0
POLYLINE
  5
31D
330
1F
100
AcDbEntity
  8
Layer 1
 62
     7
370
    35
100
AcDb2dPolyline
 66
     1
 10
0.0
 20
0.0
 30
0.0
  0
VERTEX
  5
31E
330
31D
100
AcDbEntity
  8
Layer 1
 62
     7
370
    35
100
AcDbVertex
100
AcDb2dVertex
 10
748.1935337182988
 20
-828.4187856192605
 30
0.0
  0
VERTEX
  5
31F
330
31D
100
AcDbEntity
  8
Layer 1
 62
     7
370
    35
100
AcDbVertex
100
AcDb2dVertex
 10
732.6713114999571
 20
-828.4187856192605
 30
0.0
  0
VERTEX
  5
320
330
31D
100
AcDbEntity
  8
Layer 1
 62
     7
370
    35
100
AcDbVertex
100
AcDb2dVertex
 10
732.6713114999571
 20
-798.0798967379563
 30
0.0
  0
VERTEX
  5
321
330
31D
100
AcDbEntity
  8
Layer 1
 62
     7
370
    35
100
AcDbVertex
100
AcDb2dVertex
 10
748.1935337182988
 20
-798.0798967379563
 30
0.0
  0
VERTEX
  5
322
330
31D
100
AcDbEntity
  8
Layer 1
 62
     7
370
    35
100
AcDbVertex
100
AcDb2dVertex
 10
748.1935337182988
 20
-828.4187856192605
 30
0.0
  0
SEQEND
  5
323
330
31D
100
AcDbEntity
  8
Layer 1
 62
     7
370
    35
  0
POLYLINE
  5
324
330
1F
100
AcDbEntity
  8
Layer 1
 62
     7
370
    35
100
AcDb2dPolyline
 66
     1
 10
0.0
 20
0.0
 30
0.0
  0
VERTEX
  5
325
330
324
100
AcDbEntity
  8
Layer 1
 62
     7
370
    35
100
AcDbVertex
100
AcDb2dVertex
 10
770.9546766976346
 20
-919.5622317770302
 30
0.0
  0
VERTEX
  5
326
330
324
100
AcDbEntity
  8
Layer 1
 62
     7
370
    35
100
AcDbVertex
100
AcDb2dVertex
 10
755.4324544792929
 20
-919.5622317770302
 30
0.0
  0
VERTEX
  5
327
330
324
100
AcDbEntity
  8
Layer 1
 62
     7
370
    35
100
AcDbVertex
100
AcDb2dVertex
 10
755.4324544792929
 20
-889.223342895726
 30
0.0
  0
VERTEX
  5
328
330
324
100
AcDbEntity
  8
Layer 1
 62
     7
370
    35
100
AcDbVertex
100
AcDb2dVertex
 10
770.9546766976346
 20
-889.223342895726
 30
0.0
  0
VERTEX
  5
329
330
324
100
AcDbEntity
  8
Layer 1
 62
     7
370
    35
100
AcDbVertex
100
AcDb2dVertex
 10
770.9546766976346
 20
-919.5622317770302
 30
0.0
  0
SEQEND
  5
32A
330
324
100
AcDbEntity
  8
Layer 1
 62
     7
370
    35
  0
POLYLINE
  5
32B
330
1F
100
AcDbEntity
  8
Layer 1
 62
     7
370
    35
100
AcDb2dPolyline
 66
     1
 10
0.0
 20
0.0
 30
0.0
  0
VERTEX
  5
32C
330
32B
100
AcDbEntity
  8
Layer 1
 62
     7
370
    35
100
AcDbVertex
100
AcDb2dVertex
 10
978.0081020744736
 20
-919.5622317770302
 30
0.0
  0
VERTEX
  5
32D
330
32B
100
AcDbEntity
  8
Layer 1
 62
     7
370
    35
100
AcDbVertex
100
AcDb2dVertex
 10
962.485879856132
 20
-919.5622317770302
 30
0.0
  0
VERTEX
  5
32E
330
32B
100
AcDbEntity
  8
Layer 1
 62
     7
370
    35
100
AcDbVertex
100
AcDb2dVertex
 10
962.485879856132
 20
-889.223342895726
 30
0.0
  0
VERTEX
  5
32F
330
32B
100
AcDbEntity
  8
Layer 1
 62
     7
370
    35
100
AcDbVertex
100
AcDb2dVertex
 10
978.0081020744736
 20
-889.223342895726
 30
0.0
  0
VERTEX
  5
330
330
32B
100
AcDbEntity
  8
Layer 1
 62
     7
370
    35
100
AcDbVertex
100
AcDb2dVertex
 10
978.0081020744736
 20
-919.5622317770302
 30
0.0
  0
SEQEND
  5
331
330
32B
100
AcDbEntity
  8
Layer 1
 62
     7
370
    35
  0
POLYLINE
  5
332
330
1F
100
AcDbEntity
  8
Layer 1
 62
     7
370
    35
100
AcDb2dPolyline
 66
     1
 10
0.0
 20
0.0
 30
0.0
  0
VERTEX
  5
333
330
332
100
AcDbEntity
  8
Layer 1
 62
     7
370
    35
100
AcDbVertex
100
AcDb2dVertex
 10
1003.630224599535
 20
-828.4187856192605
 30
0.0
  0
VERTEX
  5
334
330
332
100
AcDbEntity
  8
Layer 1
 62
     7
370
    35
100
AcDbVertex
100
AcDb2dVertex
 10
988.1080023811935
 20
-828.4187856192605
 30
0.0
  0
VERTEX
  5
335
330
332
100
AcDbEntity
  8
Layer 1
 62
     7
370
    35
100
AcDbVertex
100
AcDb2dVertex
 10
988.1080023811935
 20
-798.0798967379563
 30
0.0
  0
VERTEX
  5
336
330
332
100
AcDbEntity
  8
Layer 1
 62
     7
370
    35
100
AcDbVertex
100
AcDb2dVertex
 10
1003.630224599535
 20
-798.0798967379563
 30
0.0
  0
VERTEX
  5
337
330
332
100
AcDbEntity
  8
Layer 1
 62
     7
370
    35
100
AcDbVertex
100
AcDb2dVertex
 10
1003.630224599535
 20
-828.4187856192605
 30
0.0
  0
SEQEND
  5
338
330
332
100
AcDbEntity
  8
Layer 1
 62
     7
370
    35
  0
POLYLINE
  5
339
330
1F
100
AcDbEntity
  8
Layer 1
 62
     7
370
    35
100
AcDb2dPolyline
 66
     1
 10
0.0
 20
0.0
 30
0.0
  0
VERTEX
  5
33A
330
339
100
AcDbEntity
  8
Layer 1
 62
     7
370
    35
100
AcDbVertex
100
AcDb2dVertex
 10
109.5988549700233
 20
-407.885255923555
 30
0.0
  0
VERTEX
  5
33B
330
339
100
AcDbEntity
  8
Layer 1
 62
     7
370
    35
100
AcDbVertex
100
AcDb2dVertex
 10
94.07663275168159
 20
-407.885255923555
 30
0.0
  0
VERTEX
  5
33C
330
339
100
AcDbEntity
  8
Layer 1
 62
     7
370
    35
100
AcDbVertex
100
AcDb2dVertex
 10
94.07663275168159
 20
-377.5463670422508
 30
0.0
  0
VERTEX
  5
33D
330
339
100
AcDbEntity
  8
Layer 1
 62
     7
370
    35
100
AcDbVertex
100
AcDb2dVertex
 10
109.5988549700233
 20
-377.5463670422508
 30
0.0
  0
VERTEX
  5
33E
330
339
100
AcDbEntity
  8
Layer 1
 62
     7
370
    35
100
AcDbVertex
100
AcDb2dVertex
 10
109.5988549700233
 20
-407.885255923555
 30
0.0
  0
SEQEND
  5
33F
330
339
100
AcDbEntity
  8
Layer 1
 62
     7
370
    35
  0
SPLINE
  5
340
330
1F
100
AcDbEntity
  8
Layer 1
 62
     7
370
    35
100
AcDbSpline
210
0.0
220
0.0
230
1.0
 70
    11
 71
     3
 72
   275
 73
   271
 74
     0
 42
0.0000000001
 43
0.0000000001
 12
1.0
 22
0.0
 32
0.0
 13
1.0
 23
0.0
 33
0.0
 40
0.0
 40
0.0
 40
0.0
 40
0.0
 40
1.0
 40
1.0
 40
1.0
 40
2.0
 40
2.0
 40
2.0
 40
3.0
 40
3.0
 40
3.0
 40
4.0
 40
4.0
 40
4.0
 40
5.0
 40
5.0
 40
5.0
 40
6.0
 40
6.0
 40
6.0
 40
7.0
 40
7.0
 40
7.0
 40
8.0
 40
8.0
 40
8.0
 40
9.0
 40
9.0
 40
9.0
 40
10.0
 40
10.0
 40
10.0
 40
11.0
 40
11.0
 40
11.0
 40
12.0
 40
12.0
 40
12.0
 40
13.0
 40
13.0
 40
13.0
 40
14.0
 40
14.0
 40
14.0
 40
15.0
 40
15.0
 40
15.0
 40
16.0
 40
16.0
 40
16.0
 40
17.0
 40
17.0
 40
17.0
 40
18.0
 40
18.0
 40
18.0
 40
19.0
 40
19.0
 40
19.0
 40
20.0
 40
20.0
 40
20.0
 40
21.0
 40
21.0
 40
21.0
 40
22.0
 40
22.0
 40
22.0
 40
23.0
 40
23.0
 40
23.0
 40
24.0
 40
24.0
 40
24.0
 40
25.0
 40
25.0
 40
25.0
 40
26.0
 40
26.0
 40
26.0
 40
27.0
 40
27.0
 40
27.0
 40
28.0
 40
28.0
 40
28.0
 40
29.0
 40
29.0
 40
29.0
 40
30.0
 40
30.0
 40
30.0
 40
31.0
 40
31.0
 40
31.0
 40
32.0
 40
32.0
 40
32.0
 40
33.0
 40
33.0
 40
33.0
 40
34.0
 40
34.0
 40
34.0
 40
35.0
 40
35.0
 40
35.0
 40
36.0
 40
36.0
 40
36.0
 40
37.0
 40
37.0
 40
37.0
 40
38.0
 40
38.0
 40
38.0
 40
39.0
 40
39.0
 40
39.0
 40
40.0
 40
40.0
 40
40.0
 40
41.0
 40
41.0
 40
41.0
 40
42.0
 40
42.0
 40
42.0
 40
43.0
 40
43.0
 40
43.0
 40
44.0
 40
44.0
 40
44.0
 40
45.0
 40
45.0
 40
45.0
 40
46.0
 40
46.0
 40
46.0
 40
47.0
 40
47.0
 40
47.0
 40
48.0
 40
48.0
 40
48.0
 40
49.0
 40
49.0
 40
49.0
 40
50.0
 40
50.0
 40
50.0
 40
51.0
 40
51.0
 40
51.0
 40
52.0
 40
52.0
 40
52.0
 40
53.0
 40
53.0
 40
53.0
 40
54.0
 40
54.0
 40
54.0
 40
55.0
 40
55.0
 40
55.0
 40
56.0
 40
56.0
 40
56.0
 40
57.0
 40
57.0
 40
57.0
 40
58.0
 40
58.0
 40
58.0
 40
59.0
 40
59.0
 40
59.0
 40
60.0
 40
60.0
 40
60.0
 40
61.0
 40
61.0
 40
61.0
 40
62.0
 40
62.0
 40
62.0
 40
63.0
 40
63.0
 40
63.0
 40
64.0
 40
64.0
 40
64.0
 40
65.0
 40
65.0
 40
65.0
 40
66.0
 40
66.0
 40
66.0
 40
67.0
 40
67.0
 40
67.0
 40
68.0
 40
68.0
 40
68.0
 40
69.0
 40
69.0
 40
69.0
 40
70.0
 40
70.0
 40
70.0
 40
71.0
 40
71.0
 40
71.0
 40
72.0
 40
72.0
 40
72.0
 40
73.0
 40
73.0
 40
73.0
 40
74.0
 40
74.0
 40
74.0
 40
75.0
 40
75.0
 40
75.0
 40
76.0
 40
76.0
 40
76.0
 40
77.0
 40
77.0
 40
77.0
 40
78.0
 40
78.0
 40
78.0
 40
79.0
 40
79.0
 40
79.0
 40
80.0
 40
80.0
 40
80.0
 40
81.0
 40
81.0
 40
81.0
 40
82.0
 40
82.0
 40
82.0
 40
83.0
 40
83.0
 40
83.0
 40
84.0
 40
84.0
 40
84.0
 40
85.0
 40
85.0
 40
85.0
 40
86.0
 40
86.0
 40
86.0
 40
87.0
 40
87.0
 40
87.0
 40
88.0
 40
88.0
 40
88.0
 40
89.0
 40
89.0
 40
89.0
 40
90.0
 40
90.0
 40
90.0
 40
90.0
 10
1022.275081029272
 20
-408.9564796336527
 30
0.0
 10
1022.207557157761
 20
-408.5767009200974
 30
0.0
 10
1022.173622967232
 20
-408.1917545633144
 30
0.0
 10
1022.173622967232
 20
-407.8059899963535
 30
0.0
 10
1022.173622967232
 20
-407.8059899963535
 30
0.0
 10
1022.173622967232
 20
-406.1259891829714
 30
0.0
 10
1022.173622967232
 20
-406.1259891829714
 30
0.0
 10
1022.173622967232
 20
-406.1259891829714
 30
0.0
 10
1021.771924833651
 20
-406.1259891829714
 30
0.0
 10
1021.771924833651
 20
-406.1259891829714
 30
0.0
 10
1021.771924833651
 20
-406.1259891829714
 30
0.0
 10
1012.928881487338
 20
-356.3863034586442
 30
0.0
 10
1012.928881487338
 20
-356.3863034586442
 30
0.0
 10
1012.525288551241
 20
-354.1162008523324
 30
0.0
 10
1009.26846753426
 20
-354.116243916026
 30
0.0
 10
1008.86496072555
 20
-356.3863465223378
 30
0.0
 10
1008.86496072555
 20
-356.3863465223378
 30
0.0
 10
1000.022003506624
 20
-406.1259891829714
 30
0.0
 10
1000.022003506624
 20
-406.1259891829714
 30
0.0
 10
1000.022003506624
 20
-406.1259891829714
 30
0.0
 10
999.6202192456564
 20
-406.1259891829714
 30
0.0
 10
999.6202192456564
 20
-406.1259891829714
 30
0.0
 10
999.6202192456564
 20
-406.1259891829714
 30
0.0
 10
999.6202192456564
 20
-407.8058608052728
 30
0.0
 10
999.6202192456564
 20
-407.8058608052728
 30
0.0
 10
999.6202192456564
 20
-408.1916684359272
 30
0.0
 10
999.5862850551267
 20
-408.576743983791
 30
0.0
 10
999.5187611836158
 20
-408.9566088247334
 30
0.0
 10
999.5187611836158
 20
-408.9566088247334
 30
0.0
 10
999.2945715949131
 20
-410.2173845812541
 30
0.0
 10
999.2945715949131
 20
-410.2173845812541
 30
0.0
 10
999.2945715949131
 20
-410.2173845812541
 30
0.0
 10
999.6202192456564
 20
-410.2173845812541
 30
0.0
 10
999.6202192456564
 20
-410.2173845812541
 30
0.0
 10
999.6202192456564
 20
-410.2173845812541
 30
0.0
 10
999.6202192456564
 20
-506.5002241839196
 30
0.0
 10
999.6202192456564
 20
-506.5002241839196
 30
0.0
 10
999.6202192456564
 20
-510.1310103158243
 30
0.0
 10
996.6769019178332
 20
-513.0743276436475
 30
0.0
 10
993.0461157859284
 20
-513.0743276436475
 30
0.0
 10
989.4154157814107
 20
-513.0743276436475
 30
0.0
 10
986.4720984535875
 20
-510.1310103158243
 30
0.0
 10
986.4720984535875
 20
-506.5002241839196
 30
0.0
 10
986.4720984535875
 20
-506.5002241839196
 30
0.0
 10
986.4720984535875
 20
-500.0587569003736
 30
0.0
 10
986.4720984535875
 20
-500.0587569003736
 30
0.0
 10
986.4720984535875
 20
-496.428056895856
 30
0.0
 10
983.5287811257643
 20
-493.4847395680328
 30
0.0
 10
979.8980811212466
 20
-493.4847395680328
 30
0.0
 10
979.8980811212466
 20
-493.4847395680328
 30
0.0
 10
949.9002566929822
 20
-493.4847395680328
 30
0.0
 10
949.9002566929822
 20
-493.4847395680328
 30
0.0
 10
946.6719438411417
 20
-493.4847395680328
 30
0.0
 10
943.8990726124513
 20
-491.1438833131926
 30
0.0
 10
943.41064420003
 20
-487.9527774925929
 30
0.0
 10
938.2695282073917
 20
-454.3607280082608
 30
0.0
 10
909.252005699455
 20
-428.6296543384783
 30
0.0
 10
874.2225331875961
 20
-428.6296543384783
 30
0.0
 10
839.19297454835
 20
-428.6296543384783
 30
0.0
 10
810.1753659130262
 20
-454.3607280082608
 30
0.0
 10
805.034336047775
 20
-487.9527774925929
 30
0.0
 10
804.5459076353537
 20
-491.1438833131926
 30
0.0
 10
801.7730364066633
 20
-493.4847395680328
 30
0.0
 10
798.5447235548228
 20
-493.4847395680328
 30
0.0
 10
798.5447235548228
 20
-493.4847395680328
 30
0.0
 10
770.1182933047679
 20
-493.4847395680328
 30
0.0
 10
770.1182933047679
 20
-493.4847395680328
 30
0.0
 10
766.4875071728632
 20
-493.4847395680328
 30
0.0
 10
763.5441898450399
 20
-496.428056895856
 30
0.0
 10
763.5441898450399
 20
-500.0587569003736
 30
0.0
 10
763.5441898450399
 20
-500.0587569003736
 30
0.0
 10
763.5441898450399
 20
-506.5002241839196
 30
0.0
 10
763.5441898450399
 20
-506.5002241839196
 30
0.0
 10
763.5441898450399
 20
-510.1310103158243
 30
0.0
 10
760.6008725172168
 20
-513.0743276436475
 30
0.0
 10
756.9700863853119
 20
-513.0743276436475
 30
0.0
 10
756.9700863853119
 20
-513.0743276436475
 30
0.0
 10
751.9088966079314
 20
-513.0743276436475
 30
0.0
 10
751.9088966079314
 20
-513.0743276436475
 30
0.0
 10
748.2781966034138
 20
-513.0743276436475
 30
0.0
 10
745.3348792755905
 20
-510.1310103158243
 30
0.0
 10
745.3348792755905
 20
-506.5002241839196
 30
0.0
 10
745.3348792755905
 20
-506.5002241839196
 30
0.0
 10
745.3348792755905
 20
-410.2173845812541
 30
0.0
 10
745.3348792755905
 20
-410.2173845812541
 30
0.0
 10
745.3348792755905
 20
-410.2173845812541
 30
0.0
 10
745.7039351294479
 20
-410.2173845812541
 30
0.0
 10
745.7039351294479
 20
-410.2173845812541
 30
0.0
 10
745.7039351294479
 20
-410.2173845812541
 30
0.0
 10
745.4364234650183
 20
-408.7128683191519
 30
0.0
 10
745.4364234650183
 20
-408.7128683191519
 30
0.0
 10
745.3688995935074
 20
-408.3329173508225
 30
0.0
 10
745.3348792755905
 20
-407.9478418029587
 30
0.0
 10
745.3348792755905
 20
-407.5619480449171
 30
0.0
 10
745.3348792755905
 20
-407.5619480449171
 30
0.0
 10
745.3348792755905
 20
-406.1259891829714
 30
0.0
 10
745.3348792755905
 20
-406.1259891829714
 30
0.0
 10
745.3348792755905
 20
-406.1259891829714
 30
0.0
 10
744.9765032177374
 20
-406.1259891829714
 30
0.0
 10
744.9765032177374
 20
-406.1259891829714
 30
0.0
 10
744.9765032177374
 20
-406.1259891829714
 30
0.0
 10
736.445241012839
 20
-358.1398570606364
 30
0.0
 10
736.445241012839
 20
-358.1398570606364
 30
0.0
 10
735.9798086127818
 20
-355.5214983644593
 30
0.0
 10
732.2232764956653
 20
-355.5214983644593
 30
0.0
 10
731.7578440956081
 20
-358.1398570606364
 30
0.0
 10
731.7578440956081
 20
-358.1398570606364
 30
0.0
 10
723.2265818907097
 20
-406.1259891829714
 30
0.0
 10
723.2265818907097
 20
-406.1259891829714
 30
0.0
 10
723.2265818907097
 20
-406.1259891829714
 30
0.0
 10
722.7814755540154
 20
-406.1259891829714
 30
0.0
 10
722.7814755540154
 20
-406.1259891829714
 30
0.0
 10
722.7814755540154
 20
-406.1259891829714
 30
0.0
 10
722.7814755540154
 20
-408.0498596930156
 30
0.0
 10
722.7814755540154
 20
-408.0498596930156
 30
0.0
 10
722.7814755540154
 20
-408.4356242599765
 30
0.0
 10
722.7475413634857
 20
-408.8206567441467
 30
0.0
 10
722.6800174919747
 20
-409.2004354577019
 30
0.0
 10
722.6800174919747
 20
-409.2004354577019
 30
0.0
 10
722.4992361063863
 20
-410.2173845812541
 30
0.0
 10
722.4992361063863
 20
-410.2173845812541
 30
0.0
 10
722.4992361063863
 20
-410.2173845812541
 30
0.0
 10
722.7814755540154
 20
-410.2173845812541
 30
0.0
 10
722.7814755540154
 20
-410.2173845812541
 30
0.0
 10
722.7814755540154
 20
-410.2173845812541
 30
0.0
 10
722.7814755540154
 20
-513.0743276436475
 30
0.0
 10
722.7814755540154
 20
-513.0743276436475
 30
0.0
 10
722.7814755540154
 20
-513.0743276436475
 30
0.0
 10
722.7814755540154
 20
-533.711655383714
 30
0.0
 10
722.7814755540154
 20
-533.711655383714
 30
0.0
 10
722.7814755540154
 20
-533.711655383714
 30
0.0
 10
722.7814755540154
 20
-645.7284183222896
 30
0.0
 10
722.7814755540154
 20
-645.7284183222896
 30
0.0
 10
722.7814755540154
 20
-649.3591183268072
 30
0.0
 10
725.7247928818385
 20
-652.3024356546305
 30
0.0
 10
729.3555790137434
 20
-652.3024356546305
 30
0.0
 10
729.3555790137434
 20
-652.3024356546305
 30
0.0
 10
737.8113936275148
 20
-652.3024356546305
 30
0.0
 10
737.8113936275148
 20
-652.3024356546305
 30
0.0
 10
737.8113936275148
 20
-652.3024356546305
 30
0.0
 10
737.8113936275148
 20
-577.0320085629879
 30
0.0
 10
737.8113936275148
 20
-577.0320085629879
 30
0.0
 10
737.8113936275148
 20
-577.0320085629879
 30
0.0
 10
747.3114166828655
 20
-577.0320085629879
 30
0.0
 10
747.3114166828655
 20
-577.0320085629879
 30
0.0
 10
747.3114166828655
 20
-577.0320085629879
 30
0.0
 10
747.3114166828655
 20
-652.3024356546305
 30
0.0
 10
747.3114166828655
 20
-652.3024356546305
 30
0.0
 10
747.3114166828655
 20
-652.3024356546305
 30
0.0
 10
764.5243195105935
 20
-652.3024356546305
 30
0.0
 10
764.5243195105935
 20
-652.3024356546305
 30
0.0
 10
768.1550195151112
 20
-652.3024356546305
 30
0.0
 10
771.0983368429344
 20
-649.3591183268072
 30
0.0
 10
771.0983368429344
 20
-645.7284183222896
 30
0.0
 10
771.0983368429344
 20
-645.7284183222896
 30
0.0
 10
771.0983368429344
 20
-580.7648556486433
 30
0.0
 10
771.0983368429344
 20
-580.7648556486433
 30
0.0
 10
771.0983368429344
 20
-577.1341556441256
 30
0.0
 10
774.0416541707576
 20
-574.1908383163025
 30
0.0
 10
777.6723541752752
 20
-574.1908383163025
 30
0.0
 10
777.6723541752752
 20
-574.1908383163025
 30
0.0
 10
804.4037113192
 20
-574.1908383163025
 30
0.0
 10
804.4037113192
 20
-574.1908383163025
 30
0.0
 10
808.0344974511049
 20
-574.1908383163025
 30
0.0
 10
810.9778147789281
 20
-577.1341556441256
 30
0.0
 10
810.9778147789281
 20
-580.7648556486433
 30
0.0
 10
810.9778147789281
 20
-580.7648556486433
 30
0.0
 10
810.9778147789281
 20
-645.7284183222896
 30
0.0
 10
810.9778147789281
 20
-645.7284183222896
 30
0.0
 10
810.9778147789281
 20
-649.3591183268072
 30
0.0
 10
813.9211321067513
 20
-652.3024356546305
 30
0.0
 10
817.5519182386561
 20
-652.3024356546305
 30
0.0
 10
821.8894657093599
 20
-652.3024356546305
 30
0.0
 10
825.4057885437672
 20
-648.786112820223
 30
0.0
 10
825.4057885437672
 20
-644.4485653495193
 30
0.0
 10
825.4057885437672
 20
-644.4485653495193
 30
0.0
 10
825.4057885437672
 20
-580.7648556486433
 30
0.0
 10
825.4057885437672
 20
-580.7648556486433
 30
0.0
 10
825.4057885437672
 20
-577.1341556441256
 30
0.0
 10
828.3491058715905
 20
-574.1908383163025
 30
0.0
 10
831.9798058761081
 20
-574.1908383163025
 30
0.0
 10
831.9798058761081
 20
-574.1908383163025
 30
0.0
 10
858.7111630200329
 20
-574.1908383163025
 30
0.0
 10
858.7111630200329
 20
-574.1908383163025
 30
0.0
 10
862.3418630245507
 20
-574.1908383163025
 30
0.0
 10
865.2851803523738
 20
-577.1341556441256
 30
0.0
 10
865.2851803523738
 20
-580.7648556486433
 30
0.0
 10
865.2851803523738
 20
-580.7648556486433
 30
0.0
 10
865.2851803523738
 20
-644.448393094745
 30
0.0
 10
865.2851803523738
 20
-644.448393094745
 30
0.0
 10
865.2851803523738
 20
-648.786112820223
 30
0.0
 10
868.8015031867812
 20
-652.3024356546305
 30
0.0
 10
873.1392229122592
 20
-652.3024356546305
 30
0.0
 10
876.769922916777
 20
-652.3024356546305
 30
0.0
 10
879.7132402446001
 20
-649.3591183268072
 30
0.0
 10
879.7132402446001
 20
-645.7284183222896
 30
0.0
 10
879.7132402446001
 20
-645.7284183222896
 30
0.0
 10
879.7132402446001
 20
-580.1974484222227
 30
0.0
 10
879.7132402446001
 20
-580.1974484222227
 30
0.0
 10
879.7132402446001
 20
-576.566748417705
 30
0.0
 10
882.6565575724234
 20
-573.6234310898818
 30
0.0
 10
886.287257576941
 20
-573.6234310898818
 30
0.0
 10
886.287257576941
 20
-573.6234310898818
 30
0.0
 10
913.0186147208658
 20
-573.6234310898818
 30
0.0
 10
913.0186147208658
 20
-573.6234310898818
 30
0.0
 10
916.6493147253834
 20
-573.6234310898818
 30
0.0
 10
919.5926320532067
 20
-576.566748417705
 30
0.0
 10
919.5926320532067
 20
-580.1974484222227
 30
0.0
 10
919.5926320532067
 20
-580.1974484222227
 30
0.0
 10
919.5926320532067
 20
-645.7284183222896
 30
0.0
 10
919.5926320532067
 20
-645.7284183222896
 30
0.0
 10
919.5926320532067
 20
-649.3591183268072
 30
0.0
 10
922.5359493810299
 20
-652.3024356546305
 30
0.0
 10
926.1666493855475
 20
-652.3024356546305
 30
0.0
 10
926.1666493855475
 20
-652.3024356546305
 30
0.0
 10
927.4465023583178
 20
-652.3024356546305
 30
0.0
 10
927.4465023583178
 20
-652.3024356546305
 30
0.0
 10
931.0772884902227
 20
-652.3024356546305
 30
0.0
 10
934.0206058180459
 20
-649.3591183268072
 30
0.0
 10
934.0206058180459
 20
-645.7284183222896
 30
0.0
 10
934.0206058180459
 20
-645.7284183222896
 30
0.0
 10
934.0206058180459
 20
-580.1974484222227
 30
0.0
 10
934.0206058180459
 20
-580.1974484222227
 30
0.0
 10
934.0206058180459
 20
-576.566748417705
 30
0.0
 10
936.9639231458691
 20
-573.6234310898818
 30
0.0
 10
940.5947092777739
 20
-573.6234310898818
 30
0.0
 10
940.5947092777739
 20
-573.6234310898818
 30
0.0
 10
967.3260664216987
 20
-573.6234310898818
 30
0.0
 10
967.3260664216987
 20
-573.6234310898818
 30
0.0
 10
970.9567664262163
 20
-573.6234310898818
 30
0.0
 10
973.9000837540395
 20
-576.566748417705
 30
0.0
 10
973.9000837540395
 20
-580.1974484222227
 30
0.0
 10
973.9000837540395
 20
-580.1974484222227
 30
0.0
 10
973.9000837540395
 20
-645.7284183222896
 30
0.0
 10
973.9000837540395
 20
-645.7284183222896
 30
0.0
 10
973.9000837540395
 20
-649.3591183268072
 30
0.0
 10
976.8434010818627
 20
-652.3024356546305
 30
0.0
 10
980.4741010863804
 20
-652.3024356546305
 30
0.0
 10
980.4741010863804
 20
-652.3024356546305
 30
0.0
 10
998.4274410612758
 20
-652.3024356546305
 30
0.0
 10
998.4274410612758
 20
-652.3024356546305
 30
0.0
 10
998.4274410612758
 20
-652.3024356546305
 30
0.0
 10
998.4274410612758
 20
-577.0320085629879
 30
0.0
 10
998.4274410612758
 20
-577.0320085629879
 30
0.0
 10
998.4274410612758
 20
-577.0320085629879
 30
0.0
 10
1007.927377989239
 20
-577.0320085629879
 30
0.0
 10
1007.927377989239
 20
-577.0320085629879
 30
0.0
 10
1007.927377989239
 20
-577.0320085629879
 30
0.0
 10
1007.927377989239
 20
-652.3024356546305
 30
0.0
 10
1007.927377989239
 20
-652.3024356546305
 30
0.0
 10
1007.927377989239
 20
-652.3024356546305
 30
0.0
 10
1015.440786733021
 20
-652.3024356546305
 30
0.0
 10
1015.440786733021
 20
-652.3024356546305
 30
0.0
 10
1019.071572864925
 20
-652.3024356546305
 30
0.0
 10
1022.014890192749
 20
-649.3591183268072
 30
0.0
 10
1022.014890192749
 20
-645.7284183222896
 30
0.0
 10
1022.014890192749
 20
-645.7284183222896
 30
0.0
 10
1022.014890192749
 20
-533.711655383714
 30
0.0
 10
1022.014890192749
 20
-533.711655383714
 30
0.0
 10
1022.014890192749
 20
-533.711655383714
 30
0.0
 10
1022.173622967232
 20
-533.711655383714
 30
0.0
 10
1022.173622967232
 20
-533.711655383714
 30
0.0
 10
1022.173622967232
 20
-533.711655383714
 30
0.0
 10
1022.173622967232
 20
-410.2173845812541
 30
0.0
 10
1022.173622967232
 20
-410.2173845812541
 30
0.0
 10
1022.173622967232
 20
-410.2173845812541
 30
0.0
 10
1022.499184490588
 20
-410.2173845812541
 30
0.0
 10
1022.499184490588
 20
-410.2173845812541
 30
0.0
 10
1022.499184490588
 20
-410.2173845812541
 30
0.0
 10
1022.275081029272
 20
-408.9564796336527
 30
0.0
 10
1022.275081029272
 20
-408.9564796336527
 30
0.0
  0
SPLINE
  5
341
330
1F
100
AcDbEntity
  8
Layer 1
 62
     7
370
    35
100
AcDbSpline
210
0.0
220
0.0
230
1.0
 70
    11
 71
     3
 72
    17
 73
    13
 74
     0
 42
0.0000000001
 43
0.0000000001
 12
1.0
 22
0.0
 32
0.0
 13
1.0
 23
0.0
 33
0.0
 40
0.0
 40
0.0
 40
0.0
 40
0.0
 40
1.0
 40
1.0
 40
1.0
 40
2.0
 40
2.0
 40
2.0
 40
3.0
 40
3.0
 40
3.0
 40
4.0
 40
4.0
 40
4.0
 40
4.0
 10
874.2225331875961
 20
-547.0579552935718
 30
0.0
 10
860.415365629199
 20
-547.0579552935718
 30
0.0
 10
849.2225087797835
 20
-535.8650984441564
 30
0.0
 10
849.2225087797835
 20
-522.0580170131464
 30
0.0
 10
849.2225087797835
 20
-508.2508494547492
 30
0.0
 10
860.415365629199
 20
-497.0579926053339
 30
0.0
 10
874.2225331875961
 20
-497.0579926053339
 30
0.0
 10
888.0296146186062
 20
-497.0579926053339
 30
0.0
 10
899.2224714680215
 20
-508.2508494547492
 30
0.0
 10
899.2224714680215
 20
-522.0580170131464
 30
0.0
 10
899.2224714680215
 20
-535.8650984441564
 30
0.0
 10
888.0296146186062
 20
-547.0579552935718
 30
0.0
 10
874.2225331875961
 20
-547.0579552935718
 30
0.0
  0
INSERT
  5
343
330
1F
100
AcDbEntity
  8
Layer 1
100
AcDbBlockReference
  2
block 6
 10
0.0
 20
0.0
 30
0.0
  0
INSERT
  5
35D
330
1F
100
AcDbEntity
  8
Layer 1
100
AcDbBlockReference
  2
block 7
 10
0.0
 20
0.0
 30
0.0
  0
INSERT
  5
377
330
1F
100
AcDbEntity
  8
Layer 1
100
AcDbBlockReference
  2
block 8
 10
0.0
 20
0.0
 30
0.0
  0
INSERT
  5
391
330
1F
100
AcDbEntity
  8
Layer 1
100
AcDbBlockReference
  2
block 9
 10
0.0
 20
0.0
 30
0.0
  0
POLYLINE
  5
3AA
330
1F
100
AcDbEntity
  8
Layer 1
 62
     7
370
    35
100
AcDb2dPolyline
 66
     1
 10
0.0
 20
0.0
 30
0.0
  0
VERTEX
  5
3AB
330
3AA
100
AcDbEntity
  8
Layer 1
 62
     7
370
    35
100
AcDbVertex
100
AcDb2dVertex
 10
947.5700221057067
 20
-213.1057946943941
 30
0.0
  0
VERTEX
  5
3AC
330
3AA
100
AcDbEntity
  8
Layer 1
 62
     7
370
    35
100
AcDbVertex
100
AcDb2dVertex
 10
916.7479412272335
 20
-213.1057946943941
 30
0.0
  0
VERTEX
  5
3AD
330
3AA
100
AcDbEntity
  8
Layer 1
 62
     7
370
    35
100
AcDbVertex
100
AcDb2dVertex
 10
916.7479412272335
 20
-180.6223326676545
 30
0.0
  0
VERTEX
  5
3AE
330
3AA
100
AcDbEntity
  8
Layer 1
 62
     7
370
    35
100
AcDbVertex
100
AcDb2dVertex
 10
947.5700221057067
 20
-180.6223326676545
 30
0.0
  0
VERTEX
  5
3AF
330
3AA
100
AcDbEntity
  8
Layer 1
 62
     7
370
    35
100
AcDbVertex
100
AcDb2dVertex
 10
947.5700221057067
 20
-213.1057946943941
 30
0.0
  0
SEQEND
  5
3B0
330
3AA
100
AcDbEntity
  8
Layer 1
 62
     7
370
    35
  0
POLYLINE
  5
3B1
330
1F
100
AcDbEntity
  8
Layer 1
 62
     7
370
    35
100
AcDb2dPolyline
 66
     1
 10
0.0
 20
0.0
 30
0.0
  0
VERTEX
  5
3B2
330
3B1
100
AcDbEntity
  8
Layer 1
 62
     7
370
    35
100
AcDbVertex
100
AcDb2dVertex
 10
855.6302073988719
 20
-225.0726157950282
 30
0.0
  0
VERTEX
  5
3B3
330
3B1
100
AcDbEntity
  8
Layer 1
 62
     7
370
    35
100
AcDbVertex
100
AcDb2dVertex
 10
855.6302073988719
 20
-187.6135758195839
 30
0.0
  0
VERTEX
  5
3B4
330
3B1
100
AcDbEntity
  8
Layer 1
 62
     7
370
    35
100
AcDbVertex
100
AcDb2dVertex
 10
836.5783126011175
 20
-187.6135758195839
 30
0.0
  0
VERTEX
  5
3B5
330
3B1
100
AcDbEntity
  8
Layer 1
 62
     7
370
    35
100
AcDbVertex
100
AcDb2dVertex
 10
836.5783126011175
 20
-204.4249527685061
 30
0.0
  0
VERTEX
  5
3B6
330
3B1
100
AcDbEntity
  8
Layer 1
 62
     7
370
    35
100
AcDbVertex
100
AcDb2dVertex
 10
791.1277707559263
 20
-155.1674942847267
 30
0.0
  0
VERTEX
  5
3B7
330
3B1
100
AcDbEntity
  8
Layer 1
 62
     7
370
    35
100
AcDbVertex
100
AcDb2dVertex
 10
777.2862383700638
 20
-170.1683443650693
 30
0.0
  0
VERTEX
  5
3B8
330
3B1
100
AcDbEntity
  8
Layer 1
 62
     7
370
    35
100
AcDbVertex
100
AcDb2dVertex
 10
731.2552840629951
 20
-170.1683443650693
 30
0.0
  0
VERTEX
  5
3B9
330
3B1
100
AcDbEntity
  8
Layer 1
 62
     7
370
    35
100
AcDbVertex
100
AcDb2dVertex
 10
731.2552840629951
 20
-220.0548772844554
 30
0.0
  0
VERTEX
  5
3BA
330
3B1
100
AcDbEntity
  8
Layer 1
 62
     7
370
    35
100
AcDbVertex
100
AcDb2dVertex
 10
709.7563379420678
 20
-243.3545317518292
 30
0.0
  0
VERTEX
  5
3BB
330
3B1
100
AcDbEntity
  8
Layer 1
 62
     7
370
    35
100
AcDbVertex
100
AcDb2dVertex
 10
716.127783659876
 20
-243.3545317518292
 30
0.0
  0
VERTEX
  5
3BC
330
3B1
100
AcDbEntity
  8
Layer 1
 62
     7
370
    35
100
AcDbVertex
100
AcDb2dVertex
 10
716.127783659876
 20
-320.1675003469923
 30
0.0
  0
VERTEX
  5
3BD
330
3B1
100
AcDbEntity
  8
Layer 1
 62
     7
370
    35
100
AcDbVertex
100
AcDb2dVertex
 10
731.2007654269411
 20
-320.1675003469923
 30
0.0
  0
VERTEX
  5
3BE
330
3B1
100
AcDbEntity
  8
Layer 1
 62
     7
370
    35
100
AcDbVertex
100
AcDb2dVertex
 10
731.2007654269411
 20
-244.634040215051
 30
0.0
  0
VERTEX
  5
3BF
330
3B1
100
AcDbEntity
  8
Layer 1
 62
     7
370
    35
100
AcDbVertex
100
AcDb2dVertex
 10
740.7007884822917
 20
-244.634040215051
 30
0.0
  0
VERTEX
  5
3C0
330
3B1
100
AcDbEntity
  8
Layer 1
 62
     7
370
    35
100
AcDbVertex
100
AcDb2dVertex
 10
740.7007884822917
 20
-320.1675003469923
 30
0.0
  0
VERTEX
  5
3C1
330
3B1
100
AcDbEntity
  8
Layer 1
 62
     7
370
    35
100
AcDbVertex
100
AcDb2dVertex
 10
796.2164351698017
 20
-320.1675003469923
 30
0.0
  0
VERTEX
  5
3C2
330
3B1
100
AcDbEntity
  8
Layer 1
 62
     7
370
    35
100
AcDbVertex
100
AcDb2dVertex
 10
796.2164351698017
 20
-252.2670798995577
 30
0.0
  0
VERTEX
  5
3C3
330
3B1
100
AcDbEntity
  8
Layer 1
 62
     7
370
    35
100
AcDbVertex
100
AcDb2dVertex
 10
832.2033858443988
 20
-252.2670798995577
 30
0.0
  0
VERTEX
  5
3C4
330
3B1
100
AcDbEntity
  8
Layer 1
 62
     7
370
    35
100
AcDbVertex
100
AcDb2dVertex
 10
832.2033858443988
 20
-320.1675003469923
 30
0.0
  0
VERTEX
  5
3C5
330
3B1
100
AcDbEntity
  8
Layer 1
 62
     7
370
    35
100
AcDbVertex
100
AcDb2dVertex
 10
841.5547530295609
 20
-320.1675003469923
 30
0.0
  0
VERTEX
  5
3C6
330
3B1
100
AcDbEntity
  8
Layer 1
 62
     7
370
    35
100
AcDbVertex
100
AcDb2dVertex
 10
841.5547530295609
 20
-244.7380820987055
 30
0.0
  0
VERTEX
  5
3C7
330
3B1
100
AcDbEntity
  8
Layer 1
 62
     7
370
    35
100
AcDbVertex
100
AcDb2dVertex
 10
851.0547760849116
 20
-244.7380820987055
 30
0.0
  0
VERTEX
  5
3C8
330
3B1
100
AcDbEntity
  8
Layer 1
 62
     7
370
    35
100
AcDbVertex
100
AcDb2dVertex
 10
851.0547760849116
 20
-320.1675003469923
 30
0.0
  0
VERTEX
  5
3C9
330
3B1
100
AcDbEntity
  8
Layer 1
 62
     7
370
    35
100
AcDbVertex
100
AcDb2dVertex
 10
866.1278439793638
 20
-320.1675003469923
 30
0.0
  0
VERTEX
  5
3CA
330
3B1
100
AcDbEntity
  8
Layer 1
 62
     7
370
    35
100
AcDbVertex
100
AcDb2dVertex
 10
866.1278439793638
 20
-243.3545317518292
 30
0.0
  0
VERTEX
  5
3CB
330
3B1
100
AcDbEntity
  8
Layer 1
 62
     7
370
    35
100
AcDbVertex
100
AcDb2dVertex
 10
872.4992035697849
 20
-243.3545317518292
 30
0.0
  0
VERTEX
  5
3CC
330
3B1
100
AcDbEntity
  8
Layer 1
 62
     7
370
    35
100
AcDbVertex
100
AcDb2dVertex
 10
855.6302073988719
 20
-225.0726157950282
 30
0.0
  0
SEQEND
  5
3CD
330
3B1
100
AcDbEntity
  8
Layer 1
 62
     7
370
    35
  0
POLYLINE
  5
3CE
330
1F
100
AcDbEntity
  8
Layer 1
 62
     7
370
    35
100
AcDb2dPolyline
 66
     1
 10
0.0
 20
0.0
 30
0.0
  0
VERTEX
  5
3CF
330
3CE
100
AcDbEntity
  8
Layer 1
 62
     7
370
    35
100
AcDbVertex
100
AcDb2dVertex
 10
785.1915267252923
 20
-304.2923280961868
 30
0.0
  0
VERTEX
  5
3D0
330
3CE
100
AcDbEntity
  8
Layer 1
 62
     7
370
    35
100
AcDbVertex
100
AcDb2dVertex
 10
749.2046191143888
 20
-304.2923280961868
 30
0.0
  0
VERTEX
  5
3D1
330
3CE
100
AcDbEntity
  8
Layer 1
 62
     7
370
    35
100
AcDbVertex
100
AcDb2dVertex
 10
749.2046191143888
 20
-253.2144811580014
 30
0.0
  0
VERTEX
  5
3D2
330
3CE
100
AcDbEntity
  8
Layer 1
 62
     7
370
    35
100
AcDbVertex
100
AcDb2dVertex
 10
785.1915267252923
 20
-253.2144811580014
 30
0.0
  0
VERTEX
  5
3D3
330
3CE
100
AcDbEntity
  8
Layer 1
 62
     7
370
    35
100
AcDbVertex
100
AcDb2dVertex
 10
785.1915267252923
 20
-304.2923280961868
 30
0.0
  0
SEQEND
  5
3D4
330
3CE
100
AcDbEntity
  8
Layer 1
 62
     7
370
    35
  0
POLYLINE
  5
3D5
330
1F
100
AcDbEntity
  8
Layer 1
 62
     7
370
    35
100
AcDb2dPolyline
 66
     1
 10
0.0
 20
0.0
 30
0.0
  0
VERTEX
  5
3D6
330
3D5
100
AcDbEntity
  8
Layer 1
 62
     7
370
    35
100
AcDbVertex
100
AcDb2dVertex
 10
1230.567298202968
 20
-1000.653867662129
 30
0.0
  0
VERTEX
  5
3D7
330
3D5
100
AcDbEntity
  8
Layer 1
 62
     7
370
    35
100
AcDbVertex
100
AcDb2dVertex
 10
1230.567298202968
 20
-1076.258038378905
 30
0.0
  0
VERTEX
  5
3D8
330
3D5
100
AcDbEntity
  8
Layer 1
 62
     7
370
    35
100
AcDbVertex
100
AcDb2dVertex
 10
1221.067361275004
 20
-1076.258038378905
 30
0.0
  0
VERTEX
  5
3D9
330
3D5
100
AcDbEntity
  8
Layer 1
 62
     7
370
    35
100
AcDbVertex
100
AcDb2dVertex
 10
1221.067361275004
 20
-1000.653867662129
 30
0.0
  0
VERTEX
  5
3DA
330
3D5
100
AcDbEntity
  8
Layer 1
 62
     7
370
    35
100
AcDbVertex
100
AcDb2dVertex
 10
1120.213310600348
 20
-1000.653867662129
 30
0.0
  0
VERTEX
  5
3DB
330
3D5
100
AcDbEntity
  8
Layer 1
 62
     7
370
    35
100
AcDbVertex
100
AcDb2dVertex
 10
1120.213310600348
 20
-1076.153996495251
 30
0.0
  0
VERTEX
  5
3DC
330
3D5
100
AcDbEntity
  8
Layer 1
 62
     7
370
    35
100
AcDbVertex
100
AcDb2dVertex
 10
1110.713287544997
 20
-1076.153996495251
 30
0.0
  0
VERTEX
  5
3DD
330
3D5
100
AcDbEntity
  8
Layer 1
 62
     7
370
    35
100
AcDbVertex
100
AcDb2dVertex
 10
1110.713287544997
 20
-1000.653867662129
 30
0.0
  0
VERTEX
  5
3DE
330
3D5
100
AcDbEntity
  8
Layer 1
 62
     7
370
    35
100
AcDbVertex
100
AcDb2dVertex
 10
1095.640305777932
 20
-1000.653867662129
 30
0.0
  0
VERTEX
  5
3DF
330
3D5
100
AcDbEntity
  8
Layer 1
 62
     7
370
    35
100
AcDbVertex
100
AcDb2dVertex
 10
1095.640305777932
 20
-1150.65384185423
 30
0.0
  0
VERTEX
  5
3E0
330
3D5
100
AcDbEntity
  8
Layer 1
 62
     7
370
    35
100
AcDbVertex
100
AcDb2dVertex
 10
1245.640279970033
 20
-1150.65384185423
 30
0.0
  0
VERTEX
  5
3E1
330
3D5
100
AcDbEntity
  8
Layer 1
 62
     7
370
    35
100
AcDbVertex
100
AcDb2dVertex
 10
1245.640279970033
 20
-1000.653867662129
 30
0.0
  0
VERTEX
  5
3E2
330
3D5
100
AcDbEntity
  8
Layer 1
 62
     7
370
    35
100
AcDbVertex
100
AcDb2dVertex
 10
1230.567298202968
 20
-1000.653867662129
 30
0.0
  0
SEQEND
  5
3E3
330
3D5
100
AcDbEntity
  8
Layer 1
 62
     7
370
    35
  0
POLYLINE
  5
3E4
330
1F
100
AcDbEntity
  8
Layer 1
 62
     7
370
    35
100
AcDb2dPolyline
 66
     1
 10
0.0
 20
0.0
 30
0.0
  0
VERTEX
  5
3E5
330
3E4
100
AcDbEntity
  8
Layer 1
 62
     7
370
    35
100
AcDbVertex
100
AcDb2dVertex
 10
721.5196824177341
 20
-1013.941436768406
 30
0.0
  0
VERTEX
  5
3E6
330
3E4
100
AcDbEntity
  8
Layer 1
 62
     7
370
    35
100
AcDbVertex
100
AcDb2dVertex
 10
721.5196824177341
 20
-1089.64232854093
 30
0.0
  0
VERTEX
  5
3E7
330
3E4
100
AcDbEntity
  8
Layer 1
 62
     7
370
    35
100
AcDbVertex
100
AcDb2dVertex
 10
712.0196593623834
 20
-1089.64232854093
 30
0.0
  0
VERTEX
  5
3E8
330
3E4
100
AcDbEntity
  8
Layer 1
 62
     7
370
    35
100
AcDbVertex
100
AcDb2dVertex
 10
712.0196593623834
 20
-1013.941436768406
 30
0.0
  0
VERTEX
  5
3E9
330
3E4
100
AcDbEntity
  8
Layer 1
 62
     7
370
    35
100
AcDbVertex
100
AcDb2dVertex
 10
702.7199686095
 20
-1013.941436768406
 30
0.0
  0
VERTEX
  5
3EA
330
3E4
100
AcDbEntity
  8
Layer 1
 62
     7
370
    35
100
AcDbVertex
100
AcDb2dVertex
 10
702.7199686095
 20
-1027.818195255605
 30
0.0
  0
VERTEX
  5
3EB
330
3E4
100
AcDbEntity
  8
Layer 1
 62
     7
370
    35
100
AcDbVertex
100
AcDb2dVertex
 10
688.8837761216396
 20
-1027.818195255605
 30
0.0
  0
VERTEX
  5
3EC
330
3E4
100
AcDbEntity
  8
Layer 1
 62
     7
370
    35
100
AcDbVertex
100
AcDb2dVertex
 10
688.8837761216396
 20
-1013.941436768406
 30
0.0
  0
VERTEX
  5
3ED
330
3E4
100
AcDbEntity
  8
Layer 1
 62
     7
370
    35
100
AcDbVertex
100
AcDb2dVertex
 10
667.7203823009756
 20
-1013.941436768406
 30
0.0
  0
VERTEX
  5
3EE
330
3E4
100
AcDbEntity
  8
Layer 1
 62
     7
370
    35
100
AcDbVertex
100
AcDb2dVertex
 10
667.7203823009756
 20
-1027.818195255605
 30
0.0
  0
VERTEX
  5
3EF
330
3E4
100
AcDbEntity
  8
Layer 1
 62
     7
370
    35
100
AcDbVertex
100
AcDb2dVertex
 10
653.8841898131152
 20
-1027.818195255605
 30
0.0
  0
VERTEX
  5
3F0
330
3E4
100
AcDbEntity
  8
Layer 1
 62
     7
370
    35
100
AcDbVertex
100
AcDb2dVertex
 10
653.8841898131152
 20
-1013.941436768406
 30
0.0
  0
VERTEX
  5
3F1
330
3E4
100
AcDbEntity
  8
Layer 1
 62
     7
370
    35
100
AcDbVertex
100
AcDb2dVertex
 10
632.7208821198383
 20
-1013.941436768406
 30
0.0
  0
VERTEX
  5
3F2
330
3E4
100
AcDbEntity
  8
Layer 1
 62
     7
370
    35
100
AcDbVertex
100
AcDb2dVertex
 10
632.7208821198383
 20
-1027.818195255605
 30
0.0
  0
VERTEX
  5
3F3
330
3E4
100
AcDbEntity
  8
Layer 1
 62
     7
370
    35
100
AcDbVertex
100
AcDb2dVertex
 10
618.8846035045908
 20
-1027.818195255605
 30
0.0
  0
VERTEX
  5
3F4
330
3E4
100
AcDbEntity
  8
Layer 1
 62
     7
370
    35
100
AcDbVertex
100
AcDb2dVertex
 10
618.8846035045908
 20
-1013.941436768406
 30
0.0
  0
VERTEX
  5
3F5
330
3E4
100
AcDbEntity
  8
Layer 1
 62
     7
370
    35
100
AcDbVertex
100
AcDb2dVertex
 10
597.7212096839268
 20
-1013.941436768406
 30
0.0
  0
VERTEX
  5
3F6
330
3E4
100
AcDbEntity
  8
Layer 1
 62
     7
370
    35
100
AcDbVertex
100
AcDb2dVertex
 10
597.7212096839268
 20
-1027.818195255605
 30
0.0
  0
VERTEX
  5
3F7
330
3E4
100
AcDbEntity
  8
Layer 1
 62
     7
370
    35
100
AcDbVertex
100
AcDb2dVertex
 10
583.8851033234536
 20
-1027.818195255605
 30
0.0
  0
VERTEX
  5
3F8
330
3E4
100
AcDbEntity
  8
Layer 1
 62
     7
370
    35
100
AcDbVertex
100
AcDb2dVertex
 10
583.8851033234536
 20
-1013.941436768406
 30
0.0
  0
VERTEX
  5
3F9
330
3E4
100
AcDbEntity
  8
Layer 1
 62
     7
370
    35
100
AcDbVertex
100
AcDb2dVertex
 10
571.7405388462379
 20
-1013.941436768406
 30
0.0
  0
VERTEX
  5
3FA
330
3E4
100
AcDbEntity
  8
Layer 1
 62
     7
370
    35
100
AcDbVertex
100
AcDb2dVertex
 10
571.7405388462379
 20
-1089.64232854093
 30
0.0
  0
VERTEX
  5
3FB
330
3E4
100
AcDbEntity
  8
Layer 1
 62
     7
370
    35
100
AcDbVertex
100
AcDb2dVertex
 10
562.2405157908872
 20
-1089.64232854093
 30
0.0
  0
VERTEX
  5
3FC
330
3E4
100
AcDbEntity
  8
Layer 1
 62
     7
370
    35
100
AcDbVertex
100
AcDb2dVertex
 10
562.2405157908872
 20
-1013.941436768406
 30
0.0
  0
VERTEX
  5
3FD
330
3E4
100
AcDbEntity
  8
Layer 1
 62
     7
370
    35
100
AcDbVertex
100
AcDb2dVertex
 10
555.2342251025347
 20
-1013.941436768406
 30
0.0
  0
VERTEX
  5
3FE
330
3E4
100
AcDbEntity
  8
Layer 1
 62
     7
370
    35
100
AcDbVertex
100
AcDb2dVertex
 10
555.2342251025347
 20
-1027.818195255605
 30
0.0
  0
VERTEX
  5
3FF
330
3E4
100
AcDbEntity
  8
Layer 1
 62
     7
370
    35
100
AcDbVertex
100
AcDb2dVertex
 10
541.3980326146742
 20
-1027.818195255605
 30
0.0
  0
VERTEX
  5
400
330
3E4
100
AcDbEntity
  8
Layer 1
 62
     7
370
    35
100
AcDbVertex
100
AcDb2dVertex
 10
541.3980326146742
 20
-1013.941436768406
 30
0.0
  0
VERTEX
  5
401
330
3E4
100
AcDbEntity
  8
Layer 1
 62
     7
370
    35
100
AcDbVertex
100
AcDb2dVertex
 10
520.2347249213974
 20
-1013.941436768406
 30
0.0
  0
VERTEX
  5
402
330
3E4
100
AcDbEntity
  8
Layer 1
 62
     7
370
    35
100
AcDbVertex
100
AcDb2dVertex
 10
520.2347249213974
 20
-1027.818195255605
 30
0.0
  0
VERTEX
  5
403
330
3E4
100
AcDbEntity
  8
Layer 1
 62
     7
370
    35
100
AcDbVertex
100
AcDb2dVertex
 10
506.398532433537
 20
-1027.818195255605
 30
0.0
  0
VERTEX
  5
404
330
3E4
100
AcDbEntity
  8
Layer 1
 62
     7
370
    35
100
AcDbVertex
100
AcDb2dVertex
 10
506.398532433537
 20
-1013.941436768406
 30
0.0
  0
VERTEX
  5
405
330
3E4
100
AcDbEntity
  8
Layer 1
 62
     7
370
    35
100
AcDbVertex
100
AcDb2dVertex
 10
485.235138612873
 20
-1013.941436768406
 30
0.0
  0
VERTEX
  5
406
330
3E4
100
AcDbEntity
  8
Layer 1
 62
     7
370
    35
100
AcDbVertex
100
AcDb2dVertex
 10
485.235138612873
 20
-1027.818195255605
 30
0.0
  0
VERTEX
  5
407
330
3E4
100
AcDbEntity
  8
Layer 1
 62
     7
370
    35
100
AcDbVertex
100
AcDb2dVertex
 10
471.3989461250126
 20
-1027.818195255605
 30
0.0
  0
VERTEX
  5
408
330
3E4
100
AcDbEntity
  8
Layer 1
 62
     7
370
    35
100
AcDbVertex
100
AcDb2dVertex
 10
471.3989461250126
 20
-1013.941436768406
 30
0.0
  0
VERTEX
  5
409
330
3E4
100
AcDbEntity
  8
Layer 1
 62
     7
370
    35
100
AcDbVertex
100
AcDb2dVertex
 10
450.2355523043486
 20
-1013.941436768406
 30
0.0
  0
VERTEX
  5
40A
330
3E4
100
AcDbEntity
  8
Layer 1
 62
     7
370
    35
100
AcDbVertex
100
AcDb2dVertex
 10
450.2355523043486
 20
-1027.818195255605
 30
0.0
  0
VERTEX
  5
40B
330
3E4
100
AcDbEntity
  8
Layer 1
 62
     7
370
    35
100
AcDbVertex
100
AcDb2dVertex
 10
436.3993598164881
 20
-1027.818195255605
 30
0.0
  0
VERTEX
  5
40C
330
3E4
100
AcDbEntity
  8
Layer 1
 62
     7
370
    35
100
AcDbVertex
100
AcDb2dVertex
 10
436.3993598164881
 20
-1013.941436768406
 30
0.0
  0
VERTEX
  5
40D
330
3E4
100
AcDbEntity
  8
Layer 1
 62
     7
370
    35
100
AcDbVertex
100
AcDb2dVertex
 10
430.9286343132985
 20
-1013.941436768406
 30
0.0
  0
VERTEX
  5
40E
330
3E4
100
AcDbEntity
  8
Layer 1
 62
     7
370
    35
100
AcDbVertex
100
AcDb2dVertex
 10
430.9286343132985
 20
-1089.64232854093
 30
0.0
  0
VERTEX
  5
40F
330
3E4
100
AcDbEntity
  8
Layer 1
 62
     7
370
    35
100
AcDbVertex
100
AcDb2dVertex
 10
421.4286543216414
 20
-1089.64232854093
 30
0.0
  0
VERTEX
  5
410
330
3E4
100
AcDbEntity
  8
Layer 1
 62
     7
370
    35
100
AcDbVertex
100
AcDb2dVertex
 10
421.4286543216414
 20
-1013.941436768406
 30
0.0
  0
VERTEX
  5
411
330
3E4
100
AcDbEntity
  8
Layer 1
 62
     7
370
    35
100
AcDbVertex
100
AcDb2dVertex
 10
403.9879876186448
 20
-1013.941436768406
 30
0.0
  0
VERTEX
  5
412
330
3E4
100
AcDbEntity
  8
Layer 1
 62
     7
370
    35
100
AcDbVertex
100
AcDb2dVertex
 10
403.9879876186448
 20
-1163.941410960507
 30
0.0
  0
VERTEX
  5
413
330
3E4
100
AcDbEntity
  8
Layer 1
 62
     7
370
    35
100
AcDbVertex
100
AcDb2dVertex
 10
736.4115382896622
 20
-1163.941410960507
 30
0.0
  0
VERTEX
  5
414
330
3E4
100
AcDbEntity
  8
Layer 1
 62
     7
370
    35
100
AcDbVertex
100
AcDb2dVertex
 10
736.4115382896622
 20
-1013.941436768406
 30
0.0
  0
VERTEX
  5
415
330
3E4
100
AcDbEntity
  8
Layer 1
 62
     7
370
    35
100
AcDbVertex
100
AcDb2dVertex
 10
721.5196824177341
 20
-1013.941436768406
 30
0.0
  0
SEQEND
  5
416
330
3E4
100
AcDbEntity
  8
Layer 1
 62
     7
370
    35
  0
POLYLINE
  5
417
330
1F
100
AcDbEntity
  8
Layer 1
 62
     7
370
    35
100
AcDb2dPolyline
 66
     1
 10
0.0
 20
0.0
 30
0.0
  0
VERTEX
  5
418
330
417
100
AcDbEntity
  8
Layer 1
 62
     7
370
    35
100
AcDbVertex
100
AcDb2dVertex
 10
1048.39364607941
 20
-1187.598479281331
 30
0.0
  0
VERTEX
  5
419
330
417
100
AcDbEntity
  8
Layer 1
 62
     7
370
    35
100
AcDbVertex
100
AcDb2dVertex
 10
1048.39364607941
 20
-1263.098005222742
 30
0.0
  0
VERTEX
  5
41A
330
417
100
AcDbEntity
  8
Layer 1
 62
     7
370
    35
100
AcDbVertex
100
AcDb2dVertex
 10
1038.893623024059
 20
-1263.098005222742
 30
0.0
  0
VERTEX
  5
41B
330
417
100
AcDbEntity
  8
Layer 1
 62
     7
370
    35
100
AcDbVertex
100
AcDb2dVertex
 10
1038.893623024059
 20
-1187.598479281331
 30
0.0
  0
VERTEX
  5
41C
330
417
100
AcDbEntity
  8
Layer 1
 62
     7
370
    35
100
AcDbVertex
100
AcDb2dVertex
 10
787.7776847730364
 20
-1187.598479281331
 30
0.0
  0
VERTEX
  5
41D
330
417
100
AcDbEntity
  8
Layer 1
 62
     7
370
    35
100
AcDbVertex
100
AcDb2dVertex
 10
787.7776847730364
 20
-1263.098005222742
 30
0.0
  0
VERTEX
  5
41E
330
417
100
AcDbEntity
  8
Layer 1
 62
     7
370
    35
100
AcDbVertex
100
AcDb2dVertex
 10
778.2776617176856
 20
-1263.098005222742
 30
0.0
  0
VERTEX
  5
41F
330
417
100
AcDbEntity
  8
Layer 1
 62
     7
370
    35
100
AcDbVertex
100
AcDb2dVertex
 10
778.2776617176856
 20
-1187.598479281331
 30
0.0
  0
VERTEX
  5
420
330
417
100
AcDbEntity
  8
Layer 1
 62
     7
370
    35
100
AcDbVertex
100
AcDb2dVertex
 10
763.3356797064472
 20
-1187.598479281331
 30
0.0
  0
VERTEX
  5
421
330
417
100
AcDbEntity
  8
Layer 1
 62
     7
370
    35
100
AcDbVertex
100
AcDb2dVertex
 10
763.3356797064472
 20
-1337.598453473431
 30
0.0
  0
VERTEX
  5
422
330
417
100
AcDbEntity
  8
Layer 1
 62
     7
370
    35
100
AcDbVertex
100
AcDb2dVertex
 10
1063.335714218036
 20
-1337.598453473431
 30
0.0
  0
VERTEX
  5
423
330
417
100
AcDbEntity
  8
Layer 1
 62
     7
370
    35
100
AcDbVertex
100
AcDb2dVertex
 10
1063.335714218036
 20
-1187.598479281331
 30
0.0
  0
VERTEX
  5
424
330
417
100
AcDbEntity
  8
Layer 1
 62
     7
370
    35
100
AcDbVertex
100
AcDb2dVertex
 10
1048.39364607941
 20
-1187.598479281331
 30
0.0
  0
SEQEND
  5
425
330
417
100
AcDbEntity
  8
Layer 1
 62
     7
370
    35
  0
POLYLINE
  5
426
330
1F
100
AcDbEntity
  8
Layer 1
 62
     7
370
    35
100
AcDb2dPolyline
 66
     1
 10
0.0
 20
0.0
 30
0.0
  0
VERTEX
  5
427
330
426
100
AcDbEntity
  8
Layer 1
 62
     7
370
    35
100
AcDbVertex
100
AcDb2dVertex
 10
711.403750305344
 20
-1187.598492738735
 30
0.0
  0
VERTEX
  5
428
330
426
100
AcDbEntity
  8
Layer 1
 62
     7
370
    35
100
AcDbVertex
100
AcDb2dVertex
 10
711.403750305344
 20
-1263.098018680146
 30
0.0
  0
VERTEX
  5
429
330
426
100
AcDbEntity
  8
Layer 1
 62
     7
370
    35
100
AcDbVertex
100
AcDb2dVertex
 10
701.9037272499934
 20
-1263.098018680146
 30
0.0
  0
VERTEX
  5
42A
330
426
100
AcDbEntity
  8
Layer 1
 62
     7
370
    35
100
AcDbVertex
100
AcDb2dVertex
 10
701.9037272499934
 20
-1187.598492738735
 30
0.0
  0
VERTEX
  5
42B
330
426
100
AcDbEntity
  8
Layer 1
 62
     7
370
    35
100
AcDbVertex
100
AcDb2dVertex
 10
450.7877889989703
 20
-1187.598492738735
 30
0.0
  0
VERTEX
  5
42C
330
426
100
AcDbEntity
  8
Layer 1
 62
     7
370
    35
100
AcDbVertex
100
AcDb2dVertex
 10
450.7877889989703
 20
-1263.098018680146
 30
0.0
  0
VERTEX
  5
42D
330
426
100
AcDbEntity
  8
Layer 1
 62
     7
370
    35
100
AcDbVertex
100
AcDb2dVertex
 10
441.2877659436196
 20
-1263.098018680146
 30
0.0
  0
VERTEX
  5
42E
330
426
100
AcDbEntity
  8
Layer 1
 62
     7
370
    35
100
AcDbVertex
100
AcDb2dVertex
 10
441.2877659436196
 20
-1187.598492738735
 30
0.0
  0
VERTEX
  5
42F
330
426
100
AcDbEntity
  8
Layer 1
 62
     7
370
    35
100
AcDbVertex
100
AcDb2dVertex
 10
426.3457839323812
 20
-1187.598492738735
 30
0.0
  0
VERTEX
  5
430
330
426
100
AcDbEntity
  8
Layer 1
 62
     7
370
    35
100
AcDbVertex
100
AcDb2dVertex
 10
426.3457839323812
 20
-1337.598466930835
 30
0.0
  0
VERTEX
  5
431
330
426
100
AcDbEntity
  8
Layer 1
 62
     7
370
    35
100
AcDbVertex
100
AcDb2dVertex
 10
726.3458184439697
 20
-1337.598466930835
 30
0.0
  0
VERTEX
  5
432
330
426
100
AcDbEntity
  8
Layer 1
 62
     7
370
    35
100
AcDbVertex
100
AcDb2dVertex
 10
726.3458184439697
 20
-1187.598492738735
 30
0.0
  0
VERTEX
  5
433
330
426
100
AcDbEntity
  8
Layer 1
 62
     7
370
    35
100
AcDbVertex
100
AcDb2dVertex
 10
711.403750305344
 20
-1187.598492738735
 30
0.0
  0
SEQEND
  5
434
330
426
100
AcDbEntity
  8
Layer 1
 62
     7
370
    35
  0
POLYLINE
  5
435
330
1F
100
AcDbEntity
  8
Layer 1
 62
     7
370
    35
100
AcDb2dPolyline
 66
     1
 10
0.0
 20
0.0
 30
0.0
  0
VERTEX
  5
436
330
435
100
AcDbEntity
  8
Layer 1
 62
     7
370
    35
100
AcDbVertex
100
AcDb2dVertex
 10
1348.39368199264
 20
-819.206557564444
 30
0.0
  0
VERTEX
  5
437
330
435
100
AcDbEntity
  8
Layer 1
 62
     7
370
    35
100
AcDbVertex
100
AcDb2dVertex
 10
1348.39368199264
 20
-894.7060835058555
 30
0.0
  0
VERTEX
  5
438
330
435
100
AcDbEntity
  8
Layer 1
 62
     7
370
    35
100
AcDbVertex
100
AcDb2dVertex
 10
1338.89365893729
 20
-894.7060835058555
 30
0.0
  0
VERTEX
  5
439
330
435
100
AcDbEntity
  8
Layer 1
 62
     7
370
    35
100
AcDbVertex
100
AcDb2dVertex
 10
1338.89365893729
 20
-819.206557564444
 30
0.0
  0
VERTEX
  5
43A
330
435
100
AcDbEntity
  8
Layer 1
 62
     7
370
    35
100
AcDbVertex
100
AcDb2dVertex
 10
1317.70942228894
 20
-819.206557564444
 30
0.0
  0
VERTEX
  5
43B
330
435
100
AcDbEntity
  8
Layer 1
 62
     7
370
    35
100
AcDbVertex
100
AcDb2dVertex
 10
1317.70942228894
 20
-833.148169974153
 30
0.0
  0
VERTEX
  5
43C
330
435
100
AcDbEntity
  8
Layer 1
 62
     7
370
    35
100
AcDbVertex
100
AcDb2dVertex
 10
1302.709476546162
 20
-833.148169974153
 30
0.0
  0
VERTEX
  5
43D
330
435
100
AcDbEntity
  8
Layer 1
 62
     7
370
    35
100
AcDbVertex
100
AcDb2dVertex
 10
1302.709476546162
 20
-819.206557564444
 30
0.0
  0
VERTEX
  5
43E
330
435
100
AcDbEntity
  8
Layer 1
 62
     7
370
    35
100
AcDbVertex
100
AcDb2dVertex
 10
1279.766001888269
 20
-819.206557564444
 30
0.0
  0
VERTEX
  5
43F
330
435
100
AcDbEntity
  8
Layer 1
 62
     7
370
    35
100
AcDbVertex
100
AcDb2dVertex
 10
1279.766001888269
 20
-833.1482561015401
 30
0.0
  0
VERTEX
  5
440
330
435
100
AcDbEntity
  8
Layer 1
 62
     7
370
    35
100
AcDbVertex
100
AcDb2dVertex
 10
1264.766056145492
 20
-833.1482561015401
 30
0.0
  0
VERTEX
  5
441
330
435
100
AcDbEntity
  8
Layer 1
 62
     7
370
    35
100
AcDbVertex
100
AcDb2dVertex
 10
1264.766056145492
 20
-819.206557564444
 30
0.0
  0
VERTEX
  5
442
330
435
100
AcDbEntity
  8
Layer 1
 62
     7
370
    35
100
AcDbVertex
100
AcDb2dVertex
 10
1240.614214246147
 20
-819.206557564444
 30
0.0
  0
VERTEX
  5
443
330
435
100
AcDbEntity
  8
Layer 1
 62
     7
370
    35
100
AcDbVertex
100
AcDb2dVertex
 10
1240.614214246147
 20
-833.148169974153
 30
0.0
  0
VERTEX
  5
444
330
435
100
AcDbEntity
  8
Layer 1
 62
     7
370
    35
100
AcDbVertex
100
AcDb2dVertex
 10
1225.614096248595
 20
-833.148169974153
 30
0.0
  0
VERTEX
  5
445
330
435
100
AcDbEntity
  8
Layer 1
 62
     7
370
    35
100
AcDbVertex
100
AcDb2dVertex
 10
1225.614096248595
 20
-819.206557564444
 30
0.0
  0
VERTEX
  5
446
330
435
100
AcDbEntity
  8
Layer 1
 62
     7
370
    35
100
AcDbVertex
100
AcDb2dVertex
 10
1202.67070771809
 20
-819.206557564444
 30
0.0
  0
VERTEX
  5
447
330
435
100
AcDbEntity
  8
Layer 1
 62
     7
370
    35
100
AcDbVertex
100
AcDb2dVertex
 10
1202.67070771809
 20
-833.1482561015401
 30
0.0
  0
VERTEX
  5
448
330
435
100
AcDbEntity
  8
Layer 1
 62
     7
370
    35
100
AcDbVertex
100
AcDb2dVertex
 10
1187.670675847925
 20
-833.1482561015401
 30
0.0
  0
VERTEX
  5
449
330
435
100
AcDbEntity
  8
Layer 1
 62
     7
370
    35
100
AcDbVertex
100
AcDb2dVertex
 10
1187.670675847925
 20
-819.206557564444
 30
0.0
  0
VERTEX
  5
44A
330
435
100
AcDbEntity
  8
Layer 1
 62
     7
370
    35
100
AcDbVertex
100
AcDb2dVertex
 10
1164.727287317419
 20
-819.206557564444
 30
0.0
  0
VERTEX
  5
44B
330
435
100
AcDbEntity
  8
Layer 1
 62
     7
370
    35
100
AcDbVertex
100
AcDb2dVertex
 10
1164.727287317419
 20
-833.148169974153
 30
0.0
  0
VERTEX
  5
44C
330
435
100
AcDbEntity
  8
Layer 1
 62
     7
370
    35
100
AcDbVertex
100
AcDb2dVertex
 10
1149.727255447255
 20
-833.148169974153
 30
0.0
  0
VERTEX
  5
44D
330
435
100
AcDbEntity
  8
Layer 1
 62
     7
370
    35
100
AcDbVertex
100
AcDb2dVertex
 10
1149.727255447255
 20
-819.206557564444
 30
0.0
  0
VERTEX
  5
44E
330
435
100
AcDbEntity
  8
Layer 1
 62
     7
370
    35
100
AcDbVertex
100
AcDb2dVertex
 10
1126.783780789362
 20
-819.206557564444
 30
0.0
  0
VERTEX
  5
44F
330
435
100
AcDbEntity
  8
Layer 1
 62
     7
370
    35
100
AcDbVertex
100
AcDb2dVertex
 10
1126.783780789362
 20
-833.1482561015401
 30
0.0
  0
VERTEX
  5
450
330
435
100
AcDbEntity
  8
Layer 1
 62
     7
370
    35
100
AcDbVertex
100
AcDb2dVertex
 10
1111.783835046584
 20
-833.1482561015401
 30
0.0
  0
VERTEX
  5
451
330
435
100
AcDbEntity
  8
Layer 1
 62
     7
370
    35
100
AcDbVertex
100
AcDb2dVertex
 10
1111.783835046584
 20
-819.206557564444
 30
0.0
  0
VERTEX
  5
452
330
435
100
AcDbEntity
  8
Layer 1
 62
     7
370
    35
100
AcDbVertex
100
AcDb2dVertex
 10
1087.777720686266
 20
-819.206557564444
 30
0.0
  0
VERTEX
  5
453
330
435
100
AcDbEntity
  8
Layer 1
 62
     7
370
    35
100
AcDbVertex
100
AcDb2dVertex
 10
1087.777720686266
 20
-894.7060835058555
 30
0.0
  0
VERTEX
  5
454
330
435
100
AcDbEntity
  8
Layer 1
 62
     7
370
    35
100
AcDbVertex
100
AcDb2dVertex
 10
1078.277697630916
 20
-894.7060835058555
 30
0.0
  0
VERTEX
  5
455
330
435
100
AcDbEntity
  8
Layer 1
 62
     7
370
    35
100
AcDbVertex
100
AcDb2dVertex
 10
1078.277697630916
 20
-819.206557564444
 30
0.0
  0
VERTEX
  5
456
330
435
100
AcDbEntity
  8
Layer 1
 62
     7
370
    35
100
AcDbVertex
100
AcDb2dVertex
 10
1063.335715619677
 20
-819.206557564444
 30
0.0
  0
VERTEX
  5
457
330
435
100
AcDbEntity
  8
Layer 1
 62
     7
370
    35
100
AcDbVertex
100
AcDb2dVertex
 10
1063.335715619677
 20
-969.2065317565447
 30
0.0
  0
VERTEX
  5
458
330
435
100
AcDbEntity
  8
Layer 1
 62
     7
370
    35
100
AcDbVertex
100
AcDb2dVertex
 10
1363.335750131266
 20
-969.2065317565447
 30
0.0
  0
VERTEX
  5
459
330
435
100
AcDbEntity
  8
Layer 1
 62
     7
370
    35
100
AcDbVertex
100
AcDb2dVertex
 10
1363.335750131266
 20
-819.206557564444
 30
0.0
  0
VERTEX
  5
45A
330
435
100
AcDbEntity
  8
Layer 1
 62
     7
370
    35
100
AcDbVertex
100
AcDb2dVertex
 10
1348.39368199264
 20
-819.206557564444
 30
0.0
  0
SEQEND
  5
45B
330
435
100
AcDbEntity
  8
Layer 1
 62
     7
370
    35
  0
POLYLINE
  5
45C
330
1F
100
AcDbEntity
  8
Layer 1
 62
     7
370
    35
100
AcDb2dPolyline
 66
     1
 10
0.0
 20
0.0
 30
0.0
  0
VERTEX
  5
45D
330
45C
100
AcDbEntity
  8
Layer 1
 62
     7
370
    35
100
AcDbVertex
100
AcDb2dVertex
 10
1409.269411427692
 20
-1000.653862279167
 30
0.0
  0
VERTEX
  5
45E
330
45C
100
AcDbEntity
  8
Layer 1
 62
     7
370
    35
100
AcDbVertex
100
AcDb2dVertex
 10
1409.269411427692
 20
-1076.258032995943
 30
0.0
  0
VERTEX
  5
45F
330
45C
100
AcDbEntity
  8
Layer 1
 62
     7
370
    35
100
AcDbVertex
100
AcDb2dVertex
 10
1399.769474499729
 20
-1076.258032995943
 30
0.0
  0
VERTEX
  5
460
330
45C
100
AcDbEntity
  8
Layer 1
 62
     7
370
    35
100
AcDbVertex
100
AcDb2dVertex
 10
1399.769474499729
 20
-1000.653862279167
 30
0.0
  0
VERTEX
  5
461
330
45C
100
AcDbEntity
  8
Layer 1
 62
     7
370
    35
100
AcDbVertex
100
AcDb2dVertex
 10
1298.915423825073
 20
-1000.653862279167
 30
0.0
  0
VERTEX
  5
462
330
45C
100
AcDbEntity
  8
Layer 1
 62
     7
370
    35
100
AcDbVertex
100
AcDb2dVertex
 10
1298.915423825073
 20
-1076.153991112289
 30
0.0
  0
VERTEX
  5
463
330
45C
100
AcDbEntity
  8
Layer 1
 62
     7
370
    35
100
AcDbVertex
100
AcDb2dVertex
 10
1289.415400769722
 20
-1076.153991112289
 30
0.0
  0
VERTEX
  5
464
330
45C
100
AcDbEntity
  8
Layer 1
 62
     7
370
    35
100
AcDbVertex
100
AcDb2dVertex
 10
1289.415400769722
 20
-1000.653862279167
 30
0.0
  0
VERTEX
  5
465
330
45C
100
AcDbEntity
  8
Layer 1
 62
     7
370
    35
100
AcDbVertex
100
AcDb2dVertex
 10
1274.342419002657
 20
-1000.653862279167
 30
0.0
  0
VERTEX
  5
466
330
45C
100
AcDbEntity
  8
Layer 1
 62
     7
370
    35
100
AcDbVertex
100
AcDb2dVertex
 10
1274.342419002657
 20
-1150.653836471268
 30
0.0
  0
VERTEX
  5
467
330
45C
100
AcDbEntity
  8
Layer 1
 62
     7
370
    35
100
AcDbVertex
100
AcDb2dVertex
 10
1424.342393194758
 20
-1150.653836471268
 30
0.0
  0
VERTEX
  5
468
330
45C
100
AcDbEntity
  8
Layer 1
 62
     7
370
    35
100
AcDbVertex
100
AcDb2dVertex
 10
1424.342393194758
 20
-1000.653862279167
 30
0.0
  0
VERTEX
  5
469
330
45C
100
AcDbEntity
  8
Layer 1
 62
     7
370
    35
100
AcDbVertex
100
AcDb2dVertex
 10
1409.269411427692
 20
-1000.653862279167
 30
0.0
  0
SEQEND
  5
46A
330
45C
100
AcDbEntity
  8
Layer 1
 62
     7
370
    35
  0
POLYLINE
  5
46B
330
1F
100
AcDbEntity
  8
Layer 1
 62
     7
370
    35
100
AcDb2dPolyline
 66
     1
 10
0.0
 20
0.0
 30
0.0
  0
VERTEX
  5
46C
330
46B
100
AcDbEntity
  8
Layer 1
 62
     7
370
    35
100
AcDbVertex
100
AcDb2dVertex
 10
1354.103764640519
 20
-533.5392826547859
 30
0.0
  0
VERTEX
  5
46D
330
46B
100
AcDbEntity
  8
Layer 1
 62
     7
370
    35
100
AcDbVertex
100
AcDb2dVertex
 10
1354.103764640519
 20
-609.0388085961974
 30
0.0
  0
VERTEX
  5
46E
330
46B
100
AcDbEntity
  8
Layer 1
 62
     7
370
    35
100
AcDbVertex
100
AcDb2dVertex
 10
1344.603741585168
 20
-609.0388085961974
 30
0.0
  0
VERTEX
  5
46F
330
46B
100
AcDbEntity
  8
Layer 1
 62
     7
370
    35
100
AcDbVertex
100
AcDb2dVertex
 10
1344.603741585168
 20
-533.5392826547859
 30
0.0
  0
VERTEX
  5
470
330
46B
100
AcDbEntity
  8
Layer 1
 62
     7
370
    35
100
AcDbVertex
100
AcDb2dVertex
 10
1093.487803334145
 20
-533.5392826547859
 30
0.0
  0
VERTEX
  5
471
330
46B
100
AcDbEntity
  8
Layer 1
 62
     7
370
    35
100
AcDbVertex
100
AcDb2dVertex
 10
1093.487803334145
 20
-609.0388085961974
 30
0.0
  0
VERTEX
  5
472
330
46B
100
AcDbEntity
  8
Layer 1
 62
     7
370
    35
100
AcDbVertex
100
AcDb2dVertex
 10
1083.987780278794
 20
-609.0388085961974
 30
0.0
  0
VERTEX
  5
473
330
46B
100
AcDbEntity
  8
Layer 1
 62
     7
370
    35
100
AcDbVertex
100
AcDb2dVertex
 10
1083.987780278794
 20
-533.5392826547859
 30
0.0
  0
VERTEX
  5
474
330
46B
100
AcDbEntity
  8
Layer 1
 62
     7
370
    35
100
AcDbVertex
100
AcDb2dVertex
 10
1069.045798267556
 20
-533.5392826547859
 30
0.0
  0
VERTEX
  5
475
330
46B
100
AcDbEntity
  8
Layer 1
 62
     7
370
    35
100
AcDbVertex
100
AcDb2dVertex
 10
1069.045798267556
 20
-683.5392568468866
 30
0.0
  0
VERTEX
  5
476
330
46B
100
AcDbEntity
  8
Layer 1
 62
     7
370
    35
100
AcDbVertex
100
AcDb2dVertex
 10
1369.045832779144
 20
-683.5392568468866
 30
0.0
  0
VERTEX
  5
477
330
46B
100
AcDbEntity
  8
Layer 1
 62
     7
370
    35
100
AcDbVertex
100
AcDb2dVertex
 10
1369.045832779144
 20
-533.5392826547859
 30
0.0
  0
VERTEX
  5
478
330
46B
100
AcDbEntity
  8
Layer 1
 62
     7
370
    35
100
AcDbVertex
100
AcDb2dVertex
 10
1354.103764640519
 20
-533.5392826547859
 30
0.0
  0
SEQEND
  5
479
330
46B
100
AcDbEntity
  8
Layer 1
 62
     7
370
    35
  0
POLYLINE
  5
47A
330
1F
100
AcDbEntity
  8
Layer 1
 62
     7
370
    35
100
AcDb2dPolyline
 66
     1
 10
0.0
 20
0.0
 30
0.0
  0
VERTEX
  5
47B
330
47A
100
AcDbEntity
  8
Layer 1
 62
     7
370
    35
100
AcDbVertex
100
AcDb2dVertex
 10
673.2042624168091
 20
-610.4803771771003
 30
0.0
  0
VERTEX
  5
47C
330
47A
100
AcDbEntity
  8
Layer 1
 62
     7
370
    35
100
AcDbVertex
100
AcDb2dVertex
 10
673.2042624168091
 20
-686.0845478938763
 30
0.0
  0
VERTEX
  5
47D
330
47A
100
AcDbEntity
  8
Layer 1
 62
     7
370
    35
100
AcDbVertex
100
AcDb2dVertex
 10
663.7043254888456
 20
-686.0845478938763
 30
0.0
  0
VERTEX
  5
47E
330
47A
100
AcDbEntity
  8
Layer 1
 62
     7
370
    35
100
AcDbVertex
100
AcDb2dVertex
 10
663.7043254888456
 20
-610.4803771771003
 30
0.0
  0
VERTEX
  5
47F
330
47A
100
AcDbEntity
  8
Layer 1
 62
     7
370
    35
100
AcDbVertex
100
AcDb2dVertex
 10
562.8502748141892
 20
-610.4803771771003
 30
0.0
  0
VERTEX
  5
480
330
47A
100
AcDbEntity
  8
Layer 1
 62
     7
370
    35
100
AcDbVertex
100
AcDb2dVertex
 10
562.8502748141892
 20
-685.9805060102218
 30
0.0
  0
VERTEX
  5
481
330
47A
100
AcDbEntity
  8
Layer 1
 62
     7
370
    35
100
AcDbVertex
100
AcDb2dVertex
 10
553.3502517588386
 20
-685.9805060102218
 30
0.0
  0
VERTEX
  5
482
330
47A
100
AcDbEntity
  8
Layer 1
 62
     7
370
    35
100
AcDbVertex
100
AcDb2dVertex
 10
553.3502517588386
 20
-610.4803771771003
 30
0.0
  0
VERTEX
  5
483
330
47A
100
AcDbEntity
  8
Layer 1
 62
     7
370
    35
100
AcDbVertex
100
AcDb2dVertex
 10
538.2772699917734
 20
-610.4803771771003
 30
0.0
  0
VERTEX
  5
484
330
47A
100
AcDbEntity
  8
Layer 1
 62
     7
370
    35
100
AcDbVertex
100
AcDb2dVertex
 10
538.2772699917734
 20
-760.480351369201
 30
0.0
  0
VERTEX
  5
485
330
47A
100
AcDbEntity
  8
Layer 1
 62
     7
370
    35
100
AcDbVertex
100
AcDb2dVertex
 10
688.2772441838741
 20
-760.480351369201
 30
0.0
  0
VERTEX
  5
486
330
47A
100
AcDbEntity
  8
Layer 1
 62
     7
370
    35
100
AcDbVertex
100
AcDb2dVertex
 10
688.2772441838741
 20
-610.4803771771003
 30
0.0
  0
VERTEX
  5
487
330
47A
100
AcDbEntity
  8
Layer 1
 62
     7
370
    35
100
AcDbVertex
100
AcDb2dVertex
 10
673.2042624168091
 20
-610.4803771771003
 30
0.0
  0
SEQEND
  5
488
330
47A
100
AcDbEntity
  8
Layer 1
 62
     7
370
    35
  0
POLYLINE
  5
489
330
1F
100
AcDbEntity
  8
Layer 1
 62
     7
370
    35
100
AcDb2dPolyline
 66
     1
 10
0.0
 20
0.0
 30
0.0
  0
VERTEX
  5
48A
330
489
100
AcDbEntity
  8
Layer 1
 62
     7
370
    35
100
AcDbVertex
100
AcDb2dVertex
 10
1409.269411158574
 20
-170.0390207289407
 30
0.0
  0
VERTEX
  5
48B
330
489
100
AcDbEntity
  8
Layer 1
 62
     7
370
    35
100
AcDbVertex
100
AcDb2dVertex
 10
1409.269411158574
 20
-245.6431914457168
 30
0.0
  0
VERTEX
  5
48C
330
489
100
AcDbEntity
  8
Layer 1
 62
     7
370
    35
100
AcDbVertex
100
AcDb2dVertex
 10
1399.769474230611
 20
-245.6431914457168
 30
0.0
  0
VERTEX
  5
48D
330
489
100
AcDbEntity
  8
Layer 1
 62
     7
370
    35
100
AcDbVertex
100
AcDb2dVertex
 10
1399.769474230611
 20
-170.0390207289407
 30
0.0
  0
VERTEX
  5
48E
330
489
100
AcDbEntity
  8
Layer 1
 62
     7
370
    35
100
AcDbVertex
100
AcDb2dVertex
 10
1298.915423555954
 20
-170.0390207289407
 30
0.0
  0
VERTEX
  5
48F
330
489
100
AcDbEntity
  8
Layer 1
 62
     7
370
    35
100
AcDbVertex
100
AcDb2dVertex
 10
1298.915423555954
 20
-245.5391495620622
 30
0.0
  0
VERTEX
  5
490
330
489
100
AcDbEntity
  8
Layer 1
 62
     7
370
    35
100
AcDbVertex
100
AcDb2dVertex
 10
1289.415400500603
 20
-245.5391495620622
 30
0.0
  0
VERTEX
  5
491
330
489
100
AcDbEntity
  8
Layer 1
 62
     7
370
    35
100
AcDbVertex
100
AcDb2dVertex
 10
1289.415400500603
 20
-170.0390207289407
 30
0.0
  0
VERTEX
  5
492
330
489
100
AcDbEntity
  8
Layer 1
 62
     7
370
    35
100
AcDbVertex
100
AcDb2dVertex
 10
1274.342418733539
 20
-170.0390207289407
 30
0.0
  0
VERTEX
  5
493
330
489
100
AcDbEntity
  8
Layer 1
 62
     7
370
    35
100
AcDbVertex
100
AcDb2dVertex
 10
1274.342418733539
 20
-320.0389949210414
 30
0.0
  0
VERTEX
  5
494
330
489
100
AcDbEntity
  8
Layer 1
 62
     7
370
    35
100
AcDbVertex
100
AcDb2dVertex
 10
1424.342392925639
 20
-320.0389949210414
 30
0.0
  0
VERTEX
  5
495
330
489
100
AcDbEntity
  8
Layer 1
 62
     7
370
    35
100
AcDbVertex
100
AcDb2dVertex
 10
1424.342392925639
 20
-170.0390207289407
 30
0.0
  0
VERTEX
  5
496
330
489
100
AcDbEntity
  8
Layer 1
 62
     7
370
    35
100
AcDbVertex
100
AcDb2dVertex
 10
1409.269411158574
 20
-170.0390207289407
 30
0.0
  0
SEQEND
  5
497
330
489
100
AcDbEntity
  8
Layer 1
 62
     7
370
    35
  0
POLYLINE
  5
498
330
1F
100
AcDbEntity
  8
Layer 1
 62
     7
370
    35
100
AcDb2dPolyline
 66
     1
 10
0.0
 20
0.0
 30
0.0
  0
VERTEX
  5
499
330
498
100
AcDbEntity
  8
Layer 1
 62
     7
370
    35
100
AcDbVertex
100
AcDb2dVertex
 10
1354.10377002348
 20
-354.6837518706
 30
0.0
  0
VERTEX
  5
49A
330
498
100
AcDbEntity
  8
Layer 1
 62
     7
370
    35
100
AcDbVertex
100
AcDb2dVertex
 10
1354.10377002348
 20
-430.1832778120116
 30
0.0
  0
VERTEX
  5
49B
330
498
100
AcDbEntity
  8
Layer 1
 62
     7
370
    35
100
AcDbVertex
100
AcDb2dVertex
 10
1344.60374696813
 20
-430.1832778120116
 30
0.0
  0
VERTEX
  5
49C
330
498
100
AcDbEntity
  8
Layer 1
 62
     7
370
    35
100
AcDbVertex
100
AcDb2dVertex
 10
1344.60374696813
 20
-354.6837518706
 30
0.0
  0
VERTEX
  5
49D
330
498
100
AcDbEntity
  8
Layer 1
 62
     7
370
    35
100
AcDbVertex
100
AcDb2dVertex
 10
1093.487808717107
 20
-354.6837518706
 30
0.0
  0
VERTEX
  5
49E
330
498
100
AcDbEntity
  8
Layer 1
 62
     7
370
    35
100
AcDbVertex
100
AcDb2dVertex
 10
1093.487808717107
 20
-430.1832778120116
 30
0.0
  0
VERTEX
  5
49F
330
498
100
AcDbEntity
  8
Layer 1
 62
     7
370
    35
100
AcDbVertex
100
AcDb2dVertex
 10
1083.987785661756
 20
-430.1832778120116
 30
0.0
  0
VERTEX
  5
4A0
330
498
100
AcDbEntity
  8
Layer 1
 62
     7
370
    35
100
AcDbVertex
100
AcDb2dVertex
 10
1083.987785661756
 20
-354.6837518706
 30
0.0
  0
VERTEX
  5
4A1
330
498
100
AcDbEntity
  8
Layer 1
 62
     7
370
    35
100
AcDbVertex
100
AcDb2dVertex
 10
1069.045803650517
 20
-354.6837518706
 30
0.0
  0
VERTEX
  5
4A2
330
498
100
AcDbEntity
  8
Layer 1
 62
     7
370
    35
100
AcDbVertex
100
AcDb2dVertex
 10
1069.045803650517
 20
-504.6837260627007
 30
0.0
  0
VERTEX
  5
4A3
330
498
100
AcDbEntity
  8
Layer 1
 62
     7
370
    35
100
AcDbVertex
100
AcDb2dVertex
 10
1369.045838162106
 20
-504.6837260627007
 30
0.0
  0
VERTEX
  5
4A4
330
498
100
AcDbEntity
  8
Layer 1
 62
     7
370
    35
100
AcDbVertex
100
AcDb2dVertex
 10
1369.045838162106
 20
-354.6837518706
 30
0.0
  0
VERTEX
  5
4A5
330
498
100
AcDbEntity
  8
Layer 1
 62
     7
370
    35
100
AcDbVertex
100
AcDb2dVertex
 10
1354.10377002348
 20
-354.6837518706
 30
0.0
  0
SEQEND
  5
4A6
330
498
100
AcDbEntity
  8
Layer 1
 62
     7
370
    35
  0
ENDSEC
  0
SECTION
  2
OBJECTS
  0
DICTIONARY
  5
C
330
0
100
AcDbDictionary
281
     1
  3
ACAD_GROUP
350
D
  3
ACAD_LAYOUT
350
1A
  3
ACAD_MATERIAL
350
3B
  3
ACAD_MLEADERSTYLE
350
4A8
  3
ACAD_MLINESTYLE
350
17
  3
ACAD_PLOTSETTINGS
350
19
  3
ACAD_PLOTSTYLENAME
350
E
  3
ACAD_TABLESTYLE
350
4A7
  3
ACAD_VISUALSTYLE
350
2A
  0
SUN
  5
3F
330
29
100
AcDbSun
 90
        1
290
     0
 63
     7
421
 16777215
 40
1.0
291
     1
 91
  2455826
 92
 54000000
292
     0
 70
     2
 71
   256
280
     1
  0
DICTIONARY
  5
D
102
{ACAD_REACTORS
330
C
102
}
330
C
100
AcDbDictionary
281
     1
  0
DICTIONARY
  5
1A
102
{ACAD_REACTORS
330
C
102
}
330
C
100
AcDbDictionary
281
     1
  3
Layout1
350
1E
  3
Layout2
350
26
  3
Model
350
22
  0
DICTIONARY
  5
3B
102
{ACAD_REACTORS
330
C
102
}
330
C
100
AcDbDictionary
281
     1
  3
ByBlock
350
3D
  3
ByLayer
350
3C
  3
Global
350
3E
  0
DICTIONARY
  5
4A8
102
{ACAD_REACTORS
330
C
102
}
330
C
100
AcDbDictionary
281
     1
  0
DICTIONARY
  5
17
102
{ACAD_REACTORS
330
C
102
}
330
C
100
AcDbDictionary
281
     1
  3
Standard
350
18
  0
DICTIONARY
  5
19
102
{ACAD_REACTORS
330
C
102
}
330
C
100
AcDbDictionary
281
     1
  0
ACDBDICTIONARYWDFLT
  5
E
102
{ACAD_REACTORS
330
C
102
}
330
C
100
AcDbDictionary
281
     1
  3
Normal
350
F
100
AcDbDictionaryWithDefault
340
F
  0
DICTIONARY
  5
4A7
102
{ACAD_REACTORS
330
C
102
}
330
C
100
AcDbDictionary
281
     1
  0
DICTIONARY
  5
2A
102
{ACAD_REACTORS
330
C
102
}
330
C
100
AcDbDictionary
281
     1
  3
2dWireframe
350
2F
  3
3D Hidden
350
31
  3
3dWireframe
350
30
  3
Basic
350
32
  3
Brighten
350
36
  3
ColorChange
350
3A
  3
Conceptual
350
34
  3
Dim
350
35
  3
Facepattern
350
39
  3
Flat
350
2B
  3
FlatWithEdges
350
2C
  3
Gouraud
350
2D
  3
GouraudWithEdges
350
2E
  3
Linepattern
350
38
  3
Realistic
350
33
  3
Thicken
350
37
  0
LAYOUT
  5
1E
102
{ACAD_REACTORS
330
1A
102
}
330
1A
100
AcDbPlotSettings
  1

  2
none_device
  4

  6

 40
0.0
 41
0.0
 42
0.0
 43
0.0
 44
0.0
 45
0.0
 46
0.0
 47
0.0
 48
0.0
 49
0.0
140
0.0
141
0.0
142
1.0
143
1.0
 70
   688
 72
     0
 73
     0
 74
     5
  7

 75
    16
 76
     0
 77
     2
 78
   300
147
1.0
148
0.0
149
0.0
100
AcDbLayout
  1
Layout1
 70
     1
 71
     1
 10
0.0
 20
0.0
 11
12.0
 21
9.0
 12
0.0
 22
0.0
 32
0.0
 14
1.000000000000000E+20
 24
1.000000000000000E+20
 34
1.000000000000000E+20
 15
-1.000000000000000E+20
 25
-1.000000000000000E+20
 35
-1.000000000000000E+20
146
0.0
 13
0.0
 23
0.0
 33
0.0
 16
1.0
 26
0.0
 36
0.0
 17
0.0
 27
1.0
 37
0.0
 76
     0
330
1B
  0
LAYOUT
  5
26
102
{ACAD_REACTORS
330
1A
102
}
330
1A
100
AcDbPlotSettings
  1

  2
none_device
  4

  6

 40
0.0
 41
0.0
 42
0.0
 43
0.0
 44
0.0
 45
0.0
 46
0.0
 47
0.0
 48
0.0
 49
0.0
140
0.0
141
0.0
142
1.0
143
1.0
 70
   688
 72
     0
 73
     0
 74
     5
  7

 75
    16
 76
     0
 77
     2
 78
   300
147
1.0
148
0.0
149
0.0
100
AcDbLayout
  1
Layout2
 70
     1
 71
     2
 10
0.0
 20
0.0
 11
0.0
 21
0.0
 12
0.0
 22
0.0
 32
0.0
 14
0.0
 24
0.0
 34
0.0
 15
0.0
 25
0.0
 35
0.0
146
0.0
 13
0.0
 23
0.0
 33
0.0
 16
1.0
 26
0.0
 36
0.0
 17
0.0
 27
1.0
 37
0.0
 76
     0
330
23
  0
LAYOUT
  5
22
102
{ACAD_REACTORS
330
1A
102
}
330
1A
100
AcDbPlotSettings
  1

  2
none_device
  4

  6

 40
0.0
 41
0.0
 42
0.0
 43
0.0
 44
0.0
 45
0.0
 46
0.0
 47
0.0
 48
0.0
 49
0.0
140
0.0
141
0.0
142
1.0
143
1.0
 70
  1712
 72
     0
 73
     0
 74
     0
  7

 75
     0
 76
     0
 77
     2
 78
   300
147
1.0
148
0.0
149
0.0
100
AcDbLayout
  1
Model
 70
     1
 71
     0
 10
0.0
 20
0.0
 11
12.0
 21
9.0
 12
0.0
 22
0.0
 32
0.0
 14
1.000000000000000E+20
 24
1.000000000000000E+20
 34
1.000000000000000E+20
 15
-1.000000000000000E+20
 25
-1.000000000000000E+20
 35
-1.000000000000000E+20
146
0.0
 13
0.0
 23
0.0
 33
0.0
 16
1.0
 26
0.0
 36
0.0
 17
0.0
 27
1.0
 37
0.0
 76
     0
330
1F
331
29
  0
MATERIAL
  5
3D
102
{ACAD_REACTORS
330
3B
102
}
330
3B
100
AcDbMaterial
  1
ByBlock
 72
     1
 94
      127
  0
MATERIAL
  5
3C
102
{ACAD_REACTORS
330
3B
102
}
330
3B
100
AcDbMaterial
  1
ByLayer
 72
     1
 94
      127
  0
MATERIAL
  5
3E
102
{ACAD_REACTORS
330
3B
102
}
330
3B
100
AcDbMaterial
  1
Global
 72
     1
 94
      127
  0
MLINESTYLE
  5
18
102
{ACAD_REACTORS
330
17
102
}
330
17
100
AcDbMlineStyle
  2
Standard
 70
     0
  3

 62
   256
 51
90.0
 52
90.0
 71
     2
 49
0.5
 62
   256
  6
BYLAYER
 49
-0.5
 62
   256
  6
BYLAYER
  0
ACDBPLACEHOLDER
  5
F
102
{ACAD_REACTORS
330
E
102
}
330
E
  0
VISUALSTYLE
  5
2F
102
{ACAD_REACTORS
330
2A
102
}
330
2A
100
AcDbVisualStyle
  2
2dWireframe
 70
     4
177
     2
291
     0
 71
     0
176
     1
 72
     2
176
     1
 73
     0
176
     1
 90
        0
176
     1
 40
-0.6
176
     1
 41
-30.0
176
     1
 62
     5
 63
     7
421
 16777215
176
     1
 74
     1
176
     1
 91
        4
176
     1
 64
     7
176
     1
 65
   257
176
     1
 75
     1
176
     1
175
     1
176
     1
 42
1.0
176
     1
 92
        0
176
     1
 66
   257
176
     1
 43
1.0
176
     1
 76
     1
176
     1
 77
     6
176
     1
 78
     2
176
     1
 67
     7
176
     1
 79
     5
176
     1
170
     0
176
     1
171
     0
176
     1
290
     0
176
     1
 93
        1
176
     1
 44
0.0
176
     1
173
     0
176
     1
  0
VISUALSTYLE
  5
31
102
{ACAD_REACTORS
330
2A
102
}
330
2A
100
AcDbVisualStyle
  2
3D Hidden
 70
     6
177
     2
291
     0
 71
     1
176
     1
 72
     2
176
     1
 73
     2
176
     1
 90
        0
176
     1
 40
-0.6
176
     1
 41
-30.0
176
     1
 62
     5
 63
     7
421
 16777215
176
     1
 74
     2
176
     1
 91
        2
176
     1
 64
     7
176
     1
 65
   257
176
     1
 75
     2
176
     1
175
     1
176
     1
 42
40.0
176
     1
 92
        0
176
     1
 66
   257
176
     1
 43
1.0
176
     1
 76
     1
176
     1
 77
     6
176
     1
 78
     2
176
     1
 67
     7
176
     1
 79
     3
176
     1
170
     0
176
     1
171
     0
176
     1
290
     0
176
     1
 93
        1
176
     1
 44
0.0
176
     1
173
     0
176
     1
  0
VISUALSTYLE
  5
30
102
{ACAD_REACTORS
330
2A
102
}
330
2A
100
AcDbVisualStyle
  2
3dWireframe
 70
     5
177
     2
291
     0
 71
     0
176
     1
 72
     2
176
     1
 73
     0
176
     1
 90
        0
176
     1
 40
-0.6
176
     1
 41
-30.0
176
     1
 62
     5
 63
     7
421
 16777215
176
     1
 74
     1
176
     1
 91
        4
176
     1
 64
     7
176
     1
 65
   257
176
     1
 75
     1
176
     1
175
     1
176
     1
 42
1.0
176
     1
 92
        0
176
     1
 66
   257
176
     1
 43
1.0
176
     1
 76
     1
176
     1
 77
     6
176
     1
 78
     2
176
     1
 67
     7
176
     1
 79
     5
176
     1
170
     0
176
     1
171
     0
176
     1
290
     0
176
     1
 93
        1
176
     1
 44
0.0
176
     1
173
     0
176
     1
  0
VISUALSTYLE
  5
32
102
{ACAD_REACTORS
330
2A
102
}
330
2A
100
AcDbVisualStyle
  2
Basic
 70
     7
177
     2
291
     1
 71
     1
176
     1
 72
     0
176
     1
 73
     1
176
     1
 90
        0
176
     1
 40
-0.6
176
     1
 41
-30.0
176
     1
 62
     5
 63
     7
421
 16777215
176
     1
 74
     0
176
     1
 91
        4
176
     1
 64
     7
176
     1
 65
   257
176
     1
 75
     1
176
     1
175
     1
176
     1
 42
1.0
176
     1
 92
        8
176
     1
 66
     7
176
     1
 43
1.0
176
     1
 76
     1
176
     1
 77
     6
176
     1
 78
     2
176
     1
 67
     7
176
     1
 79
     5
176
     1
170
     0
176
     1
171
     0
176
     1
290
     0
176
     1
 93
        1
176
     1
 44
0.0
176
     1
173
     0
176
     1
  0
VISUALSTYLE
  5
36
102
{ACAD_REACTORS
330
2A
102
}
330
2A
100
AcDbVisualStyle
  2
Brighten
 70
    12
177
     2
291
     1
 71
     2
176
     1
 72
     2
176
     1
 73
     0
176
     1
 90
        0
176
     1
 40
-0.6
176
     1
 41
-30.0
176
     1
 62
     5
 63
     7
421
 16777215
176
     1
 74
     1
176
     1
 91
        4
176
     1
 64
     7
176
     1
 65
   257
176
     1
 75
     1
176
     1
175
     1
176
     1
 42
1.0
176
     1
 92
        8
176
     1
 66
     7
176
     1
 43
1.0
176
     1
 76
     1
176
     1
 77
     6
176
     1
 78
     2
176
     1
 67
     7
176
     1
 79
     5
176
     1
170
     0
176
     1
171
     0
176
     1
290
     0
176
     1
 93
        1
176
     1
 44
50.0
176
     1
173
     0
176
     1
  0
VISUALSTYLE
  5
3A
102
{ACAD_REACTORS
330
2A
102
}
330
2A
100
AcDbVisualStyle
  2
ColorChange
 70
    16
177
     2
291
     1
 71
     2
176
     1
 72
     2
176
     1
 73
     3
176
     1
 90
        0
176
     1
 40
-0.6
176
     1
 41
-30.0
176
     1
 62
     5
 63
     8
421
  8421504
176
     1
 74
     1
176
     1
 91
        4
176
     1
 64
     7
176
     1
 65
   257
176
     1
 75
     1
176
     1
175
     1
176
     1
 42
1.0
176
     1
 92
        8
176
     1
 66
     8
424
  8421504
176
     1
 43
1.0
176
     1
 76
     1
176
     1
 77
     6
176
     1
 78
     2
176
     1
 67
     7
176
     1
 79
     5
176
     1
170
     0
176
     1
171
     0
176
     1
290
     0
176
     1
 93
        1
176
     1
 44
0.0
176
     1
173
     0
176
     1
  0
VISUALSTYLE
  5
34
102
{ACAD_REACTORS
330
2A
102
}
330
2A
100
AcDbVisualStyle
  2
Conceptual
 70
     9
177
     2
291
     0
 71
     3
176
     1
 72
     2
176
     1
 73
     0
176
     1
 90
        0
176
     1
 40
-0.6
176
     1
 41
-30.0
176
     1
 62
     5
 63
     7
421
 16777215
176
     1
 74
     2
176
     1
 91
        2
176
     1
 64
     7
176
     1
 65
   257
176
     1
 75
     1
176
     1
175
     1
176
     1
 42
40.0
176
     1
 92
        8
176
     1
 66
     7
176
     1
 43
1.0
176
     1
 76
     1
176
     1
 77
     6
176
     1
 78
     2
176
     1
 67
     7
176
     1
 79
     3
176
     1
170
     0
176
     1
171
     0
176
     1
290
     0
176
     1
 93
        1
176
     1
 44
0.0
176
     1
173
     0
176
     1
  0
VISUALSTYLE
  5
35
102
{ACAD_REACTORS
330
2A
102
}
330
2A
100
AcDbVisualStyle
  2
Dim
 70
    11
177
     2
291
     1
 71
     2
176
     1
 72
     2
176
     1
 73
     0
176
     1
 90
        0
176
     1
 40
-0.6
176
     1
 41
-30.0
176
     1
 62
     5
 63
     7
421
 16777215
176
     1
 74
     1
176
     1
 91
        4
176
     1
 64
     7
176
     1
 65
   257
176
     1
 75
     1
176
     1
175
     1
176
     1
 42
1.0
176
     1
 92
        8
176
     1
 66
     7
176
     1
 43
1.0
176
     1
 76
     1
176
     1
 77
     6
176
     1
 78
     2
176
     1
 67
     7
176
     1
 79
     5
176
     1
170
     0
176
     1
171
     0
176
     1
290
     0
176
     1
 93
        1
176
     1
 44
-50.0
176
     1
173
     0
176
     1
  0
VISUALSTYLE
  5
39
102
{ACAD_REACTORS
330
2A
102
}
330
2A
100
AcDbVisualStyle
  2
Facepattern
 70
    15
177
     2
291
     1
 71
     2
176
     1
 72
     2
176
     1
 73
     0
176
     1
 90
        0
176
     1
 40
-0.6
176
     1
 41
-30.0
176
     1
 62
     5
 63
     7
421
 16777215
176
     1
 74
     1
176
     1
 91
        4
176
     1
 64
     7
176
     1
 65
   257
176
     1
 75
     1
176
     1
175
     1
176
     1
 42
1.0
176
     1
 92
        8
176
     1
 66
     7
176
     1
 43
1.0
176
     1
 76
     1
176
     1
 77
     6
176
     1
 78
     2
176
     1
 67
     7
176
     1
 79
     5
176
     1
170
     0
176
     1
171
     0
176
     1
290
     0
176
     1
 93
        1
176
     1
 44
0.0
176
     1
173
     0
176
     1
  0
VISUALSTYLE
  5
2B
102
{ACAD_REACTORS
330
2A
102
}
330
2A
100
AcDbVisualStyle
  2
Flat
 70
     0
177
     2
291
     1
 71
     2
176
     1
 72
     1
176
     1
 73
     1
176
     1
 90
        2
176
     1
 40
-0.6
176
     1
 41
30.0
176
     1
 62
     5
 63
     7
421
 16777215
176
     1
 74
     0
176
     1
 91
        4
176
     1
 64
     7
176
     1
 65
   257
176
     1
 75
     1
176
     1
175
     1
176
     1
 42
1.0
176
     1
 92
        8
176
     1
 66
     7
176
     1
 43
1.0
176
     1
 76
     1
176
     1
 77
     6
176
     1
 78
     2
176
     1
 67
     7
176
     1
 79
     5
176
     1
170
     0
176
     1
171
     0
176
     1
290
     0
176
     1
 93
       13
176
     1
 44
0.0
176
     1
173
     0
176
     1
  0
VISUALSTYLE
  5
2C
102
{ACAD_REACTORS
330
2A
102
}
330
2A
100
AcDbVisualStyle
  2
FlatWithEdges
 70
     1
177
     2
291
     1
 71
     2
176
     1
 72
     1
176
     1
 73
     1
176
     1
 90
        2
176
     1
 40
-0.6
176
     1
 41
30.0
176
     1
 62
     5
 63
     7
421
 16777215
176
     1
 74
     1
176
     1
 91
        4
176
     1
 64
     7
176
     1
 65
   257
176
     1
 75
     1
176
     1
175
     1
176
     1
 42
1.0
176
     1
 92
        0
176
     1
 66
   257
176
     1
 43
1.0
176
     1
 76
     1
176
     1
 77
     6
176
     1
 78
     2
176
     1
 67
     7
176
     1
 79
     5
176
     1
170
     0
176
     1
171
     0
176
     1
290
     0
176
     1
 93
       13
176
     1
 44
0.0
176
     1
173
     0
176
     1
  0
VISUALSTYLE
  5
2D
102
{ACAD_REACTORS
330
2A
102
}
330
2A
100
AcDbVisualStyle
  2
Gouraud
 70
     2
177
     2
291
     1
 71
     2
176
     1
 72
     2
176
     1
 73
     1
176
     1
 90
        2
176
     1
 40
-0.6
176
     1
 41
30.0
176
     1
 62
     5
 63
     7
421
 16777215
176
     1
 74
     0
176
     1
 91
        4
176
     1
 64
     7
176
     1
 65
   257
176
     1
 75
     1
176
     1
175
     1
176
     1
 42
1.0
176
     1
 92
        0
176
     1
 66
     7
176
     1
 43
1.0
176
     1
 76
     1
176
     1
 77
     6
176
     1
 78
     2
176
     1
 67
     7
176
     1
 79
     5
176
     1
170
     0
176
     1
171
     0
176
     1
290
     0
176
     1
 93
       13
176
     1
 44
0.0
176
     1
173
     0
176
     1
  0
VISUALSTYLE
  5
2E
102
{ACAD_REACTORS
330
2A
102
}
330
2A
100
AcDbVisualStyle
  2
GouraudWithEdges
 70
     3
177
     2
291
     1
 71
     2
176
     1
 72
     2
176
     1
 73
     1
176
     1
 90
        2
176
     1
 40
-0.6
176
     1
 41
30.0
176
     1
 62
     5
 63
     7
421
 16777215
176
     1
 74
     1
176
     1
 91
        4
176
     1
 64
     7
176
     1
 65
   257
176
     1
 75
     1
176
     1
175
     1
176
     1
 42
1.0
176
     1
 92
        0
176
     1
 66
   257
176
     1
 43
1.0
176
     1
 76
     1
176
     1
 77
     6
176
     1
 78
     2
176
     1
 67
     7
176
     1
 79
     5
176
     1
170
     0
176
     1
171
     0
176
     1
290
     0
176
     1
 93
       13
176
     1
 44
0.0
176
     1
173
     0
176
     1
  0
VISUALSTYLE
  5
38
102
{ACAD_REACTORS
330
2A
102
}
330
2A
100
AcDbVisualStyle
  2
Linepattern
 70
    14
177
     2
291
     1
 71
     2
176
     1
 72
     2
176
     1
 73
     0
176
     1
 90
        0
176
     1
 40
-0.6
176
     1
 41
-30.0
176
     1
 62
     5
 63
     7
421
 16777215
176
     1
 74
     1
176
     1
 91
        4
176
     1
 64
     7
176
     1
 65
   257
176
     1
 75
     7
176
     1
175
     7
176
     1
 42
1.0
176
     1
 92
        8
176
     1
 66
     7
176
     1
 43
1.0
176
     1
 76
     1
176
     1
 77
     6
176
     1
 78
     2
176
     1
 67
     7
176
     1
 79
     5
176
     1
170
     0
176
     1
171
     0
176
     1
290
     0
176
     1
 93
        1
176
     1
 44
0.0
176
     1
173
     0
176
     1
  0
VISUALSTYLE
  5
33
102
{ACAD_REACTORS
330
2A
102
}
330
2A
100
AcDbVisualStyle
  2
Realistic
 70
     8
177
     2
291
     0
 71
     2
176
     1
 72
     2
176
     1
 73
     0
176
     1
 90
        0
176
     1
 40
-0.6
176
     1
 41
-30.0
176
     1
 62
     5
 63
     7
421
 16777215
176
     1
 74
     1
176
     1
 91
        0
176
     1
 64
     7
176
     1
 65
   257
176
     1
 75
     1
176
     1
175
     1
176
     1
 42
1.0
176
     1
 92
        8
176
     1
 66
     8
424
  7895160
176
     1
 43
1.0
176
     1
 76
     1
176
     1
 77
     6
176
     1
 78
     2
176
     1
 67
     7
176
     1
 79
     5
176
     1
170
     0
176
     1
171
     0
176
     1
290
     0
176
     1
 93
       13
176
     1
 44
0.0
176
     1
173
     0
176
     1
  0
VISUALSTYLE
  5
37
102
{ACAD_REACTORS
330
2A
102
}
330
2A
100
AcDbVisualStyle
  2
Thicken
 70
    13
177
     2
291
     1
 71
     2
176
     1
 72
     2
176
     1
 73
     0
176
     1
 90
        0
176
     1
 40
-0.6
176
     1
 41
-30.0
176
     1
 62
     5
 63
     7
421
 16777215
176
     1
 74
     1
176
     1
 91
        4
176
     1
 64
     7
176
     1
 65
   257
176
     1
 75
     1
176
     1
175
     1
176
     1
 42
1.0
176
     1
 92
       12
176
     1
 66
     7
176
     1
 43
1.0
176
     1
 76
     1
176
     1
 77
     6
176
     1
 78
     2
176
     1
 67
     7
176
     1
 79
     5
176
     1
170
     0
176
     1
171
     0
176
     1
290
     0
176
     1
 93
        1
176
     1
 44
0.0
176
     1
173
     0
176
     1
  0
ENDSEC
  0
EOF
