  0
SECTION
  2
HEADER
  9
$ACADVER
  1
AC1009
  9
$DWGCODEPAGE
  3
ansi_1252
  9
$INSBASE
 10
0.0
 20
0.0
 30
0.0
  9
$EXTMIN
 10
0.3119999999999976
 20
-417.581253410142
 30
0.0
  9
$EXTMAX
 10
3017.064125234812
 20
729.106
 30
0.0
  9
$LIMMIN
 10
0.0
 20
0.0
  9
$LIMMAX
 10
12.0
 20
9.0
  9
$ORTHOMODE
 70
     0
  9
$REGENMODE
 70
     1
  9
$FILLMODE
 70
     1
  9
$QTEXTMODE
 70
     0
  9
$MIRRTEXT
 70
     1
  9
$DRAGMODE
 70
     2
  9
$LTSCALE
 40
1.0
  9
$OSMODE
 70
    37
  9
$ATTMODE
 70
     1
  9
$TEXTSIZE
 40
0.2
  9
$TRACEWID
 40
0.05
  9
$TEXTSTYLE
  7
STANDARD
  9
$CLAYER
  8
0
  9
$CELTYPE
  6
BYLAYER
  9
$CECOLOR
 62
   256
  9
$DIMSCALE
 40
1.0
  9
$DIMASZ
 40
0.18
  9
$DIMEXO
 40
0.0625
  9
$DIMDLI
 40
0.38
  9
$DIMRND
 40
0.0
  9
$DIMDLE
 40
0.0
  9
$DIMEXE
 40
0.18
  9
$DIMTP
 40
0.0
  9
$DIMTM
 40
0.0
  9
$DIMTXT
 40
0.18
  9
$DIMCEN
 40
0.09
  9
$DIMTSZ
 40
0.0
  9
$DIMTOL
 70
     0
  9
$DIMLIM
 70
     0
  9
$DIMTIH
 70
     1
  9
$DIMTOH
 70
     1
  9
$DIMSE1
 70
     0
  9
$DIMSE2
 70
     0
  9
$DIMTAD
 70
     0
  9
$DIMZIN
 70
     0
  9
$DIMBLK
  1

  9
$DIMASO
 70
     1
  9
$DIMSHO
 70
     1
  9
$DIMPOST
  1

  9
$DIMAPOST
  1

  9
$DIMALT
 70
     0
  9
$DIMALTD
 70
     2
  9
$DIMALTF
 40
25.4
  9
$DIMLFAC
 40
1.0
  9
$DIMTOFL
 70
     0
  9
$DIMTVP
 40
0.0
  9
$DIMTIX
 70
     0
  9
$DIMSOXD
 70
     0
  9
$DIMSAH
 70
     0
  9
$DIMBLK1
  1

  9
$DIMBLK2
  1

  9
$DIMSTYLE
  2
STANDARD
  9
$DIMCLRD
 70
     0
  9
$DIMCLRE
 70
     0
  9
$DIMCLRT
 70
     0
  9
$DIMTFAC
 40
1.0
  9
$DIMGAP
 40
0.09
  9
$LUNITS
 70
     2
  9
$LUPREC
 70
     4
  9
$SKETCHINC
 40
0.1
  9
$FILLETRAD
 40
0.5
  9
$AUNITS
 70
     0
  9
$AUPREC
 70
     0
  9
$MENU
  1
.
  9
$ELEVATION
 40
0.0
  9
$PELEVATION
 40
0.0
  9
$THICKNESS
 40
0.0
  9
$LIMCHECK
 70
     0
  9
$CHAMFERA
 40
0.0
  9
$CHAMFERB
 40
0.0
  9
$SKPOLY
 70
     0
  9
$TDCREATE
 40
2454910.5
  9
$TDUPDATE
 40
2457199.454306852
  9
$TDINDWG
 40
0.0000000116
  9
$TDUSRTIMER
 40
0.0000000116
  9
$USRTIMER
 70
     1
  9
$ANGBASE
 50
0.0
  9
$ANGDIR
 70
     0
  9
$PDMODE
 70
     0
  9
$PDSIZE
 40
0.0
  9
$PLINEWID
 40
0.0
  9
$COORDS
 70
     1
  9
$SPLFRAME
 70
     0
  9
$SPLINETYPE
 70
     6
  9
$SPLINESEGS
 70
     8
  9
$ATTDIA
 70
     0
  9
$ATTREQ
 70
     1
  9
$HANDLING
 70
     1
  9
$HANDSEED
  5
259
  9
$SURFTAB1
 70
     6
  9
$SURFTAB2
 70
     6
  9
$SURFTYPE
 70
     6
  9
$SURFU
 70
     6
  9
$SURFV
 70
     6
  9
$UCSNAME
  2

  9
$UCSORG
 10
0.0
 20
0.0
 30
0.0
  9
$UCSXDIR
 10
1.0
 20
0.0
 30
0.0
  9
$UCSYDIR
 10
0.0
 20
1.0
 30
0.0
  9
$PUCSNAME
  2

  9
$PUCSORG
 10
0.0
 20
0.0
 30
0.0
  9
$PUCSXDIR
 10
1.0
 20
0.0
 30
0.0
  9
$PUCSYDIR
 10
0.0
 20
1.0
 30
0.0
  9
$USERI1
 70
     0
  9
$USERI2
 70
     0
  9
$USERI3
 70
     0
  9
$USERI4
 70
     0
  9
$USERI5
 70
     0
  9
$USERR1
 40
0.0
  9
$USERR2
 40
0.0
  9
$USERR3
 40
0.0
  9
$USERR4
 40
0.0
  9
$USERR5
 40
0.0
  9
$WORLDVIEW
 70
     1
  9
$SHADEDGE
 70
     3
  9
$SHADEDIF
 70
    70
  9
$TILEMODE
 70
     1
  9
$MAXACTVP
 70
    64
  9
$PLIMCHECK
 70
     0
  9
$PEXTMIN
 10
1.000000000000000E+20
 20
1.000000000000000E+20
 30
1.000000000000000E+20
  9
$PEXTMAX
 10
-1.000000000000000E+20
 20
-1.000000000000000E+20
 30
-1.000000000000000E+20
  9
$PLIMMIN
 10
0.0
 20
0.0
  9
$PLIMMAX
 10
12.0
 20
9.0
  9
$UNITMODE
 70
     0
  9
$VISRETAIN
 70
     1
  9
$PLINEGEN
 70
     0
  9
$PSLTSCALE
 70
     1
  0
ENDSEC
  0
SECTION
  2
TABLES
  0
TABLE
  2
VPORT
 70
     1
  0
VPORT
  2
*ACTIVE
 70
     0
 10
0.0
 20
0.0
 11
1.0
 21
1.0
 12
10.42990654205607
 22
4.5
 13
0.0
 23
0.0
 14
0.5
 24
0.5
 15
0.5
 25
0.5
 16
0.0
 26
0.0
 36
1.0
 17
0.0
 27
0.0
 37
0.0
 40
9.0
 41
1.972972972850329
 42
50.0
 43
0.0
 44
0.0
 50
0.0
 51
0.0
 71
     0
 72
   100
 73
     1
 74
     3
 75
     0
 76
     0
 77
     0
 78
     0
  0
ENDTAB
  0
TABLE
  2
LTYPE
 70
     2
  0
LTYPE
  2
CONTINUOUS
 70
     0
  3
Solid line
 72
    65
 73
     0
 40
0.0
  0
LTYPE
  2
CONTINUOUS2
 70
     0
  3
Solid Line
 72
    65
 73
     0
 40
0.0
  0
ENDTAB
  0
TABLE
  2
LAYER
 70
     2
  0
LAYER
  2
0
 70
     0
 62
     7
  6
CONTINUOUS
  0
LAYER
  2
LAYER_1
 70
     0
 62
    18
  6
CONTINUOUS
  0
ENDTAB
  0
TABLE
  2
STYLE
 70
     1
  0
STYLE
  2
STANDARD
 70
     0
 40
0.0
 41
1.0
 50
0.0
 71
     0
 42
0.2
  3
txt
  4

  0
ENDTAB
  0
TABLE
  2
VIEW
 70
     0
  0
ENDTAB
  0
TABLE
  2
UCS
 70
     0
  0
ENDTAB
  0
TABLE
  2
APPID
 70
     1
  0
APPID
  2
ACAD
 70
     0
  0
ENDTAB
  0
TABLE
  2
DIMSTYLE
 70
     1
  0
DIMSTYLE
  2
STANDARD
 70
     0
  3

  4

  5

  6

  7

 40
1.0
 41
0.18
 42
0.0625
 43
0.38
 44
0.18
 45
0.0
 46
0.0
 47
0.0
 48
0.0
140
0.18
141
0.09
142
0.0
143
25.4
144
1.0
145
0.0
146
1.0
147
0.09
 71
     0
 72
     0
 73
     1
 74
     1
 75
     0
 76
     0
 77
     0
 78
     0
170
     0
171
     2
172
     0
173
     0
174
     0
175
     0
176
     0
177
     0
178
     0
  0
ENDTAB
  0
ENDSEC
  0
SECTION
  2
BLOCKS
  0
BLOCK
  8
0
  2
$MODEL_SPACE
 70
     0
 10
0.0
 20
0.0
 30
0.0
  3
$MODEL_SPACE
  1

  0
ENDBLK
  5
21
  8
0
  0
BLOCK
 67
     1
  8
0
  2
$PAPER_SPACE
 70
     0
 10
0.0
 20
0.0
 30
0.0
  3
$PAPER_SPACE
  1

  0
ENDBLK
  5
1D
 67
     1
  8
0
  0
ENDSEC
  0
SECTION
  2
ENTITIES
  0
POLYLINE
  5
6C
  8
LAYER_1
 66
     1
 10
0.0
 20
0.0
 30
0.0
 70
     1
  0
VERTEX
  5
AF
  8
LAYER_1
 10
2567.064125234812
 20
-224.4339852259523
 30
0.0
 42
0.4142135623730951
  0
VERTEX
  5
B0
  8
LAYER_1
 10
2572.064125234812
 20
-229.4339852259523
 30
0.0
  0
VERTEX
  5
B1
  8
LAYER_1
 10
3012.064125234812
 20
-229.4339852259523
 30
0.0
 42
0.4142135623730951
  0
VERTEX
  5
B2
  8
LAYER_1
 10
3017.064125234812
 20
-224.4339852259523
 30
0.0
  0
VERTEX
  5
B3
  8
LAYER_1
 10
3017.064125234812
 20
155.5660147740477
 30
0.0
 42
0.4142135623730951
  0
VERTEX
  5
B4
  8
LAYER_1
 10
3012.064125234812
 20
160.5660147740477
 30
0.0
  0
VERTEX
  5
B5
  8
LAYER_1
 10
2572.064125234812
 20
160.5660147740477
 30
0.0
 42
0.4142135623730951
  0
VERTEX
  5
B6
  8
LAYER_1
 10
2567.064125234812
 20
155.5660147740477
 30
0.0
  0
SEQEND
  5
21D
  8
LAYER_1
  0
POLYLINE
  5
6D
  8
LAYER_1
 66
     1
 10
0.0
 20
0.0
 30
0.0
 70
     1
  0
VERTEX
  5
B7
  8
LAYER_1
 10
628.7874136887614
 20
-122.581253410142
 30
0.0
  0
VERTEX
  5
B8
  8
LAYER_1
 10
645.7874136887614
 20
-122.581253410142
 30
0.0
  0
VERTEX
  5
B9
  8
LAYER_1
 10
645.7874136887614
 20
-22.58125341014204
 30
0.0
  0
VERTEX
  5
BA
  8
LAYER_1
 10
628.7874136887614
 20
-22.58125341014204
 30
0.0
  0
SEQEND
  5
21E
  8
LAYER_1
  0
POLYLINE
  5
6E
  8
LAYER_1
 66
     1
 10
0.0
 20
0.0
 30
0.0
 70
     1
  0
VERTEX
  5
BB
  8
LAYER_1
 10
628.7874136887614
 20
-412.581253410142
 30
0.0
  0
VERTEX
  5
BC
  8
LAYER_1
 10
645.7874136887614
 20
-412.581253410142
 30
0.0
  0
VERTEX
  5
BD
  8
LAYER_1
 10
645.7874136887614
 20
-312.581253410142
 30
0.0
  0
VERTEX
  5
BE
  8
LAYER_1
 10
628.7874136887614
 20
-312.581253410142
 30
0.0
  0
SEQEND
  5
21F
  8
LAYER_1
  0
POLYLINE
  5
6F
  8
LAYER_1
 66
     1
 10
0.0
 20
0.0
 30
0.0
 70
     1
  0
VERTEX
  5
BF
  8
LAYER_1
 10
1061.787413688761
 20
-412.581253410142
 30
0.0
  0
VERTEX
  5
C0
  8
LAYER_1
 10
1078.787413688761
 20
-412.581253410142
 30
0.0
  0
VERTEX
  5
C1
  8
LAYER_1
 10
1078.787413688761
 20
-312.581253410142
 30
0.0
  0
VERTEX
  5
C2
  8
LAYER_1
 10
1061.787413688761
 20
-312.581253410142
 30
0.0
  0
SEQEND
  5
220
  8
LAYER_1
  0
POLYLINE
  5
70
  8
LAYER_1
 66
     1
 10
0.0
 20
0.0
 30
0.0
 70
     1
  0
VERTEX
  5
C3
  8
LAYER_1
 10
1061.787413688761
 20
-122.581253410142
 30
0.0
  0
VERTEX
  5
C4
  8
LAYER_1
 10
1078.787413688761
 20
-122.581253410142
 30
0.0
  0
VERTEX
  5
C5
  8
LAYER_1
 10
1078.787413688761
 20
-22.58125341014204
 30
0.0
  0
VERTEX
  5
C6
  8
LAYER_1
 10
1061.787413688761
 20
-22.58125341014204
 30
0.0
  0
SEQEND
  5
221
  8
LAYER_1
  0
POLYLINE
  5
71
  8
LAYER_1
 66
     1
 10
0.0
 20
0.0
 30
0.0
 70
     1
  0
VERTEX
  5
C7
  8
LAYER_1
 10
603.7874136887614
 20
-412.581253410142
 30
0.0
 42
0.4142135623730951
  0
VERTEX
  5
C8
  8
LAYER_1
 10
608.7874136887614
 20
-417.581253410142
 30
0.0
  0
VERTEX
  5
C9
  8
LAYER_1
 10
1098.787413688761
 20
-417.581253410142
 30
0.0
 42
0.4142135623730951
  0
VERTEX
  5
CA
  8
LAYER_1
 10
1103.787413688761
 20
-412.581253410142
 30
0.0
  0
VERTEX
  5
CB
  8
LAYER_1
 10
1103.787413688761
 20
-22.58125341014204
 30
0.0
 42
0.4142135623730951
  0
VERTEX
  5
CC
  8
LAYER_1
 10
1098.787413688761
 20
-17.58125341014204
 30
0.0
  0
VERTEX
  5
CD
  8
LAYER_1
 10
608.7874136887614
 20
-17.58125341014204
 30
0.0
 42
0.4142135623730951
  0
VERTEX
  5
CE
  8
LAYER_1
 10
603.7874136887614
 20
-22.58125341014204
 30
0.0
  0
SEQEND
  5
222
  8
LAYER_1
  0
POLYLINE
  5
72
  8
LAYER_1
 66
     1
 10
0.0
 20
0.0
 30
0.0
 70
     1
  0
VERTEX
  5
CF
  8
LAYER_1
 10
628.7873842585798
 20
-412.5808294902923
 30
0.0
  0
VERTEX
  5
D0
  8
LAYER_1
 10
1078.78738425858
 20
-412.5808294902923
 30
0.0
  0
VERTEX
  5
D1
  8
LAYER_1
 10
1078.78738425858
 20
-22.58082949029222
 30
0.0
  0
VERTEX
  5
D2
  8
LAYER_1
 10
628.7873842585798
 20
-22.58082949029222
 30
0.0
  0
SEQEND
  5
223
  8
LAYER_1
  0
POLYLINE
  5
73
  8
LAYER_1
 66
     1
 10
0.0
 20
0.0
 30
0.0
 70
     1
  0
VERTEX
  5
D3
  8
LAYER_1
 10
645.7873842585798
 20
-412.5808294902923
 30
0.0
  0
VERTEX
  5
D4
  8
LAYER_1
 10
1061.78738425858
 20
-412.5808294902923
 30
0.0
  0
VERTEX
  5
D5
  8
LAYER_1
 10
1061.78738425858
 20
-22.58082949029222
 30
0.0
  0
VERTEX
  5
D6
  8
LAYER_1
 10
645.7873842585798
 20
-22.58082949029222
 30
0.0
  0
SEQEND
  5
224
  8
LAYER_1
  0
POLYLINE
  5
74
  8
LAYER_1
 66
     1
 10
0.0
 20
0.0
 30
0.0
 70
     1
  0
VERTEX
  5
D7
  8
LAYER_1
 10
866.7374753706329
 20
259.481746831524
 30
0.0
  0
VERTEX
  5
D8
  8
LAYER_1
 10
866.7374753706329
 20
159.481746831524
 30
0.0
  0
VERTEX
  5
D9
  8
LAYER_1
 10
886.7374753706329
 20
159.481746831524
 30
0.0
  0
SEQEND
  5
225
  8
LAYER_1
  0
POLYLINE
  5
75
  8
LAYER_1
 66
     1
 10
0.0
 20
0.0
 30
0.0
 70
     1
  0
VERTEX
  5
DA
  8
LAYER_1
 10
983.6448014808816
 20
680.6427852869886
 30
0.0
  0
VERTEX
  5
DB
  8
LAYER_1
 10
888.0078559084145
 20
651.4267855339604
 30
0.0
  0
VERTEX
  5
DC
  8
LAYER_1
 10
893.8510558590201
 20
632.2993964194668
 30
0.0
  0
SEQEND
  5
226
  8
LAYER_1
  0
POLYLINE
  5
76
  8
LAYER_1
 66
     1
 10
0.0
 20
0.0
 30
0.0
 70
     1
  0
VERTEX
  5
DD
  8
LAYER_1
 10
988.4234912977597
 20
706.7684168474534
 30
0.0
  0
VERTEX
  5
DE
  8
LAYER_1
 10
888.9893403091752
 20
696.14534680253
 30
0.0
  0
VERTEX
  5
DF
  8
LAYER_1
 10
891.1139543181598
 20
676.258516604813
 30
0.0
  0
SEQEND
  5
227
  8
LAYER_1
  0
POLYLINE
  5
77
  8
LAYER_1
 66
     1
 10
0.0
 20
0.0
 30
0.0
 70
     1
  0
VERTEX
  5
E0
  8
LAYER_1
 10
728.8674634164194
 20
377.6091525171096
 30
0.0
  0
VERTEX
  5
E1
  8
LAYER_1
 10
827.7628835714054
 20
392.4312938053577
 30
0.0
  0
VERTEX
  5
E2
  8
LAYER_1
 10
824.7984553137557
 20
412.2103778363548
 30
0.0
  0
SEQEND
  5
228
  8
LAYER_1
  0
POLYLINE
  5
78
  8
LAYER_1
 66
     1
 10
0.0
 20
0.0
 30
0.0
 70
     1
  0
VERTEX
  5
E3
  8
LAYER_1
 10
611.0275540402691
 20
350.7659925061716
 30
0.0
  0
VERTEX
  5
E4
  8
LAYER_1
 10
709.042606061405
 20
370.5914704901709
 30
0.0
  0
VERTEX
  5
E5
  8
LAYER_1
 10
705.0775104646051
 20
390.194480894398
 30
0.0
  0
SEQEND
  5
229
  8
LAYER_1
  0
POLYLINE
  5
79
  8
LAYER_1
 66
     1
 10
0.0
 20
0.0
 30
0.0
 70
     1
  0
VERTEX
  5
E6
  8
LAYER_1
 10
851.0913889282887
 20
615.4124999999999
 30
0.0
  0
VERTEX
  5
E7
  8
LAYER_1
 10
851.0913889282887
 20
715.4124999999999
 30
0.0
  0
VERTEX
  5
E8
  8
LAYER_1
 10
831.0913889282887
 20
715.4124999999999
 30
0.0
  0
SEQEND
  5
22A
  8
LAYER_1
  0
POLYLINE
  5
7A
  8
LAYER_1
 66
     1
 10
0.0
 20
0.0
 30
0.0
 70
     1
  0
VERTEX
  5
E9
  8
LAYER_1
 10
813.8429471820523
 20
705.1074962159644
 30
0.0
  0
VERTEX
  5
EA
  8
LAYER_1
 10
715.6002694945997
 20
686.442655450523
 30
0.0
  0
VERTEX
  5
EB
  8
LAYER_1
 10
719.3332376476881
 20
666.7941199130324
 30
0.0
  0
SEQEND
  5
22B
  8
LAYER_1
  0
POLYLINE
  5
7B
  8
LAYER_1
 66
     1
 10
0.0
 20
0.0
 30
0.0
 70
     1
  0
VERTEX
  5
EC
  8
LAYER_1
 10
579.8852961570896
 20
344.1303253115183
 30
0.0
  0
VERTEX
  5
ED
  8
LAYER_1
 10
480.3895598914585
 20
334.1004467000899
 30
0.0
  0
VERTEX
  5
EE
  8
LAYER_1
 10
482.3955356137442
 20
314.2012994469637
 30
0.0
  0
SEQEND
  5
22C
  8
LAYER_1
  0
POLYLINE
  5
7C
  8
LAYER_1
 66
     1
 10
0.0
 20
0.0
 30
0.0
 70
     1
  0
VERTEX
  5
EF
  8
LAYER_1
 10
469.9872771367267
 20
11.28451053444687
 30
0.0
  0
VERTEX
  5
F0
  8
LAYER_1
 10
469.9872771367267
 20
76.04512357878977
 30
0.0
 42
0.4142135623829215
  0
VERTEX
  5
F1
  8
LAYER_1
 10
466.8122771367267
 20
79.22012357878972
 30
0.0
  0
VERTEX
  5
F2
  8
LAYER_1
 10
453.8601545278581
 20
79.22012357878972
 30
0.0
 42
0.4732848177135263
  0
VERTEX
  5
F3
  8
LAYER_1
 10
450.7468108825394
 20
75.42245484972588
 30
0.0
  0
VERTEX
  5
F4
  8
LAYER_1
 10
463.698933491408
 20
10.66184180538309
 30
0.0
 42
0.905870960074466
  0
SEQEND
  5
22D
  8
LAYER_1
  0
POLYLINE
  5
7D
  8
LAYER_1
 66
     1
 10
0.0
 20
0.0
 30
0.0
 70
     1
  0
VERTEX
  5
F5
  8
LAYER_1
 10
1006.557282811696
 20
675.1606985308017
 30
0.0
  0
VERTEX
  5
F6
  8
LAYER_1
 10
1071.3090113503
 20
674.0880135154716
 30
0.0
 42
0.4142135623829215
  0
VERTEX
  5
F7
  8
LAYER_1
 10
1074.536165992746
 20
677.2099877167959
 30
0.0
  0
VERTEX
  5
F8
  8
LAYER_1
 10
1074.750702995812
 20
690.1603334245167
 30
0.0
 42
0.4732848177135263
  0
VERTEX
  5
F9
  8
LAYER_1
 10
1071.005124222772
 20
693.3361539617172
 30
0.0
  0
VERTEX
  5
FA
  8
LAYER_1
 10
1006.038858681103
 20
681.4584932693267
 30
0.0
 42
0.905870960074466
  0
SEQEND
  5
22E
  8
LAYER_1
  0
POLYLINE
  5
7E
  8
LAYER_1
 66
     1
 10
0.0
 20
0.0
 30
0.0
 70
     1
  0
VERTEX
  5
FB
  8
LAYER_1
 10
623.7001872675925
 20
679.5245382155769
 30
0.0
  0
VERTEX
  5
FC
  8
LAYER_1
 10
688.4519158061961
 20
678.4518532002465
 30
0.0
 42
0.4142135623829215
  0
VERTEX
  5
FD
  8
LAYER_1
 10
691.6790704486425
 20
681.573827401571
 30
0.0
  0
VERTEX
  5
FE
  8
LAYER_1
 10
691.8936074517085
 20
694.5241731092917
 30
0.0
 42
0.4732848177135263
  0
VERTEX
  5
FF
  8
LAYER_1
 10
688.1480286786681
 20
697.6999936464922
 30
0.0
  0
VERTEX
  5
100
  8
LAYER_1
 10
623.1817631369987
 20
685.8223329541017
 30
0.0
 42
0.905870960074466
  0
SEQEND
  5
22F
  8
LAYER_1
  0
POLYLINE
  5
7F
  8
LAYER_1
 66
     1
 10
0.0
 20
0.0
 30
0.0
 70
     1
  0
VERTEX
  5
101
  8
LAYER_1
 10
59.24027181803731
 20
198.9395842694298
 30
0.0
  0
VERTEX
  5
102
  8
LAYER_1
 10
123.9978747673877
 20
199.5639736779027
 30
0.0
 42
0.4142135623829215
  0
VERTEX
  5
103
  8
LAYER_1
 10
127.1421154318925
 20
202.7694378632702
 30
0.0
  0
VERTEX
  5
104
  8
LAYER_1
 10
127.017237550198
 20
215.7209584531403
 30
0.0
 42
0.4732848177135263
  0
VERTEX
  5
105
  8
LAYER_1
 10
123.1897280373212
 20
218.7975421686263
 30
0.0
  0
VERTEX
  5
106
  8
LAYER_1
 10
58.5570029696656
 20
205.2216321702833
 30
0.0
 42
0.905870960074466
  0
SEQEND
  5
230
  8
LAYER_1
  0
POLYLINE
  5
80
  8
LAYER_1
 66
     1
 10
0.0
 20
0.0
 30
0.0
 70
     1
  0
VERTEX
  5
107
  8
LAYER_1
 10
408.3329487145169
 20
76.37339400702302
 30
0.0
  0
VERTEX
  5
108
  8
LAYER_1
 10
362.540280077064
 20
30.58072536957019
 30
0.0
 42
0.4142135623829215
  0
VERTEX
  5
109
  8
LAYER_1
 10
362.540280077064
 20
26.09059730903567
 30
0.0
  0
VERTEX
  5
10A
  8
LAYER_1
 10
371.6988138045546
 20
16.93206358154504
 30
0.0
 42
0.4732848177135263
  0
VERTEX
  5
10B
  8
LAYER_1
 10
376.5856375193446
 20
17.41595448879735
 30
0.0
  0
VERTEX
  5
10C
  8
LAYER_1
 10
413.2197724293068
 20
72.36715685374071
 30
0.0
 42
0.905870960074466
  0
SEQEND
  5
231
  8
LAYER_1
  0
POLYLINE
  5
81
  8
LAYER_1
 66
     1
 10
0.0
 20
0.0
 30
0.0
 70
     1
  0
VERTEX
  5
10D
  8
LAYER_1
 10
483.6704692452764
 20
507.1707960913628
 30
0.0
  0
VERTEX
  5
10E
  8
LAYER_1
 10
418.9187407066729
 20
508.243481106693
 30
0.0
 42
0.4142135623829215
  0
VERTEX
  5
10F
  8
LAYER_1
 10
415.6915860642264
 20
505.1215069053686
 30
0.0
  0
VERTEX
  5
110
  8
LAYER_1
 10
415.4770490611603
 20
492.1711611976478
 30
0.0
 42
0.4732848177135263
  0
VERTEX
  5
111
  8
LAYER_1
 10
419.2226278342008
 20
488.9953406604473
 30
0.0
  0
VERTEX
  5
112
  8
LAYER_1
 10
484.1888933758703
 20
500.8730013528378
 30
0.0
 42
0.905870960074466
  0
SEQEND
  5
232
  8
LAYER_1
  0
POLYLINE
  5
82
  8
LAYER_1
 66
     1
 10
0.0
 20
0.0
 30
0.0
 70
     1
  0
VERTEX
  5
113
  8
LAYER_1
 10
482.3966326058835
 20
533.6028881875624
 30
0.0
  0
VERTEX
  5
114
  8
LAYER_1
 10
417.6449040672798
 20
534.6755732028926
 30
0.0
 42
0.4142135623829215
  0
VERTEX
  5
115
  8
LAYER_1
 10
414.4177494248333
 20
531.5535990015682
 30
0.0
  0
VERTEX
  5
116
  8
LAYER_1
 10
414.2032124217673
 20
518.6032532938475
 30
0.0
 42
0.4732848177135263
  0
VERTEX
  5
117
  8
LAYER_1
 10
417.9487911948078
 20
515.4274327566469
 30
0.0
  0
VERTEX
  5
118
  8
LAYER_1
 10
482.9150567364771
 20
527.3050934490374
 30
0.0
 42
0.905870960074466
  0
SEQEND
  5
233
  8
LAYER_1
  0
POLYLINE
  5
83
  8
LAYER_1
 66
     1
 10
0.0
 20
0.0
 30
0.0
 70
     1
  0
VERTEX
  5
119
  8
LAYER_1
 10
697.029641813041
 20
713.610544763046
 30
0.0
  0
VERTEX
  5
11A
  8
LAYER_1
 10
632.2779132744375
 20
714.6832297783764
 30
0.0
 42
0.4142135623829215
  0
VERTEX
  5
11B
  8
LAYER_1
 10
629.050758631991
 20
711.561255577052
 30
0.0
  0
VERTEX
  5
11C
  8
LAYER_1
 10
628.8362216289249
 20
698.6109098693313
 30
0.0
 42
0.4732848177135263
  0
VERTEX
  5
11D
  8
LAYER_1
 10
632.5818004019654
 20
695.4350893321308
 30
0.0
  0
VERTEX
  5
11E
  8
LAYER_1
 10
697.5480659436348
 20
707.3127500245213
 30
0.0
 42
0.905870960074466
  0
SEQEND
  5
234
  8
LAYER_1
  0
POLYLINE
  5
84
  8
LAYER_1
 66
     1
 10
0.0
 20
0.0
 30
0.0
 70
     1
  0
VERTEX
  5
11F
  8
LAYER_1
 10
18.17646148703437
 20
438.0408106901006
 30
0.0
  0
VERTEX
  5
120
  8
LAYER_1
 10
363.655583846885
 20
438.0408106901006
 30
0.0
  0
VERTEX
  5
121
  8
LAYER_1
 10
363.655583846885
 20
712.3918784464526
 30
0.0
  0
VERTEX
  5
122
  8
LAYER_1
 10
18.17646148703437
 20
712.3918784464526
 30
0.0
  0
SEQEND
  5
235
  8
LAYER_1
  0
POLYLINE
  5
85
  8
LAYER_1
 66
     1
 10
0.0
 20
0.0
 30
0.0
 70
     1
  0
VERTEX
  5
123
  8
LAYER_1
 10
941.8250562667529
 20
11.27248306910874
 30
0.0
  0
VERTEX
  5
124
  8
LAYER_1
 10
1295.433099152718
 20
11.27248306910874
 30
0.0
  0
VERTEX
  5
125
  8
LAYER_1
 10
1295.433099152718
 20
308.9941973380388
 30
0.0
  0
VERTEX
  5
126
  8
LAYER_1
 10
941.8250562667529
 20
308.9941973380388
 30
0.0
  0
SEQEND
  5
236
  8
LAYER_1
  0
POLYLINE
  5
86
  8
LAYER_1
 66
     1
 10
0.0
 20
0.0
 30
0.0
 70
     1
  0
VERTEX
  5
127
  8
LAYER_1
 10
1310.129241782408
 20
520.5844950760419
 30
0.0
  0
VERTEX
  5
128
  8
LAYER_1
 10
2017.599356320779
 20
520.5844950760419
 30
0.0
  0
VERTEX
  5
129
  8
LAYER_1
 10
2017.599356320779
 20
725.0776520611005
 30
0.0
  0
VERTEX
  5
12A
  8
LAYER_1
 10
1310.129241782408
 20
725.0776520611005
 30
0.0
  0
SEQEND
  5
237
  8
LAYER_1
  0
POLYLINE
  5
87
  8
LAYER_1
 66
     1
 10
0.0
 20
0.0
 30
0.0
 70
     1
  0
VERTEX
  5
12B
  8
LAYER_1
 10
563.867
 20
718.73
 30
0.0
 42
0.4142135623730951
  0
VERTEX
  5
12C
  8
LAYER_1
 10
553.867
 20
708.73
 30
0.0
 42
0.4142135623730951
  0
VERTEX
  5
12D
  8
LAYER_1
 10
563.867
 20
698.73
 30
0.0
 42
0.4142135623730951
  0
VERTEX
  5
12E
  8
LAYER_1
 10
573.867
 20
708.73
 30
0.0
 42
0.4142135623730951
  0
SEQEND
  5
238
  8
LAYER_1
  0
POLYLINE
  5
88
  8
LAYER_1
 66
     1
 10
0.0
 20
0.0
 30
0.0
 70
     1
  0
VERTEX
  5
12F
  8
LAYER_1
 10
138.724
 20
418.773
 30
0.0
 42
0.4142135623730951
  0
VERTEX
  5
130
  8
LAYER_1
 10
128.724
 20
408.773
 30
0.0
 42
0.4142135623730951
  0
VERTEX
  5
131
  8
LAYER_1
 10
138.724
 20
398.773
 30
0.0
 42
0.4142135623730951
  0
VERTEX
  5
132
  8
LAYER_1
 10
148.724
 20
408.773
 30
0.0
 42
0.4142135623730951
  0
SEQEND
  5
239
  8
LAYER_1
  0
POLYLINE
  5
89
  8
LAYER_1
 66
     1
 10
0.0
 20
0.0
 30
0.0
 70
     1
  0
VERTEX
  5
133
  8
LAYER_1
 10
211.884
 20
31.023
 30
0.0
 42
0.4142135623730951
  0
VERTEX
  5
134
  8
LAYER_1
 10
201.884
 20
21.023
 30
0.0
 42
0.4142135623730951
  0
VERTEX
  5
135
  8
LAYER_1
 10
211.884
 20
11.023
 30
0.0
 42
0.4142135623730951
  0
VERTEX
  5
136
  8
LAYER_1
 10
221.884
 20
21.023
 30
0.0
 42
0.4142135623730951
  0
SEQEND
  5
23A
  8
LAYER_1
  0
POLYLINE
  5
8A
  8
LAYER_1
 66
     1
 10
0.0
 20
0.0
 30
0.0
 70
     1
  0
VERTEX
  5
137
  8
LAYER_1
 10
1108.504
 20
349.677
 30
0.0
 42
0.4142135623730951
  0
VERTEX
  5
138
  8
LAYER_1
 10
1098.504
 20
339.677
 30
0.0
 42
0.4142135623730951
  0
VERTEX
  5
139
  8
LAYER_1
 10
1108.504
 20
329.677
 30
0.0
 42
0.4142135623730951
  0
VERTEX
  5
13A
  8
LAYER_1
 10
1118.504
 20
339.677
 30
0.0
 42
0.4142135623730951
  0
SEQEND
  5
23B
  8
LAYER_1
  0
POLYLINE
  5
8B
  8
LAYER_1
 66
     1
 10
0.0
 20
0.0
 30
0.0
 70
     1
  0
VERTEX
  5
13B
  8
LAYER_1
 10
718.316
 20
219.614
 30
0.0
 42
0.4142135623730951
  0
VERTEX
  5
13C
  8
LAYER_1
 10
708.316
 20
209.614
 30
0.0
 42
0.4142135623730951
  0
VERTEX
  5
13D
  8
LAYER_1
 10
718.316
 20
199.614
 30
0.0
 42
0.4142135623730951
  0
VERTEX
  5
13E
  8
LAYER_1
 10
728.316
 20
209.614
 30
0.0
 42
0.4142135623730951
  0
SEQEND
  5
23C
  8
LAYER_1
  0
POLYLINE
  5
8C
  8
LAYER_1
 66
     1
 10
0.0
 20
0.0
 30
0.0
 70
     1
  0
VERTEX
  5
13F
  8
LAYER_1
 10
1276.773
 20
588.667
 30
0.0
 42
0.4142135623730951
  0
VERTEX
  5
140
  8
LAYER_1
 10
1266.773
 20
578.667
 30
0.0
 42
0.4142135623730951
  0
VERTEX
  5
141
  8
LAYER_1
 10
1276.773
 20
568.667
 30
0.0
 42
0.4142135623730951
  0
VERTEX
  5
142
  8
LAYER_1
 10
1286.773
 20
578.667
 30
0.0
 42
0.4142135623730951
  0
SEQEND
  5
23D
  8
LAYER_1
  0
POLYLINE
  5
8D
  8
LAYER_1
 66
     1
 10
0.0
 20
0.0
 30
0.0
 70
     1
  0
VERTEX
  5
143
  8
LAYER_1
 10
2043.33
 20
718.73
 30
0.0
 42
0.4142135623730951
  0
VERTEX
  5
144
  8
LAYER_1
 10
2033.33
 20
708.73
 30
0.0
 42
0.4142135623730951
  0
VERTEX
  5
145
  8
LAYER_1
 10
2043.33
 20
698.73
 30
0.0
 42
0.4142135623730951
  0
VERTEX
  5
146
  8
LAYER_1
 10
2053.33
 20
708.73
 30
0.0
 42
0.4142135623730951
  0
SEQEND
  5
23E
  8
LAYER_1
  0
POLYLINE
  5
8E
  8
LAYER_1
 66
     1
 10
0.0
 20
0.0
 30
0.0
 70
     1
  0
VERTEX
  5
147
  8
LAYER_1
 10
2055.201
 20
40.21
 30
0.0
 42
0.4142135623730951
  0
VERTEX
  5
148
  8
LAYER_1
 10
2045.201
 20
30.21
 30
0.0
 42
0.4142135623730951
  0
VERTEX
  5
149
  8
LAYER_1
 10
2055.201
 20
20.21
 30
0.0
 42
0.4142135623730951
  0
VERTEX
  5
14A
  8
LAYER_1
 10
2065.201
 20
30.21
 30
0.0
 42
0.4142135623730951
  0
SEQEND
  5
23F
  8
LAYER_1
  0
POLYLINE
  5
8F
  8
LAYER_1
 66
     1
 10
0.0
 20
0.0
 30
0.0
 70
     1
  0
VERTEX
  5
14B
  8
LAYER_1
 10
2053.898
 20
362.683
 30
0.0
 42
0.4142135623730951
  0
VERTEX
  5
14C
  8
LAYER_1
 10
2043.898
 20
352.683
 30
0.0
 42
0.4142135623730951
  0
VERTEX
  5
14D
  8
LAYER_1
 10
2053.898
 20
342.683
 30
0.0
 42
0.4142135623730951
  0
VERTEX
  5
14E
  8
LAYER_1
 10
2063.898
 20
352.683
 30
0.0
 42
0.4142135623730951
  0
SEQEND
  5
240
  8
LAYER_1
  0
POLYLINE
  5
90
  8
LAYER_1
 66
     1
 10
0.0
 20
0.0
 30
0.0
 70
     1
  0
VERTEX
  5
14F
  8
LAYER_1
 10
720.425
 20
32.928
 30
0.0
 42
0.4142135623730951
  0
VERTEX
  5
150
  8
LAYER_1
 10
710.425
 20
22.928
 30
0.0
 42
0.4142135623730951
  0
VERTEX
  5
151
  8
LAYER_1
 10
720.425
 20
12.928
 30
0.0
 42
0.4142135623730951
  0
VERTEX
  5
152
  8
LAYER_1
 10
730.425
 20
22.928
 30
0.0
 42
0.4142135623730951
  0
SEQEND
  5
241
  8
LAYER_1
  0
POLYLINE
  5
91
  8
LAYER_1
 66
     1
 10
0.0
 20
0.0
 30
0.0
 70
     1
  0
VERTEX
  5
153
  8
LAYER_1
 10
10.312
 20
729.106
 30
0.0
 42
0.4142135623730951
  0
VERTEX
  5
154
  8
LAYER_1
 10
0.3119999999999994
 20
719.106
 30
0.0
 42
0.4142135623730951
  0
VERTEX
  5
155
  8
LAYER_1
 10
10.312
 20
709.106
 30
0.0
 42
0.4142135623730951
  0
VERTEX
  5
156
  8
LAYER_1
 10
20.312
 20
719.106
 30
0.0
 42
0.4142135623730951
  0
SEQEND
  5
242
  8
LAYER_1
  0
POLYLINE
  5
92
  8
LAYER_1
 66
     1
 10
0.0
 20
0.0
 30
0.0
 70
     1
  0
VERTEX
  5
157
  8
LAYER_1
 10
11.06
 20
142.647
 30
0.0
 42
0.4142135623730951
  0
VERTEX
  5
158
  8
LAYER_1
 10
1.06
 20
132.647
 30
0.0
 42
0.4142135623730951
  0
VERTEX
  5
159
  8
LAYER_1
 10
11.06
 20
122.647
 30
0.0
 42
0.4142135623730951
  0
VERTEX
  5
15A
  8
LAYER_1
 10
21.06
 20
132.647
 30
0.0
 42
0.4142135623730951
  0
SEQEND
  5
243
  8
LAYER_1
  0
POLYLINE
  5
93
  8
LAYER_1
 66
     1
 10
0.0
 20
0.0
 30
0.0
 70
     1
  0
VERTEX
  5
15B
  8
LAYER_1
 10
25.66272735358951
 20
409.0400753798534
 30
0.0
  0
VERTEX
  5
15C
  8
LAYER_1
 10
474.8548475069446
 20
294.162467252769
 30
0.0
 42
0.1257498034456233
  0
VERTEX
  5
15D
  8
LAYER_1
 10
476.4270093659595
 20
294.1621688122905
 30
0.0
  0
VERTEX
  5
15E
  8
LAYER_1
 10
925.662711137972
 20
408.8692301044139
 30
0.0
  0
VERTEX
  5
15F
  8
LAYER_1
 10
925.6441526931944
 20
311.1047472642819
 30
0.0
 42
-0.3167322796620463
  0
VERTEX
  5
160
  8
LAYER_1
 10
923.5389304830546
 20
308.1160021126915
 30
0.0
  0
VERTEX
  5
161
  8
LAYER_1
 10
654.7038494800017
 20
211.9098068852689
 30
0.0
 42
0.7040993380835698
  0
VERTEX
  5
162
  8
LAYER_1
 10
654.7027146327698
 20
205.9315175369035
 30
0.0
  0
VERTEX
  5
163
  8
LAYER_1
 10
923.5012509863127
 20
109.6232643482614
 30
0.0
 42
-0.3167322796586069
  0
VERTEX
  5
164
  8
LAYER_1
 10
925.6053383492206
 20
106.6337201514863
 30
0.0
  0
VERTEX
  5
165
  8
LAYER_1
 10
925.5867799044427
 20
8.869237311354198
 30
0.0
  0
VERTEX
  5
166
  8
LAYER_1
 10
476.3946597510866
 20
123.7468454384386
 30
0.0
 42
0.1257498034435985
  0
VERTEX
  5
167
  8
LAYER_1
 10
474.8224978920716
 20
123.747143878917
 30
0.0
  0
VERTEX
  5
168
  8
LAYER_1
 10
25.58679612006086
 20
9.040082586793744
 30
0.0
  0
VERTEX
  5
169
  8
LAYER_1
 10
25.58774526047887
 20
14.04008249670738
 30
0.0
 42
1.0
  0
VERTEX
  5
16A
  8
LAYER_1
 10
19.23774537488908
 20
14.04128790503961
 30
0.0
  0
VERTEX
  5
16B
  8
LAYER_1
 10
8.587745566773496
 20
14.04330957413214
 30
0.0
  0
VERTEX
  5
16C
  8
LAYER_1
 10
8.60672837515563
 20
114.0433077723971
 30
0.0
  0
VERTEX
  5
16D
  8
LAYER_1
 10
25.60672806886146
 20
114.0400806949721
 30
0.0
 42
1.0
  0
VERTEX
  5
16E
  8
LAYER_1
 10
25.60793347719369
 20
120.3900805805619
 30
0.0
  0
VERTEX
  5
16F
  8
LAYER_1
 10
25.61574490284307
 20
161.5400798391481
 30
0.0
  0
VERTEX
  5
170
  8
LAYER_1
 10
286.4907414065332
 20
205.8605118067576
 30
0.0
 42
0.8442748602611548
  0
VERTEX
  5
171
  8
LAYER_1
 10
286.4919297483451
 20
212.1206065544146
 30
0.0
  0
VERTEX
  5
172
  8
LAYER_1
 10
25.63377857080593
 20
256.5400781274997
 30
0.0
  0
VERTEX
  5
173
  8
LAYER_1
 10
25.64158999645486
 20
297.6900773860854
 30
0.0
 42
1.0
  0
VERTEX
  5
174
  8
LAYER_1
 10
25.64279540478708
 20
304.0400772716752
 30
0.0
  0
VERTEX
  5
175
  8
LAYER_1
 10
8.642795711082616
 20
304.0433043491004
 30
0.0
  0
VERTEX
  5
176
  8
LAYER_1
 10
8.66177851946475
 20
404.0433025473652
 30
0.0
  0
VERTEX
  5
177
  8
LAYER_1
 10
19.31177832757942
 20
404.0412808782725
 30
0.0
 42
1.0
  0
VERTEX
  5
178
  8
LAYER_1
 10
25.66177821316922
 20
404.0400754699402
 30
0.0
  0
SEQEND
  5
244
  8
LAYER_1
  0
POLYLINE
  5
94
  8
LAYER_1
 66
     1
 10
0.0
 20
0.0
 30
0.0
 70
     1
  0
VERTEX
  5
179
  8
LAYER_1
 10
415.3068461415173
 20
217.4661065317561
 30
0.0
  0
VERTEX
  5
17A
  8
LAYER_1
 10
328.0068477144328
 20
217.4826785234736
 30
0.0
 42
1.0
  0
VERTEX
  5
17B
  8
LAYER_1
 10
321.656847828843
 20
217.4838839318059
 30
0.0
  0
VERTEX
  5
17C
  8
LAYER_1
 10
321.653620751418
 20
200.4838842381013
 30
0.0
 42
1.0
  0
VERTEX
  5
17D
  8
LAYER_1
 10
328.0036206370078
 20
200.482678829769
 30
0.0
  0
VERTEX
  5
17E
  8
LAYER_1
 10
415.3036190640923
 20
200.4661068380511
 30
0.0
 42
1.0
  0
VERTEX
  5
17F
  8
LAYER_1
 10
421.6536189496821
 20
200.4649014297187
 30
0.0
  0
VERTEX
  5
180
  8
LAYER_1
 10
421.6568460271071
 20
217.4649011234238
 30
0.0
 42
1.0
  0
SEQEND
  5
245
  8
LAYER_1
  0
POLYLINE
  5
95
  8
LAYER_1
 66
     1
 10
0.0
 20
0.0
 30
0.0
 70
     1
  0
VERTEX
  5
181
  8
LAYER_1
 10
615.3068425380472
 20
217.4281409149917
 30
0.0
  0
VERTEX
  5
182
  8
LAYER_1
 10
528.0068441109615
 20
217.4447129067092
 30
0.0
 42
1.0
  0
VERTEX
  5
183
  8
LAYER_1
 10
521.6568442253717
 20
217.4459183150414
 30
0.0
  0
VERTEX
  5
184
  8
LAYER_1
 10
521.6536171479468
 20
200.4459186213365
 30
0.0
 42
1.0
  0
VERTEX
  5
185
  8
LAYER_1
 10
528.0036170335366
 20
200.4447132130041
 30
0.0
  0
VERTEX
  5
186
  8
LAYER_1
 10
615.3036154606216
 20
200.4281412212864
 30
0.0
 42
1.0
  0
VERTEX
  5
187
  8
LAYER_1
 10
621.6536153462114
 20
200.4269358129541
 30
0.0
  0
VERTEX
  5
188
  8
LAYER_1
 10
621.656842423637
 20
217.4269355066595
 30
0.0
 42
1.0
  0
SEQEND
  5
246
  8
LAYER_1
  0
POLYLINE
  5
96
  8
LAYER_1
 66
     1
 10
0.0
 20
0.0
 30
0.0
 70
     1
  0
VERTEX
  5
189
  8
LAYER_1
 10
1295.543112847276
 20
421.7932632953147
 30
0.0
  0
VERTEX
  5
18A
  8
LAYER_1
 10
1026.706669568413
 20
517.9956517439663
 30
0.0
 42
-0.7040993380611416
  0
VERTEX
  5
18B
  8
LAYER_1
 10
1026.705450067172
 20
523.9739410756627
 30
0.0
  0
VERTEX
  5
18C
  8
LAYER_1
 10
1295.502622645839
 20
620.2860005062942
 30
0.0
 42
0.3167322796933466
  0
VERTEX
  5
18D
  8
LAYER_1
 10
1297.606667675874
 20
623.2755744971505
 30
0.0
  0
VERTEX
  5
18E
  8
LAYER_1
 10
1297.586724862608
 20
721.040057064689
 30
0.0
  0
VERTEX
  5
18F
  8
LAYER_1
 10
848.3962314487275
 20
606.1560882811312
 30
0.0
 42
-0.1257498033695343
  0
VERTEX
  5
190
  8
LAYER_1
 10
846.8240695940962
 20
606.1557675784643
 30
0.0
  0
VERTEX
  5
191
  8
LAYER_1
 10
397.5867435876655
 20
720.8564675739709
 30
0.0
  0
VERTEX
  5
192
  8
LAYER_1
 10
397.5877635292806
 20
715.8564676779987
 30
0.0
 42
-1.0
  0
VERTEX
  5
193
  8
LAYER_1
 10
391.2377636613962
 20
715.8551723521476
 30
0.0
  0
VERTEX
  5
194
  8
LAYER_1
 10
380.5877638829756
 20
715.8529998765076
 30
0.0
  0
VERTEX
  5
195
  8
LAYER_1
 10
380.608162715278
 20
615.8530019570691
 30
0.0
  0
VERTEX
  5
196
  8
LAYER_1
 10
397.6081623615825
 20
615.8564697585606
 30
0.0
 42
-1.0
  0
VERTEX
  5
197
  8
LAYER_1
 10
397.6094576874336
 20
609.5064698906763
 30
0.0
  0
VERTEX
  5
198
  8
LAYER_1
 10
397.6178518069257
 20
568.3564707468278
 30
0.0
  0
VERTEX
  5
199
  8
LAYER_1
 10
658.4934758723922
 20
524.039732836084
 30
0.0
 42
-0.8442748602577863
  0
VERTEX
  5
19A
  8
LAYER_1
 10
658.4947528586448
 20
517.7796381058818
 30
0.0
  0
VERTEX
  5
19B
  8
LAYER_1
 10
397.6372306976129
 20
473.3564727233612
 30
0.0
  0
VERTEX
  5
19C
  8
LAYER_1
 10
397.6456248171052
 20
432.2064735795125
 30
0.0
 42
-1.0
  0
VERTEX
  5
19D
  8
LAYER_1
 10
397.6469201429565
 20
425.8564737116282
 30
0.0
  0
VERTEX
  5
19E
  8
LAYER_1
 10
380.6469204966519
 20
425.8530059101368
 30
0.0
  0
VERTEX
  5
19F
  8
LAYER_1
 10
380.6673193289541
 20
325.8530079906986
 30
0.0
  0
VERTEX
  5
1A0
  8
LAYER_1
 10
391.3173191073737
 20
325.8551804663387
 30
0.0
 42
-1.0
  0
VERTEX
  5
1A1
  8
LAYER_1
 10
397.6673189752582
 20
325.8564757921899
 30
0.0
  0
VERTEX
  5
1A2
  8
LAYER_1
 10
397.668338916874
 20
320.856475896218
 30
0.0
  0
VERTEX
  5
1A3
  8
LAYER_1
 10
846.8588323307548
 20
435.7404446797757
 30
0.0
 42
-0.125749803415127
  0
VERTEX
  5
1A4
  8
LAYER_1
 10
848.4309941853861
 20
435.7407653824426
 30
0.0
  0
VERTEX
  5
1A5
  8
LAYER_1
 10
1297.668320191817
 20
321.0400653869362
 30
0.0
  0
VERTEX
  5
1A6
  8
LAYER_1
 10
1297.648377378552
 20
418.8045479544747
 30
0.0
 42
0.3167322797451863
  0
SEQEND
  5
247
  8
LAYER_1
  0
POLYLINE
  5
97
  8
LAYER_1
 66
     1
 10
0.0
 20
0.0
 30
0.0
 70
     1
  0
VERTEX
  5
1A7
  8
LAYER_1
 10
693.6597468809092
 20
512.4168586726892
 30
0.0
  0
VERTEX
  5
1A8
  8
LAYER_1
 10
693.6562790794177
 20
529.4168583189936
 30
0.0
 42
-1.0
  0
VERTEX
  5
1A9
  8
LAYER_1
 10
700.0062789473019
 20
529.4181536448448
 30
0.0
  0
VERTEX
  5
1AA
  8
LAYER_1
 10
787.3062771309711
 20
529.4359618254446
 30
0.0
 42
-1.0
  0
VERTEX
  5
1AB
  8
LAYER_1
 10
793.6562769988556
 20
529.4372571512957
 30
0.0
  0
VERTEX
  5
1AC
  8
LAYER_1
 10
793.6597448003473
 20
512.4372575049912
 30
0.0
 42
-1.0
  0
VERTEX
  5
1AD
  8
LAYER_1
 10
787.3097449324629
 20
512.43596217914
 30
0.0
  0
VERTEX
  5
1AE
  8
LAYER_1
 10
700.0097467487936
 20
512.4181539985403
 30
0.0
 42
-1.0
  0
SEQEND
  5
248
  8
LAYER_1
  0
POLYLINE
  5
98
  8
LAYER_1
 66
     1
 10
0.0
 20
0.0
 30
0.0
 70
     1
  0
VERTEX
  5
1AF
  8
LAYER_1
 10
900.0062747861786
 20
529.4589513094488
 30
0.0
  0
VERTEX
  5
1B0
  8
LAYER_1
 10
987.3062729698478
 20
529.4767594900484
 30
0.0
 42
-1.0
  0
VERTEX
  5
1B1
  8
LAYER_1
 10
993.6562728377322
 20
529.4780548158996
 30
0.0
  0
VERTEX
  5
1B2
  8
LAYER_1
 10
993.659740639224
 20
512.4780551695952
 30
0.0
 42
-1.0
  0
VERTEX
  5
1B3
  8
LAYER_1
 10
987.3097407713395
 20
512.476759843744
 30
0.0
  0
VERTEX
  5
1B4
  8
LAYER_1
 10
900.0097425876698
 20
512.4589516631443
 30
0.0
 42
-1.0
  0
VERTEX
  5
1B5
  8
LAYER_1
 10
893.6597427197854
 20
512.4576563372931
 30
0.0
  0
VERTEX
  5
1B6
  8
LAYER_1
 10
893.6562749182941
 20
529.4576559835976
 30
0.0
 42
-1.0
  0
SEQEND
  5
249
  8
LAYER_1
  0
POLYLINE
  5
99
  8
LAYER_1
 66
     1
 10
0.0
 20
0.0
 30
0.0
 70
     1
  0
VERTEX
  5
1B7
  8
LAYER_1
 10
1605.9375
 20
467.4125000000001
 30
0.0
  0
VERTEX
  5
1B8
  8
LAYER_1
 10
1693.2375
 20
467.4125000000001
 30
0.0
 42
1.0
  0
VERTEX
  5
1B9
  8
LAYER_1
 10
1699.5875
 20
467.4125000000001
 30
0.0
  0
VERTEX
  5
1BA
  8
LAYER_1
 10
1699.5875
 20
484.4125000000001
 30
0.0
 42
1.0
  0
VERTEX
  5
1BB
  8
LAYER_1
 10
1693.2375
 20
484.4125000000001
 30
0.0
  0
VERTEX
  5
1BC
  8
LAYER_1
 10
1605.9375
 20
484.4125000000001
 30
0.0
 42
1.0
  0
VERTEX
  5
1BD
  8
LAYER_1
 10
1599.5875
 20
484.4125000000001
 30
0.0
  0
VERTEX
  5
1BE
  8
LAYER_1
 10
1599.5875
 20
467.4125000000001
 30
0.0
 42
1.0
  0
SEQEND
  5
24A
  8
LAYER_1
  0
POLYLINE
  5
9A
  8
LAYER_1
 66
     1
 10
0.0
 20
0.0
 30
0.0
 70
     1
  0
VERTEX
  5
1BF
  8
LAYER_1
 10
1403.2375
 20
51.41250000000008
 30
0.0
  0
VERTEX
  5
1C0
  8
LAYER_1
 10
1315.9375
 20
51.41250000000008
 30
0.0
 42
1.0
  0
VERTEX
  5
1C1
  8
LAYER_1
 10
1309.5875
 20
51.41250000000008
 30
0.0
  0
VERTEX
  5
1C2
  8
LAYER_1
 10
1309.5875
 20
34.41250000000008
 30
0.0
 42
1.0
  0
VERTEX
  5
1C3
  8
LAYER_1
 10
1315.9375
 20
34.41250000000008
 30
0.0
  0
VERTEX
  5
1C4
  8
LAYER_1
 10
1403.2375
 20
34.41250000000008
 30
0.0
 42
1.0
  0
VERTEX
  5
1C5
  8
LAYER_1
 10
1409.5875
 20
34.41250000000008
 30
0.0
  0
VERTEX
  5
1C6
  8
LAYER_1
 10
1409.5875
 20
51.41250000000008
 30
0.0
 42
1.0
  0
SEQEND
  5
24B
  8
LAYER_1
  0
POLYLINE
  5
9B
  8
LAYER_1
 66
     1
 10
0.0
 20
0.0
 30
0.0
 70
     1
  0
VERTEX
  5
1C7
  8
LAYER_1
 10
1693.2375
 20
51.41250000000008
 30
0.0
  0
VERTEX
  5
1C8
  8
LAYER_1
 10
1605.9375
 20
51.41250000000008
 30
0.0
 42
1.0
  0
VERTEX
  5
1C9
  8
LAYER_1
 10
1599.5875
 20
51.41250000000008
 30
0.0
  0
VERTEX
  5
1CA
  8
LAYER_1
 10
1599.5875
 20
34.41250000000008
 30
0.0
 42
1.0
  0
VERTEX
  5
1CB
  8
LAYER_1
 10
1605.9375
 20
34.41250000000008
 30
0.0
  0
VERTEX
  5
1CC
  8
LAYER_1
 10
1693.2375
 20
34.41250000000008
 30
0.0
 42
1.0
  0
VERTEX
  5
1CD
  8
LAYER_1
 10
1699.5875
 20
34.41250000000008
 30
0.0
  0
VERTEX
  5
1CE
  8
LAYER_1
 10
1699.5875
 20
51.41250000000008
 30
0.0
 42
1.0
  0
SEQEND
  5
24C
  8
LAYER_1
  0
POLYLINE
  5
9C
  8
LAYER_1
 66
     1
 10
0.0
 20
0.0
 30
0.0
 70
     1
  0
VERTEX
  5
1CF
  8
LAYER_1
 10
1309.5875
 20
509.4125000000001
 30
0.0
 42
0.4142135623730951
  0
VERTEX
  5
1D0
  8
LAYER_1
 10
1304.5875
 20
504.4125000000001
 30
0.0
  0
VERTEX
  5
1D1
  8
LAYER_1
 10
1304.5875
 20
14.41250000000008
 30
0.0
 42
0.4142135623730951
  0
VERTEX
  5
1D2
  8
LAYER_1
 10
1309.5875
 20
9.41250000000008
 30
0.0
  0
VERTEX
  5
1D3
  8
LAYER_1
 10
1699.5875
 20
9.41250000000008
 30
0.0
 42
0.4142135623730951
  0
VERTEX
  5
1D4
  8
LAYER_1
 10
1704.5875
 20
14.41250000000008
 30
0.0
  0
VERTEX
  5
1D5
  8
LAYER_1
 10
1704.5875
 20
504.4125000000001
 30
0.0
 42
0.4142135623730951
  0
VERTEX
  5
1D6
  8
LAYER_1
 10
1699.5875
 20
509.4125000000001
 30
0.0
  0
SEQEND
  5
24D
  8
LAYER_1
  0
POLYLINE
  5
9D
  8
LAYER_1
 66
     1
 10
0.0
 20
0.0
 30
0.0
 70
     1
  0
VERTEX
  5
1D7
  8
LAYER_1
 10
1403.2375
 20
484.4125000000001
 30
0.0
  0
VERTEX
  5
1D8
  8
LAYER_1
 10
1315.9375
 20
484.4125000000001
 30
0.0
 42
1.0
  0
VERTEX
  5
1D9
  8
LAYER_1
 10
1309.5875
 20
484.4125000000001
 30
0.0
  0
VERTEX
  5
1DA
  8
LAYER_1
 10
1309.5875
 20
467.4125000000001
 30
0.0
 42
1.0
  0
VERTEX
  5
1DB
  8
LAYER_1
 10
1315.9375
 20
467.4125000000001
 30
0.0
  0
VERTEX
  5
1DC
  8
LAYER_1
 10
1403.2375
 20
467.4125000000001
 30
0.0
 42
1.0
  0
VERTEX
  5
1DD
  8
LAYER_1
 10
1409.5875
 20
467.4125000000001
 30
0.0
  0
VERTEX
  5
1DE
  8
LAYER_1
 10
1409.5875
 20
484.4125000000001
 30
0.0
 42
1.0
  0
SEQEND
  5
24E
  8
LAYER_1
  0
POLYLINE
  5
9E
  8
LAYER_1
 66
     1
 10
0.0
 20
0.0
 30
0.0
 70
     1
  0
VERTEX
  5
1DF
  8
LAYER_1
 10
1723.809292501308
 20
18.72383389862938
 30
0.0
  0
VERTEX
  5
1E0
  8
LAYER_1
 10
1723.809292501308
 20
496.3738338986292
 30
0.0
 42
-0.4142135624211217
  0
VERTEX
  5
1E1
  8
LAYER_1
 10
1726.984292501308
 20
499.5488338986294
 30
0.0
  0
VERTEX
  5
1E2
  8
LAYER_1
 10
1820.634292501308
 20
499.5488338986294
 30
0.0
 42
-0.4142135623669638
  0
VERTEX
  5
1E3
  8
LAYER_1
 10
1823.809292501308
 20
496.3738338986292
 30
0.0
  0
VERTEX
  5
1E4
  8
LAYER_1
 10
1823.809292501308
 20
471.8988338986293
 30
0.0
 42
1.0
  0
VERTEX
  5
1E5
  8
LAYER_1
 10
1823.809292501308
 20
465.548833898629
 30
0.0
  0
VERTEX
  5
1E6
  8
LAYER_1
 10
1923.809292501308
 20
465.5488338986294
 30
0.0
 42
1.0
  0
VERTEX
  5
1E7
  8
LAYER_1
 10
1923.809292501308
 20
471.8988338986293
 30
0.0
  0
VERTEX
  5
1E8
  8
LAYER_1
 10
1923.809292501308
 20
496.3738338986288
 30
0.0
 42
-0.4142135624187211
  0
VERTEX
  5
1E9
  8
LAYER_1
 10
1926.984292501308
 20
499.5488338986294
 30
0.0
  0
VERTEX
  5
1EA
  8
LAYER_1
 10
2020.634292501308
 20
499.5488338986294
 30
0.0
 42
-0.4142135623642604
  0
VERTEX
  5
1EB
  8
LAYER_1
 10
2023.809292501308
 20
496.3738338986292
 30
0.0
  0
VERTEX
  5
1EC
  8
LAYER_1
 10
2023.809292501308
 20
18.72383389862915
 30
0.0
 42
-0.4142135623677474
  0
VERTEX
  5
1ED
  8
LAYER_1
 10
2020.634292501308
 20
15.54883389862943
 30
0.0
  0
VERTEX
  5
1EE
  8
LAYER_1
 10
1926.984292501308
 20
15.54883389862943
 30
0.0
 42
-0.4142135623665162
  0
VERTEX
  5
1EF
  8
LAYER_1
 10
1923.809292501308
 20
18.72383389862938
 30
0.0
  0
VERTEX
  5
1F0
  8
LAYER_1
 10
1923.809292501308
 20
43.19883389862929
 30
0.0
 42
1.0
  0
VERTEX
  5
1F1
  8
LAYER_1
 10
1923.809292501308
 20
49.5488338986292
 30
0.0
  0
VERTEX
  5
1F2
  8
LAYER_1
 10
1823.809292501308
 20
49.54883389862943
 30
0.0
 42
1.0
  0
VERTEX
  5
1F3
  8
LAYER_1
 10
1823.809292501308
 20
43.19883389862952
 30
0.0
  0
VERTEX
  5
1F4
  8
LAYER_1
 10
1823.809292501308
 20
18.72383389862915
 30
0.0
 42
-0.4142135623701206
  0
VERTEX
  5
1F5
  8
LAYER_1
 10
1820.634292501308
 20
15.54883389862943
 30
0.0
  0
VERTEX
  5
1F6
  8
LAYER_1
 10
1726.984292501308
 20
15.5488338986292
 30
0.0
 42
-0.4142135623684109
  0
SEQEND
  5
24F
  8
LAYER_1
  0
POLYLINE
  5
9F
  8
LAYER_1
 66
     1
 10
0.0
 20
0.0
 30
0.0
 70
     1
  0
VERTEX
  5
1F7
  8
LAYER_1
 10
1762.809292501308
 20
480.8448763112521
 30
0.0
  0
VERTEX
  5
1F8
  8
LAYER_1
 10
1762.809292501308
 20
492.5488338986294
 30
0.0
  0
VERTEX
  5
1F9
  8
LAYER_1
 10
1745.809292501308
 20
492.548833898629
 30
0.0
  0
VERTEX
  5
1FA
  8
LAYER_1
 10
1745.809292501308
 20
480.8448763112526
 30
0.0
  0
SEQEND
  5
250
  8
LAYER_1
  0
POLYLINE
  5
A0
  8
LAYER_1
 66
     1
 10
0.0
 20
0.0
 30
0.0
 70
     1
  0
VERTEX
  5
1FB
  8
LAYER_1
 10
1801.809292501308
 20
480.8448763112521
 30
0.0
  0
VERTEX
  5
1FC
  8
LAYER_1
 10
1801.809292501308
 20
492.5488338986294
 30
0.0
  0
VERTEX
  5
1FD
  8
LAYER_1
 10
1784.809292501308
 20
492.548833898629
 30
0.0
  0
VERTEX
  5
1FE
  8
LAYER_1
 10
1784.809292501308
 20
480.8448763112521
 30
0.0
  0
SEQEND
  5
251
  8
LAYER_1
  0
POLYLINE
  5
A1
  8
LAYER_1
 66
     1
 10
0.0
 20
0.0
 30
0.0
 70
     1
  0
VERTEX
  5
1FF
  8
LAYER_1
 10
2001.809292501308
 20
480.8448763112521
 30
0.0
  0
VERTEX
  5
200
  8
LAYER_1
 10
2001.809292501308
 20
492.5488338986294
 30
0.0
  0
VERTEX
  5
201
  8
LAYER_1
 10
1984.809292501308
 20
492.548833898629
 30
0.0
  0
VERTEX
  5
202
  8
LAYER_1
 10
1984.809292501308
 20
480.8448763112526
 30
0.0
  0
SEQEND
  5
252
  8
LAYER_1
  0
POLYLINE
  5
A2
  8
LAYER_1
 66
     1
 10
0.0
 20
0.0
 30
0.0
 70
     1
  0
VERTEX
  5
203
  8
LAYER_1
 10
1962.809292501308
 20
480.8448763112526
 30
0.0
  0
VERTEX
  5
204
  8
LAYER_1
 10
1962.809292501308
 20
492.5488338986294
 30
0.0
  0
VERTEX
  5
205
  8
LAYER_1
 10
1945.809292501308
 20
492.5488338986294
 30
0.0
  0
VERTEX
  5
206
  8
LAYER_1
 10
1945.809292501308
 20
480.8448763112526
 30
0.0
  0
SEQEND
  5
253
  8
LAYER_1
  0
POLYLINE
  5
A3
  8
LAYER_1
 66
     1
 10
0.0
 20
0.0
 30
0.0
 70
     1
  0
VERTEX
  5
207
  8
LAYER_1
 10
2001.809292501308
 20
22.54883389862943
 30
0.0
  0
VERTEX
  5
208
  8
LAYER_1
 10
2001.809292501307
 20
34.25279148600674
 30
0.0
  0
VERTEX
  5
209
  8
LAYER_1
 10
1984.809292501307
 20
34.25279148600674
 30
0.0
  0
VERTEX
  5
20A
  8
LAYER_1
 10
1984.809292501308
 20
22.5488338986292
 30
0.0
  0
SEQEND
  5
254
  8
LAYER_1
  0
POLYLINE
  5
A4
  8
LAYER_1
 66
     1
 10
0.0
 20
0.0
 30
0.0
 70
     1
  0
VERTEX
  5
20B
  8
LAYER_1
 10
1962.809292501308
 20
22.54883389862943
 30
0.0
  0
VERTEX
  5
20C
  8
LAYER_1
 10
1962.809292501308
 20
34.25279148600674
 30
0.0
  0
VERTEX
  5
20D
  8
LAYER_1
 10
1945.809292501308
 20
34.25279148600652
 30
0.0
  0
VERTEX
  5
20E
  8
LAYER_1
 10
1945.809292501308
 20
22.54883389862943
 30
0.0
  0
SEQEND
  5
255
  8
LAYER_1
  0
POLYLINE
  5
A5
  8
LAYER_1
 66
     1
 10
0.0
 20
0.0
 30
0.0
 70
     1
  0
VERTEX
  5
20F
  8
LAYER_1
 10
1801.809292501308
 20
22.5488338986292
 30
0.0
  0
VERTEX
  5
210
  8
LAYER_1
 10
1801.809292501308
 20
34.25279148600674
 30
0.0
  0
VERTEX
  5
211
  8
LAYER_1
 10
1784.809292501308
 20
34.25279148600652
 30
0.0
  0
VERTEX
  5
212
  8
LAYER_1
 10
1784.809292501308
 20
22.5488338986292
 30
0.0
  0
SEQEND
  5
256
  8
LAYER_1
  0
POLYLINE
  5
A6
  8
LAYER_1
 66
     1
 10
0.0
 20
0.0
 30
0.0
 70
     1
  0
VERTEX
  5
213
  8
LAYER_1
 10
1762.809292501308
 20
22.54883389862943
 30
0.0
  0
VERTEX
  5
214
  8
LAYER_1
 10
1762.809292501308
 20
34.25279148600652
 30
0.0
  0
VERTEX
  5
215
  8
LAYER_1
 10
1745.809292501308
 20
34.25279148600674
 30
0.0
  0
VERTEX
  5
216
  8
LAYER_1
 10
1745.809292501308
 20
22.5488338986292
 30
0.0
  0
SEQEND
  5
257
  8
LAYER_1
  0
POLYLINE
  5
A7
  8
LAYER_1
 66
     1
 10
0.0
 20
0.0
 30
0.0
 70
     1
  0
VERTEX
  5
217
  8
LAYER_1
 10
516.01
 20
531.224
 30
0.0
 42
0.4142135623730951
  0
VERTEX
  5
218
  8
LAYER_1
 10
506.01
 20
521.224
 30
0.0
 42
0.4142135623730951
  0
VERTEX
  5
219
  8
LAYER_1
 10
516.01
 20
511.224
 30
0.0
 42
0.4142135623730951
  0
VERTEX
  5
21A
  8
LAYER_1
 10
526.01
 20
521.224
 30
0.0
 42
0.4142135623730951
  0
SEQEND
  5
258
  8
LAYER_1
  0
ENDSEC
  0
EOF
