  0
SECTION
  2
HEADER
  9
$ACADVER
  1
AC1018
  9
$ACADMAINTVER
 70
     0
  9
$DWGCODEPAGE
  3
ANSI_1252
  9
$INSBASE
 10
0.0
 20
0.0
 30
0.0
  9
$EXTMIN
 10
1273.782458223481
 20
4.341207275605946
 30
-0.0000000000004235
  9
$EXTMAX
 10
1456.8370212043
 20
167.0
 30
0.000000000000486
  9
$LIMMIN
 10
0.0
 20
0.0
  9
$LIMMAX
 10
12.0
 20
9.0
  9
$ORTHOMODE
 70
     0
  9
$REGENMODE
 70
     1
  9
$FILLMODE
 70
     1
  9
$QTEXTMODE
 70
     0
  9
$MIRRTEXT
 70
     1
  9
$LTSCALE
 40
1.0
  9
$ATTMODE
 70
     1
  9
$TEXTSIZE
 40
0.2
  9
$TRACEWID
 40
0.05
  9
$TEXTSTYLE
  7
Standard
  9
$CLAYER
  8
2D
  9
$CELTYPE
  6
ByLayer
  9
$CECOLOR
 62
   256
  9
$CELTSCALE
 40
1.0
  9
$DISPSILH
 70
     0
  9
$DIMSCALE
 40
1.0
  9
$DIMASZ
 40
0.18
  9
$DIMEXO
 40
0.0625
  9
$DIMDLI
 40
0.38
  9
$DIMRND
 40
0.0
  9
$DIMDLE
 40
0.0
  9
$DIMEXE
 40
0.18
  9
$DIMTP
 40
0.0
  9
$DIMTM
 40
0.0
  9
$DIMTXT
 40
0.18
  9
$DIMCEN
 40
0.09
  9
$DIMTSZ
 40
0.0
  9
$DIMTOL
 70
     0
  9
$DIMLIM
 70
     0
  9
$DIMTIH
 70
     1
  9
$DIMTOH
 70
     1
  9
$DIMSE1
 70
     0
  9
$DIMSE2
 70
     0
  9
$DIMTAD
 70
     0
  9
$DIMZIN
 70
     0
  9
$DIMBLK
  1

  9
$DIMASO
 70
     1
  9
$DIMSHO
 70
     1
  9
$DIMPOST
  1

  9
$DIMAPOST
  1

  9
$DIMALT
 70
     0
  9
$DIMALTD
 70
     2
  9
$DIMALTF
 40
25.4
  9
$DIMLFAC
 40
1.0
  9
$DIMTOFL
 70
     0
  9
$DIMTVP
 40
0.0
  9
$DIMTIX
 70
     0
  9
$DIMSOXD
 70
     0
  9
$DIMSAH
 70
     0
  9
$DIMBLK1
  1

  9
$DIMBLK2
  1

  9
$DIMSTYLE
  2
Standard
  9
$DIMCLRD
 70
     0
  9
$DIMCLRE
 70
     0
  9
$DIMCLRT
 70
     0
  9
$DIMTFAC
 40
1.0
  9
$DIMGAP
 40
0.09
  9
$DIMJUST
 70
     0
  9
$DIMSD1
 70
     0
  9
$DIMSD2
 70
     0
  9
$DIMTOLJ
 70
     1
  9
$DIMTZIN
 70
     0
  9
$DIMALTZ
 70
     0
  9
$DIMALTTZ
 70
     0
  9
$DIMUPT
 70
     0
  9
$DIMDEC
 70
     4
  9
$DIMTDEC
 70
     4
  9
$DIMALTU
 70
     2
  9
$DIMALTTD
 70
     2
  9
$DIMTXSTY
  7
Standard
  9
$DIMAUNIT
 70
     0
  9
$DIMADEC
 70
     0
  9
$DIMALTRND
 40
0.0
  9
$DIMAZIN
 70
     0
  9
$DIMDSEP
 70
    46
  9
$DIMATFIT
 70
     3
  9
$DIMFRAC
 70
     0
  9
$DIMLDRBLK
  1

  9
$DIMLUNIT
 70
     2
  9
$DIMLWD
 70
    -2
  9
$DIMLWE
 70
    -2
  9
$DIMTMOVE
 70
     2
  9
$LUNITS
 70
     2
  9
$LUPREC
 70
     3
  9
$SKETCHINC
 40
0.1
  9
$FILLETRAD
 40
0.5
  9
$AUNITS
 70
     0
  9
$AUPREC
 70
     0
  9
$MENU
  1
.
  9
$ELEVATION
 40
0.0
  9
$PELEVATION
 40
0.0
  9
$THICKNESS
 40
0.0
  9
$LIMCHECK
 70
     0
  9
$CHAMFERA
 40
0.5
  9
$CHAMFERB
 40
0.5
  9
$CHAMFERC
 40
1.0
  9
$CHAMFERD
 40
0.0
  9
$SKPOLY
 70
     0
  9
$TDCREATE
 40
2457197.67780912
  9
$TDUCREATE
 40
2457197.594475787
  9
$TDUPDATE
 40
2457197.677830243
  9
$TDUUPDATE
 40
2457197.59449691
  9
$TDINDWG
 40
0.0000000116
  9
$TDUSRTIMER
 40
0.0000000116
  9
$USRTIMER
 70
     1
  9
$ANGBASE
 50
0.0
  9
$ANGDIR
 70
     0
  9
$PDMODE
 70
     0
  9
$PDSIZE
 40
0.0
  9
$PLINEWID
 40
0.0
  9
$SPLFRAME
 70
     0
  9
$SPLINETYPE
 70
     6
  9
$SPLINESEGS
 70
     8
  9
$HANDSEED
  5
228
  9
$SURFTAB1
 70
     6
  9
$SURFTAB2
 70
     6
  9
$SURFTYPE
 70
     6
  9
$SURFU
 70
     6
  9
$SURFV
 70
     6
  9
$UCSBASE
  2

  9
$UCSNAME
  2

  9
$UCSORG
 10
0.0
 20
0.0
 30
0.0
  9
$UCSXDIR
 10
1.0
 20
0.0
 30
0.0
  9
$UCSYDIR
 10
0.0
 20
1.0
 30
0.0
  9
$UCSORTHOREF
  2

  9
$UCSORTHOVIEW
 70
     0
  9
$UCSORGTOP
 10
0.0
 20
0.0
 30
0.0
  9
$UCSORGBOTTOM
 10
0.0
 20
0.0
 30
0.0
  9
$UCSORGLEFT
 10
0.0
 20
0.0
 30
0.0
  9
$UCSORGRIGHT
 10
0.0
 20
0.0
 30
0.0
  9
$UCSORGFRONT
 10
0.0
 20
0.0
 30
0.0
  9
$UCSORGBACK
 10
0.0
 20
0.0
 30
0.0
  9
$PUCSBASE
  2

  9
$PUCSNAME
  2

  9
$PUCSORG
 10
0.0
 20
0.0
 30
0.0
  9
$PUCSXDIR
 10
1.0
 20
0.0
 30
0.0
  9
$PUCSYDIR
 10
0.0
 20
1.0
 30
0.0
  9
$PUCSORTHOREF
  2

  9
$PUCSORTHOVIEW
 70
     0
  9
$PUCSORGTOP
 10
0.0
 20
0.0
 30
0.0
  9
$PUCSORGBOTTOM
 10
0.0
 20
0.0
 30
0.0
  9
$PUCSORGLEFT
 10
0.0
 20
0.0
 30
0.0
  9
$PUCSORGRIGHT
 10
0.0
 20
0.0
 30
0.0
  9
$PUCSORGFRONT
 10
0.0
 20
0.0
 30
0.0
  9
$PUCSORGBACK
 10
0.0
 20
0.0
 30
0.0
  9
$USERI1
 70
     0
  9
$USERI2
 70
     0
  9
$USERI3
 70
     0
  9
$USERI4
 70
     0
  9
$USERI5
 70
     0
  9
$USERR1
 40
0.0
  9
$USERR2
 40
0.0
  9
$USERR3
 40
0.0
  9
$USERR4
 40
0.0
  9
$USERR5
 40
0.0
  9
$WORLDVIEW
 70
     1
  9
$SHADEDGE
 70
     3
  9
$SHADEDIF
 70
    70
  9
$TILEMODE
 70
     1
  9
$MAXACTVP
 70
    64
  9
$PINSBASE
 10
0.0
 20
0.0
 30
0.0
  9
$PLIMCHECK
 70
     0
  9
$PEXTMIN
 10
1.000000000000000E+20
 20
1.000000000000000E+20
 30
1.000000000000000E+20
  9
$PEXTMAX
 10
-1.000000000000000E+20
 20
-1.000000000000000E+20
 30
-1.000000000000000E+20
  9
$PLIMMIN
 10
0.0
 20
0.0
  9
$PLIMMAX
 10
12.0
 20
9.0
  9
$UNITMODE
 70
     0
  9
$VISRETAIN
 70
     1
  9
$PLINEGEN
 70
     0
  9
$PSLTSCALE
 70
     1
  9
$TREEDEPTH
 70
  3020
  9
$CMLSTYLE
  2
Standard
  9
$CMLJUST
 70
     0
  9
$CMLSCALE
 40
1.0
  9
$PROXYGRAPHICS
 70
     1
  9
$MEASUREMENT
 70
     0
  9
$CELWEIGHT
370
    -1
  9
$ENDCAPS
280
     0
  9
$JOINSTYLE
280
     0
  9
$LWDISPLAY
290
     0
  9
$INSUNITS
 70
     4
  9
$HYPERLINKBASE
  1

  9
$STYLESHEET
  1

  9
$XEDIT
290
     1
  9
$CEPSNTYPE
380
     0
  9
$PSTYLEMODE
290
     1
  9
$FINGERPRINTGUID
  2
{F2B19A32-4B9E-4DA9-AC24-6DC6BFCC4D97}
  9
$VERSIONGUID
  2
{FAEB1C32-E019-11D5-929B-00C0DF256EC4}
  9
$EXTNAMES
290
     1
  9
$PSVPSCALE
 40
0.0
  9
$OLESTARTUP
290
     0
  9
$SORTENTS
280
   127
  9
$INDEXCTL
280
     0
  9
$HIDETEXT
280
     1
  9
$XCLIPFRAME
290
     0
  9
$HALOGAP
280
     0
  9
$OBSCOLOR
 70
   257
  9
$OBSLTYPE
280
     0
  9
$INTERSECTIONDISPLAY
280
     0
  9
$INTERSECTIONCOLOR
 70
   257
  9
$DIMASSOC
280
     2
  9
$PROJECTNAME
  1

  0
ENDSEC
  0
SECTION
  2
CLASSES
  0
CLASS
  1
ACDBDICTIONARYWDFLT
  2
AcDbDictionaryWithDefault
  3
ObjectDBX Classes
 90
        0
 91
        4
280
     0
281
     0
  0
CLASS
  1
VISUALSTYLE
  2
AcDbVisualStyle
  3
ObjectDBX Classes
 90
     4095
 91
        4
280
     0
281
     0
  0
CLASS
  1
MATERIAL
  2
AcDbMaterial
  3
ObjectDBX Classes
 90
     1153
 91
        4
280
     0
281
     0
  0
CLASS
  1
SUN
  2
AcDbSun
  3
SCENEOE
 90
     1024
 91
        4
280
     0
281
     0
  0
ENDSEC
  0
SECTION
  2
TABLES
  0
TABLE
  2
VPORT
  5
8
330
0
100
AcDbSymbolTable
 70
     1
  0
VPORT
  5
29
330
8
100
AcDbSymbolTableRecord
100
AcDbViewportTableRecord
  2
*Active
 70
     0
 10
0.0
 20
0.0
 11
1.0
 21
1.0
 12
1365.30973971389
 22
85.67060363780297
 13
0.0
 23
0.0
 14
0.5
 24
0.5
 15
0.5
 25
0.5
 16
0.0
 26
0.0
 36
1.0
 17
0.0
 27
0.0
 37
0.0
 40
165.911968578882
 41
1.125389903089859
 42
50.0
 43
0.0
 44
0.0
 50
0.0
 51
0.0
 71
     0
 72
   100
 73
     1
 74
     3
 75
     0
 76
     0
 77
     0
 78
     0
281
     0
 65
     1
110
0.0
120
0.0
130
0.0
111
1.0
121
0.0
131
0.0
112
0.0
122
1.0
132
0.0
 79
     0
146
0.0
  0
ENDTAB
  0
TABLE
  2
LTYPE
  5
5
330
0
100
AcDbSymbolTable
 70
     1
  0
LTYPE
  5
14
330
5
100
AcDbSymbolTableRecord
100
AcDbLinetypeTableRecord
  2
ByBlock
 70
     0
  3

 72
    65
 73
     0
 40
0.0
  0
LTYPE
  5
15
330
5
100
AcDbSymbolTableRecord
100
AcDbLinetypeTableRecord
  2
ByLayer
 70
     0
  3

 72
    65
 73
     0
 40
0.0
  0
LTYPE
  5
16
330
5
100
AcDbSymbolTableRecord
100
AcDbLinetypeTableRecord
  2
Continuous
 70
     0
  3
Solid line
 72
    65
 73
     0
 40
0.0
  0
ENDTAB
  0
TABLE
  2
LAYER
  5
2
330
0
100
AcDbSymbolTable
 70
     4
  0
LAYER
  5
10
330
2
100
AcDbSymbolTableRecord
100
AcDbLayerTableRecord
  2
0
 70
     0
 62
     7
  6
Continuous
370
    -3
390
F
  0
LAYER
  5
40
330
2
100
AcDbSymbolTableRecord
100
AcDbLayerTableRecord
  2
2D
 70
     0
 62
    18
420
        0
  6
Continuous
370
    -3
390
F
  0
LAYER
  5
FF
330
2
100
AcDbSymbolTableRecord
100
AcDbLayerTableRecord
  2
2D$Panel de control$interiores
 70
     0
 62
     5
420
      255
  6
Continuous
370
    -3
390
F
  0
LAYER
  5
115
330
2
100
AcDbSymbolTableRecord
100
AcDbLayerTableRecord
  2
2D$Panel de control
 70
     0
 62
    18
420
        0
  6
Continuous
370
    -3
390
F
  0
ENDTAB
  0
TABLE
  2
STYLE
  5
3
330
0
100
AcDbSymbolTable
 70
     1
  0
STYLE
  5
11
330
3
100
AcDbSymbolTableRecord
100
AcDbTextStyleTableRecord
  2
Standard
 70
     0
 40
0.0
 41
1.0
 50
0.0
 71
     0
 42
0.2
  3
txt
  4

  0
ENDTAB
  0
TABLE
  2
VIEW
  5
6
330
0
100
AcDbSymbolTable
 70
     0
  0
ENDTAB
  0
TABLE
  2
UCS
  5
7
330
0
100
AcDbSymbolTable
 70
     0
  0
ENDTAB
  0
TABLE
  2
APPID
  5
9
330
0
100
AcDbSymbolTable
 70
     1
  0
APPID
  5
12
330
9
100
AcDbSymbolTableRecord
100
AcDbRegAppTableRecord
  2
ACAD
 70
     0
  0
ENDTAB
  0
TABLE
  2
DIMSTYLE
  5
A
330
0
100
AcDbSymbolTable
 70
     1
100
AcDbDimStyleTable
  0
DIMSTYLE
105
27
330
A
100
AcDbSymbolTableRecord
100
AcDbDimStyleTableRecord
  2
Standard
 70
     0
178
     0
340
11
  0
ENDTAB
  0
TABLE
  2
BLOCK_RECORD
  5
1
330
0
100
AcDbSymbolTable
 70
     1
  0
BLOCK_RECORD
  5
1F
330
1
100
AcDbSymbolTableRecord
100
AcDbBlockTableRecord
  2
*Model_Space
340
22
  0
BLOCK_RECORD
  5
1B
330
1
100
AcDbSymbolTableRecord
100
AcDbBlockTableRecord
  2
*Paper_Space
340
1E
  0
BLOCK_RECORD
  5
23
330
1
100
AcDbSymbolTableRecord
100
AcDbBlockTableRecord
  2
*Paper_Space0
340
26
  0
ENDTAB
  0
ENDSEC
  0
SECTION
  2
BLOCKS
  0
BLOCK
  5
20
330
1F
100
AcDbEntity
  8
0
100
AcDbBlockBegin
  2
*Model_Space
 70
     0
 10
0.0
 20
0.0
 30
0.0
  3
*Model_Space
  1

  0
ENDBLK
  5
21
330
1F
100
AcDbEntity
  8
0
100
AcDbBlockEnd
  0
BLOCK
  5
1C
330
1B
100
AcDbEntity
 67
     1
  8
0
100
AcDbBlockBegin
  2
*Paper_Space
 70
     0
 10
0.0
 20
0.0
 30
0.0
  3
*Paper_Space
  1

  0
ENDBLK
  5
1D
330
1B
100
AcDbEntity
 67
     1
  8
0
100
AcDbBlockEnd
  0
BLOCK
  5
24
330
23
100
AcDbEntity
  8
0
100
AcDbBlockBegin
  2
*Paper_Space0
 70
     0
 10
0.0
 20
0.0
 30
0.0
  3
*Paper_Space0
  1

  0
ENDBLK
  5
25
330
23
100
AcDbEntity
  8
0
100
AcDbBlockEnd
  0
ENDSEC
  0
SECTION
  2
ENTITIES
  0
POLYLINE
  5
41
330
1F
100
AcDbEntity
  8
2D
100
AcDb2dPolyline
 66
     1
 10
0.0
 20
0.0
 30
-0.0000000000004235
  0
VERTEX
  5
42
330
41
100
AcDbEntity
  8
2D
100
AcDbVertex
100
AcDb2dVertex
 10
1332.117927762388
 20
71.6352515002012
 30
-0.0000000000004235
  0
VERTEX
  5
43
330
41
100
AcDbEntity
  8
2D
100
AcDbVertex
100
AcDb2dVertex
 10
1320.7790083752
 20
55.23304106590661
 30
-0.0000000000004235
  0
SEQEND
  5
44
330
41
100
AcDbEntity
  8
2D
  0
POLYLINE
  5
45
330
1F
100
AcDbEntity
  8
2D
100
AcDb2dPolyline
 66
     1
 10
0.0
 20
0.0
 30
-0.0000000000004235
  0
VERTEX
  5
46
330
45
100
AcDbEntity
  8
2D
100
AcDbVertex
100
AcDb2dVertex
 10
1320.7790083752
 20
55.23304106590661
 30
-0.0000000000004235
  0
VERTEX
  5
47
330
45
100
AcDbEntity
  8
2D
100
AcDbVertex
100
AcDb2dVertex
 10
1318.311273605748
 20
56.93899684131043
 30
-0.0000000000004235
  0
SEQEND
  5
48
330
45
100
AcDbEntity
  8
2D
  0
POLYLINE
  5
49
330
1F
100
AcDbEntity
  8
2D
100
AcDb2dPolyline
 66
     1
 10
0.0
 20
0.0
 30
0.0000000000000313
  0
VERTEX
  5
4A
330
49
100
AcDbEntity
  8
2D
100
AcDbVertex
100
AcDb2dVertex
 10
1318.311273605748
 20
56.93899684131043
 30
0.0000000000000313
  0
VERTEX
  5
4B
330
49
100
AcDbEntity
  8
2D
100
AcDbVertex
100
AcDb2dVertex
 10
1312.625926480686
 20
48.71490980505815
 30
0.0000000000000313
  0
SEQEND
  5
4C
330
49
100
AcDbEntity
  8
2D
  0
POLYLINE
  5
4D
330
1F
100
AcDbEntity
  8
2D
100
AcDb2dPolyline
 66
     1
 10
0.0
 20
0.0
 30
0.0000000000002586
  0
VERTEX
  5
4E
330
4D
100
AcDbEntity
  8
2D
100
AcDbVertex
100
AcDb2dVertex
 10
1312.625926480686
 20
48.71490980505815
 30
0.0000000000002586
  0
VERTEX
  5
4F
330
4D
100
AcDbEntity
  8
2D
100
AcDbVertex
100
AcDb2dVertex
 10
1315.093661250139
 20
47.0089540296541
 30
0.0000000000002586
  0
SEQEND
  5
50
330
4D
100
AcDbEntity
  8
2D
  0
POLYLINE
  5
51
330
1F
100
AcDbEntity
  8
2D
100
AcDb2dPolyline
 66
     1
 10
0.0
 20
0.0
 30
-0.0000000000001961
  0
VERTEX
  5
52
330
51
100
AcDbEntity
  8
2D
100
AcDbVertex
100
AcDb2dVertex
 10
1315.093661250139
 20
47.0089540296541
 30
-0.0000000000001961
  0
VERTEX
  5
53
330
51
100
AcDbEntity
  8
2D
100
AcDbVertex
100
AcDb2dVertex
 10
1303.78886097846
 20
30.65609829074766
 30
-0.0000000000001961
  0
SEQEND
  5
54
330
51
100
AcDbEntity
  8
2D
  0
POLYLINE
  5
55
330
1F
100
AcDbEntity
  8
2D
100
AcDb2dPolyline
 66
     1
 10
0.0
 20
0.0
 30
-0.0000000000001961
  0
VERTEX
  5
56
330
55
100
AcDbEntity
  8
2D
100
AcDbVertex
100
AcDb2dVertex
 10
1303.78886097846
 20
30.65609829074766
 30
-0.0000000000001961
  0
VERTEX
  5
57
330
55
100
AcDbEntity
  8
2D
100
AcDbVertex
100
AcDb2dVertex
 10
1301.321126209007
 20
32.36205406615216
 30
-0.0000000000001961
  0
SEQEND
  5
58
330
55
100
AcDbEntity
  8
2D
  0
POLYLINE
  5
59
330
1F
100
AcDbEntity
  8
2D
100
AcDb2dPolyline
 66
     1
 10
0.0
 20
0.0
 30
0.0000000000002586
  0
VERTEX
  5
5A
330
59
100
AcDbEntity
  8
2D
100
AcDbVertex
100
AcDb2dVertex
 10
1301.321126209007
 20
32.36205406615216
 30
0.0000000000002586
  0
VERTEX
  5
5B
330
59
100
AcDbEntity
  8
2D
100
AcDbVertex
100
AcDb2dVertex
 10
1295.635779083946
 20
24.13796702989897
 30
0.0000000000002586
  0
SEQEND
  5
5C
330
59
100
AcDbEntity
  8
2D
  0
POLYLINE
  5
5D
330
1F
100
AcDbEntity
  8
2D
100
AcDb2dPolyline
 66
     1
 10
0.0
 20
0.0
 30
0.000000000000486
  0
VERTEX
  5
5E
330
5D
100
AcDbEntity
  8
2D
100
AcDbVertex
100
AcDb2dVertex
 10
1295.635779083946
 20
24.13796702989897
 30
0.000000000000486
  0
VERTEX
  5
5F
330
5D
100
AcDbEntity
  8
2D
100
AcDbVertex
100
AcDb2dVertex
 10
1298.103513853398
 20
22.43201125449526
 30
0.000000000000486
  0
SEQEND
  5
60
330
5D
100
AcDbEntity
  8
2D
  0
POLYLINE
  5
61
330
1F
100
AcDbEntity
  8
2D
100
AcDb2dPolyline
 66
     1
 10
0.0
 20
0.0
 30
0.0000000000000313
  0
VERTEX
  5
62
330
61
100
AcDbEntity
  8
2D
100
AcDbVertex
100
AcDb2dVertex
 10
1298.103513853398
 20
22.43201125449526
 30
0.0000000000000313
  0
VERTEX
  5
63
330
61
100
AcDbEntity
  8
2D
100
AcDbVertex
100
AcDb2dVertex
 10
1286.764594466212
 20
6.029800820200087
 30
0.0000000000000313
  0
SEQEND
  5
64
330
61
100
AcDbEntity
  8
2D
  0
POLYLINE
  5
65
330
1F
100
AcDbEntity
  8
2D
100
AcDb2dPolyline
 66
     1
 10
0.0
 20
0.0
 30
0.0000000000000313
  0
VERTEX
  5
66
330
65
100
AcDbEntity
  8
2D
100
AcDbVertex
100
AcDb2dVertex
 10
1286.764594466212
 20
6.029800820200087
 30
0.0000000000000313
  0
VERTEX
  5
67
330
65
100
AcDbEntity
  8
2D
100
AcDbVertex
100
AcDb2dVertex
 10
1284.296859696759
 20
7.735756595604364
 30
0.0000000000000313
  0
SEQEND
  5
68
330
65
100
AcDbEntity
  8
2D
  0
POLYLINE
  5
69
330
1F
100
AcDbEntity
  8
2D
100
AcDb2dPolyline
 66
     1
 10
0.0
 20
0.0
 30
0.000000000000486
  0
VERTEX
  5
6A
330
69
100
AcDbEntity
  8
2D
100
AcDbVertex
100
AcDb2dVertex
 10
1284.296859696759
 20
7.735756595604364
 30
0.000000000000486
  0
VERTEX
  5
6B
330
69
100
AcDbEntity
  8
2D
100
AcDbVertex
100
AcDb2dVertex
 10
1281.950192992934
 20
4.341207275605946
 30
0.000000000000486
  0
VERTEX
  5
6C
330
69
100
AcDbEntity
  8
2D
100
AcDbVertex
100
AcDb2dVertex
 10
1281.950192992934
 20
28.59120727560583
 30
0.000000000000486
  0
SEQEND
  5
6D
330
69
100
AcDbEntity
  8
2D
  0
POLYLINE
  5
6E
330
1F
100
AcDbEntity
  8
2D
100
AcDb2dPolyline
 66
     1
 10
0.0
 20
0.0
 30
0.0000000000000597
  0
VERTEX
  5
6F
330
6E
100
AcDbEntity
  8
2D
100
AcDbVertex
100
AcDb2dVertex
 10
1281.950192992934
 20
28.59120727560583
 30
0.0000000000000597
  0
VERTEX
  5
70
330
6E
100
AcDbEntity
  8
2D
100
AcDbVertex
100
AcDb2dVertex
 10
1278.950192992934
 20
28.59120727560595
 30
0.0000000000000597
  0
SEQEND
  5
71
330
6E
100
AcDbEntity
  8
2D
  0
POLYLINE
  5
72
330
1F
100
AcDbEntity
  8
2D
100
AcDb2dPolyline
 66
     1
 10
0.0
 20
0.0
 30
0.0
  0
VERTEX
  5
73
330
72
100
AcDbEntity
  8
2D
100
AcDbVertex
100
AcDb2dVertex
 10
1278.950192992934
 20
28.59120727560595
 30
0.0
  0
VERTEX
  5
74
330
72
100
AcDbEntity
  8
2D
100
AcDbVertex
100
AcDb2dVertex
 10
1278.950192992934
 20
49.09120727560583
 30
0.0
  0
SEQEND
  5
75
330
72
100
AcDbEntity
  8
2D
  0
POLYLINE
  5
76
330
1F
100
AcDbEntity
  8
2D
100
AcDb2dPolyline
 66
     1
 10
0.0
 20
0.0
 30
0.0
  0
VERTEX
  5
77
330
76
100
AcDbEntity
  8
2D
100
AcDbVertex
100
AcDb2dVertex
 10
1278.950192992934
 20
49.09120727560583
 30
0.0
  0
VERTEX
  5
78
330
76
100
AcDbEntity
  8
2D
100
AcDbVertex
100
AcDb2dVertex
 10
1281.950192992934
 20
49.09120727560595
 30
0.0
  0
SEQEND
  5
79
330
76
100
AcDbEntity
  8
2D
  0
POLYLINE
  5
7A
330
1F
100
AcDbEntity
  8
2D
100
AcDb2dPolyline
 66
     1
 10
0.0
 20
0.0
 30
-0.0000000000000256
  0
VERTEX
  5
7B
330
7A
100
AcDbEntity
  8
2D
100
AcDbVertex
100
AcDb2dVertex
 10
1281.950192992934
 20
49.09120727560595
 30
-0.0000000000000256
  0
VERTEX
  5
7C
330
7A
100
AcDbEntity
  8
2D
100
AcDbVertex
100
AcDb2dVertex
 10
1281.950192992934
 20
73.34120727560571
 30
-0.0000000000000256
  0
SEQEND
  5
7D
330
7A
100
AcDbEntity
  8
2D
  0
POLYLINE
  5
7E
330
1F
100
AcDbEntity
  8
2D
100
AcDb2dPolyline
 66
     1
 10
0.0
 20
0.0
 30
0.0000000000000597
  0
VERTEX
  5
7F
330
7E
100
AcDbEntity
  8
2D
100
AcDbVertex
100
AcDb2dVertex
 10
1281.950192992934
 20
73.34120727560571
 30
0.0000000000000597
  0
VERTEX
  5
80
330
7E
100
AcDbEntity
  8
2D
100
AcDbVertex
100
AcDb2dVertex
 10
1281.950192992934
 20
83.3412072756056
 30
0.0000000000000597
  0
SEQEND
  5
81
330
7E
100
AcDbEntity
  8
2D
  0
POLYLINE
  5
82
330
1F
100
AcDbEntity
  8
2D
100
AcDb2dPolyline
 66
     1
 10
0.0
 20
0.0
 30
0.0000000000000313
  0
VERTEX
  5
83
330
82
100
AcDbEntity
  8
2D
100
AcDbVertex
100
AcDb2dVertex
 10
1281.950192992934
 20
83.3412072756056
 30
0.0000000000000313
  0
VERTEX
  5
84
330
82
100
AcDbEntity
  8
2D
100
AcDbVertex
100
AcDb2dVertex
 10
1294.650192992935
 20
83.34120727560537
 30
0.0000000000000313
  0
SEQEND
  5
85
330
82
100
AcDbEntity
  8
2D
  0
POLYLINE
  5
86
330
1F
100
AcDbEntity
  8
2D
100
AcDb2dPolyline
 66
     1
 10
0.0
 20
0.0
 30
-0.0000000000000554
  0
VERTEX
  5
87
330
86
100
AcDbEntity
  8
2D
100
AcDbVertex
100
AcDb2dVertex
 10
1294.650192992935
 20
83.34120727560537
 30
-0.0000000000000554
  0
VERTEX
  5
88
330
86
100
AcDbEntity
  8
2D
100
AcDbVertex
100
AcDb2dVertex
 10
1294.650192992934
 20
73.34120727560537
 30
-0.0000000000000554
  0
SEQEND
  5
89
330
86
100
AcDbEntity
  8
2D
  0
POLYLINE
  5
8A
330
1F
100
AcDbEntity
  8
2D
100
AcDb2dPolyline
 66
     1
 10
0.0
 20
0.0
 30
0.0000000000004303
  0
VERTEX
  5
8B
330
8A
100
AcDbEntity
  8
2D
100
AcDbVertex
100
AcDb2dVertex
 10
1294.650192992934
 20
73.34120727560537
 30
0.0000000000004303
  0
VERTEX
  5
8C
330
8A
100
AcDbEntity
  8
2D
100
AcDbVertex
100
AcDb2dVertex
 10
1313.150192992935
 20
73.34120727560537
 30
0.0000000000004303
  0
SEQEND
  5
8D
330
8A
100
AcDbEntity
  8
2D
  0
POLYLINE
  5
8E
330
1F
100
AcDbEntity
  8
2D
100
AcDb2dPolyline
 66
     1
 10
0.0
 20
0.0
 30
0.0000000000002576
  0
VERTEX
  5
8F
330
8E
100
AcDbEntity
  8
2D
100
AcDbVertex
100
AcDb2dVertex
 10
1313.150192992935
 20
73.34120727560537
 30
0.0000000000002576
  0
VERTEX
  5
90
330
8E
100
AcDbEntity
  8
2D
100
AcDbVertex
100
AcDb2dVertex
 10
1313.150192992935
 20
83.34120727560548
 30
0.0000000000002576
  0
SEQEND
  5
91
330
8E
100
AcDbEntity
  8
2D
  0
POLYLINE
  5
92
330
1F
100
AcDbEntity
  8
2D
100
AcDb2dPolyline
 66
     1
 10
0.0
 20
0.0
 30
0.0000000000000313
  0
VERTEX
  5
93
330
92
100
AcDbEntity
  8
2D
100
AcDbVertex
100
AcDb2dVertex
 10
1313.150192992935
 20
83.34120727560548
 30
0.0000000000000313
  0
VERTEX
  5
94
330
92
100
AcDbEntity
  8
2D
100
AcDbVertex
100
AcDb2dVertex
 10
1329.650192992935
 20
83.3412072756056
 30
0.0000000000000313
  0
SEQEND
  5
95
330
92
100
AcDbEntity
  8
2D
  0
POLYLINE
  5
96
330
1F
100
AcDbEntity
  8
2D
100
AcDb2dPolyline
 66
     1
 10
0.0
 20
0.0
 30
0.0000000000000313
  0
VERTEX
  5
97
330
96
100
AcDbEntity
  8
2D
100
AcDbVertex
100
AcDb2dVertex
 10
1329.650192992935
 20
83.3412072756056
 30
0.0000000000000313
  0
VERTEX
  5
98
330
96
100
AcDbEntity
  8
2D
100
AcDbVertex
100
AcDb2dVertex
 10
1329.650192992935
 20
73.3412072756056
 30
0.0000000000000313
  0
SEQEND
  5
99
330
96
100
AcDbEntity
  8
2D
  0
POLYLINE
  5
9A
330
1F
100
AcDbEntity
  8
2D
100
AcDb2dPolyline
 66
     1
 10
0.0
 20
0.0
 30
0.0000000000000313
  0
VERTEX
  5
9B
330
9A
100
AcDbEntity
  8
2D
100
AcDbVertex
100
AcDb2dVertex
 10
1329.650192992935
 20
73.3412072756056
 30
0.0000000000000313
  0
VERTEX
  5
9C
330
9A
100
AcDbEntity
  8
2D
100
AcDbVertex
100
AcDb2dVertex
 10
1332.117927762388
 20
71.6352515002012
 30
0.0000000000000313
  0
SEQEND
  5
9D
330
9A
100
AcDbEntity
  8
2D
  0
POLYLINE
  5
9E
330
1F
100
AcDbEntity
  8
2D
100
AcDb2dPolyline
 66
     1
 10
0.0
 20
0.0
 30
0.0000000000000313
  0
VERTEX
  5
9F
330
9E
100
AcDbEntity
  8
2D
100
AcDbVertex
100
AcDb2dVertex
 10
1292.750192992934
 20
166.3412072756061
 30
0.0000000000000313
  0
VERTEX
  5
A0
330
9E
100
AcDbEntity
  8
2D
100
AcDbVertex
100
AcDb2dVertex
 10
1278.250192992934
 20
166.3412072756062
 30
0.0000000000000313
  0
SEQEND
  5
A1
330
9E
100
AcDbEntity
  8
2D
  0
POLYLINE
  5
A2
330
1F
100
AcDbEntity
  8
2D
100
AcDb2dPolyline
 66
     1
 10
0.0
 20
0.0
 30
0.0
  0
VERTEX
  5
A3
330
A2
100
AcDbEntity
  8
2D
100
AcDbVertex
100
AcDb2dVertex
 10
1278.250192992934
 20
166.3412072756062
 30
0.0
  0
VERTEX
  5
A4
330
A2
100
AcDbEntity
  8
2D
100
AcDbVertex
100
AcDb2dVertex
 10
1278.250192992934
 20
156.3412072756063
 30
0.0
  0
VERTEX
  5
A5
330
A2
100
AcDbEntity
  8
2D
100
AcDbVertex
100
AcDb2dVertex
 10
1276.250192992934
 20
156.3412072756063
 30
0.0
  0
SEQEND
  5
A6
330
A2
100
AcDbEntity
  8
2D
  0
POLYLINE
  5
A7
330
1F
100
AcDbEntity
  8
2D
100
AcDb2dPolyline
 66
     1
 10
0.0
 20
0.0
 30
0.0000000000000313
  0
VERTEX
  5
A8
330
A7
100
AcDbEntity
  8
2D
100
AcDbVertex
100
AcDb2dVertex
 10
1276.250192992934
 20
156.3412072756063
 30
0.0000000000000313
  0
VERTEX
  5
A9
330
A7
100
AcDbEntity
  8
2D
100
AcDbVertex
100
AcDb2dVertex
 10
1273.782458223481
 20
154.6352515002019
 30
0.0000000000000313
  0
SEQEND
  5
AA
330
A7
100
AcDbEntity
  8
2D
  0
POLYLINE
  5
AB
330
1F
100
AcDbEntity
  8
2D
100
AcDb2dPolyline
 66
     1
 10
0.0
 20
0.0
 30
-0.0000000000004235
  0
VERTEX
  5
AC
330
AB
100
AcDbEntity
  8
2D
100
AcDbVertex
100
AcDb2dVertex
 10
1273.782458223481
 20
154.6352515002019
 30
-0.0000000000004235
  0
VERTEX
  5
AD
330
AB
100
AcDbEntity
  8
2D
100
AcDbVertex
100
AcDb2dVertex
 10
1285.121377610668
 20
138.2330410659073
 30
-0.0000000000004235
  0
SEQEND
  5
AE
330
AB
100
AcDbEntity
  8
2D
  0
POLYLINE
  5
AF
330
1F
100
AcDbEntity
  8
2D
100
AcDb2dPolyline
 66
     1
 10
0.0
 20
0.0
 30
-0.0000000000004235
  0
VERTEX
  5
B0
330
AF
100
AcDbEntity
  8
2D
100
AcDbVertex
100
AcDb2dVertex
 10
1285.121377610668
 20
138.2330410659073
 30
-0.0000000000004235
  0
VERTEX
  5
B1
330
AF
100
AcDbEntity
  8
2D
100
AcDbVertex
100
AcDb2dVertex
 10
1287.589112380121
 20
139.9389968413111
 30
-0.0000000000004235
  0
SEQEND
  5
B2
330
AF
100
AcDbEntity
  8
2D
  0
POLYLINE
  5
B3
330
1F
100
AcDbEntity
  8
2D
100
AcDb2dPolyline
 66
     1
 10
0.0
 20
0.0
 30
0.0000000000000313
  0
VERTEX
  5
B4
330
B3
100
AcDbEntity
  8
2D
100
AcDbVertex
100
AcDb2dVertex
 10
1287.589112380121
 20
139.9389968413111
 30
0.0000000000000313
  0
VERTEX
  5
B5
330
B3
100
AcDbEntity
  8
2D
100
AcDbVertex
100
AcDb2dVertex
 10
1293.274459505182
 20
131.7149098050588
 30
0.0000000000000313
  0
SEQEND
  5
B6
330
B3
100
AcDbEntity
  8
2D
  0
POLYLINE
  5
B7
330
1F
100
AcDbEntity
  8
2D
100
AcDb2dPolyline
 66
     1
 10
0.0
 20
0.0
 30
0.0000000000002586
  0
VERTEX
  5
B8
330
B7
100
AcDbEntity
  8
2D
100
AcDbVertex
100
AcDb2dVertex
 10
1293.274459505182
 20
131.7149098050588
 30
0.0000000000002586
  0
VERTEX
  5
B9
330
B7
100
AcDbEntity
  8
2D
100
AcDbVertex
100
AcDb2dVertex
 10
1290.80672473573
 20
130.0089540296547
 30
0.0000000000002586
  0
SEQEND
  5
BA
330
B7
100
AcDbEntity
  8
2D
  0
POLYLINE
  5
BB
330
1F
100
AcDbEntity
  8
2D
100
AcDb2dPolyline
 66
     1
 10
0.0
 20
0.0
 30
-0.0000000000001961
  0
VERTEX
  5
BC
330
BB
100
AcDbEntity
  8
2D
100
AcDbVertex
100
AcDb2dVertex
 10
1290.80672473573
 20
130.0089540296547
 30
-0.0000000000001961
  0
VERTEX
  5
BD
330
BB
100
AcDbEntity
  8
2D
100
AcDbVertex
100
AcDb2dVertex
 10
1302.111525007409
 20
113.6560982907483
 30
-0.0000000000001961
  0
SEQEND
  5
BE
330
BB
100
AcDbEntity
  8
2D
  0
POLYLINE
  5
BF
330
1F
100
AcDbEntity
  8
2D
100
AcDb2dPolyline
 66
     1
 10
0.0
 20
0.0
 30
-0.0000000000001961
  0
VERTEX
  5
C0
330
BF
100
AcDbEntity
  8
2D
100
AcDbVertex
100
AcDb2dVertex
 10
1302.111525007409
 20
113.6560982907483
 30
-0.0000000000001961
  0
VERTEX
  5
C1
330
BF
100
AcDbEntity
  8
2D
100
AcDbVertex
100
AcDb2dVertex
 10
1304.579259776861
 20
115.3620540661528
 30
-0.0000000000001961
  0
SEQEND
  5
C2
330
BF
100
AcDbEntity
  8
2D
  0
POLYLINE
  5
C3
330
1F
100
AcDbEntity
  8
2D
100
AcDb2dPolyline
 66
     1
 10
0.0
 20
0.0
 30
0.0000000000002586
  0
VERTEX
  5
C4
330
C3
100
AcDbEntity
  8
2D
100
AcDbVertex
100
AcDb2dVertex
 10
1304.579259776861
 20
115.3620540661528
 30
0.0000000000002586
  0
VERTEX
  5
C5
330
C3
100
AcDbEntity
  8
2D
100
AcDbVertex
100
AcDb2dVertex
 10
1310.264606901922
 20
107.1379670298996
 30
0.0000000000002586
  0
SEQEND
  5
C6
330
C3
100
AcDbEntity
  8
2D
  0
POLYLINE
  5
C7
330
1F
100
AcDbEntity
  8
2D
100
AcDb2dPolyline
 66
     1
 10
0.0
 20
0.0
 30
0.000000000000486
  0
VERTEX
  5
C8
330
C7
100
AcDbEntity
  8
2D
100
AcDbVertex
100
AcDb2dVertex
 10
1310.264606901922
 20
107.1379670298996
 30
0.000000000000486
  0
VERTEX
  5
C9
330
C7
100
AcDbEntity
  8
2D
100
AcDbVertex
100
AcDb2dVertex
 10
1307.79687213247
 20
105.4320112544959
 30
0.000000000000486
  0
SEQEND
  5
CA
330
C7
100
AcDbEntity
  8
2D
  0
POLYLINE
  5
CB
330
1F
100
AcDbEntity
  8
2D
100
AcDb2dPolyline
 66
     1
 10
0.0
 20
0.0
 30
0.0000000000000313
  0
VERTEX
  5
CC
330
CB
100
AcDbEntity
  8
2D
100
AcDbVertex
100
AcDb2dVertex
 10
1307.79687213247
 20
105.4320112544959
 30
0.0000000000000313
  0
VERTEX
  5
CD
330
CB
100
AcDbEntity
  8
2D
100
AcDbVertex
100
AcDb2dVertex
 10
1319.135791519657
 20
89.02980082020073
 30
0.0000000000000313
  0
SEQEND
  5
CE
330
CB
100
AcDbEntity
  8
2D
  0
POLYLINE
  5
CF
330
1F
100
AcDbEntity
  8
2D
100
AcDb2dPolyline
 66
     1
 10
0.0
 20
0.0
 30
0.0000000000000313
  0
VERTEX
  5
D0
330
CF
100
AcDbEntity
  8
2D
100
AcDbVertex
100
AcDb2dVertex
 10
1319.135791519657
 20
89.02980082020073
 30
0.0000000000000313
  0
VERTEX
  5
D1
330
CF
100
AcDbEntity
  8
2D
100
AcDbVertex
100
AcDb2dVertex
 10
1321.603526289109
 20
90.73575659560501
 30
0.0000000000000313
  0
SEQEND
  5
D2
330
CF
100
AcDbEntity
  8
2D
  0
POLYLINE
  5
D3
330
1F
100
AcDbEntity
  8
2D
100
AcDb2dPolyline
 66
     1
 10
0.0
 20
0.0
 30
0.000000000000486
  0
VERTEX
  5
D4
330
D3
100
AcDbEntity
  8
2D
100
AcDbVertex
100
AcDb2dVertex
 10
1321.603526289109
 20
90.73575659560501
 30
0.000000000000486
  0
VERTEX
  5
D5
330
D3
100
AcDbEntity
  8
2D
100
AcDbVertex
100
AcDb2dVertex
 10
1323.950192992934
 20
87.34120727560659
 30
0.000000000000486
  0
SEQEND
  5
D6
330
D3
100
AcDbEntity
  8
2D
  0
POLYLINE
  5
D7
330
1F
100
AcDbEntity
  8
2D
100
AcDb2dPolyline
 66
     1
 10
0.0
 20
0.0
 30
0.0000000000000597
  0
VERTEX
  5
D8
330
D7
100
AcDbEntity
  8
2D
100
AcDbVertex
100
AcDb2dVertex
 10
1323.950192992934
 20
87.34120727560659
 30
0.0000000000000597
  0
VERTEX
  5
D9
330
D7
100
AcDbEntity
  8
2D
100
AcDbVertex
100
AcDb2dVertex
 10
1323.950192992934
 20
111.5912072756065
 30
0.0000000000000597
  0
SEQEND
  5
DA
330
D7
100
AcDbEntity
  8
2D
  0
POLYLINE
  5
DB
330
1F
100
AcDbEntity
  8
2D
100
AcDb2dPolyline
 66
     1
 10
0.0
 20
0.0
 30
0.0000000000000597
  0
VERTEX
  5
DC
330
DB
100
AcDbEntity
  8
2D
100
AcDbVertex
100
AcDb2dVertex
 10
1323.950192992934
 20
111.5912072756065
 30
0.0000000000000597
  0
VERTEX
  5
DD
330
DB
100
AcDbEntity
  8
2D
100
AcDbVertex
100
AcDb2dVertex
 10
1326.950192992934
 20
111.5912072756066
 30
0.0000000000000597
  0
SEQEND
  5
DE
330
DB
100
AcDbEntity
  8
2D
  0
POLYLINE
  5
DF
330
1F
100
AcDbEntity
  8
2D
100
AcDb2dPolyline
 66
     1
 10
0.0
 20
0.0
 30
0.0
  0
VERTEX
  5
E0
330
DF
100
AcDbEntity
  8
2D
100
AcDbVertex
100
AcDb2dVertex
 10
1326.950192992934
 20
111.5912072756066
 30
0.0
  0
VERTEX
  5
E1
330
DF
100
AcDbEntity
  8
2D
100
AcDbVertex
100
AcDb2dVertex
 10
1326.950192992934
 20
132.0912072756065
 30
0.0
  0
SEQEND
  5
E2
330
DF
100
AcDbEntity
  8
2D
  0
POLYLINE
  5
E3
330
1F
100
AcDbEntity
  8
2D
100
AcDb2dPolyline
 66
     1
 10
0.0
 20
0.0
 30
0.0
  0
VERTEX
  5
E4
330
E3
100
AcDbEntity
  8
2D
100
AcDbVertex
100
AcDb2dVertex
 10
1326.950192992934
 20
132.0912072756065
 30
0.0
  0
VERTEX
  5
E5
330
E3
100
AcDbEntity
  8
2D
100
AcDbVertex
100
AcDb2dVertex
 10
1323.950192992934
 20
132.0912072756066
 30
0.0
  0
SEQEND
  5
E6
330
E3
100
AcDbEntity
  8
2D
  0
POLYLINE
  5
E7
330
1F
100
AcDbEntity
  8
2D
100
AcDb2dPolyline
 66
     1
 10
0.0
 20
0.0
 30
-0.0000000000000256
  0
VERTEX
  5
E8
330
E7
100
AcDbEntity
  8
2D
100
AcDbVertex
100
AcDb2dVertex
 10
1323.950192992934
 20
132.0912072756066
 30
-0.0000000000000256
  0
VERTEX
  5
E9
330
E7
100
AcDbEntity
  8
2D
100
AcDbVertex
100
AcDb2dVertex
 10
1323.950192992934
 20
156.3412072756064
 30
-0.0000000000000256
  0
SEQEND
  5
EA
330
E7
100
AcDbEntity
  8
2D
  0
POLYLINE
  5
EB
330
1F
100
AcDbEntity
  8
2D
100
AcDb2dPolyline
 66
     1
 10
0.0
 20
0.0
 30
0.0000000000000597
  0
VERTEX
  5
EC
330
EB
100
AcDbEntity
  8
2D
100
AcDbVertex
100
AcDb2dVertex
 10
1323.950192992934
 20
156.3412072756064
 30
0.0000000000000597
  0
VERTEX
  5
ED
330
EB
100
AcDbEntity
  8
2D
100
AcDbVertex
100
AcDb2dVertex
 10
1323.950192992934
 20
166.3412072756063
 30
0.0000000000000597
  0
SEQEND
  5
EE
330
EB
100
AcDbEntity
  8
2D
  0
POLYLINE
  5
EF
330
1F
100
AcDbEntity
  8
2D
100
AcDb2dPolyline
 66
     1
 10
0.0
 20
0.0
 30
0.0000000000000313
  0
VERTEX
  5
F0
330
EF
100
AcDbEntity
  8
2D
100
AcDbVertex
100
AcDb2dVertex
 10
1323.950192992934
 20
166.3412072756063
 30
0.0000000000000313
  0
VERTEX
  5
F1
330
EF
100
AcDbEntity
  8
2D
100
AcDbVertex
100
AcDb2dVertex
 10
1311.250192992934
 20
166.341207275606
 30
0.0000000000000313
  0
SEQEND
  5
F2
330
EF
100
AcDbEntity
  8
2D
  0
POLYLINE
  5
F3
330
1F
100
AcDbEntity
  8
2D
100
AcDb2dPolyline
 66
     1
 10
0.0
 20
0.0
 30
-0.0000000000000554
  0
VERTEX
  5
F4
330
F3
100
AcDbEntity
  8
2D
100
AcDbVertex
100
AcDb2dVertex
 10
1311.250192992934
 20
166.341207275606
 30
-0.0000000000000554
  0
VERTEX
  5
F5
330
F3
100
AcDbEntity
  8
2D
100
AcDbVertex
100
AcDb2dVertex
 10
1311.250192992934
 20
156.341207275606
 30
-0.0000000000000554
  0
SEQEND
  5
F6
330
F3
100
AcDbEntity
  8
2D
  0
POLYLINE
  5
F7
330
1F
100
AcDbEntity
  8
2D
100
AcDb2dPolyline
 66
     1
 10
0.0
 20
0.0
 30
0.0000000000004303
  0
VERTEX
  5
F8
330
F7
100
AcDbEntity
  8
2D
100
AcDbVertex
100
AcDb2dVertex
 10
1311.250192992934
 20
156.341207275606
 30
0.0000000000004303
  0
VERTEX
  5
F9
330
F7
100
AcDbEntity
  8
2D
100
AcDbVertex
100
AcDb2dVertex
 10
1292.750192992934
 20
156.341207275606
 30
0.0000000000004303
  0
SEQEND
  5
FA
330
F7
100
AcDbEntity
  8
2D
  0
POLYLINE
  5
FB
330
1F
100
AcDbEntity
  8
2D
100
AcDb2dPolyline
 66
     1
 10
0.0
 20
0.0
 30
0.0000000000002576
  0
VERTEX
  5
FC
330
FB
100
AcDbEntity
  8
2D
100
AcDbVertex
100
AcDb2dVertex
 10
1292.750192992934
 20
156.341207275606
 30
0.0000000000002576
  0
VERTEX
  5
FD
330
FB
100
AcDbEntity
  8
2D
100
AcDbVertex
100
AcDb2dVertex
 10
1292.750192992934
 20
166.3412072756061
 30
0.0000000000002576
  0
SEQEND
  5
FE
330
FB
100
AcDbEntity
  8
2D
  0
POLYLINE
  5
100
330
1F
100
AcDbEntity
  8
2D$Panel de control$interiores
100
AcDb2dPolyline
 66
     1
 10
0.0
 20
0.0
 30
0.0000000000001489
  0
VERTEX
  5
101
330
100
100
AcDbEntity
  8
2D$Panel de control$interiores
100
AcDbVertex
100
AcDb2dVertex
 10
1393.504197766561
 20
109.1757162112539
 30
0.0000000000001489
  0
VERTEX
  5
102
330
100
100
AcDbEntity
  8
2D$Panel de control$interiores
100
AcDbVertex
100
AcDb2dVertex
 10
1407.504197766561
 20
109.1757162112539
 30
0.0000000000001489
  0
VERTEX
  5
103
330
100
100
AcDbEntity
  8
2D$Panel de control$interiores
100
AcDbVertex
100
AcDb2dVertex
 10
1407.504197766561
 20
123.1757162112539
 30
0.0000000000001489
  0
VERTEX
  5
104
330
100
100
AcDbEntity
  8
2D$Panel de control$interiores
100
AcDbVertex
100
AcDb2dVertex
 10
1393.504197766561
 20
123.1757162112539
 30
0.0000000000001489
  0
VERTEX
  5
105
330
100
100
AcDbEntity
  8
2D$Panel de control$interiores
100
AcDbVertex
100
AcDb2dVertex
 10
1393.504197766561
 20
109.1757162112539
 30
0.0000000000001489
  0
SEQEND
  5
106
330
100
100
AcDbEntity
  8
2D$Panel de control$interiores
  0
POLYLINE
  5
107
330
1F
100
AcDbEntity
  8
2D$Panel de control$interiores
100
AcDb2dPolyline
 66
     1
 10
0.0
 20
0.0
 30
0.0000000000001489
  0
VERTEX
  5
108
330
107
100
AcDbEntity
  8
2D$Panel de control$interiores
100
AcDbVertex
100
AcDb2dVertex
 10
1374.504197766561
 20
108.1757162112539
 30
0.0000000000001489
  0
VERTEX
  5
109
330
107
100
AcDbEntity
  8
2D$Panel de control$interiores
100
AcDbVertex
100
AcDb2dVertex
 10
1374.504197766561
 20
116.1757162112539
 30
0.0000000000001489
  0
VERTEX
  5
10A
330
107
100
AcDbEntity
  8
2D$Panel de control$interiores
100
AcDbVertex
100
AcDb2dVertex
 10
1382.504197766561
 20
116.1757162112539
 30
0.0000000000001489
  0
VERTEX
  5
10B
330
107
100
AcDbEntity
  8
2D$Panel de control$interiores
100
AcDbVertex
100
AcDb2dVertex
 10
1382.504197766561
 20
108.1757162112539
 30
0.0000000000001489
  0
VERTEX
  5
10C
330
107
100
AcDbEntity
  8
2D$Panel de control$interiores
100
AcDbVertex
100
AcDb2dVertex
 10
1374.504197766561
 20
108.1757162112539
 30
0.0000000000001489
  0
SEQEND
  5
10D
330
107
100
AcDbEntity
  8
2D$Panel de control$interiores
  0
POLYLINE
  5
10E
330
1F
100
AcDbEntity
  8
2D$Panel de control$interiores
100
AcDb2dPolyline
 66
     1
 10
0.0
 20
0.0
 30
0.0
  0
VERTEX
  5
10F
330
10E
100
AcDbEntity
  8
2D$Panel de control$interiores
100
AcDbVertex
100
AcDb2dVertex
 10
1373.0
 20
162.5314324225079
 30
0.0
  0
VERTEX
  5
110
330
10E
100
AcDbEntity
  8
2D$Panel de control$interiores
100
AcDbVertex
100
AcDb2dVertex
 10
1432.008395533121
 20
162.5314324225079
 30
0.0
  0
VERTEX
  5
111
330
10E
100
AcDbEntity
  8
2D$Panel de control$interiores
100
AcDbVertex
100
AcDb2dVertex
 10
1432.008395533121
 20
135.18
 30
0.0
  0
VERTEX
  5
112
330
10E
100
AcDbEntity
  8
2D$Panel de control$interiores
100
AcDbVertex
100
AcDb2dVertex
 10
1373.0
 20
135.18
 30
0.0
  0
VERTEX
  5
113
330
10E
100
AcDbEntity
  8
2D$Panel de control$interiores
100
AcDbVertex
100
AcDb2dVertex
 10
1373.0
 20
162.5314324225079
 30
0.0
  0
SEQEND
  5
114
330
10E
100
AcDbEntity
  8
2D$Panel de control$interiores
  0
POLYLINE
  5
116
330
1F
100
AcDbEntity
  8
2D$Panel de control
100
AcDb2dPolyline
 66
     1
 10
0.0
 20
0.0
 30
0.0
  0
VERTEX
  5
117
330
116
100
AcDbEntity
  8
2D$Panel de control
100
AcDbVertex
100
AcDb2dVertex
 10
1338.0
 20
167.0
 30
0.0
  0
VERTEX
  5
118
330
116
100
AcDbEntity
  8
2D$Panel de control
100
AcDbVertex
100
AcDb2dVertex
 10
1452.0
 20
167.0
 30
0.0
  0
VERTEX
  5
119
330
116
100
AcDbEntity
  8
2D$Panel de control
100
AcDbVertex
100
AcDb2dVertex
 10
1452.0
 20
147.3099999999999
 30
0.0
  0
VERTEX
  5
11A
330
116
100
AcDbEntity
  8
2D$Panel de control
100
AcDbVertex
100
AcDb2dVertex
 10
1455.0
 20
147.3099999999997
 30
0.0
  0
VERTEX
  5
11B
330
116
100
AcDbEntity
  8
2D$Panel de control
100
AcDbVertex
100
AcDb2dVertex
 10
1455.0
 20
136.8120612368191
 30
0.0
  0
VERTEX
  5
11C
330
116
100
AcDbEntity
  8
2D$Panel de control
100
AcDbVertex
100
AcDb2dVertex
 10
1452.0
 20
136.8120612368194
 30
0.0
  0
VERTEX
  5
11D
330
116
100
AcDbEntity
  8
2D$Panel de control
100
AcDbVertex
100
AcDb2dVertex
 10
1452.0
 20
117.4320612368191
 30
0.0
  0
VERTEX
  5
11E
330
116
100
AcDbEntity
  8
2D$Panel de control
100
AcDbVertex
100
AcDb2dVertex
 10
1455.0
 20
117.4320612368188
 30
0.0
  0
VERTEX
  5
11F
330
116
100
AcDbEntity
  8
2D$Panel de control
100
AcDbVertex
100
AcDb2dVertex
 10
1455.0
 20
106.9341224736382
 30
0.0
  0
VERTEX
  5
120
330
116
100
AcDbEntity
  8
2D$Panel de control
100
AcDbVertex
100
AcDb2dVertex
 10
1452.0
 20
106.9341224736381
 30
0.0
  0
VERTEX
  5
121
330
116
100
AcDbEntity
  8
2D$Panel de control
100
AcDbVertex
100
AcDb2dVertex
 10
1452.0
 20
87.24412247363809
 30
0.0
  0
VERTEX
  5
122
330
116
100
AcDbEntity
  8
2D$Panel de control
100
AcDbVertex
100
AcDb2dVertex
 10
1338.0
 20
87.24412247363809
 30
0.0
  0
VERTEX
  5
123
330
116
100
AcDbEntity
  8
2D$Panel de control
100
AcDbVertex
100
AcDb2dVertex
 10
1338.0
 20
106.9341224736381
 30
0.0
  0
VERTEX
  5
124
330
116
100
AcDbEntity
  8
2D$Panel de control
100
AcDbVertex
100
AcDb2dVertex
 10
1335.0
 20
106.9341224736382
 30
0.0
  0
VERTEX
  5
125
330
116
100
AcDbEntity
  8
2D$Panel de control
100
AcDbVertex
100
AcDb2dVertex
 10
1335.0
 20
117.4320612368187
 30
0.0
  0
VERTEX
  5
126
330
116
100
AcDbEntity
  8
2D$Panel de control
100
AcDbVertex
100
AcDb2dVertex
 10
1338.0
 20
117.4320612368191
 30
0.0
  0
VERTEX
  5
127
330
116
100
AcDbEntity
  8
2D$Panel de control
100
AcDbVertex
100
AcDb2dVertex
 10
1338.0
 20
136.8120612368194
 30
0.0
  0
VERTEX
  5
128
330
116
100
AcDbEntity
  8
2D$Panel de control
100
AcDbVertex
100
AcDb2dVertex
 10
1335.0
 20
136.812061236819
 30
0.0
  0
VERTEX
  5
129
330
116
100
AcDbEntity
  8
2D$Panel de control
100
AcDbVertex
100
AcDb2dVertex
 10
1335.0
 20
147.3099999999996
 30
0.0
  0
VERTEX
  5
12A
330
116
100
AcDbEntity
  8
2D$Panel de control
100
AcDbVertex
100
AcDb2dVertex
 10
1338.0
 20
147.3099999999999
 30
0.0
  0
VERTEX
  5
12B
330
116
100
AcDbEntity
  8
2D$Panel de control
100
AcDbVertex
100
AcDb2dVertex
 10
1338.0
 20
167.0
 30
0.0
  0
SEQEND
  5
12C
330
116
100
AcDbEntity
  8
2D$Panel de control
  0
POLYLINE
  5
12D
330
1F
100
AcDbEntity
  8
2D$Panel de control$interiores
100
AcDb2dPolyline
 66
     1
 10
0.0
 20
0.0
 30
0.0000000000001489
  0
VERTEX
  5
12E
330
12D
100
AcDbEntity
  8
2D$Panel de control$interiores
100
AcDbVertex
100
AcDb2dVertex
 10
1371.707957426966
 20
114.1757162112539
 30
0.0000000000001489
  0
VERTEX
  5
12F
330
12D
100
AcDbEntity
  8
2D$Panel de control$interiores
100
AcDbVertex
100
AcDb2dVertex
 10
1371.70723220865
 20
114.2174948082535
 30
0.0000000000001489
  0
VERTEX
  5
130
330
12D
100
AcDbEntity
  8
2D$Panel de control$interiores
100
AcDbVertex
100
AcDb2dVertex
 10
1371.705057427532
 20
114.2592230652978
 30
0.0000000000001489
  0
VERTEX
  5
131
330
12D
100
AcDbEntity
  8
2D$Panel de control$interiores
100
AcDbVertex
100
AcDb2dVertex
 10
1371.701435704054
 20
114.3008507030871
 30
0.0000000000001489
  0
VERTEX
  5
132
330
12D
100
AcDbEntity
  8
2D$Panel de control$interiores
100
AcDbVertex
100
AcDb2dVertex
 10
1371.696371402111
 20
114.3423275635601
 30
0.0000000000001489
  0
VERTEX
  5
133
330
12D
100
AcDbEntity
  8
2D$Panel de control$interiores
100
AcDbVertex
100
AcDb2dVertex
 10
1371.689870623793
 20
114.3836036703305
 30
0.0000000000001489
  0
VERTEX
  5
134
330
12D
100
AcDbEntity
  8
2D$Panel de control$interiores
100
AcDbVertex
100
AcDb2dVertex
 10
1371.681941202031
 20
114.4246292889046
 30
0.0000000000001489
  0
VERTEX
  5
135
330
12D
100
AcDbEntity
  8
2D$Panel de control$interiores
100
AcDbVertex
100
AcDb2dVertex
 10
1371.672592691161
 20
114.4653549866072
 30
0.0000000000001489
  0
VERTEX
  5
136
330
12D
100
AcDbEntity
  8
2D$Panel de control$interiores
100
AcDbVertex
100
AcDb2dVertex
 10
1371.661836355409
 20
114.5057316921448
 30
0.0000000000001489
  0
VERTEX
  5
137
330
12D
100
AcDbEntity
  8
2D$Panel de control$interiores
100
AcDbVertex
100
AcDb2dVertex
 10
1371.649685155324
 20
114.545710754732
 30
0.0000000000001489
  0
VERTEX
  5
138
330
12D
100
AcDbEntity
  8
2D$Panel de control$interiores
100
AcDbVertex
100
AcDb2dVertex
 10
1371.636153732154
 20
114.5852440027122
 30
0.0000000000001489
  0
VERTEX
  5
139
330
12D
100
AcDbEntity
  8
2D$Panel de control$interiores
100
AcDbVertex
100
AcDb2dVertex
 10
1371.621258390211
 20
114.6242838016007
 30
0.0000000000001489
  0
VERTEX
  5
13A
330
12D
100
AcDbEntity
  8
2D$Panel de control$interiores
100
AcDbVertex
100
AcDb2dVertex
 10
1371.605017077221
 20
114.6627831114806
 30
0.0000000000001489
  0
VERTEX
  5
13B
330
12D
100
AcDbEntity
  8
2D$Panel de control$interiores
100
AcDbVertex
100
AcDb2dVertex
 10
1371.587449362702
 20
114.7006955436822
 30
0.0000000000001489
  0
VERTEX
  5
13C
330
12D
100
AcDbEntity
  8
2D$Panel de control$interiores
100
AcDbVertex
100
AcDb2dVertex
 10
1371.568576414381
 20
114.7379754166774
 30
0.0000000000001489
  0
VERTEX
  5
13D
330
12D
100
AcDbEntity
  8
2D$Panel de control$interiores
100
AcDbVertex
100
AcDb2dVertex
 10
1371.548420972691
 20
114.774577811123
 30
0.0000000000001489
  0
VERTEX
  5
13E
330
12D
100
AcDbEntity
  8
2D$Panel de control$interiores
100
AcDbVertex
100
AcDb2dVertex
 10
1371.52700732337
 20
114.8104586239846
 30
0.0000000000001489
  0
VERTEX
  5
13F
330
12D
100
AcDbEntity
  8
2D$Panel de control$interiores
100
AcDbVertex
100
AcDb2dVertex
 10
1371.504361268197
 20
114.8455746216772
 30
0.0000000000001489
  0
VERTEX
  5
140
330
12D
100
AcDbEntity
  8
2D$Panel de control$interiores
100
AcDbVertex
100
AcDb2dVertex
 10
1371.480510093904
 20
114.8798834921589
 30
0.0000000000001489
  0
VERTEX
  5
141
330
12D
100
AcDbEntity
  8
2D$Panel de control$interiores
100
AcDbVertex
100
AcDb2dVertex
 10
1371.455482539299
 20
114.9133438959128
 30
0.0000000000001489
  0
VERTEX
  5
142
330
12D
100
AcDbEntity
  8
2D$Panel de control$interiores
100
AcDbVertex
100
AcDb2dVertex
 10
1371.429308760637
 20
114.9459155157586
 30
0.0000000000001489
  0
VERTEX
  5
143
330
12D
100
AcDbEntity
  8
2D$Panel de control$interiores
100
AcDbVertex
100
AcDb2dVertex
 10
1371.402020295281
 20
114.9775591054313
 30
0.0000000000001489
  0
VERTEX
  5
144
330
12D
100
AcDbEntity
  8
2D$Panel de control$interiores
100
AcDbVertex
100
AcDb2dVertex
 10
1371.373650023706
 20
115.0082365368699
 30
0.0000000000001489
  0
VERTEX
  5
145
330
12D
100
AcDbEntity
  8
2D$Panel de control$interiores
100
AcDbVertex
100
AcDb2dVertex
 10
1371.344232129882
 20
115.0379108461591
 30
0.0000000000001489
  0
VERTEX
  5
146
330
12D
100
AcDbEntity
  8
2D$Panel de control$interiores
100
AcDbVertex
100
AcDb2dVertex
 10
1371.313802060077
 20
115.0665462780673
 30
0.0000000000001489
  0
VERTEX
  5
147
330
12D
100
AcDbEntity
  8
2D$Panel de control$interiores
100
AcDbVertex
100
AcDb2dVertex
 10
1371.282396480158
 20
115.0941083291294
 30
0.0000000000001489
  0
VERTEX
  5
148
330
12D
100
AcDbEntity
  8
2D$Panel de control$interiores
100
AcDbVertex
100
AcDb2dVertex
 10
1371.2500532314
 20
115.1205637892207
 30
0.0000000000001489
  0
VERTEX
  5
149
330
12D
100
AcDbEntity
  8
2D$Panel de control$interiores
100
AcDbVertex
100
AcDb2dVertex
 10
1371.216811284899
 20
115.1458807815723
 30
0.0000000000001489
  0
VERTEX
  5
14A
330
12D
100
AcDbEntity
  8
2D$Panel de control$interiores
100
AcDbVertex
100
AcDb2dVertex
 10
1371.182710694613
 20
115.1700288011802
 30
0.0000000000001489
  0
VERTEX
  5
14B
330
12D
100
AcDbEntity
  8
2D$Panel de control$interiores
100
AcDbVertex
100
AcDb2dVertex
 10
1371.147792549096
 20
115.1929787515617
 30
0.0000000000001489
  0
VERTEX
  5
14C
330
12D
100
AcDbEntity
  8
2D$Panel de control$interiores
100
AcDbVertex
100
AcDb2dVertex
 10
1371.112098921994
 20
115.214702979814
 30
0.0000000000001489
  0
VERTEX
  5
14D
330
12D
100
AcDbEntity
  8
2D$Panel de control$interiores
100
AcDbVertex
100
AcDb2dVertex
 10
1371.075672821347
 20
115.2351753099343
 30
0.0000000000001489
  0
VERTEX
  5
14E
330
12D
100
AcDbEntity
  8
2D$Panel de control$interiores
100
AcDbVertex
100
AcDb2dVertex
 10
1371.03855813777
 20
115.2543710743591
 30
0.0000000000001489
  0
VERTEX
  5
14F
330
12D
100
AcDbEntity
  8
2D$Panel de control$interiores
100
AcDbVertex
100
AcDb2dVertex
 10
1371.000799591566
 20
115.2722671436876
 30
0.0000000000001489
  0
VERTEX
  5
150
330
12D
100
AcDbEntity
  8
2D$Panel de control$interiores
100
AcDbVertex
100
AcDb2dVertex
 10
1370.962442678842
 20
115.2888419545499
 30
0.0000000000001489
  0
VERTEX
  5
151
330
12D
100
AcDbEntity
  8
2D$Panel de control$interiores
100
AcDbVertex
100
AcDb2dVertex
 10
1370.92353361669
 20
115.3040755355901
 30
0.0000000000001489
  0
VERTEX
  5
152
330
12D
100
AcDbEntity
  8
2D$Panel de control$interiores
100
AcDbVertex
100
AcDb2dVertex
 10
1370.884119287499
 20
115.3179495315294
 30
0.0000000000001489
  0
VERTEX
  5
153
330
12D
100
AcDbEntity
  8
2D$Panel de control$interiores
100
AcDbVertex
100
AcDb2dVertex
 10
1370.844247182467
 20
115.3304472252834
 30
0.0000000000001489
  0
VERTEX
  5
154
330
12D
100
AcDbEntity
  8
2D$Panel de control$interiores
100
AcDbVertex
100
AcDb2dVertex
 10
1370.803965344374
 20
115.3415535581045
 30
0.0000000000001489
  0
VERTEX
  5
155
330
12D
100
AcDbEntity
  8
2D$Panel de control$interiores
100
AcDbVertex
100
AcDb2dVertex
 10
1370.763322309698
 20
115.3512551477267
 30
0.0000000000001489
  0
VERTEX
  5
156
330
12D
100
AcDbEntity
  8
2D$Panel de control$interiores
100
AcDbVertex
100
AcDb2dVertex
 10
1370.722367050131
 20
115.3595403044901
 30
0.0000000000001489
  0
VERTEX
  5
157
330
12D
100
AcDbEntity
  8
2D$Panel de control$interiores
100
AcDbVertex
100
AcDb2dVertex
 10
1370.681148913568
 20
115.3663990454261
 30
0.0000000000001489
  0
VERTEX
  5
158
330
12D
100
AcDbEntity
  8
2D$Panel de control$interiores
100
AcDbVertex
100
AcDb2dVertex
 10
1370.639717564657
 20
115.3718231062862
 30
0.0000000000001489
  0
VERTEX
  5
159
330
12D
100
AcDbEntity
  8
2D$Panel de control$interiores
100
AcDbVertex
100
AcDb2dVertex
 10
1370.598122924943
 20
115.3758059514995
 30
0.0000000000001489
  0
VERTEX
  5
15A
330
12D
100
AcDbEntity
  8
2D$Panel de control$interiores
100
AcDbVertex
100
AcDb2dVertex
 10
1370.55641511273
 20
115.3783427820476
 30
0.0000000000001489
  0
VERTEX
  5
15B
330
12D
100
AcDbEntity
  8
2D$Panel de control$interiores
100
AcDbVertex
100
AcDb2dVertex
 10
1370.514644382682
 20
115.3794305412473
 30
0.0000000000001489
  0
VERTEX
  5
15C
330
12D
100
AcDbEntity
  8
2D$Panel de control$interiores
100
AcDbVertex
100
AcDb2dVertex
 10
1370.472861065274
 20
115.3790679184336
 30
0.0000000000001489
  0
VERTEX
  5
15D
330
12D
100
AcDbEntity
  8
2D$Panel de control$interiores
100
AcDbVertex
100
AcDb2dVertex
 10
1370.431115506151
 20
115.3772553505387
 30
0.0000000000001489
  0
VERTEX
  5
15E
330
12D
100
AcDbEntity
  8
2D$Panel de control$interiores
100
AcDbVertex
100
AcDb2dVertex
 10
1370.38945800546
 20
115.3739950215658
 30
0.0000000000001489
  0
VERTEX
  5
15F
330
12D
100
AcDbEntity
  8
2D$Panel de control$interiores
100
AcDbVertex
100
AcDb2dVertex
 10
1370.347938757244
 20
115.3692908599572
 30
0.0000000000001489
  0
VERTEX
  5
160
330
12D
100
AcDbEntity
  8
2D$Panel de control$interiores
100
AcDbVertex
100
AcDb2dVertex
 10
1370.306607788963
 20
115.3631485338614
 30
0.0000000000001489
  0
VERTEX
  5
161
330
12D
100
AcDbEntity
  8
2D$Panel de control$interiores
100
AcDbVertex
100
AcDb2dVertex
 10
1370.265514901216
 20
115.3555754443029
 30
0.0000000000001489
  0
VERTEX
  5
162
330
12D
100
AcDbEntity
  8
2D$Panel de control$interiores
100
AcDbVertex
100
AcDb2dVertex
 10
1370.224709607731
 20
115.3465807162647
 30
0.0000000000001489
  0
VERTEX
  5
163
330
12D
100
AcDbEntity
  8
2D$Panel de control$interiores
100
AcDbVertex
100
AcDb2dVertex
 10
1370.184241075709
 20
115.3361751876936
 30
0.0000000000001489
  0
VERTEX
  5
164
330
12D
100
AcDbEntity
  8
2D$Panel de control$interiores
100
AcDbVertex
100
AcDb2dVertex
 10
1370.144158066579
 20
115.324371396441
 30
0.0000000000001489
  0
VERTEX
  5
165
330
12D
100
AcDbEntity
  8
2D$Panel de control$interiores
100
AcDbVertex
100
AcDb2dVertex
 10
1370.104508877245
 20
115.3111835651561
 30
0.0000000000001489
  0
VERTEX
  5
166
330
12D
100
AcDbEntity
  8
2D$Panel de control$interiores
100
AcDbVertex
100
AcDb2dVertex
 10
1370.065341281892
 20
115.2966275841483
 30
0.0000000000001489
  0
VERTEX
  5
167
330
12D
100
AcDbEntity
  8
2D$Panel de control$interiores
100
AcDbVertex
100
AcDb2dVertex
 10
1370.026702474421
 20
115.280720992241
 30
0.0000000000001489
  0
VERTEX
  5
168
330
12D
100
AcDbEntity
  8
2D$Panel de control$interiores
100
AcDbVertex
100
AcDb2dVertex
 10
1369.988639011586
 20
115.2634829556386
 30
0.0000000000001489
  0
VERTEX
  5
169
330
12D
100
AcDbEntity
  8
2D$Panel de control$interiores
100
AcDbVertex
100
AcDb2dVertex
 10
1369.951196756896
 20
115.2449342448326
 30
0.0000000000001489
  0
VERTEX
  5
16A
330
12D
100
AcDbEntity
  8
2D$Panel de control$interiores
100
AcDbVertex
100
AcDb2dVertex
 10
1369.91442082535
 20
115.2250972095747
 30
0.0000000000001489
  0
VERTEX
  5
16B
330
12D
100
AcDbEntity
  8
2D$Panel de control$interiores
100
AcDbVertex
100
AcDb2dVertex
 10
1369.878355529083
 20
115.2039957519474
 30
0.0000000000001489
  0
VERTEX
  5
16C
330
12D
100
AcDbEntity
  8
2D$Panel de control$interiores
100
AcDbVertex
100
AcDb2dVertex
 10
1369.843044323966
 20
115.1816552975636
 30
0.0000000000001489
  0
VERTEX
  5
16D
330
12D
100
AcDbEntity
  8
2D$Panel de control$interiores
100
AcDbVertex
100
AcDb2dVertex
 10
1369.808529757252
 20
115.1581027649308
 30
0.0000000000001489
  0
VERTEX
  5
16E
330
12D
100
AcDbEntity
  8
2D$Panel de control$interiores
100
AcDbVertex
100
AcDb2dVertex
 10
1369.774853416306
 20
115.1333665330163
 30
0.0000000000001489
  0
VERTEX
  5
16F
330
12D
100
AcDbEntity
  8
2D$Panel de control$interiores
100
AcDbVertex
100
AcDb2dVertex
 10
1369.742055878495
 20
115.1074764070531
 30
0.0000000000001489
  0
VERTEX
  5
170
330
12D
100
AcDbEntity
  8
2D$Panel de control$interiores
100
AcDbVertex
100
AcDb2dVertex
 10
1369.710176662298
 20
115.0804635826262
 30
0.0000000000001489
  0
VERTEX
  5
171
330
12D
100
AcDbEntity
  8
2D$Panel de control$interiores
100
AcDbVertex
100
AcDb2dVertex
 10
1369.679254179687
 20
115.0523606080853
 30
0.0000000000001489
  0
VERTEX
  5
172
330
12D
100
AcDbEntity
  8
2D$Panel de control$interiores
100
AcDbVertex
100
AcDb2dVertex
 10
1369.649325689845
 20
115.0232013453258
 30
0.0000000000001489
  0
VERTEX
  5
173
330
12D
100
AcDbEntity
  8
2D$Panel de control$interiores
100
AcDbVertex
100
AcDb2dVertex
 10
1369.620427254273
 20
114.9930209289881
 30
0.0000000000001489
  0
VERTEX
  5
174
330
12D
100
AcDbEntity
  8
2D$Panel de control$interiores
100
AcDbVertex
100
AcDb2dVertex
 10
1369.592593693333
 20
114.9618557241234
 30
0.0000000000001489
  0
VERTEX
  5
175
330
12D
100
AcDbEntity
  8
2D$Panel de control$interiores
100
AcDbVertex
100
AcDb2dVertex
 10
1369.565858544299
 20
114.9297432823759
 30
0.0000000000001489
  0
VERTEX
  5
176
330
12D
100
AcDbEntity
  8
2D$Panel de control$interiores
100
AcDbVertex
100
AcDb2dVertex
 10
1369.540254020942
 20
114.896722296737
 30
0.0000000000001489
  0
VERTEX
  5
177
330
12D
100
AcDbEntity
  8
2D$Panel de control$interiores
100
AcDbVertex
100
AcDb2dVertex
 10
1369.515810974721
 20
114.8628325549224
 30
0.0000000000001489
  0
VERTEX
  5
178
330
12D
100
AcDbEntity
  8
2D$Panel de control$interiores
100
AcDbVertex
100
AcDb2dVertex
 10
1369.4925588576
 20
114.8281148914313
 30
0.0000000000001489
  0
VERTEX
  5
179
330
12D
100
AcDbEntity
  8
2D$Panel de control$interiores
100
AcDbVertex
100
AcDb2dVertex
 10
1369.470525686571
 20
114.7926111383443
 30
0.0000000000001489
  0
VERTEX
  5
17A
330
12D
100
AcDbEntity
  8
2D$Panel de control$interiores
100
AcDbVertex
100
AcDb2dVertex
 10
1369.449738009888
 20
114.7563640749185
 30
0.0000000000001489
  0
VERTEX
  5
17B
330
12D
100
AcDbEntity
  8
2D$Panel de control$interiores
100
AcDbVertex
100
AcDb2dVertex
 10
1369.430220875083
 20
114.7194173760421
 30
0.0000000000001489
  0
VERTEX
  5
17C
330
12D
100
AcDbEntity
  8
2D$Panel de control$interiores
100
AcDbVertex
100
AcDb2dVertex
 10
1369.411997798783
 20
114.6818155596097
 30
0.0000000000001489
  0
VERTEX
  5
17D
330
12D
100
AcDbEntity
  8
2D$Panel de control$interiores
100
AcDbVertex
100
AcDb2dVertex
 10
1369.395090738375
 20
114.6436039328812
 30
0.0000000000001489
  0
VERTEX
  5
17E
330
12D
100
AcDbEntity
  8
2D$Panel de control$interiores
100
AcDbVertex
100
AcDb2dVertex
 10
1369.379520065551
 20
114.6048285378908
 30
0.0000000000001489
  0
VERTEX
  5
17F
330
12D
100
AcDbEntity
  8
2D$Panel de control$interiores
100
AcDbVertex
100
AcDb2dVertex
 10
1369.365304541758
 20
114.5655360959691
 30
0.0000000000001489
  0
VERTEX
  5
180
330
12D
100
AcDbEntity
  8
2D$Panel de control$interiores
100
AcDbVertex
100
AcDb2dVertex
 10
1369.352461295596
 20
114.5257739514485
 30
0.0000000000001489
  0
VERTEX
  5
181
330
12D
100
AcDbEntity
  8
2D$Panel de control$interiores
100
AcDbVertex
100
AcDb2dVertex
 10
1369.341005802175
 20
114.485590014616
 30
0.0000000000001489
  0
VERTEX
  5
182
330
12D
100
AcDbEntity
  8
2D$Panel de control$interiores
100
AcDbVertex
100
AcDb2dVertex
 10
1369.330951864474
 20
114.4450327039858
 30
0.0000000000001489
  0
VERTEX
  5
183
330
12D
100
AcDbEntity
  8
2D$Panel de control$interiores
100
AcDbVertex
100
AcDb2dVertex
 10
1369.322311596704
 20
114.4041508879581
 30
0.0000000000001489
  0
VERTEX
  5
184
330
12D
100
AcDbEntity
  8
2D$Panel de control$interiores
100
AcDbVertex
100
AcDb2dVertex
 10
1369.315095409714
 20
114.3629938259372
 30
0.0000000000001489
  0
VERTEX
  5
185
330
12D
100
AcDbEntity
  8
2D$Panel de control$interiores
100
AcDbVertex
100
AcDb2dVertex
 10
1369.309311998448
 20
114.3216111089772
 30
0.0000000000001489
  0
VERTEX
  5
186
330
12D
100
AcDbEntity
  8
2D$Panel de control$interiores
100
AcDbVertex
100
AcDb2dVertex
 10
1369.304968331466
 20
114.2800526000288
 30
0.0000000000001489
  0
VERTEX
  5
187
330
12D
100
AcDbEntity
  8
2D$Panel de control$interiores
100
AcDbVertex
100
AcDb2dVertex
 10
1369.302069642549
 20
114.2383683738584
 30
0.0000000000001489
  0
VERTEX
  5
188
330
12D
100
AcDbEntity
  8
2D$Panel de control$interiores
100
AcDbVertex
100
AcDb2dVertex
 10
1369.30061942439
 20
114.1966086567119
 30
0.0000000000001489
  0
VERTEX
  5
189
330
12D
100
AcDbEntity
  8
2D$Panel de control$interiores
100
AcDbVertex
100
AcDb2dVertex
 10
1369.30061942439
 20
114.1548237657959
 30
0.0000000000001489
  0
VERTEX
  5
18A
330
12D
100
AcDbEntity
  8
2D$Panel de control$interiores
100
AcDbVertex
100
AcDb2dVertex
 10
1369.302069642549
 20
114.1130640486494
 30
0.0000000000001489
  0
VERTEX
  5
18B
330
12D
100
AcDbEntity
  8
2D$Panel de control$interiores
100
AcDbVertex
100
AcDb2dVertex
 10
1369.304968331466
 20
114.071379822479
 30
0.0000000000001489
  0
VERTEX
  5
18C
330
12D
100
AcDbEntity
  8
2D$Panel de control$interiores
100
AcDbVertex
100
AcDb2dVertex
 10
1369.309311998448
 20
114.0298213135306
 30
0.0000000000001489
  0
VERTEX
  5
18D
330
12D
100
AcDbEntity
  8
2D$Panel de control$interiores
100
AcDbVertex
100
AcDb2dVertex
 10
1369.315095409714
 20
113.9884385965706
 30
0.0000000000001489
  0
VERTEX
  5
18E
330
12D
100
AcDbEntity
  8
2D$Panel de control$interiores
100
AcDbVertex
100
AcDb2dVertex
 10
1369.322311596704
 20
113.9472815345497
 30
0.0000000000001489
  0
VERTEX
  5
18F
330
12D
100
AcDbEntity
  8
2D$Panel de control$interiores
100
AcDbVertex
100
AcDb2dVertex
 10
1369.330951864474
 20
113.9063997185221
 30
0.0000000000001489
  0
VERTEX
  5
190
330
12D
100
AcDbEntity
  8
2D$Panel de control$interiores
100
AcDbVertex
100
AcDb2dVertex
 10
1369.341005802175
 20
113.8658424078918
 30
0.0000000000001489
  0
VERTEX
  5
191
330
12D
100
AcDbEntity
  8
2D$Panel de control$interiores
100
AcDbVertex
100
AcDb2dVertex
 10
1369.352461295596
 20
113.8256584710594
 30
0.0000000000001489
  0
VERTEX
  5
192
330
12D
100
AcDbEntity
  8
2D$Panel de control$interiores
100
AcDbVertex
100
AcDb2dVertex
 10
1369.365304541758
 20
113.7858963265387
 30
0.0000000000001489
  0
VERTEX
  5
193
330
12D
100
AcDbEntity
  8
2D$Panel de control$interiores
100
AcDbVertex
100
AcDb2dVertex
 10
1369.379520065551
 20
113.7466038846171
 30
0.0000000000001489
  0
VERTEX
  5
194
330
12D
100
AcDbEntity
  8
2D$Panel de control$interiores
100
AcDbVertex
100
AcDb2dVertex
 10
1369.395090738375
 20
113.7078284896266
 30
0.0000000000001489
  0
VERTEX
  5
195
330
12D
100
AcDbEntity
  8
2D$Panel de control$interiores
100
AcDbVertex
100
AcDb2dVertex
 10
1369.411997798783
 20
113.6696168628982
 30
0.0000000000001489
  0
VERTEX
  5
196
330
12D
100
AcDbEntity
  8
2D$Panel de control$interiores
100
AcDbVertex
100
AcDb2dVertex
 10
1369.430220875083
 20
113.6320150464657
 30
0.0000000000001489
  0
VERTEX
  5
197
330
12D
100
AcDbEntity
  8
2D$Panel de control$interiores
100
AcDbVertex
100
AcDb2dVertex
 10
1369.449738009888
 20
113.5950683475893
 30
0.0000000000001489
  0
VERTEX
  5
198
330
12D
100
AcDbEntity
  8
2D$Panel de control$interiores
100
AcDbVertex
100
AcDb2dVertex
 10
1369.470525686571
 20
113.5588212841635
 30
0.0000000000001489
  0
VERTEX
  5
199
330
12D
100
AcDbEntity
  8
2D$Panel de control$interiores
100
AcDbVertex
100
AcDb2dVertex
 10
1369.4925588576
 20
113.5233175310765
 30
0.0000000000001489
  0
VERTEX
  5
19A
330
12D
100
AcDbEntity
  8
2D$Panel de control$interiores
100
AcDbVertex
100
AcDb2dVertex
 10
1369.515810974721
 20
113.4885998675855
 30
0.0000000000001489
  0
VERTEX
  5
19B
330
12D
100
AcDbEntity
  8
2D$Panel de control$interiores
100
AcDbVertex
100
AcDb2dVertex
 10
1369.540254020942
 20
113.4547101257709
 30
0.0000000000001489
  0
VERTEX
  5
19C
330
12D
100
AcDbEntity
  8
2D$Panel de control$interiores
100
AcDbVertex
100
AcDb2dVertex
 10
1369.565858544299
 20
113.4216891401319
 30
0.0000000000001489
  0
VERTEX
  5
19D
330
12D
100
AcDbEntity
  8
2D$Panel de control$interiores
100
AcDbVertex
100
AcDb2dVertex
 10
1369.592593693333
 20
113.3895766983845
 30
0.0000000000001489
  0
VERTEX
  5
19E
330
12D
100
AcDbEntity
  8
2D$Panel de control$interiores
100
AcDbVertex
100
AcDb2dVertex
 10
1369.620427254273
 20
113.3584114935197
 30
0.0000000000001489
  0
VERTEX
  5
19F
330
12D
100
AcDbEntity
  8
2D$Panel de control$interiores
100
AcDbVertex
100
AcDb2dVertex
 10
1369.649325689845
 20
113.3282310771821
 30
0.0000000000001489
  0
VERTEX
  5
1A0
330
12D
100
AcDbEntity
  8
2D$Panel de control$interiores
100
AcDbVertex
100
AcDb2dVertex
 10
1369.679254179687
 20
113.2990718144225
 30
0.0000000000001489
  0
VERTEX
  5
1A1
330
12D
100
AcDbEntity
  8
2D$Panel de control$interiores
100
AcDbVertex
100
AcDb2dVertex
 10
1369.710176662298
 20
113.2709688398816
 30
0.0000000000001489
  0
VERTEX
  5
1A2
330
12D
100
AcDbEntity
  8
2D$Panel de control$interiores
100
AcDbVertex
100
AcDb2dVertex
 10
1369.742055878495
 20
113.2439560154548
 30
0.0000000000001489
  0
VERTEX
  5
1A3
330
12D
100
AcDbEntity
  8
2D$Panel de control$interiores
100
AcDbVertex
100
AcDb2dVertex
 10
1369.774853416306
 20
113.2180658894915
 30
0.0000000000001489
  0
VERTEX
  5
1A4
330
12D
100
AcDbEntity
  8
2D$Panel de control$interiores
100
AcDbVertex
100
AcDb2dVertex
 10
1369.808529757252
 20
113.1933296575771
 30
0.0000000000001489
  0
VERTEX
  5
1A5
330
12D
100
AcDbEntity
  8
2D$Panel de control$interiores
100
AcDbVertex
100
AcDb2dVertex
 10
1369.843044323966
 20
113.1697771249442
 30
0.0000000000001489
  0
VERTEX
  5
1A6
330
12D
100
AcDbEntity
  8
2D$Panel de control$interiores
100
AcDbVertex
100
AcDb2dVertex
 10
1369.878355529083
 20
113.1474366705604
 30
0.0000000000001489
  0
VERTEX
  5
1A7
330
12D
100
AcDbEntity
  8
2D$Panel de control$interiores
100
AcDbVertex
100
AcDb2dVertex
 10
1369.91442082535
 20
113.1263352129331
 30
0.0000000000001489
  0
VERTEX
  5
1A8
330
12D
100
AcDbEntity
  8
2D$Panel de control$interiores
100
AcDbVertex
100
AcDb2dVertex
 10
1369.951196756896
 20
113.1064981776753
 30
0.0000000000001489
  0
VERTEX
  5
1A9
330
12D
100
AcDbEntity
  8
2D$Panel de control$interiores
100
AcDbVertex
100
AcDb2dVertex
 10
1369.988639011586
 20
113.0879494668692
 30
0.0000000000001489
  0
VERTEX
  5
1AA
330
12D
100
AcDbEntity
  8
2D$Panel de control$interiores
100
AcDbVertex
100
AcDb2dVertex
 10
1370.026702474421
 20
113.0707114302668
 30
0.0000000000001489
  0
VERTEX
  5
1AB
330
12D
100
AcDbEntity
  8
2D$Panel de control$interiores
100
AcDbVertex
100
AcDb2dVertex
 10
1370.065341281892
 20
113.0548048383596
 30
0.0000000000001489
  0
VERTEX
  5
1AC
330
12D
100
AcDbEntity
  8
2D$Panel de control$interiores
100
AcDbVertex
100
AcDb2dVertex
 10
1370.104508877245
 20
113.0402488573518
 30
0.0000000000001489
  0
VERTEX
  5
1AD
330
12D
100
AcDbEntity
  8
2D$Panel de control$interiores
100
AcDbVertex
100
AcDb2dVertex
 10
1370.144158066579
 20
113.0270610260668
 30
0.0000000000001489
  0
VERTEX
  5
1AE
330
12D
100
AcDbEntity
  8
2D$Panel de control$interiores
100
AcDbVertex
100
AcDb2dVertex
 10
1370.184241075709
 20
113.0152572348142
 30
0.0000000000001489
  0
VERTEX
  5
1AF
330
12D
100
AcDbEntity
  8
2D$Panel de control$interiores
100
AcDbVertex
100
AcDb2dVertex
 10
1370.224709607731
 20
113.0048517062431
 30
0.0000000000001489
  0
VERTEX
  5
1B0
330
12D
100
AcDbEntity
  8
2D$Panel de control$interiores
100
AcDbVertex
100
AcDb2dVertex
 10
1370.265514901216
 20
112.995856978205
 30
0.0000000000001489
  0
VERTEX
  5
1B1
330
12D
100
AcDbEntity
  8
2D$Panel de control$interiores
100
AcDbVertex
100
AcDb2dVertex
 10
1370.306607788963
 20
112.9882838886464
 30
0.0000000000001489
  0
VERTEX
  5
1B2
330
12D
100
AcDbEntity
  8
2D$Panel de control$interiores
100
AcDbVertex
100
AcDb2dVertex
 10
1370.347938757244
 20
112.9821415625506
 30
0.0000000000001489
  0
VERTEX
  5
1B3
330
12D
100
AcDbEntity
  8
2D$Panel de control$interiores
100
AcDbVertex
100
AcDb2dVertex
 10
1370.38945800546
 20
112.9774374009421
 30
0.0000000000001489
  0
VERTEX
  5
1B4
330
12D
100
AcDbEntity
  8
2D$Panel de control$interiores
100
AcDbVertex
100
AcDb2dVertex
 10
1370.431115506151
 20
112.9741770719691
 30
0.0000000000001489
  0
VERTEX
  5
1B5
330
12D
100
AcDbEntity
  8
2D$Panel de control$interiores
100
AcDbVertex
100
AcDb2dVertex
 10
1370.472861065274
 20
112.9723645040742
 30
0.0000000000001489
  0
VERTEX
  5
1B6
330
12D
100
AcDbEntity
  8
2D$Panel de control$interiores
100
AcDbVertex
100
AcDb2dVertex
 10
1370.514644382682
 20
112.9720018812605
 30
0.0000000000001489
  0
VERTEX
  5
1B7
330
12D
100
AcDbEntity
  8
2D$Panel de control$interiores
100
AcDbVertex
100
AcDb2dVertex
 10
1370.55641511273
 20
112.9730896404603
 30
0.0000000000001489
  0
VERTEX
  5
1B8
330
12D
100
AcDbEntity
  8
2D$Panel de control$interiores
100
AcDbVertex
100
AcDb2dVertex
 10
1370.598122924943
 20
112.9756264710084
 30
0.0000000000001489
  0
VERTEX
  5
1B9
330
12D
100
AcDbEntity
  8
2D$Panel de control$interiores
100
AcDbVertex
100
AcDb2dVertex
 10
1370.639717564657
 20
112.9796093162216
 30
0.0000000000001489
  0
VERTEX
  5
1BA
330
12D
100
AcDbEntity
  8
2D$Panel de control$interiores
100
AcDbVertex
100
AcDb2dVertex
 10
1370.681148913568
 20
112.9850333770817
 30
0.0000000000001489
  0
VERTEX
  5
1BB
330
12D
100
AcDbEntity
  8
2D$Panel de control$interiores
100
AcDbVertex
100
AcDb2dVertex
 10
1370.722367050131
 20
112.9918921180178
 30
0.0000000000001489
  0
VERTEX
  5
1BC
330
12D
100
AcDbEntity
  8
2D$Panel de control$interiores
100
AcDbVertex
100
AcDb2dVertex
 10
1370.763322309698
 20
113.0001772747812
 30
0.0000000000001489
  0
VERTEX
  5
1BD
330
12D
100
AcDbEntity
  8
2D$Panel de control$interiores
100
AcDbVertex
100
AcDb2dVertex
 10
1370.803965344374
 20
113.0098788644033
 30
0.0000000000001489
  0
VERTEX
  5
1BE
330
12D
100
AcDbEntity
  8
2D$Panel de control$interiores
100
AcDbVertex
100
AcDb2dVertex
 10
1370.844247182467
 20
113.0209851972244
 30
0.0000000000001489
  0
VERTEX
  5
1BF
330
12D
100
AcDbEntity
  8
2D$Panel de control$interiores
100
AcDbVertex
100
AcDb2dVertex
 10
1370.884119287499
 20
113.0334828909784
 30
0.0000000000001489
  0
VERTEX
  5
1C0
330
12D
100
AcDbEntity
  8
2D$Panel de control$interiores
100
AcDbVertex
100
AcDb2dVertex
 10
1370.92353361669
 20
113.0473568869178
 30
0.0000000000001489
  0
VERTEX
  5
1C1
330
12D
100
AcDbEntity
  8
2D$Panel de control$interiores
100
AcDbVertex
100
AcDb2dVertex
 10
1370.962442678842
 20
113.0625904679579
 30
0.0000000000001489
  0
VERTEX
  5
1C2
330
12D
100
AcDbEntity
  8
2D$Panel de control$interiores
100
AcDbVertex
100
AcDb2dVertex
 10
1371.000799591566
 20
113.0791652788203
 30
0.0000000000001489
  0
VERTEX
  5
1C3
330
12D
100
AcDbEntity
  8
2D$Panel de control$interiores
100
AcDbVertex
100
AcDb2dVertex
 10
1371.03855813777
 20
113.0970613481487
 30
0.0000000000001489
  0
VERTEX
  5
1C4
330
12D
100
AcDbEntity
  8
2D$Panel de control$interiores
100
AcDbVertex
100
AcDb2dVertex
 10
1371.075672821347
 20
113.1162571125736
 30
0.0000000000001489
  0
VERTEX
  5
1C5
330
12D
100
AcDbEntity
  8
2D$Panel de control$interiores
100
AcDbVertex
100
AcDb2dVertex
 10
1371.112098921994
 20
113.1367294426938
 30
0.0000000000001489
  0
VERTEX
  5
1C6
330
12D
100
AcDbEntity
  8
2D$Panel de control$interiores
100
AcDbVertex
100
AcDb2dVertex
 10
1371.147792549096
 20
113.1584536709462
 30
0.0000000000001489
  0
VERTEX
  5
1C7
330
12D
100
AcDbEntity
  8
2D$Panel de control$interiores
100
AcDbVertex
100
AcDb2dVertex
 10
1371.182710694613
 20
113.1814036213277
 30
0.0000000000001489
  0
VERTEX
  5
1C8
330
12D
100
AcDbEntity
  8
2D$Panel de control$interiores
100
AcDbVertex
100
AcDb2dVertex
 10
1371.216811284899
 20
113.2055516409356
 30
0.0000000000001489
  0
VERTEX
  5
1C9
330
12D
100
AcDbEntity
  8
2D$Panel de control$interiores
100
AcDbVertex
100
AcDb2dVertex
 10
1371.2500532314
 20
113.2308686332872
 30
0.0000000000001489
  0
VERTEX
  5
1CA
330
12D
100
AcDbEntity
  8
2D$Panel de control$interiores
100
AcDbVertex
100
AcDb2dVertex
 10
1371.282396480158
 20
113.2573240933784
 30
0.0000000000001489
  0
VERTEX
  5
1CB
330
12D
100
AcDbEntity
  8
2D$Panel de control$interiores
100
AcDbVertex
100
AcDb2dVertex
 10
1371.313802060077
 20
113.2848861444406
 30
0.0000000000001489
  0
VERTEX
  5
1CC
330
12D
100
AcDbEntity
  8
2D$Panel de control$interiores
100
AcDbVertex
100
AcDb2dVertex
 10
1371.344232129882
 20
113.3135215763488
 30
0.0000000000001489
  0
VERTEX
  5
1CD
330
12D
100
AcDbEntity
  8
2D$Panel de control$interiores
100
AcDbVertex
100
AcDb2dVertex
 10
1371.373650023706
 20
113.3431958856379
 30
0.0000000000001489
  0
VERTEX
  5
1CE
330
12D
100
AcDbEntity
  8
2D$Panel de control$interiores
100
AcDbVertex
100
AcDb2dVertex
 10
1371.402020295281
 20
113.3738733170766
 30
0.0000000000001489
  0
VERTEX
  5
1CF
330
12D
100
AcDbEntity
  8
2D$Panel de control$interiores
100
AcDbVertex
100
AcDb2dVertex
 10
1371.429308760637
 20
113.4055169067493
 30
0.0000000000001489
  0
VERTEX
  5
1D0
330
12D
100
AcDbEntity
  8
2D$Panel de control$interiores
100
AcDbVertex
100
AcDb2dVertex
 10
1371.455482539299
 20
113.4380885265951
 30
0.0000000000001489
  0
VERTEX
  5
1D1
330
12D
100
AcDbEntity
  8
2D$Panel de control$interiores
100
AcDbVertex
100
AcDb2dVertex
 10
1371.480510093904
 20
113.471548930349
 30
0.0000000000001489
  0
VERTEX
  5
1D2
330
12D
100
AcDbEntity
  8
2D$Panel de control$interiores
100
AcDbVertex
100
AcDb2dVertex
 10
1371.504361268197
 20
113.5058578008306
 30
0.0000000000001489
  0
VERTEX
  5
1D3
330
12D
100
AcDbEntity
  8
2D$Panel de control$interiores
100
AcDbVertex
100
AcDb2dVertex
 10
1371.52700732337
 20
113.5409737985233
 30
0.0000000000001489
  0
VERTEX
  5
1D4
330
12D
100
AcDbEntity
  8
2D$Panel de control$interiores
100
AcDbVertex
100
AcDb2dVertex
 10
1371.548420972691
 20
113.5768546113848
 30
0.0000000000001489
  0
VERTEX
  5
1D5
330
12D
100
AcDbEntity
  8
2D$Panel de control$interiores
100
AcDbVertex
100
AcDb2dVertex
 10
1371.568576414381
 20
113.6134570058304
 30
0.0000000000001489
  0
VERTEX
  5
1D6
330
12D
100
AcDbEntity
  8
2D$Panel de control$interiores
100
AcDbVertex
100
AcDb2dVertex
 10
1371.587449362702
 20
113.6507368788257
 30
0.0000000000001489
  0
VERTEX
  5
1D7
330
12D
100
AcDbEntity
  8
2D$Panel de control$interiores
100
AcDbVertex
100
AcDb2dVertex
 10
1371.605017077221
 20
113.6886493110272
 30
0.0000000000001489
  0
VERTEX
  5
1D8
330
12D
100
AcDbEntity
  8
2D$Panel de control$interiores
100
AcDbVertex
100
AcDb2dVertex
 10
1371.621258390211
 20
113.7271486209072
 30
0.0000000000001489
  0
VERTEX
  5
1D9
330
12D
100
AcDbEntity
  8
2D$Panel de control$interiores
100
AcDbVertex
100
AcDb2dVertex
 10
1371.636153732154
 20
113.7661884197957
 30
0.0000000000001489
  0
VERTEX
  5
1DA
330
12D
100
AcDbEntity
  8
2D$Panel de control$interiores
100
AcDbVertex
100
AcDb2dVertex
 10
1371.649685155324
 20
113.8057216677759
 30
0.0000000000001489
  0
VERTEX
  5
1DB
330
12D
100
AcDbEntity
  8
2D$Panel de control$interiores
100
AcDbVertex
100
AcDb2dVertex
 10
1371.661836355409
 20
113.845700730363
 30
0.0000000000001489
  0
VERTEX
  5
1DC
330
12D
100
AcDbEntity
  8
2D$Panel de control$interiores
100
AcDbVertex
100
AcDb2dVertex
 10
1371.672592691161
 20
113.8860774359006
 30
0.0000000000001489
  0
VERTEX
  5
1DD
330
12D
100
AcDbEntity
  8
2D$Panel de control$interiores
100
AcDbVertex
100
AcDb2dVertex
 10
1371.681941202031
 20
113.9268031336033
 30
0.0000000000001489
  0
VERTEX
  5
1DE
330
12D
100
AcDbEntity
  8
2D$Panel de control$interiores
100
AcDbVertex
100
AcDb2dVertex
 10
1371.689870623793
 20
113.9678287521773
 30
0.0000000000001489
  0
VERTEX
  5
1DF
330
12D
100
AcDbEntity
  8
2D$Panel de control$interiores
100
AcDbVertex
100
AcDb2dVertex
 10
1371.696371402111
 20
114.0091048589477
 30
0.0000000000001489
  0
VERTEX
  5
1E0
330
12D
100
AcDbEntity
  8
2D$Panel de control$interiores
100
AcDbVertex
100
AcDb2dVertex
 10
1371.701435704054
 20
114.0505817194208
 30
0.0000000000001489
  0
VERTEX
  5
1E1
330
12D
100
AcDbEntity
  8
2D$Panel de control$interiores
100
AcDbVertex
100
AcDb2dVertex
 10
1371.705057427532
 20
114.09220935721
 30
0.0000000000001489
  0
VERTEX
  5
1E2
330
12D
100
AcDbEntity
  8
2D$Panel de control$interiores
100
AcDbVertex
100
AcDb2dVertex
 10
1371.70723220865
 20
114.1339376142543
 30
0.0000000000001489
  0
VERTEX
  5
1E3
330
12D
100
AcDbEntity
  8
2D$Panel de control$interiores
100
AcDbVertex
100
AcDb2dVertex
 10
1371.707957426966
 20
114.1757162112539
 30
0.0000000000001489
  0
SEQEND
  5
1E4
330
12D
100
AcDbEntity
  8
2D$Panel de control$interiores
  0
POLYLINE
  5
1E5
330
1F
100
AcDbEntity
  8
2D
100
AcDb2dPolyline
 66
     1
 10
0.0
 20
0.0
 30
0.0
  0
VERTEX
  5
1E6
330
1E5
100
AcDbEntity
  8
2D
100
AcDbVertex
100
AcDb2dVertex
 10
1453.8370212043
 20
84.00000000000006
 30
0.0
  0
VERTEX
  5
1E7
330
1E5
100
AcDbEntity
  8
2D
100
AcDbVertex
100
AcDb2dVertex
 10
1426.0870212043
 20
84.0
 30
0.0
  0
VERTEX
  5
1E8
330
1E5
100
AcDbEntity
  8
2D
100
AcDbVertex
100
AcDb2dVertex
 10
1426.0870212043
 20
74.0
 30
0.0
  0
VERTEX
  5
1E9
330
1E5
100
AcDbEntity
  8
2D
100
AcDbVertex
100
AcDb2dVertex
 10
1407.5870212043
 20
74.0
 30
0.0
  0
VERTEX
  5
1EA
330
1E5
100
AcDbEntity
  8
2D
100
AcDbVertex
100
AcDb2dVertex
 10
1407.5870212043
 20
84.0
 30
0.0
  0
VERTEX
  5
1EB
330
1E5
100
AcDbEntity
  8
2D
100
AcDbVertex
100
AcDb2dVertex
 10
1386.0870212043
 20
84.0
 30
0.0
  0
VERTEX
  5
1EC
330
1E5
100
AcDbEntity
  8
2D
100
AcDbVertex
100
AcDb2dVertex
 10
1386.0870212043
 20
74.0
 30
0.0
  0
VERTEX
  5
1ED
330
1E5
100
AcDbEntity
  8
2D
100
AcDbVertex
100
AcDb2dVertex
 10
1367.5870212043
 20
74.00000000000006
 30
0.0
  0
VERTEX
  5
1EE
330
1E5
100
AcDbEntity
  8
2D
100
AcDbVertex
100
AcDb2dVertex
 10
1367.5870212043
 20
84.00000000000006
 30
0.0
  0
VERTEX
  5
1EF
330
1E5
100
AcDbEntity
  8
2D
100
AcDbVertex
100
AcDb2dVertex
 10
1339.8370212043
 20
84.00000000000006
 30
0.0
  0
VERTEX
  5
1F0
330
1E5
100
AcDbEntity
  8
2D
100
AcDbVertex
100
AcDb2dVertex
 10
1339.8370212043
 20
74.00000000000006
 30
0.0
  0
VERTEX
  5
1F1
330
1E5
100
AcDbEntity
  8
2D
100
AcDbVertex
100
AcDb2dVertex
 10
1336.8370212043
 20
74.00000000000006
 30
0.0
  0
VERTEX
  5
1F2
330
1E5
100
AcDbEntity
  8
2D
100
AcDbVertex
100
AcDb2dVertex
 10
1336.8370212043
 20
49.50000000000006
 30
0.0
  0
VERTEX
  5
1F3
330
1E5
100
AcDbEntity
  8
2D
100
AcDbVertex
100
AcDb2dVertex
 10
1339.8370212043
 20
49.50000000000006
 30
0.0
  0
VERTEX
  5
1F4
330
1E5
100
AcDbEntity
  8
2D
100
AcDbVertex
100
AcDb2dVertex
 10
1339.8370212043
 20
29.50000000000007
 30
0.0
  0
VERTEX
  5
1F5
330
1E5
100
AcDbEntity
  8
2D
100
AcDbVertex
100
AcDb2dVertex
 10
1336.8370212043
 20
29.50000000000007
 30
0.0
  0
VERTEX
  5
1F6
330
1E5
100
AcDbEntity
  8
2D
100
AcDbVertex
100
AcDb2dVertex
 10
1336.8370212043
 20
5.000000000000071
 30
0.0
  0
VERTEX
  5
1F7
330
1E5
100
AcDbEntity
  8
2D
100
AcDbVertex
100
AcDb2dVertex
 10
1456.8370212043
 20
4.999999999999957
 30
0.0
  0
VERTEX
  5
1F8
330
1E5
100
AcDbEntity
  8
2D
100
AcDbVertex
100
AcDb2dVertex
 10
1456.8370212043
 20
29.49999999999996
 30
0.0
  0
VERTEX
  5
1F9
330
1E5
100
AcDbEntity
  8
2D
100
AcDbVertex
100
AcDb2dVertex
 10
1453.8370212043
 20
29.49999999999996
 30
0.0
  0
VERTEX
  5
1FA
330
1E5
100
AcDbEntity
  8
2D
100
AcDbVertex
100
AcDb2dVertex
 10
1453.8370212043
 20
49.49999999999994
 30
0.0
  0
VERTEX
  5
1FB
330
1E5
100
AcDbEntity
  8
2D
100
AcDbVertex
100
AcDb2dVertex
 10
1456.8370212043
 20
49.49999999999994
 30
0.0
  0
VERTEX
  5
1FC
330
1E5
100
AcDbEntity
  8
2D
100
AcDbVertex
100
AcDb2dVertex
 10
1456.8370212043
 20
73.99999999999994
 30
0.0
  0
VERTEX
  5
1FD
330
1E5
100
AcDbEntity
  8
2D
100
AcDbVertex
100
AcDb2dVertex
 10
1453.8370212043
 20
74.00000000000006
 30
0.0
  0
VERTEX
  5
1FE
330
1E5
100
AcDbEntity
  8
2D
100
AcDbVertex
100
AcDb2dVertex
 10
1453.8370212043
 20
84.00000000000006
 30
0.0
  0
SEQEND
  5
1FF
330
1E5
100
AcDbEntity
  8
2D
  0
ENDSEC
  0
SECTION
  2
OBJECTS
  0
DICTIONARY
  5
C
330
0
100
AcDbDictionary
281
     1
  3
ACAD_GROUP
350
D
  3
ACAD_LAYOUT
350
1A
  3
ACAD_MATERIAL
350
3B
  3
ACAD_MLEADERSTYLE
350
227
  3
ACAD_MLINESTYLE
350
17
  3
ACAD_PLOTSETTINGS
350
19
  3
ACAD_PLOTSTYLENAME
350
E
  3
ACAD_TABLESTYLE
350
226
  3
ACAD_VISUALSTYLE
350
2A
  0
DICTIONARY
  5
D
102
{ACAD_REACTORS
330
C
102
}
330
C
100
AcDbDictionary
281
     1
  0
DICTIONARY
  5
1A
102
{ACAD_REACTORS
330
C
102
}
330
C
100
AcDbDictionary
281
     1
  3
Layout1
350
1E
  3
Layout2
350
26
  3
Model
350
22
  0
DICTIONARY
  5
3B
102
{ACAD_REACTORS
330
C
102
}
330
C
100
AcDbDictionary
281
     1
  3
ByBlock
350
3D
  3
ByLayer
350
3C
  3
Global
350
3E
  0
DICTIONARY
  5
227
102
{ACAD_REACTORS
330
C
102
}
330
C
100
AcDbDictionary
281
     1
  0
DICTIONARY
  5
17
102
{ACAD_REACTORS
330
C
102
}
330
C
100
AcDbDictionary
281
     1
  3
Standard
350
18
  0
DICTIONARY
  5
19
102
{ACAD_REACTORS
330
C
102
}
330
C
100
AcDbDictionary
281
     1
  0
ACDBDICTIONARYWDFLT
  5
E
102
{ACAD_REACTORS
330
C
102
}
330
C
100
AcDbDictionary
281
     1
  3
Normal
350
F
100
AcDbDictionaryWithDefault
340
F
  0
DICTIONARY
  5
226
102
{ACAD_REACTORS
330
C
102
}
330
C
100
AcDbDictionary
281
     1
  0
DICTIONARY
  5
2A
102
{ACAD_REACTORS
330
C
102
}
330
C
100
AcDbDictionary
281
     1
  3
2dWireframe
350
2F
  3
3D Hidden
350
31
  3
3dWireframe
350
30
  3
Basic
350
32
  3
Brighten
350
36
  3
ColorChange
350
3A
  3
Conceptual
350
34
  3
Dim
350
35
  3
Facepattern
350
39
  3
Flat
350
2B
  3
FlatWithEdges
350
2C
  3
Gouraud
350
2D
  3
GouraudWithEdges
350
2E
  3
Linepattern
350
38
  3
Realistic
350
33
  3
Thicken
350
37
  0
LAYOUT
  5
1E
102
{ACAD_REACTORS
330
1A
102
}
330
1A
100
AcDbPlotSettings
  1

  2
none_device
  4

  6

 40
0.0
 41
0.0
 42
0.0
 43
0.0
 44
0.0
 45
0.0
 46
0.0
 47
0.0
 48
0.0
 49
0.0
140
0.0
141
0.0
142
1.0
143
1.0
 70
   688
 72
     0
 73
     0
 74
     5
  7

 75
    16
 76
     0
 77
     2
 78
   300
147
1.0
148
0.0
149
0.0
100
AcDbLayout
  1
Layout1
 70
     1
 71
     1
 10
0.0
 20
0.0
 11
12.0
 21
9.0
 12
0.0
 22
0.0
 32
0.0
 14
1.000000000000000E+20
 24
1.000000000000000E+20
 34
1.000000000000000E+20
 15
-1.000000000000000E+20
 25
-1.000000000000000E+20
 35
-1.000000000000000E+20
146
0.0
 13
0.0
 23
0.0
 33
0.0
 16
1.0
 26
0.0
 36
0.0
 17
0.0
 27
1.0
 37
0.0
 76
     0
330
1B
  0
LAYOUT
  5
26
102
{ACAD_REACTORS
330
1A
102
}
330
1A
100
AcDbPlotSettings
  1

  2
none_device
  4

  6

 40
0.0
 41
0.0
 42
0.0
 43
0.0
 44
0.0
 45
0.0
 46
0.0
 47
0.0
 48
0.0
 49
0.0
140
0.0
141
0.0
142
1.0
143
1.0
 70
   688
 72
     0
 73
     0
 74
     5
  7

 75
    16
 76
     0
 77
     2
 78
   300
147
1.0
148
0.0
149
0.0
100
AcDbLayout
  1
Layout2
 70
     1
 71
     2
 10
0.0
 20
0.0
 11
0.0
 21
0.0
 12
0.0
 22
0.0
 32
0.0
 14
0.0
 24
0.0
 34
0.0
 15
0.0
 25
0.0
 35
0.0
146
0.0
 13
0.0
 23
0.0
 33
0.0
 16
1.0
 26
0.0
 36
0.0
 17
0.0
 27
1.0
 37
0.0
 76
     0
330
23
  0
LAYOUT
  5
22
102
{ACAD_REACTORS
330
1A
102
}
330
1A
100
AcDbPlotSettings
  1

  2
none_device
  4

  6

 40
0.0
 41
0.0
 42
0.0
 43
0.0
 44
0.0
 45
0.0
 46
0.0
 47
0.0
 48
0.0
 49
0.0
140
0.0
141
0.0
142
1.0
143
1.0
 70
  1712
 72
     0
 73
     0
 74
     0
  7

 75
     0
 76
     0
 77
     2
 78
   300
147
1.0
148
0.0
149
0.0
100
AcDbLayout
  1
Model
 70
     1
 71
     0
 10
0.0
 20
0.0
 11
12.0
 21
9.0
 12
0.0
 22
0.0
 32
0.0
 14
1273.782458223481
 24
4.341207275605946
 34
-0.0000000000004235
 15
1456.8370212043
 25
167.0
 35
0.000000000000486
146
0.0
 13
0.0
 23
0.0
 33
0.0
 16
1.0
 26
0.0
 36
0.0
 17
0.0
 27
1.0
 37
0.0
 76
     0
330
1F
331
29
  0
MATERIAL
  5
3D
102
{ACAD_REACTORS
330
3B
102
}
102
{ACAD_XDICTIONARY
360
222
102
}
330
3B
100
AcDbMaterial
  1
ByBlock
  0
MATERIAL
  5
3C
102
{ACAD_REACTORS
330
3B
102
}
102
{ACAD_XDICTIONARY
360
220
102
}
330
3B
100
AcDbMaterial
  1
ByLayer
  0
MATERIAL
  5
3E
102
{ACAD_REACTORS
330
3B
102
}
102
{ACAD_XDICTIONARY
360
224
102
}
330
3B
100
AcDbMaterial
  1
Global
  0
MLINESTYLE
  5
18
102
{ACAD_REACTORS
330
17
102
}
330
17
100
AcDbMlineStyle
  2
Standard
 70
     0
  3

 62
   256
 51
90.0
 52
90.0
 71
     2
 49
0.5
 62
   256
  6
BYLAYER
 49
-0.5
 62
   256
  6
BYLAYER
  0
ACDBPLACEHOLDER
  5
F
102
{ACAD_REACTORS
330
E
102
}
330
E
  0
VISUALSTYLE
  5
2F
102
{ACAD_REACTORS
330
2A
102
}
102
{ACAD_XDICTIONARY
360
208
102
}
330
2A
100
AcDbVisualStyle
  2
2dWireframe
 70
     4
 71
     0
 72
     2
 73
     0
 90
        0
 40
-0.6
 41
-30.0
 62
     5
 63
     7
421
 16777215
 74
     1
 91
        4
 64
     7
 65
   257
 75
     1
175
     1
 42
1.0
 92
        0
 66
   257
 43
1.0
 76
     1
 77
     6
 78
     2
 67
     7
 79
     5
170
     0
171
     0
290
     0
174
     0
 93
        1
 44
0.0
173
     0
291
     0
 45
0.0
1001
ACAD
1000
AcDbSavedByObjectVersion
1070
     0
  0
VISUALSTYLE
  5
31
102
{ACAD_REACTORS
330
2A
102
}
102
{ACAD_XDICTIONARY
360
20C
102
}
330
2A
100
AcDbVisualStyle
  2
3D Hidden
 70
     6
 71
     1
 72
     2
 73
     2
 90
        0
 40
-0.6
 41
-30.0
 62
     5
 63
     7
421
 16777215
 74
     2
 91
        2
 64
     7
 65
   257
 75
     2
175
     1
 42
40.0
 92
        0
 66
   257
 43
1.0
 76
     1
 77
     6
 78
     2
 67
     7
 79
     3
170
     0
171
     0
290
     0
174
     0
 93
        1
 44
0.0
173
     0
291
     0
 45
0.0
1001
ACAD
1000
AcDbSavedByObjectVersion
1070
     0
  0
VISUALSTYLE
  5
30
102
{ACAD_REACTORS
330
2A
102
}
102
{ACAD_XDICTIONARY
360
20A
102
}
330
2A
100
AcDbVisualStyle
  2
3dWireframe
 70
     5
 71
     0
 72
     2
 73
     0
 90
        0
 40
-0.6
 41
-30.0
 62
     5
 63
     7
421
 16777215
 74
     1
 91
        4
 64
     7
 65
   257
 75
     1
175
     1
 42
1.0
 92
        0
 66
   257
 43
1.0
 76
     1
 77
     6
 78
     2
 67
     7
 79
     5
170
     0
171
     0
290
     0
174
     0
 93
        1
 44
0.0
173
     0
291
     0
 45
0.0
1001
ACAD
1000
AcDbSavedByObjectVersion
1070
     0
  0
VISUALSTYLE
  5
32
102
{ACAD_REACTORS
330
2A
102
}
102
{ACAD_XDICTIONARY
360
20E
102
}
330
2A
100
AcDbVisualStyle
  2
Basic
 70
     7
 71
     1
 72
     0
 73
     1
 90
        0
 40
-0.6
 41
-30.0
 62
     5
 63
     7
421
 16777215
 74
     0
 91
        4
 64
     7
 65
   257
 75
     1
175
     1
 42
1.0
 92
        8
 66
     7
 43
1.0
 76
     1
 77
     6
 78
     2
 67
     7
 79
     5
170
     0
171
     0
290
     0
174
     0
 93
        1
 44
0.0
173
     0
291
     1
 45
0.0
1001
ACAD
1000
AcDbSavedByObjectVersion
1070
     0
  0
VISUALSTYLE
  5
36
102
{ACAD_REACTORS
330
2A
102
}
102
{ACAD_XDICTIONARY
360
216
102
}
330
2A
100
AcDbVisualStyle
  2
Brighten
 70
    12
 71
     2
 72
     2
 73
     0
 90
        0
 40
-0.6
 41
-30.0
 62
     5
 63
     7
421
 16777215
 74
     1
 91
        4
 64
     7
 65
   257
 75
     1
175
     1
 42
1.0
 92
        8
 66
     7
 43
1.0
 76
     1
 77
     6
 78
     2
 67
     7
 79
     5
170
     0
171
     0
290
     0
174
     0
 93
        1
 44
50.0
173
     0
291
     1
 45
0.0
1001
ACAD
1000
AcDbSavedByObjectVersion
1070
     0
  0
VISUALSTYLE
  5
3A
102
{ACAD_REACTORS
330
2A
102
}
102
{ACAD_XDICTIONARY
360
21E
102
}
330
2A
100
AcDbVisualStyle
  2
ColorChange
 70
    16
 71
     2
 72
     2
 73
     3
 90
        0
 40
-0.6
 41
-30.0
 62
     5
 63
     8
421
  8421504
 74
     1
 91
        4
 64
     7
 65
   257
 75
     1
175
     1
 42
1.0
 92
        8
 66
     8
424
  8421504
 43
1.0
 76
     1
 77
     6
 78
     2
 67
     7
 79
     5
170
     0
171
     0
290
     0
174
     0
 93
        1
 44
0.0
173
     0
291
     1
 45
0.0
1001
ACAD
1000
AcDbSavedByObjectVersion
1070
     0
  0
VISUALSTYLE
  5
34
102
{ACAD_REACTORS
330
2A
102
}
102
{ACAD_XDICTIONARY
360
212
102
}
330
2A
100
AcDbVisualStyle
  2
Conceptual
 70
     9
 71
     3
 72
     2
 73
     0
 90
        0
 40
-0.6
 41
-30.0
 62
     5
 63
     7
421
 16777215
 74
     2
 91
        2
 64
     7
 65
   257
 75
     1
175
     1
 42
40.0
 92
        8
 66
     7
 43
1.0
 76
     1
 77
     6
 78
     2
 67
     7
 79
     3
170
     0
171
     0
290
     0
174
     0
 93
        1
 44
0.0
173
     0
291
     0
 45
0.0
1001
ACAD
1000
AcDbSavedByObjectVersion
1070
     0
  0
VISUALSTYLE
  5
35
102
{ACAD_REACTORS
330
2A
102
}
102
{ACAD_XDICTIONARY
360
214
102
}
330
2A
100
AcDbVisualStyle
  2
Dim
 70
    11
 71
     2
 72
     2
 73
     0
 90
        0
 40
-0.6
 41
-30.0
 62
     5
 63
     7
421
 16777215
 74
     1
 91
        4
 64
     7
 65
   257
 75
     1
175
     1
 42
1.0
 92
        8
 66
     7
 43
1.0
 76
     1
 77
     6
 78
     2
 67
     7
 79
     5
170
     0
171
     0
290
     0
174
     0
 93
        1
 44
-50.0
173
     0
291
     1
 45
0.0
1001
ACAD
1000
AcDbSavedByObjectVersion
1070
     0
  0
VISUALSTYLE
  5
39
102
{ACAD_REACTORS
330
2A
102
}
102
{ACAD_XDICTIONARY
360
21C
102
}
330
2A
100
AcDbVisualStyle
  2
Facepattern
 70
    15
 71
     2
 72
     2
 73
     0
 90
        0
 40
-0.6
 41
-30.0
 62
     5
 63
     7
421
 16777215
 74
     1
 91
        4
 64
     7
 65
   257
 75
     1
175
     1
 42
1.0
 92
        8
 66
     7
 43
1.0
 76
     1
 77
     6
 78
     2
 67
     7
 79
     5
170
     0
171
     0
290
     0
174
     0
 93
        1
 44
0.0
173
     0
291
     1
 45
0.0
1001
ACAD
1000
AcDbSavedByObjectVersion
1070
     0
  0
VISUALSTYLE
  5
2B
102
{ACAD_REACTORS
330
2A
102
}
102
{ACAD_XDICTIONARY
360
200
102
}
330
2A
100
AcDbVisualStyle
  2
Flat
 70
     0
 71
     2
 72
     1
 73
     1
 90
        2
 40
-0.6
 41
30.0
 62
     5
 63
     7
421
 16777215
 74
     0
 91
        4
 64
     7
 65
   257
 75
     1
175
     1
 42
1.0
 92
        8
 66
     7
 43
1.0
 76
     1
 77
     6
 78
     2
 67
     7
 79
     5
170
     0
171
     0
290
     0
174
     0
 93
       13
 44
0.0
173
     0
291
     1
 45
0.0
1001
ACAD
1000
AcDbSavedByObjectVersion
1070
     0
  0
VISUALSTYLE
  5
2C
102
{ACAD_REACTORS
330
2A
102
}
102
{ACAD_XDICTIONARY
360
202
102
}
330
2A
100
AcDbVisualStyle
  2
FlatWithEdges
 70
     1
 71
     2
 72
     1
 73
     1
 90
        2
 40
-0.6
 41
30.0
 62
     5
 63
     7
421
 16777215
 74
     1
 91
        4
 64
     7
 65
   257
 75
     1
175
     1
 42
1.0
 92
        0
 66
   257
 43
1.0
 76
     1
 77
     6
 78
     2
 67
     7
 79
     5
170
     0
171
     0
290
     0
174
     0
 93
       13
 44
0.0
173
     0
291
     1
 45
0.0
1001
ACAD
1000
AcDbSavedByObjectVersion
1070
     0
  0
VISUALSTYLE
  5
2D
102
{ACAD_REACTORS
330
2A
102
}
102
{ACAD_XDICTIONARY
360
204
102
}
330
2A
100
AcDbVisualStyle
  2
Gouraud
 70
     2
 71
     2
 72
     2
 73
     1
 90
        2
 40
-0.6
 41
30.0
 62
     5
 63
     7
421
 16777215
 74
     0
 91
        4
 64
     7
 65
   257
 75
     1
175
     1
 42
1.0
 92
        0
 66
     7
 43
1.0
 76
     1
 77
     6
 78
     2
 67
     7
 79
     5
170
     0
171
     0
290
     0
174
     0
 93
       13
 44
0.0
173
     0
291
     1
 45
0.0
1001
ACAD
1000
AcDbSavedByObjectVersion
1070
     0
  0
VISUALSTYLE
  5
2E
102
{ACAD_REACTORS
330
2A
102
}
102
{ACAD_XDICTIONARY
360
206
102
}
330
2A
100
AcDbVisualStyle
  2
GouraudWithEdges
 70
     3
 71
     2
 72
     2
 73
     1
 90
        2
 40
-0.6
 41
30.0
 62
     5
 63
     7
421
 16777215
 74
     1
 91
        4
 64
     7
 65
   257
 75
     1
175
     1
 42
1.0
 92
        0
 66
   257
 43
1.0
 76
     1
 77
     6
 78
     2
 67
     7
 79
     5
170
     0
171
     0
290
     0
174
     0
 93
       13
 44
0.0
173
     0
291
     1
 45
0.0
1001
ACAD
1000
AcDbSavedByObjectVersion
1070
     0
  0
VISUALSTYLE
  5
38
102
{ACAD_REACTORS
330
2A
102
}
102
{ACAD_XDICTIONARY
360
21A
102
}
330
2A
100
AcDbVisualStyle
  2
Linepattern
 70
    14
 71
     2
 72
     2
 73
     0
 90
        0
 40
-0.6
 41
-30.0
 62
     5
 63
     7
421
 16777215
 74
     1
 91
        4
 64
     7
 65
   257
 75
     7
175
     7
 42
1.0
 92
        8
 66
     7
 43
1.0
 76
     1
 77
     6
 78
     2
 67
     7
 79
     5
170
     0
171
     0
290
     0
174
     0
 93
        1
 44
0.0
173
     0
291
     1
 45
0.0
1001
ACAD
1000
AcDbSavedByObjectVersion
1070
     0
  0
VISUALSTYLE
  5
33
102
{ACAD_REACTORS
330
2A
102
}
102
{ACAD_XDICTIONARY
360
210
102
}
330
2A
100
AcDbVisualStyle
  2
Realistic
 70
     8
 71
     2
 72
     2
 73
     0
 90
        0
 40
-0.6
 41
-30.0
 62
     5
 63
     7
421
 16777215
 74
     1
 91
        0
 64
     7
 65
   257
 75
     1
175
     1
 42
1.0
 92
        8
 66
     8
424
  7895160
 43
1.0
 76
     1
 77
     6
 78
     2
 67
     7
 79
     5
170
     0
171
     0
290
     0
174
     0
 93
       13
 44
0.0
173
     0
291
     0
 45
0.0
1001
ACAD
1000
AcDbSavedByObjectVersion
1070
     0
  0
VISUALSTYLE
  5
37
102
{ACAD_REACTORS
330
2A
102
}
102
{ACAD_XDICTIONARY
360
218
102
}
330
2A
100
AcDbVisualStyle
  2
Thicken
 70
    13
 71
     2
 72
     2
 73
     0
 90
        0
 40
-0.6
 41
-30.0
 62
     5
 63
     7
421
 16777215
 74
     1
 91
        4
 64
     7
 65
   257
 75
     1
175
     1
 42
1.0
 92
       12
 66
     7
 43
1.0
 76
     1
 77
     6
 78
     2
 67
     7
 79
     5
170
     0
171
     0
290
     0
174
     0
 93
        1
 44
0.0
173
     0
291
     1
 45
0.0
1001
ACAD
1000
AcDbSavedByObjectVersion
1070
     0
  0
DICTIONARY
  5
222
330
3D
100
AcDbDictionary
280
     1
281
     1
  3
ACAD_XREC_ROUNDTRIP
360
223
  0
DICTIONARY
  5
220
330
3C
100
AcDbDictionary
280
     1
281
     1
  3
ACAD_XREC_ROUNDTRIP
360
221
  0
DICTIONARY
  5
224
330
3E
100
AcDbDictionary
280
     1
281
     1
  3
ACAD_XREC_ROUNDTRIP
360
225
  0
DICTIONARY
  5
208
330
2F
100
AcDbDictionary
280
     1
281
     1
  3
ACAD_XREC_ROUNDTRIP
360
209
  0
DICTIONARY
  5
20C
330
31
100
AcDbDictionary
280
     1
281
     1
  3
ACAD_XREC_ROUNDTRIP
360
20D
  0
DICTIONARY
  5
20A
330
30
100
AcDbDictionary
280
     1
281
     1
  3
ACAD_XREC_ROUNDTRIP
360
20B
  0
DICTIONARY
  5
20E
330
32
100
AcDbDictionary
280
     1
281
     1
  3
ACAD_XREC_ROUNDTRIP
360
20F
  0
DICTIONARY
  5
216
330
36
100
AcDbDictionary
280
     1
281
     1
  3
ACAD_XREC_ROUNDTRIP
360
217
  0
DICTIONARY
  5
21E
330
3A
100
AcDbDictionary
280
     1
281
     1
  3
ACAD_XREC_ROUNDTRIP
360
21F
  0
DICTIONARY
  5
212
330
34
100
AcDbDictionary
280
     1
281
     1
  3
ACAD_XREC_ROUNDTRIP
360
213
  0
DICTIONARY
  5
214
330
35
100
AcDbDictionary
280
     1
281
     1
  3
ACAD_XREC_ROUNDTRIP
360
215
  0
DICTIONARY
  5
21C
330
39
100
AcDbDictionary
280
     1
281
     1
  3
ACAD_XREC_ROUNDTRIP
360
21D
  0
DICTIONARY
  5
200
330
2B
100
AcDbDictionary
280
     1
281
     1
  3
ACAD_XREC_ROUNDTRIP
360
201
  0
DICTIONARY
  5
202
330
2C
100
AcDbDictionary
280
     1
281
     1
  3
ACAD_XREC_ROUNDTRIP
360
203
  0
DICTIONARY
  5
204
330
2D
100
AcDbDictionary
280
     1
281
     1
  3
ACAD_XREC_ROUNDTRIP
360
205
  0
DICTIONARY
  5
206
330
2E
100
AcDbDictionary
280
     1
281
     1
  3
ACAD_XREC_ROUNDTRIP
360
207
  0
DICTIONARY
  5
21A
330
38
100
AcDbDictionary
280
     1
281
     1
  3
ACAD_XREC_ROUNDTRIP
360
21B
  0
DICTIONARY
  5
210
330
33
100
AcDbDictionary
280
     1
281
     1
  3
ACAD_XREC_ROUNDTRIP
360
211
  0
DICTIONARY
  5
218
330
37
100
AcDbDictionary
280
     1
281
     1
  3
ACAD_XREC_ROUNDTRIP
360
219
  0
XRECORD
  5
223
102
{ACAD_REACTORS
330
222
102
}
330
222
100
AcDbXrecord
280
     1
102
MATERIAL
148
0.0
149
0.0
149
0.0
 93
        0
 94
      127
282
     0
 72
     1
 77
     1
171
     1
175
     1
179
     1
273
     0
  0
XRECORD
  5
221
102
{ACAD_REACTORS
330
220
102
}
330
220
100
AcDbXrecord
280
     1
102
MATERIAL
148
0.0
149
0.0
149
0.0
 93
        0
 94
      127
282
     0
 72
     1
 77
     1
171
     1
175
     1
179
     1
273
     0
  0
XRECORD
  5
225
102
{ACAD_REACTORS
330
224
102
}
330
224
100
AcDbXrecord
280
     1
102
MATERIAL
148
0.0
149
0.0
149
0.0
 93
        0
 94
      127
282
     0
 72
     1
 77
     1
171
     1
175
     1
179
     1
273
     0
  0
XRECORD
  5
209
102
{ACAD_REACTORS
330
208
102
}
330
208
100
AcDbXrecord
280
     1
102
RTVSPropertyOp0
 70
     1
102
RTVSPropertyOp1
 70
     1
102
RTVSPropertyOp2
 70
     1
102
RTVSPropertyOp3
 70
     1
102
RTVSPropertyOp4
 70
     1
102
RTVSPropertyOp5
 70
     1
102
RTVSPropertyOp6
 70
     1
102
RTVSPropertyOp7
 70
     1
102
RTVSPropertyOp8
 70
     1
102
RTVSPropertyOp9
 70
     1
102
RTVSPropertyOp10
 70
     1
102
RTVSPropertyOp11
 70
     1
102
RTVSPropertyOp12
 70
     1
102
RTVSPropertyOp13
 70
     1
102
RTVSPropertyOp14
 70
     1
102
RTVSPropertyOp15
 70
     1
102
RTVSPropertyOp16
 70
     1
102
RTVSPropertyOp17
 70
     1
102
RTVSPropertyOp18
 70
     1
102
RTVSPropertyOp19
 70
     1
102
RTVSPropertyOp20
 70
     1
102
RTVSPropertyOp21
 70
     1
102
RTVSPropertyOp22
 70
     1
102
RTVSPropertyOp23
 70
     1
102
RTVSPropertyOp24
 70
     1
102
RTVSPropertyOp25
 70
     1
102
RTVSPropertyOp26
 70
     1
102
RTVSPropertyOp27
 70
     1
102
RTVSPropertyOp28
 70
     1
102
RTVSPropertyOp29
 70
     1
102
RTVSPropertyOp30
 70
     1
102
RTVSPropertyOp31
 70
     1
102
RTVSPropertyOp32
 70
     1
  0
XRECORD
  5
20D
102
{ACAD_REACTORS
330
20C
102
}
330
20C
100
AcDbXrecord
280
     1
102
RTVSPropertyOp0
 70
     1
102
RTVSPropertyOp1
 70
     1
102
RTVSPropertyOp2
 70
     1
102
RTVSPropertyOp3
 70
     1
102
RTVSPropertyOp4
 70
     1
102
RTVSPropertyOp5
 70
     1
102
RTVSPropertyOp6
 70
     1
102
RTVSPropertyOp7
 70
     1
102
RTVSPropertyOp8
 70
     1
102
RTVSPropertyOp9
 70
     1
102
RTVSPropertyOp10
 70
     1
102
RTVSPropertyOp11
 70
     1
102
RTVSPropertyOp12
 70
     1
102
RTVSPropertyOp13
 70
     1
102
RTVSPropertyOp14
 70
     1
102
RTVSPropertyOp15
 70
     1
102
RTVSPropertyOp16
 70
     1
102
RTVSPropertyOp17
 70
     1
102
RTVSPropertyOp18
 70
     1
102
RTVSPropertyOp19
 70
     1
102
RTVSPropertyOp20
 70
     1
102
RTVSPropertyOp21
 70
     1
102
RTVSPropertyOp22
 70
     1
102
RTVSPropertyOp23
 70
     1
102
RTVSPropertyOp24
 70
     1
102
RTVSPropertyOp25
 70
     1
102
RTVSPropertyOp26
 70
     1
102
RTVSPropertyOp27
 70
     1
102
RTVSPropertyOp28
 70
     1
102
RTVSPropertyOp29
 70
     1
102
RTVSPropertyOp30
 70
     1
102
RTVSPropertyOp31
 70
     1
102
RTVSPropertyOp32
 70
     1
  0
XRECORD
  5
20B
102
{ACAD_REACTORS
330
20A
102
}
330
20A
100
AcDbXrecord
280
     1
102
RTVSPropertyOp0
 70
     1
102
RTVSPropertyOp1
 70
     1
102
RTVSPropertyOp2
 70
     1
102
RTVSPropertyOp3
 70
     1
102
RTVSPropertyOp4
 70
     1
102
RTVSPropertyOp5
 70
     1
102
RTVSPropertyOp6
 70
     1
102
RTVSPropertyOp7
 70
     1
102
RTVSPropertyOp8
 70
     1
102
RTVSPropertyOp9
 70
     1
102
RTVSPropertyOp10
 70
     1
102
RTVSPropertyOp11
 70
     1
102
RTVSPropertyOp12
 70
     1
102
RTVSPropertyOp13
 70
     1
102
RTVSPropertyOp14
 70
     1
102
RTVSPropertyOp15
 70
     1
102
RTVSPropertyOp16
 70
     1
102
RTVSPropertyOp17
 70
     1
102
RTVSPropertyOp18
 70
     1
102
RTVSPropertyOp19
 70
     1
102
RTVSPropertyOp20
 70
     1
102
RTVSPropertyOp21
 70
     1
102
RTVSPropertyOp22
 70
     1
102
RTVSPropertyOp23
 70
     1
102
RTVSPropertyOp24
 70
     1
102
RTVSPropertyOp25
 70
     1
102
RTVSPropertyOp26
 70
     1
102
RTVSPropertyOp27
 70
     1
102
RTVSPropertyOp28
 70
     1
102
RTVSPropertyOp29
 70
     1
102
RTVSPropertyOp30
 70
     1
102
RTVSPropertyOp31
 70
     1
102
RTVSPropertyOp32
 70
     1
  0
XRECORD
  5
20F
102
{ACAD_REACTORS
330
20E
102
}
330
20E
100
AcDbXrecord
280
     1
102
RTVSPropertyOp0
 70
     1
102
RTVSPropertyOp1
 70
     1
102
RTVSPropertyOp2
 70
     1
102
RTVSPropertyOp3
 70
     1
102
RTVSPropertyOp4
 70
     1
102
RTVSPropertyOp5
 70
     1
102
RTVSPropertyOp6
 70
     1
102
RTVSPropertyOp7
 70
     1
102
RTVSPropertyOp8
 70
     1
102
RTVSPropertyOp9
 70
     1
102
RTVSPropertyOp10
 70
     1
102
RTVSPropertyOp11
 70
     1
102
RTVSPropertyOp12
 70
     1
102
RTVSPropertyOp13
 70
     1
102
RTVSPropertyOp14
 70
     1
102
RTVSPropertyOp15
 70
     1
102
RTVSPropertyOp16
 70
     1
102
RTVSPropertyOp17
 70
     1
102
RTVSPropertyOp18
 70
     1
102
RTVSPropertyOp19
 70
     1
102
RTVSPropertyOp20
 70
     1
102
RTVSPropertyOp21
 70
     1
102
RTVSPropertyOp22
 70
     1
102
RTVSPropertyOp23
 70
     1
102
RTVSPropertyOp24
 70
     1
102
RTVSPropertyOp25
 70
     1
102
RTVSPropertyOp26
 70
     1
102
RTVSPropertyOp27
 70
     1
102
RTVSPropertyOp28
 70
     1
102
RTVSPropertyOp29
 70
     1
102
RTVSPropertyOp30
 70
     1
102
RTVSPropertyOp31
 70
     1
102
RTVSPropertyOp32
 70
     1
  0
XRECORD
  5
217
102
{ACAD_REACTORS
330
216
102
}
330
216
100
AcDbXrecord
280
     1
102
RTVSPropertyOp0
 70
     1
102
RTVSPropertyOp1
 70
     1
102
RTVSPropertyOp2
 70
     1
102
RTVSPropertyOp3
 70
     1
102
RTVSPropertyOp4
 70
     1
102
RTVSPropertyOp5
 70
     1
102
RTVSPropertyOp6
 70
     1
102
RTVSPropertyOp7
 70
     1
102
RTVSPropertyOp8
 70
     1
102
RTVSPropertyOp9
 70
     1
102
RTVSPropertyOp10
 70
     1
102
RTVSPropertyOp11
 70
     1
102
RTVSPropertyOp12
 70
     1
102
RTVSPropertyOp13
 70
     1
102
RTVSPropertyOp14
 70
     1
102
RTVSPropertyOp15
 70
     1
102
RTVSPropertyOp16
 70
     1
102
RTVSPropertyOp17
 70
     1
102
RTVSPropertyOp18
 70
     1
102
RTVSPropertyOp19
 70
     1
102
RTVSPropertyOp20
 70
     1
102
RTVSPropertyOp21
 70
     1
102
RTVSPropertyOp22
 70
     1
102
RTVSPropertyOp23
 70
     1
102
RTVSPropertyOp24
 70
     1
102
RTVSPropertyOp25
 70
     1
102
RTVSPropertyOp26
 70
     1
102
RTVSPropertyOp27
 70
     1
102
RTVSPropertyOp28
 70
     1
102
RTVSPropertyOp29
 70
     1
102
RTVSPropertyOp30
 70
     1
102
RTVSPropertyOp31
 70
     1
102
RTVSPropertyOp32
 70
     1
  0
XRECORD
  5
21F
102
{ACAD_REACTORS
330
21E
102
}
330
21E
100
AcDbXrecord
280
     1
102
RTVSPropertyOp0
 70
     1
102
RTVSPropertyOp1
 70
     1
102
RTVSPropertyOp2
 70
     1
102
RTVSPropertyOp3
 70
     1
102
RTVSPropertyOp4
 70
     1
102
RTVSPropertyOp5
 70
     1
102
RTVSPropertyOp6
 70
     1
102
RTVSPropertyOp7
 70
     1
102
RTVSPropertyOp8
 70
     1
102
RTVSPropertyOp9
 70
     1
102
RTVSPropertyOp10
 70
     1
102
RTVSPropertyOp11
 70
     1
102
RTVSPropertyOp12
 70
     1
102
RTVSPropertyOp13
 70
     1
102
RTVSPropertyOp14
 70
     1
102
RTVSPropertyOp15
 70
     1
102
RTVSPropertyOp16
 70
     1
102
RTVSPropertyOp17
 70
     1
102
RTVSPropertyOp18
 70
     1
102
RTVSPropertyOp19
 70
     1
102
RTVSPropertyOp20
 70
     1
102
RTVSPropertyOp21
 70
     1
102
RTVSPropertyOp22
 70
     1
102
RTVSPropertyOp23
 70
     1
102
RTVSPropertyOp24
 70
     1
102
RTVSPropertyOp25
 70
     1
102
RTVSPropertyOp26
 70
     1
102
RTVSPropertyOp27
 70
     1
102
RTVSPropertyOp28
 70
     1
102
RTVSPropertyOp29
 70
     1
102
RTVSPropertyOp30
 70
     1
102
RTVSPropertyOp31
 70
     1
102
RTVSPropertyOp32
 70
     1
  0
XRECORD
  5
213
102
{ACAD_REACTORS
330
212
102
}
330
212
100
AcDbXrecord
280
     1
102
RTVSPropertyOp0
 70
     1
102
RTVSPropertyOp1
 70
     1
102
RTVSPropertyOp2
 70
     1
102
RTVSPropertyOp3
 70
     1
102
RTVSPropertyOp4
 70
     1
102
RTVSPropertyOp5
 70
     1
102
RTVSPropertyOp6
 70
     1
102
RTVSPropertyOp7
 70
     1
102
RTVSPropertyOp8
 70
     1
102
RTVSPropertyOp9
 70
     1
102
RTVSPropertyOp10
 70
     1
102
RTVSPropertyOp11
 70
     1
102
RTVSPropertyOp12
 70
     1
102
RTVSPropertyOp13
 70
     1
102
RTVSPropertyOp14
 70
     1
102
RTVSPropertyOp15
 70
     1
102
RTVSPropertyOp16
 70
     1
102
RTVSPropertyOp17
 70
     1
102
RTVSPropertyOp18
 70
     1
102
RTVSPropertyOp19
 70
     1
102
RTVSPropertyOp20
 70
     1
102
RTVSPropertyOp21
 70
     1
102
RTVSPropertyOp22
 70
     1
102
RTVSPropertyOp23
 70
     1
102
RTVSPropertyOp24
 70
     1
102
RTVSPropertyOp25
 70
     1
102
RTVSPropertyOp26
 70
     1
102
RTVSPropertyOp27
 70
     1
102
RTVSPropertyOp28
 70
     1
102
RTVSPropertyOp29
 70
     1
102
RTVSPropertyOp30
 70
     1
102
RTVSPropertyOp31
 70
     1
102
RTVSPropertyOp32
 70
     1
  0
XRECORD
  5
215
102
{ACAD_REACTORS
330
214
102
}
330
214
100
AcDbXrecord
280
     1
102
RTVSPropertyOp0
 70
     1
102
RTVSPropertyOp1
 70
     1
102
RTVSPropertyOp2
 70
     1
102
RTVSPropertyOp3
 70
     1
102
RTVSPropertyOp4
 70
     1
102
RTVSPropertyOp5
 70
     1
102
RTVSPropertyOp6
 70
     1
102
RTVSPropertyOp7
 70
     1
102
RTVSPropertyOp8
 70
     1
102
RTVSPropertyOp9
 70
     1
102
RTVSPropertyOp10
 70
     1
102
RTVSPropertyOp11
 70
     1
102
RTVSPropertyOp12
 70
     1
102
RTVSPropertyOp13
 70
     1
102
RTVSPropertyOp14
 70
     1
102
RTVSPropertyOp15
 70
     1
102
RTVSPropertyOp16
 70
     1
102
RTVSPropertyOp17
 70
     1
102
RTVSPropertyOp18
 70
     1
102
RTVSPropertyOp19
 70
     1
102
RTVSPropertyOp20
 70
     1
102
RTVSPropertyOp21
 70
     1
102
RTVSPropertyOp22
 70
     1
102
RTVSPropertyOp23
 70
     1
102
RTVSPropertyOp24
 70
     1
102
RTVSPropertyOp25
 70
     1
102
RTVSPropertyOp26
 70
     1
102
RTVSPropertyOp27
 70
     1
102
RTVSPropertyOp28
 70
     1
102
RTVSPropertyOp29
 70
     1
102
RTVSPropertyOp30
 70
     1
102
RTVSPropertyOp31
 70
     1
102
RTVSPropertyOp32
 70
     1
  0
XRECORD
  5
21D
102
{ACAD_REACTORS
330
21C
102
}
330
21C
100
AcDbXrecord
280
     1
102
RTVSPropertyOp0
 70
     1
102
RTVSPropertyOp1
 70
     1
102
RTVSPropertyOp2
 70
     1
102
RTVSPropertyOp3
 70
     1
102
RTVSPropertyOp4
 70
     1
102
RTVSPropertyOp5
 70
     1
102
RTVSPropertyOp6
 70
     1
102
RTVSPropertyOp7
 70
     1
102
RTVSPropertyOp8
 70
     1
102
RTVSPropertyOp9
 70
     1
102
RTVSPropertyOp10
 70
     1
102
RTVSPropertyOp11
 70
     1
102
RTVSPropertyOp12
 70
     1
102
RTVSPropertyOp13
 70
     1
102
RTVSPropertyOp14
 70
     1
102
RTVSPropertyOp15
 70
     1
102
RTVSPropertyOp16
 70
     1
102
RTVSPropertyOp17
 70
     1
102
RTVSPropertyOp18
 70
     1
102
RTVSPropertyOp19
 70
     1
102
RTVSPropertyOp20
 70
     1
102
RTVSPropertyOp21
 70
     1
102
RTVSPropertyOp22
 70
     1
102
RTVSPropertyOp23
 70
     1
102
RTVSPropertyOp24
 70
     1
102
RTVSPropertyOp25
 70
     1
102
RTVSPropertyOp26
 70
     1
102
RTVSPropertyOp27
 70
     1
102
RTVSPropertyOp28
 70
     1
102
RTVSPropertyOp29
 70
     1
102
RTVSPropertyOp30
 70
     1
102
RTVSPropertyOp31
 70
     1
102
RTVSPropertyOp32
 70
     1
  0
XRECORD
  5
201
102
{ACAD_REACTORS
330
200
102
}
330
200
100
AcDbXrecord
280
     1
102
RTVSPropertyOp0
 70
     1
102
RTVSPropertyOp1
 70
     1
102
RTVSPropertyOp2
 70
     1
102
RTVSPropertyOp3
 70
     1
102
RTVSPropertyOp4
 70
     1
102
RTVSPropertyOp5
 70
     1
102
RTVSPropertyOp6
 70
     1
102
RTVSPropertyOp7
 70
     1
102
RTVSPropertyOp8
 70
     1
102
RTVSPropertyOp9
 70
     1
102
RTVSPropertyOp10
 70
     1
102
RTVSPropertyOp11
 70
     1
102
RTVSPropertyOp12
 70
     1
102
RTVSPropertyOp13
 70
     1
102
RTVSPropertyOp14
 70
     1
102
RTVSPropertyOp15
 70
     1
102
RTVSPropertyOp16
 70
     1
102
RTVSPropertyOp17
 70
     1
102
RTVSPropertyOp18
 70
     1
102
RTVSPropertyOp19
 70
     1
102
RTVSPropertyOp20
 70
     1
102
RTVSPropertyOp21
 70
     1
102
RTVSPropertyOp22
 70
     1
102
RTVSPropertyOp23
 70
     1
102
RTVSPropertyOp24
 70
     1
102
RTVSPropertyOp25
 70
     1
102
RTVSPropertyOp26
 70
     1
102
RTVSPropertyOp27
 70
     1
102
RTVSPropertyOp28
 70
     1
102
RTVSPropertyOp29
 70
     1
102
RTVSPropertyOp30
 70
     1
102
RTVSPropertyOp31
 70
     1
102
RTVSPropertyOp32
 70
     1
  0
XRECORD
  5
203
102
{ACAD_REACTORS
330
202
102
}
330
202
100
AcDbXrecord
280
     1
102
RTVSPropertyOp0
 70
     1
102
RTVSPropertyOp1
 70
     1
102
RTVSPropertyOp2
 70
     1
102
RTVSPropertyOp3
 70
     1
102
RTVSPropertyOp4
 70
     1
102
RTVSPropertyOp5
 70
     1
102
RTVSPropertyOp6
 70
     1
102
RTVSPropertyOp7
 70
     1
102
RTVSPropertyOp8
 70
     1
102
RTVSPropertyOp9
 70
     1
102
RTVSPropertyOp10
 70
     1
102
RTVSPropertyOp11
 70
     1
102
RTVSPropertyOp12
 70
     1
102
RTVSPropertyOp13
 70
     1
102
RTVSPropertyOp14
 70
     1
102
RTVSPropertyOp15
 70
     1
102
RTVSPropertyOp16
 70
     1
102
RTVSPropertyOp17
 70
     1
102
RTVSPropertyOp18
 70
     1
102
RTVSPropertyOp19
 70
     1
102
RTVSPropertyOp20
 70
     1
102
RTVSPropertyOp21
 70
     1
102
RTVSPropertyOp22
 70
     1
102
RTVSPropertyOp23
 70
     1
102
RTVSPropertyOp24
 70
     1
102
RTVSPropertyOp25
 70
     1
102
RTVSPropertyOp26
 70
     1
102
RTVSPropertyOp27
 70
     1
102
RTVSPropertyOp28
 70
     1
102
RTVSPropertyOp29
 70
     1
102
RTVSPropertyOp30
 70
     1
102
RTVSPropertyOp31
 70
     1
102
RTVSPropertyOp32
 70
     1
  0
XRECORD
  5
205
102
{ACAD_REACTORS
330
204
102
}
330
204
100
AcDbXrecord
280
     1
102
RTVSPropertyOp0
 70
     1
102
RTVSPropertyOp1
 70
     1
102
RTVSPropertyOp2
 70
     1
102
RTVSPropertyOp3
 70
     1
102
RTVSPropertyOp4
 70
     1
102
RTVSPropertyOp5
 70
     1
102
RTVSPropertyOp6
 70
     1
102
RTVSPropertyOp7
 70
     1
102
RTVSPropertyOp8
 70
     1
102
RTVSPropertyOp9
 70
     1
102
RTVSPropertyOp10
 70
     1
102
RTVSPropertyOp11
 70
     1
102
RTVSPropertyOp12
 70
     1
102
RTVSPropertyOp13
 70
     1
102
RTVSPropertyOp14
 70
     1
102
RTVSPropertyOp15
 70
     1
102
RTVSPropertyOp16
 70
     1
102
RTVSPropertyOp17
 70
     1
102
RTVSPropertyOp18
 70
     1
102
RTVSPropertyOp19
 70
     1
102
RTVSPropertyOp20
 70
     1
102
RTVSPropertyOp21
 70
     1
102
RTVSPropertyOp22
 70
     1
102
RTVSPropertyOp23
 70
     1
102
RTVSPropertyOp24
 70
     1
102
RTVSPropertyOp25
 70
     1
102
RTVSPropertyOp26
 70
     1
102
RTVSPropertyOp27
 70
     1
102
RTVSPropertyOp28
 70
     1
102
RTVSPropertyOp29
 70
     1
102
RTVSPropertyOp30
 70
     1
102
RTVSPropertyOp31
 70
     1
102
RTVSPropertyOp32
 70
     1
  0
XRECORD
  5
207
102
{ACAD_REACTORS
330
206
102
}
330
206
100
AcDbXrecord
280
     1
102
RTVSPropertyOp0
 70
     1
102
RTVSPropertyOp1
 70
     1
102
RTVSPropertyOp2
 70
     1
102
RTVSPropertyOp3
 70
     1
102
RTVSPropertyOp4
 70
     1
102
RTVSPropertyOp5
 70
     1
102
RTVSPropertyOp6
 70
     1
102
RTVSPropertyOp7
 70
     1
102
RTVSPropertyOp8
 70
     1
102
RTVSPropertyOp9
 70
     1
102
RTVSPropertyOp10
 70
     1
102
RTVSPropertyOp11
 70
     1
102
RTVSPropertyOp12
 70
     1
102
RTVSPropertyOp13
 70
     1
102
RTVSPropertyOp14
 70
     1
102
RTVSPropertyOp15
 70
     1
102
RTVSPropertyOp16
 70
     1
102
RTVSPropertyOp17
 70
     1
102
RTVSPropertyOp18
 70
     1
102
RTVSPropertyOp19
 70
     1
102
RTVSPropertyOp20
 70
     1
102
RTVSPropertyOp21
 70
     1
102
RTVSPropertyOp22
 70
     1
102
RTVSPropertyOp23
 70
     1
102
RTVSPropertyOp24
 70
     1
102
RTVSPropertyOp25
 70
     1
102
RTVSPropertyOp26
 70
     1
102
RTVSPropertyOp27
 70
     1
102
RTVSPropertyOp28
 70
     1
102
RTVSPropertyOp29
 70
     1
102
RTVSPropertyOp30
 70
     1
102
RTVSPropertyOp31
 70
     1
102
RTVSPropertyOp32
 70
     1
  0
XRECORD
  5
21B
102
{ACAD_REACTORS
330
21A
102
}
330
21A
100
AcDbXrecord
280
     1
102
RTVSPropertyOp0
 70
     1
102
RTVSPropertyOp1
 70
     1
102
RTVSPropertyOp2
 70
     1
102
RTVSPropertyOp3
 70
     1
102
RTVSPropertyOp4
 70
     1
102
RTVSPropertyOp5
 70
     1
102
RTVSPropertyOp6
 70
     1
102
RTVSPropertyOp7
 70
     1
102
RTVSPropertyOp8
 70
     1
102
RTVSPropertyOp9
 70
     1
102
RTVSPropertyOp10
 70
     1
102
RTVSPropertyOp11
 70
     1
102
RTVSPropertyOp12
 70
     1
102
RTVSPropertyOp13
 70
     1
102
RTVSPropertyOp14
 70
     1
102
RTVSPropertyOp15
 70
     1
102
RTVSPropertyOp16
 70
     1
102
RTVSPropertyOp17
 70
     1
102
RTVSPropertyOp18
 70
     1
102
RTVSPropertyOp19
 70
     1
102
RTVSPropertyOp20
 70
     1
102
RTVSPropertyOp21
 70
     1
102
RTVSPropertyOp22
 70
     1
102
RTVSPropertyOp23
 70
     1
102
RTVSPropertyOp24
 70
     1
102
RTVSPropertyOp25
 70
     1
102
RTVSPropertyOp26
 70
     1
102
RTVSPropertyOp27
 70
     1
102
RTVSPropertyOp28
 70
     1
102
RTVSPropertyOp29
 70
     1
102
RTVSPropertyOp30
 70
     1
102
RTVSPropertyOp31
 70
     1
102
RTVSPropertyOp32
 70
     1
  0
XRECORD
  5
211
102
{ACAD_REACTORS
330
210
102
}
330
210
100
AcDbXrecord
280
     1
102
RTVSPropertyOp0
 70
     1
102
RTVSPropertyOp1
 70
     1
102
RTVSPropertyOp2
 70
     1
102
RTVSPropertyOp3
 70
     1
102
RTVSPropertyOp4
 70
     1
102
RTVSPropertyOp5
 70
     1
102
RTVSPropertyOp6
 70
     1
102
RTVSPropertyOp7
 70
     1
102
RTVSPropertyOp8
 70
     1
102
RTVSPropertyOp9
 70
     1
102
RTVSPropertyOp10
 70
     1
102
RTVSPropertyOp11
 70
     1
102
RTVSPropertyOp12
 70
     1
102
RTVSPropertyOp13
 70
     1
102
RTVSPropertyOp14
 70
     1
102
RTVSPropertyOp15
 70
     1
102
RTVSPropertyOp16
 70
     1
102
RTVSPropertyOp17
 70
     1
102
RTVSPropertyOp18
 70
     1
102
RTVSPropertyOp19
 70
     1
102
RTVSPropertyOp20
 70
     1
102
RTVSPropertyOp21
 70
     1
102
RTVSPropertyOp22
 70
     1
102
RTVSPropertyOp23
 70
     1
102
RTVSPropertyOp24
 70
     1
102
RTVSPropertyOp25
 70
     1
102
RTVSPropertyOp26
 70
     1
102
RTVSPropertyOp27
 70
     1
102
RTVSPropertyOp28
 70
     1
102
RTVSPropertyOp29
 70
     1
102
RTVSPropertyOp30
 70
     1
102
RTVSPropertyOp31
 70
     1
102
RTVSPropertyOp32
 70
     1
  0
XRECORD
  5
219
102
{ACAD_REACTORS
330
218
102
}
330
218
100
AcDbXrecord
280
     1
102
RTVSPropertyOp0
 70
     1
102
RTVSPropertyOp1
 70
     1
102
RTVSPropertyOp2
 70
     1
102
RTVSPropertyOp3
 70
     1
102
RTVSPropertyOp4
 70
     1
102
RTVSPropertyOp5
 70
     1
102
RTVSPropertyOp6
 70
     1
102
RTVSPropertyOp7
 70
     1
102
RTVSPropertyOp8
 70
     1
102
RTVSPropertyOp9
 70
     1
102
RTVSPropertyOp10
 70
     1
102
RTVSPropertyOp11
 70
     1
102
RTVSPropertyOp12
 70
     1
102
RTVSPropertyOp13
 70
     1
102
RTVSPropertyOp14
 70
     1
102
RTVSPropertyOp15
 70
     1
102
RTVSPropertyOp16
 70
     1
102
RTVSPropertyOp17
 70
     1
102
RTVSPropertyOp18
 70
     1
102
RTVSPropertyOp19
 70
     1
102
RTVSPropertyOp20
 70
     1
102
RTVSPropertyOp21
 70
     1
102
RTVSPropertyOp22
 70
     1
102
RTVSPropertyOp23
 70
     1
102
RTVSPropertyOp24
 70
     1
102
RTVSPropertyOp25
 70
     1
102
RTVSPropertyOp26
 70
     1
102
RTVSPropertyOp27
 70
     1
102
RTVSPropertyOp28
 70
     1
102
RTVSPropertyOp29
 70
     1
102
RTVSPropertyOp30
 70
     1
102
RTVSPropertyOp31
 70
     1
102
RTVSPropertyOp32
 70
     1
  0
ENDSEC
  0
EOF
