  0
SECTION
  2
HEADER
  9
$ACADVER
  1
AC1018
  9
$ACADMAINTVER
 70
     0
  9
$DWGCODEPAGE
  3
ANSI_1252
  9
$INSBASE
 10
0.0
 20
0.0
 30
0.0
  9
$EXTMIN
 10
1281.60045195877
 20
195.025047145356
 30
0.0
  9
$EXTMAX
 10
1738.019521374285
 20
942.3755145077793
 30
0.0
  9
$LIMMIN
 10
0.0
 20
0.0
  9
$LIMMAX
 10
12.0
 20
9.0
  9
$ORTHOMODE
 70
     0
  9
$REGENMODE
 70
     1
  9
$FILLMODE
 70
     1
  9
$QTEXTMODE
 70
     0
  9
$MIRRTEXT
 70
     1
  9
$LTSCALE
 40
1.0
  9
$ATTMODE
 70
     1
  9
$TEXTSIZE
 40
0.2
  9
$TRACEWID
 40
0.05
  9
$TEXTSTYLE
  7
Standard
  9
$CLAYER
  8
0
  9
$CELTYPE
  6
ByLayer
  9
$CECOLOR
 62
   256
  9
$CELTSCALE
 40
1.0
  9
$DISPSILH
 70
     0
  9
$DIMSCALE
 40
1.0
  9
$DIMASZ
 40
0.18
  9
$DIMEXO
 40
0.0625
  9
$DIMDLI
 40
0.38
  9
$DIMRND
 40
0.0
  9
$DIMDLE
 40
0.0
  9
$DIMEXE
 40
0.18
  9
$DIMTP
 40
0.0
  9
$DIMTM
 40
0.0
  9
$DIMTXT
 40
0.18
  9
$DIMCEN
 40
0.09
  9
$DIMTSZ
 40
0.0
  9
$DIMTOL
 70
     0
  9
$DIMLIM
 70
     0
  9
$DIMTIH
 70
     1
  9
$DIMTOH
 70
     1
  9
$DIMSE1
 70
     0
  9
$DIMSE2
 70
     0
  9
$DIMTAD
 70
     0
  9
$DIMZIN
 70
     0
  9
$DIMBLK
  1

  9
$DIMASO
 70
     1
  9
$DIMSHO
 70
     1
  9
$DIMPOST
  1

  9
$DIMAPOST
  1

  9
$DIMALT
 70
     0
  9
$DIMALTD
 70
     2
  9
$DIMALTF
 40
25.4
  9
$DIMLFAC
 40
1.0
  9
$DIMTOFL
 70
     0
  9
$DIMTVP
 40
0.0
  9
$DIMTIX
 70
     0
  9
$DIMSOXD
 70
     0
  9
$DIMSAH
 70
     0
  9
$DIMBLK1
  1

  9
$DIMBLK2
  1

  9
$DIMSTYLE
  2
Standard
  9
$DIMCLRD
 70
     0
  9
$DIMCLRE
 70
     0
  9
$DIMCLRT
 70
     0
  9
$DIMTFAC
 40
1.0
  9
$DIMGAP
 40
0.09
  9
$DIMJUST
 70
     0
  9
$DIMSD1
 70
     0
  9
$DIMSD2
 70
     0
  9
$DIMTOLJ
 70
     1
  9
$DIMTZIN
 70
     0
  9
$DIMALTZ
 70
     0
  9
$DIMALTTZ
 70
     0
  9
$DIMUPT
 70
     0
  9
$DIMDEC
 70
     4
  9
$DIMTDEC
 70
     4
  9
$DIMALTU
 70
     2
  9
$DIMALTTD
 70
     2
  9
$DIMTXSTY
  7
Standard
  9
$DIMAUNIT
 70
     0
  9
$DIMADEC
 70
     0
  9
$DIMALTRND
 40
0.0
  9
$DIMAZIN
 70
     0
  9
$DIMDSEP
 70
    46
  9
$DIMATFIT
 70
     3
  9
$DIMFRAC
 70
     0
  9
$DIMLDRBLK
  1

  9
$DIMLUNIT
 70
     2
  9
$DIMLWD
 70
    -2
  9
$DIMLWE
 70
    -2
  9
$DIMTMOVE
 70
     2
  9
$LUNITS
 70
     2
  9
$LUPREC
 70
     3
  9
$SKETCHINC
 40
0.1
  9
$FILLETRAD
 40
0.5
  9
$AUNITS
 70
     0
  9
$AUPREC
 70
     0
  9
$MENU
  1
.
  9
$ELEVATION
 40
0.0
  9
$PELEVATION
 40
0.0
  9
$THICKNESS
 40
0.0
  9
$LIMCHECK
 70
     0
  9
$CHAMFERA
 40
0.5
  9
$CHAMFERB
 40
0.5
  9
$CHAMFERC
 40
1.0
  9
$CHAMFERD
 40
0.0
  9
$SKPOLY
 70
     0
  9
$TDCREATE
 40
2457197.678829421
  9
$TDUCREATE
 40
2457197.595496088
  9
$TDUPDATE
 40
2457197.678843322
  9
$TDUUPDATE
 40
2457197.595509988
  9
$TDINDWG
 40
0.0000000116
  9
$TDUSRTIMER
 40
0.0000000116
  9
$USRTIMER
 70
     1
  9
$ANGBASE
 50
0.0
  9
$ANGDIR
 70
     0
  9
$PDMODE
 70
     0
  9
$PDSIZE
 40
0.0
  9
$PLINEWID
 40
0.0
  9
$SPLFRAME
 70
     0
  9
$SPLINETYPE
 70
     6
  9
$SPLINESEGS
 70
     8
  9
$HANDSEED
  5
109
  9
$SURFTAB1
 70
     6
  9
$SURFTAB2
 70
     6
  9
$SURFTYPE
 70
     6
  9
$SURFU
 70
     6
  9
$SURFV
 70
     6
  9
$UCSBASE
  2

  9
$UCSNAME
  2

  9
$UCSORG
 10
0.0
 20
0.0
 30
0.0
  9
$UCSXDIR
 10
1.0
 20
0.0
 30
0.0
  9
$UCSYDIR
 10
0.0
 20
1.0
 30
0.0
  9
$UCSORTHOREF
  2

  9
$UCSORTHOVIEW
 70
     0
  9
$UCSORGTOP
 10
0.0
 20
0.0
 30
0.0
  9
$UCSORGBOTTOM
 10
0.0
 20
0.0
 30
0.0
  9
$UCSORGLEFT
 10
0.0
 20
0.0
 30
0.0
  9
$UCSORGRIGHT
 10
0.0
 20
0.0
 30
0.0
  9
$UCSORGFRONT
 10
0.0
 20
0.0
 30
0.0
  9
$UCSORGBACK
 10
0.0
 20
0.0
 30
0.0
  9
$PUCSBASE
  2

  9
$PUCSNAME
  2

  9
$PUCSORG
 10
0.0
 20
0.0
 30
0.0
  9
$PUCSXDIR
 10
1.0
 20
0.0
 30
0.0
  9
$PUCSYDIR
 10
0.0
 20
1.0
 30
0.0
  9
$PUCSORTHOREF
  2

  9
$PUCSORTHOVIEW
 70
     0
  9
$PUCSORGTOP
 10
0.0
 20
0.0
 30
0.0
  9
$PUCSORGBOTTOM
 10
0.0
 20
0.0
 30
0.0
  9
$PUCSORGLEFT
 10
0.0
 20
0.0
 30
0.0
  9
$PUCSORGRIGHT
 10
0.0
 20
0.0
 30
0.0
  9
$PUCSORGFRONT
 10
0.0
 20
0.0
 30
0.0
  9
$PUCSORGBACK
 10
0.0
 20
0.0
 30
0.0
  9
$USERI1
 70
     0
  9
$USERI2
 70
     0
  9
$USERI3
 70
     0
  9
$USERI4
 70
     0
  9
$USERI5
 70
     0
  9
$USERR1
 40
0.0
  9
$USERR2
 40
0.0
  9
$USERR3
 40
0.0
  9
$USERR4
 40
0.0
  9
$USERR5
 40
0.0
  9
$WORLDVIEW
 70
     1
  9
$SHADEDGE
 70
     3
  9
$SHADEDIF
 70
    70
  9
$TILEMODE
 70
     1
  9
$MAXACTVP
 70
    64
  9
$PINSBASE
 10
0.0
 20
0.0
 30
0.0
  9
$PLIMCHECK
 70
     0
  9
$PEXTMIN
 10
1.000000000000000E+20
 20
1.000000000000000E+20
 30
1.000000000000000E+20
  9
$PEXTMAX
 10
-1.000000000000000E+20
 20
-1.000000000000000E+20
 30
-1.000000000000000E+20
  9
$PLIMMIN
 10
0.0
 20
0.0
  9
$PLIMMAX
 10
12.0
 20
9.0
  9
$UNITMODE
 70
     0
  9
$VISRETAIN
 70
     1
  9
$PLINEGEN
 70
     0
  9
$PSLTSCALE
 70
     1
  9
$TREEDEPTH
 70
  3020
  9
$CMLSTYLE
  2
Standard
  9
$CMLJUST
 70
     0
  9
$CMLSCALE
 40
1.0
  9
$PROXYGRAPHICS
 70
     1
  9
$MEASUREMENT
 70
     0
  9
$CELWEIGHT
370
    -1
  9
$ENDCAPS
280
     0
  9
$JOINSTYLE
280
     0
  9
$LWDISPLAY
290
     0
  9
$INSUNITS
 70
     4
  9
$HYPERLINKBASE
  1

  9
$STYLESHEET
  1

  9
$XEDIT
290
     1
  9
$CEPSNTYPE
380
     0
  9
$PSTYLEMODE
290
     1
  9
$FINGERPRINTGUID
  2
{1DE77D21-2675-4537-8993-02DBD6C17753}
  9
$VERSIONGUID
  2
{FAEB1C32-E019-11D5-929B-00C0DF256EC4}
  9
$EXTNAMES
290
     1
  9
$PSVPSCALE
 40
0.0
  9
$OLESTARTUP
290
     0
  9
$SORTENTS
280
   127
  9
$INDEXCTL
280
     0
  9
$HIDETEXT
280
     1
  9
$XCLIPFRAME
290
     0
  9
$HALOGAP
280
     0
  9
$OBSCOLOR
 70
   257
  9
$OBSLTYPE
280
     0
  9
$INTERSECTIONDISPLAY
280
     0
  9
$INTERSECTIONCOLOR
 70
   257
  9
$DIMASSOC
280
     2
  9
$PROJECTNAME
  1

  0
ENDSEC
  0
SECTION
  2
CLASSES
  0
CLASS
  1
ACDBDICTIONARYWDFLT
  2
AcDbDictionaryWithDefault
  3
ObjectDBX Classes
 90
        0
 91
        4
280
     0
281
     0
  0
CLASS
  1
VISUALSTYLE
  2
AcDbVisualStyle
  3
ObjectDBX Classes
 90
     4095
 91
        4
280
     0
281
     0
  0
CLASS
  1
MATERIAL
  2
AcDbMaterial
  3
ObjectDBX Classes
 90
     1153
 91
        4
280
     0
281
     0
  0
CLASS
  1
SUN
  2
AcDbSun
  3
SCENEOE
 90
     1024
 91
        4
280
     0
281
     0
  0
ENDSEC
  0
SECTION
  2
TABLES
  0
TABLE
  2
VPORT
  5
8
330
0
100
AcDbSymbolTable
 70
     1
  0
VPORT
  5
29
330
8
100
AcDbSymbolTableRecord
100
AcDbViewportTableRecord
  2
*Active
 70
     0
 10
0.0
 20
0.0
 11
1.0
 21
1.0
 12
1509.809986666527
 22
568.7002808265677
 13
0.0
 23
0.0
 14
0.5
 24
0.5
 15
0.5
 25
0.5
 16
0.0
 26
0.0
 36
1.0
 17
0.0
 27
0.0
 37
0.0
 40
762.2974767096719
 41
0.6107162427105007
 42
50.0
 43
0.0
 44
0.0
 50
0.0
 51
0.0
 71
     0
 72
   100
 73
     1
 74
     3
 75
     0
 76
     0
 77
     0
 78
     0
281
     0
 65
     1
110
0.0
120
0.0
130
0.0
111
1.0
121
0.0
131
0.0
112
0.0
122
1.0
132
0.0
 79
     0
146
0.0
  0
ENDTAB
  0
TABLE
  2
LTYPE
  5
5
330
0
100
AcDbSymbolTable
 70
     1
  0
LTYPE
  5
14
330
5
100
AcDbSymbolTableRecord
100
AcDbLinetypeTableRecord
  2
ByBlock
 70
     0
  3

 72
    65
 73
     0
 40
0.0
  0
LTYPE
  5
15
330
5
100
AcDbSymbolTableRecord
100
AcDbLinetypeTableRecord
  2
ByLayer
 70
     0
  3

 72
    65
 73
     0
 40
0.0
  0
LTYPE
  5
16
330
5
100
AcDbSymbolTableRecord
100
AcDbLinetypeTableRecord
  2
Continuous
 70
     0
  3
Solid line
 72
    65
 73
     0
 40
0.0
  0
ENDTAB
  0
TABLE
  2
LAYER
  5
2
330
0
100
AcDbSymbolTable
 70
     5
  0
LAYER
  5
10
330
2
100
AcDbSymbolTableRecord
100
AcDbLayerTableRecord
  2
0
 70
     0
 62
     7
  6
Continuous
370
    -3
390
F
  0
LAYER
  5
40
330
2
100
AcDbSymbolTableRecord
100
AcDbLayerTableRecord
  2
2D$base$rebaje 25mm
 70
     0
 62
     1
420
 16711680
  6
Continuous
370
    -3
390
F
  0
LAYER
  5
48
330
2
100
AcDbSymbolTableRecord
100
AcDbLayerTableRecord
  2
2D$base$rebaje -20
 70
     0
 62
     1
420
 16711680
  6
Continuous
370
    -3
390
F
  0
LAYER
  5
73
330
2
100
AcDbSymbolTableRecord
100
AcDbLayerTableRecord
  2
2D$base$enganches
 70
     0
 62
    18
420
        0
  6
Continuous
370
    -3
390
F
  0
LAYER
  5
D2
330
2
100
AcDbSymbolTableRecord
100
AcDbLayerTableRecord
  2
2D$base$rebajes -2.5mm
 70
     0
 62
     3
420
    65280
  6
Continuous
370
    -3
390
F
  0
ENDTAB
  0
TABLE
  2
STYLE
  5
3
330
0
100
AcDbSymbolTable
 70
     1
  0
STYLE
  5
11
330
3
100
AcDbSymbolTableRecord
100
AcDbTextStyleTableRecord
  2
Standard
 70
     0
 40
0.0
 41
1.0
 50
0.0
 71
     0
 42
0.2
  3
txt
  4

  0
ENDTAB
  0
TABLE
  2
VIEW
  5
6
330
0
100
AcDbSymbolTable
 70
     0
  0
ENDTAB
  0
TABLE
  2
UCS
  5
7
330
0
100
AcDbSymbolTable
 70
     0
  0
ENDTAB
  0
TABLE
  2
APPID
  5
9
330
0
100
AcDbSymbolTable
 70
     1
  0
APPID
  5
12
330
9
100
AcDbSymbolTableRecord
100
AcDbRegAppTableRecord
  2
ACAD
 70
     0
  0
ENDTAB
  0
TABLE
  2
DIMSTYLE
  5
A
330
0
100
AcDbSymbolTable
 70
     1
100
AcDbDimStyleTable
  0
DIMSTYLE
105
27
330
A
100
AcDbSymbolTableRecord
100
AcDbDimStyleTableRecord
  2
Standard
 70
     0
178
     0
340
11
  0
ENDTAB
  0
TABLE
  2
BLOCK_RECORD
  5
1
330
0
100
AcDbSymbolTable
 70
     1
  0
BLOCK_RECORD
  5
1F
330
1
100
AcDbSymbolTableRecord
100
AcDbBlockTableRecord
  2
*Model_Space
340
22
  0
BLOCK_RECORD
  5
1B
330
1
100
AcDbSymbolTableRecord
100
AcDbBlockTableRecord
  2
*Paper_Space
340
1E
  0
BLOCK_RECORD
  5
23
330
1
100
AcDbSymbolTableRecord
100
AcDbBlockTableRecord
  2
*Paper_Space0
340
26
  0
ENDTAB
  0
ENDSEC
  0
SECTION
  2
BLOCKS
  0
BLOCK
  5
20
330
1F
100
AcDbEntity
  8
0
100
AcDbBlockBegin
  2
*Model_Space
 70
     0
 10
0.0
 20
0.0
 30
0.0
  3
*Model_Space
  1

  0
ENDBLK
  5
21
330
1F
100
AcDbEntity
  8
0
100
AcDbBlockEnd
  0
BLOCK
  5
1C
330
1B
100
AcDbEntity
 67
     1
  8
0
100
AcDbBlockBegin
  2
*Paper_Space
 70
     0
 10
0.0
 20
0.0
 30
0.0
  3
*Paper_Space
  1

  0
ENDBLK
  5
1D
330
1B
100
AcDbEntity
 67
     1
  8
0
100
AcDbBlockEnd
  0
BLOCK
  5
24
330
23
100
AcDbEntity
  8
0
100
AcDbBlockBegin
  2
*Paper_Space0
 70
     0
 10
0.0
 20
0.0
 30
0.0
  3
*Paper_Space0
  1

  0
ENDBLK
  5
25
330
23
100
AcDbEntity
  8
0
100
AcDbBlockEnd
  0
ENDSEC
  0
SECTION
  2
ENTITIES
  0
POLYLINE
  5
41
330
1F
100
AcDbEntity
  8
2D$base$rebaje 25mm
100
AcDb2dPolyline
 66
     1
 10
0.0
 20
0.0
 30
0.0
  0
VERTEX
  5
42
330
41
100
AcDbEntity
  8
2D$base$rebaje 25mm
100
AcDbVertex
100
AcDb2dVertex
 10
1298.91240480933
 20
930.8563096831238
 30
0.0
  0
VERTEX
  5
43
330
41
100
AcDbEntity
  8
2D$base$rebaje 25mm
100
AcDbVertex
100
AcDb2dVertex
 10
1720.91240480933
 20
930.8563096831234
 30
0.0
  0
VERTEX
  5
44
330
41
100
AcDbEntity
  8
2D$base$rebaje 25mm
100
AcDbVertex
100
AcDb2dVertex
 10
1720.91240480933
 20
206.8563096831234
 30
0.0
  0
VERTEX
  5
45
330
41
100
AcDbEntity
  8
2D$base$rebaje 25mm
100
AcDbVertex
100
AcDb2dVertex
 10
1298.912404809329
 20
206.8563096831237
 30
0.0
  0
VERTEX
  5
46
330
41
100
AcDbEntity
  8
2D$base$rebaje 25mm
100
AcDbVertex
100
AcDb2dVertex
 10
1298.91240480933
 20
930.8563096831238
 30
0.0
  0
SEQEND
  5
47
330
41
100
AcDbEntity
  8
2D$base$rebaje 25mm
  0
POLYLINE
  5
49
330
1F
100
AcDbEntity
  8
2D$base$rebaje -20
100
AcDb2dPolyline
 66
     1
 10
0.0
 20
0.0
 30
0.0
  0
VERTEX
  5
4A
330
49
100
AcDbEntity
  8
2D$base$rebaje -20
100
AcDbVertex
100
AcDb2dVertex
 10
1710.912404809329
 20
277.8563096831234
 30
0.0
  0
VERTEX
  5
4B
330
49
100
AcDbEntity
  8
2D$base$rebaje -20
100
AcDbVertex
100
AcDb2dVertex
 10
1710.91240480933
 20
316.8563096831234
 30
0.0
  0
VERTEX
  5
4C
330
49
100
AcDbEntity
  8
2D$base$rebaje -20
100
AcDbVertex
100
AcDb2dVertex
 10
1491.91240480933
 20
316.8563096831235
 30
0.0
  0
VERTEX
  5
4D
330
49
100
AcDbEntity
  8
2D$base$rebaje -20
100
AcDbVertex
100
AcDb2dVertex
 10
1491.91240480933
 20
277.8563096831235
 30
0.0
  0
VERTEX
  5
4E
330
49
100
AcDbEntity
  8
2D$base$rebaje -20
100
AcDbVertex
100
AcDb2dVertex
 10
1710.912404809329
 20
277.8563096831234
 30
0.0
  0
SEQEND
  5
4F
330
49
100
AcDbEntity
  8
2D$base$rebaje -20
  0
POLYLINE
  5
50
330
1F
100
AcDbEntity
  8
2D$base$rebaje -20
100
AcDb2dPolyline
 66
     1
 10
0.0
 20
0.0
 30
0.0
  0
VERTEX
  5
51
330
50
100
AcDbEntity
  8
2D$base$rebaje -20
100
AcDbVertex
100
AcDb2dVertex
 10
1710.91240480933
 20
341.8563096831234
 30
0.0
  0
VERTEX
  5
52
330
50
100
AcDbEntity
  8
2D$base$rebaje -20
100
AcDbVertex
100
AcDb2dVertex
 10
1710.91240480933
 20
377.8563096831234
 30
0.0
  0
VERTEX
  5
53
330
50
100
AcDbEntity
  8
2D$base$rebaje -20
100
AcDbVertex
100
AcDb2dVertex
 10
1491.91240480933
 20
377.8563096831235
 30
0.0
  0
VERTEX
  5
54
330
50
100
AcDbEntity
  8
2D$base$rebaje -20
100
AcDbVertex
100
AcDb2dVertex
 10
1491.91240480933
 20
341.8563096831235
 30
0.0
  0
VERTEX
  5
55
330
50
100
AcDbEntity
  8
2D$base$rebaje -20
100
AcDbVertex
100
AcDb2dVertex
 10
1710.91240480933
 20
341.8563096831234
 30
0.0
  0
SEQEND
  5
56
330
50
100
AcDbEntity
  8
2D$base$rebaje -20
  0
POLYLINE
  5
57
330
1F
100
AcDbEntity
  8
2D$base$rebaje -20
100
AcDb2dPolyline
 66
     1
 10
0.0
 20
0.0
 30
0.0
  0
VERTEX
  5
58
330
57
100
AcDbEntity
  8
2D$base$rebaje -20
100
AcDbVertex
100
AcDb2dVertex
 10
1710.91240480933
 20
402.8563096831234
 30
0.0
  0
VERTEX
  5
59
330
57
100
AcDbEntity
  8
2D$base$rebaje -20
100
AcDbVertex
100
AcDb2dVertex
 10
1710.91240480933
 20
436.8563096831234
 30
0.0
  0
VERTEX
  5
5A
330
57
100
AcDbEntity
  8
2D$base$rebaje -20
100
AcDbVertex
100
AcDb2dVertex
 10
1491.91240480933
 20
436.8563096831235
 30
0.0
  0
VERTEX
  5
5B
330
57
100
AcDbEntity
  8
2D$base$rebaje -20
100
AcDbVertex
100
AcDb2dVertex
 10
1491.91240480933
 20
402.8563096831235
 30
0.0
  0
VERTEX
  5
5C
330
57
100
AcDbEntity
  8
2D$base$rebaje -20
100
AcDbVertex
100
AcDb2dVertex
 10
1710.91240480933
 20
402.8563096831234
 30
0.0
  0
SEQEND
  5
5D
330
57
100
AcDbEntity
  8
2D$base$rebaje -20
  0
POLYLINE
  5
5E
330
1F
100
AcDbEntity
  8
2D$base$rebaje -20
100
AcDb2dPolyline
 66
     1
 10
0.0
 20
0.0
 30
0.0
  0
VERTEX
  5
5F
330
5E
100
AcDbEntity
  8
2D$base$rebaje -20
100
AcDbVertex
100
AcDb2dVertex
 10
1308.91240480933
 20
734.8563096831236
 30
0.0
  0
VERTEX
  5
60
330
5E
100
AcDbEntity
  8
2D$base$rebaje -20
100
AcDbVertex
100
AcDb2dVertex
 10
1308.91240480933
 20
700.8563096831236
 30
0.0
  0
VERTEX
  5
61
330
5E
100
AcDbEntity
  8
2D$base$rebaje -20
100
AcDbVertex
100
AcDb2dVertex
 10
1527.91240480933
 20
700.8563096831235
 30
0.0
  0
VERTEX
  5
62
330
5E
100
AcDbEntity
  8
2D$base$rebaje -20
100
AcDbVertex
100
AcDb2dVertex
 10
1527.91240480933
 20
734.8563096831235
 30
0.0
  0
VERTEX
  5
63
330
5E
100
AcDbEntity
  8
2D$base$rebaje -20
100
AcDbVertex
100
AcDb2dVertex
 10
1308.91240480933
 20
734.8563096831236
 30
0.0
  0
SEQEND
  5
64
330
5E
100
AcDbEntity
  8
2D$base$rebaje -20
  0
POLYLINE
  5
65
330
1F
100
AcDbEntity
  8
2D$base$rebaje -20
100
AcDb2dPolyline
 66
     1
 10
0.0
 20
0.0
 30
0.0
  0
VERTEX
  5
66
330
65
100
AcDbEntity
  8
2D$base$rebaje -20
100
AcDbVertex
100
AcDb2dVertex
 10
1308.91240480933
 20
795.8563096831236
 30
0.0
  0
VERTEX
  5
67
330
65
100
AcDbEntity
  8
2D$base$rebaje -20
100
AcDbVertex
100
AcDb2dVertex
 10
1308.91240480933
 20
759.8563096831236
 30
0.0
  0
VERTEX
  5
68
330
65
100
AcDbEntity
  8
2D$base$rebaje -20
100
AcDbVertex
100
AcDb2dVertex
 10
1527.91240480933
 20
759.8563096831235
 30
0.0
  0
VERTEX
  5
69
330
65
100
AcDbEntity
  8
2D$base$rebaje -20
100
AcDbVertex
100
AcDb2dVertex
 10
1527.91240480933
 20
795.8563096831235
 30
0.0
  0
VERTEX
  5
6A
330
65
100
AcDbEntity
  8
2D$base$rebaje -20
100
AcDbVertex
100
AcDb2dVertex
 10
1308.91240480933
 20
795.8563096831236
 30
0.0
  0
SEQEND
  5
6B
330
65
100
AcDbEntity
  8
2D$base$rebaje -20
  0
POLYLINE
  5
6C
330
1F
100
AcDbEntity
  8
2D$base$rebaje -20
100
AcDb2dPolyline
 66
     1
 10
0.0
 20
0.0
 30
0.0
  0
VERTEX
  5
6D
330
6C
100
AcDbEntity
  8
2D$base$rebaje -20
100
AcDbVertex
100
AcDb2dVertex
 10
1308.91240480933
 20
859.8563096831236
 30
0.0
  0
VERTEX
  5
6E
330
6C
100
AcDbEntity
  8
2D$base$rebaje -20
100
AcDbVertex
100
AcDb2dVertex
 10
1308.91240480933
 20
820.8563096831236
 30
0.0
  0
VERTEX
  5
6F
330
6C
100
AcDbEntity
  8
2D$base$rebaje -20
100
AcDbVertex
100
AcDb2dVertex
 10
1527.91240480933
 20
820.8563096831235
 30
0.0
  0
VERTEX
  5
70
330
6C
100
AcDbEntity
  8
2D$base$rebaje -20
100
AcDbVertex
100
AcDb2dVertex
 10
1527.91240480933
 20
859.8563096831235
 30
0.0
  0
VERTEX
  5
71
330
6C
100
AcDbEntity
  8
2D$base$rebaje -20
100
AcDbVertex
100
AcDb2dVertex
 10
1308.91240480933
 20
859.8563096831236
 30
0.0
  0
SEQEND
  5
72
330
6C
100
AcDbEntity
  8
2D$base$rebaje -20
  0
POLYLINE
  5
74
330
1F
100
AcDbEntity
  8
2D$base$enganches
100
AcDb2dPolyline
 66
     1
 10
0.0
 20
0.0
 30
0.0
  0
VERTEX
  5
75
330
74
100
AcDbEntity
  8
2D$base$enganches
100
AcDbVertex
100
AcDb2dVertex
 10
1293.91240480933
 20
930.856309683124
 30
0.0
  0
VERTEX
  5
76
330
74
100
AcDbEntity
  8
2D$base$enganches
100
AcDbVertex
100
AcDb2dVertex
 10
1385.01240480933
 20
930.8563096831238
 30
0.0
  0
VERTEX
  5
77
330
74
100
AcDbEntity
  8
2D$base$enganches
100
AcDbVertex
100
AcDb2dVertex
 10
1385.01240480933
 20
940.8563096831238
 30
0.0
  0
VERTEX
  5
78
330
74
100
AcDbEntity
  8
2D$base$enganches
100
AcDbVertex
100
AcDb2dVertex
 10
1434.81240480933
 20
940.8563096831238
 30
0.0
  0
VERTEX
  5
79
330
74
100
AcDbEntity
  8
2D$base$enganches
100
AcDbVertex
100
AcDb2dVertex
 10
1434.81240480933
 20
930.8563096831238
 30
0.0
  0
VERTEX
  5
7A
330
74
100
AcDbEntity
  8
2D$base$enganches
100
AcDbVertex
100
AcDb2dVertex
 10
1485.01240480933
 20
930.8563096831238
 30
0.0
  0
VERTEX
  5
7B
330
74
100
AcDbEntity
  8
2D$base$enganches
100
AcDbVertex
100
AcDb2dVertex
 10
1485.01240480933
 20
940.8563096831238
 30
0.0
  0
VERTEX
  5
7C
330
74
100
AcDbEntity
  8
2D$base$enganches
100
AcDbVertex
100
AcDb2dVertex
 10
1534.81240480933
 20
940.8563096831236
 30
0.0
  0
VERTEX
  5
7D
330
74
100
AcDbEntity
  8
2D$base$enganches
100
AcDbVertex
100
AcDb2dVertex
 10
1534.81240480933
 20
930.8563096831236
 30
0.0
  0
VERTEX
  5
7E
330
74
100
AcDbEntity
  8
2D$base$enganches
100
AcDbVertex
100
AcDb2dVertex
 10
1585.01240480933
 20
930.8563096831236
 30
0.0
  0
VERTEX
  5
7F
330
74
100
AcDbEntity
  8
2D$base$enganches
100
AcDbVertex
100
AcDb2dVertex
 10
1585.01240480933
 20
940.8563096831236
 30
0.0
  0
VERTEX
  5
80
330
74
100
AcDbEntity
  8
2D$base$enganches
100
AcDbVertex
100
AcDb2dVertex
 10
1634.81240480933
 20
940.8563096831236
 30
0.0
  0
VERTEX
  5
81
330
74
100
AcDbEntity
  8
2D$base$enganches
100
AcDbVertex
100
AcDb2dVertex
 10
1634.81240480933
 20
930.8563096831236
 30
0.0
  0
VERTEX
  5
82
330
74
100
AcDbEntity
  8
2D$base$enganches
100
AcDbVertex
100
AcDb2dVertex
 10
1725.91240480933
 20
930.8563096831234
 30
0.0
  0
VERTEX
  5
83
330
74
100
AcDbEntity
  8
2D$base$enganches
100
AcDbVertex
100
AcDb2dVertex
 10
1725.91240480933
 20
893.7563096831235
 30
0.0
  0
VERTEX
  5
84
330
74
100
AcDbEntity
  8
2D$base$enganches
100
AcDbVertex
100
AcDb2dVertex
 10
1735.91240480933
 20
893.7563096831235
 30
0.0
  0
VERTEX
  5
85
330
74
100
AcDbEntity
  8
2D$base$enganches
100
AcDbVertex
100
AcDb2dVertex
 10
1735.91240480933
 20
843.9563096831235
 30
0.0
  0
VERTEX
  5
86
330
74
100
AcDbEntity
  8
2D$base$enganches
100
AcDbVertex
100
AcDb2dVertex
 10
1725.91240480933
 20
843.9563096831235
 30
0.0
  0
VERTEX
  5
87
330
74
100
AcDbEntity
  8
2D$base$enganches
100
AcDbVertex
100
AcDb2dVertex
 10
1725.91240480933
 20
793.7563096831235
 30
0.0
  0
VERTEX
  5
88
330
74
100
AcDbEntity
  8
2D$base$enganches
100
AcDbVertex
100
AcDb2dVertex
 10
1735.91240480933
 20
793.7563096831235
 30
0.0
  0
VERTEX
  5
89
330
74
100
AcDbEntity
  8
2D$base$enganches
100
AcDbVertex
100
AcDb2dVertex
 10
1735.91240480933
 20
743.9563096831235
 30
0.0
  0
VERTEX
  5
8A
330
74
100
AcDbEntity
  8
2D$base$enganches
100
AcDbVertex
100
AcDb2dVertex
 10
1725.91240480933
 20
743.9563096831235
 30
0.0
  0
VERTEX
  5
8B
330
74
100
AcDbEntity
  8
2D$base$enganches
100
AcDbVertex
100
AcDb2dVertex
 10
1725.91240480933
 20
693.7563096831235
 30
0.0
  0
VERTEX
  5
8C
330
74
100
AcDbEntity
  8
2D$base$enganches
100
AcDbVertex
100
AcDb2dVertex
 10
1735.91240480933
 20
693.7563096831235
 30
0.0
  0
VERTEX
  5
8D
330
74
100
AcDbEntity
  8
2D$base$enganches
100
AcDbVertex
100
AcDb2dVertex
 10
1735.91240480933
 20
643.9563096831235
 30
0.0
  0
VERTEX
  5
8E
330
74
100
AcDbEntity
  8
2D$base$enganches
100
AcDbVertex
100
AcDb2dVertex
 10
1725.91240480933
 20
643.9563096831235
 30
0.0
  0
VERTEX
  5
8F
330
74
100
AcDbEntity
  8
2D$base$enganches
100
AcDbVertex
100
AcDb2dVertex
 10
1725.91240480933
 20
593.7563096831235
 30
0.0
  0
VERTEX
  5
90
330
74
100
AcDbEntity
  8
2D$base$enganches
100
AcDbVertex
100
AcDb2dVertex
 10
1735.91240480933
 20
593.7563096831235
 30
0.0
  0
VERTEX
  5
91
330
74
100
AcDbEntity
  8
2D$base$enganches
100
AcDbVertex
100
AcDb2dVertex
 10
1735.91240480933
 20
543.9563096831235
 30
0.0
  0
VERTEX
  5
92
330
74
100
AcDbEntity
  8
2D$base$enganches
100
AcDbVertex
100
AcDb2dVertex
 10
1725.91240480933
 20
543.9563096831235
 30
0.0
  0
VERTEX
  5
93
330
74
100
AcDbEntity
  8
2D$base$enganches
100
AcDbVertex
100
AcDb2dVertex
 10
1725.91240480933
 20
493.7563096831235
 30
0.0
  0
VERTEX
  5
94
330
74
100
AcDbEntity
  8
2D$base$enganches
100
AcDbVertex
100
AcDb2dVertex
 10
1735.91240480933
 20
493.7563096831235
 30
0.0
  0
VERTEX
  5
95
330
74
100
AcDbEntity
  8
2D$base$enganches
100
AcDbVertex
100
AcDb2dVertex
 10
1735.91240480933
 20
443.9563096831235
 30
0.0
  0
VERTEX
  5
96
330
74
100
AcDbEntity
  8
2D$base$enganches
100
AcDbVertex
100
AcDb2dVertex
 10
1725.91240480933
 20
443.9563096831235
 30
0.0
  0
VERTEX
  5
97
330
74
100
AcDbEntity
  8
2D$base$enganches
100
AcDbVertex
100
AcDb2dVertex
 10
1725.91240480933
 20
393.7563096831235
 30
0.0
  0
VERTEX
  5
98
330
74
100
AcDbEntity
  8
2D$base$enganches
100
AcDbVertex
100
AcDb2dVertex
 10
1735.91240480933
 20
393.7563096831235
 30
0.0
  0
VERTEX
  5
99
330
74
100
AcDbEntity
  8
2D$base$enganches
100
AcDbVertex
100
AcDb2dVertex
 10
1735.91240480933
 20
343.9563096831235
 30
0.0
  0
VERTEX
  5
9A
330
74
100
AcDbEntity
  8
2D$base$enganches
100
AcDbVertex
100
AcDb2dVertex
 10
1725.912404809329
 20
343.9563096831235
 30
0.0
  0
VERTEX
  5
9B
330
74
100
AcDbEntity
  8
2D$base$enganches
100
AcDbVertex
100
AcDb2dVertex
 10
1725.912404809329
 20
293.7563096831235
 30
0.0
  0
VERTEX
  5
9C
330
74
100
AcDbEntity
  8
2D$base$enganches
100
AcDbVertex
100
AcDb2dVertex
 10
1735.912404809329
 20
293.7563096831235
 30
0.0
  0
VERTEX
  5
9D
330
74
100
AcDbEntity
  8
2D$base$enganches
100
AcDbVertex
100
AcDb2dVertex
 10
1735.912404809329
 20
243.9563096831235
 30
0.0
  0
VERTEX
  5
9E
330
74
100
AcDbEntity
  8
2D$base$enganches
100
AcDbVertex
100
AcDb2dVertex
 10
1725.912404809329
 20
243.9563096831235
 30
0.0
  0
VERTEX
  5
9F
330
74
100
AcDbEntity
  8
2D$base$enganches
100
AcDbVertex
100
AcDb2dVertex
 10
1725.912404809329
 20
206.8563096831234
 30
0.0
  0
VERTEX
  5
A0
330
74
100
AcDbEntity
  8
2D$base$enganches
100
AcDbVertex
100
AcDb2dVertex
 10
1634.81240480933
 20
206.8563096831235
 30
0.0
  0
VERTEX
  5
A1
330
74
100
AcDbEntity
  8
2D$base$enganches
100
AcDbVertex
100
AcDb2dVertex
 10
1634.81240480933
 20
196.8563096831235
 30
0.0
  0
VERTEX
  5
A2
330
74
100
AcDbEntity
  8
2D$base$enganches
100
AcDbVertex
100
AcDb2dVertex
 10
1585.012404809329
 20
196.8563096831235
 30
0.0
  0
VERTEX
  5
A3
330
74
100
AcDbEntity
  8
2D$base$enganches
100
AcDbVertex
100
AcDb2dVertex
 10
1585.012404809329
 20
206.8563096831235
 30
0.0
  0
VERTEX
  5
A4
330
74
100
AcDbEntity
  8
2D$base$enganches
100
AcDbVertex
100
AcDb2dVertex
 10
1534.81240480933
 20
206.8563096831235
 30
0.0
  0
VERTEX
  5
A5
330
74
100
AcDbEntity
  8
2D$base$enganches
100
AcDbVertex
100
AcDb2dVertex
 10
1534.81240480933
 20
196.8563096831235
 30
0.0
  0
VERTEX
  5
A6
330
74
100
AcDbEntity
  8
2D$base$enganches
100
AcDbVertex
100
AcDb2dVertex
 10
1485.012404809329
 20
196.8563096831235
 30
0.0
  0
VERTEX
  5
A7
330
74
100
AcDbEntity
  8
2D$base$enganches
100
AcDbVertex
100
AcDb2dVertex
 10
1485.012404809329
 20
206.8563096831235
 30
0.0
  0
VERTEX
  5
A8
330
74
100
AcDbEntity
  8
2D$base$enganches
100
AcDbVertex
100
AcDb2dVertex
 10
1434.81240480933
 20
206.8563096831235
 30
0.0
  0
VERTEX
  5
A9
330
74
100
AcDbEntity
  8
2D$base$enganches
100
AcDbVertex
100
AcDb2dVertex
 10
1434.81240480933
 20
196.8563096831235
 30
0.0
  0
VERTEX
  5
AA
330
74
100
AcDbEntity
  8
2D$base$enganches
100
AcDbVertex
100
AcDb2dVertex
 10
1385.012404809329
 20
196.8563096831235
 30
0.0
  0
VERTEX
  5
AB
330
74
100
AcDbEntity
  8
2D$base$enganches
100
AcDbVertex
100
AcDb2dVertex
 10
1385.012404809329
 20
206.8563096831235
 30
0.0
  0
VERTEX
  5
AC
330
74
100
AcDbEntity
  8
2D$base$enganches
100
AcDbVertex
100
AcDb2dVertex
 10
1293.912404809329
 20
206.8563096831236
 30
0.0
  0
VERTEX
  5
AD
330
74
100
AcDbEntity
  8
2D$base$enganches
100
AcDbVertex
100
AcDb2dVertex
 10
1293.912404809329
 20
243.9563096831235
 30
0.0
  0
VERTEX
  5
AE
330
74
100
AcDbEntity
  8
2D$base$enganches
100
AcDbVertex
100
AcDb2dVertex
 10
1283.912404809329
 20
243.9563096831235
 30
0.0
  0
VERTEX
  5
AF
330
74
100
AcDbEntity
  8
2D$base$enganches
100
AcDbVertex
100
AcDb2dVertex
 10
1283.912404809329
 20
293.7563096831235
 30
0.0
  0
VERTEX
  5
B0
330
74
100
AcDbEntity
  8
2D$base$enganches
100
AcDbVertex
100
AcDb2dVertex
 10
1293.912404809329
 20
293.7563096831235
 30
0.0
  0
VERTEX
  5
B1
330
74
100
AcDbEntity
  8
2D$base$enganches
100
AcDbVertex
100
AcDb2dVertex
 10
1293.912404809329
 20
343.9563096831235
 30
0.0
  0
VERTEX
  5
B2
330
74
100
AcDbEntity
  8
2D$base$enganches
100
AcDbVertex
100
AcDb2dVertex
 10
1283.912404809329
 20
343.9563096831235
 30
0.0
  0
VERTEX
  5
B3
330
74
100
AcDbEntity
  8
2D$base$enganches
100
AcDbVertex
100
AcDb2dVertex
 10
1283.912404809329
 20
393.7563096831235
 30
0.0
  0
VERTEX
  5
B4
330
74
100
AcDbEntity
  8
2D$base$enganches
100
AcDbVertex
100
AcDb2dVertex
 10
1293.912404809329
 20
393.7563096831235
 30
0.0
  0
VERTEX
  5
B5
330
74
100
AcDbEntity
  8
2D$base$enganches
100
AcDbVertex
100
AcDb2dVertex
 10
1293.912404809329
 20
443.9563096831235
 30
0.0
  0
VERTEX
  5
B6
330
74
100
AcDbEntity
  8
2D$base$enganches
100
AcDbVertex
100
AcDb2dVertex
 10
1283.912404809329
 20
443.9563096831235
 30
0.0
  0
VERTEX
  5
B7
330
74
100
AcDbEntity
  8
2D$base$enganches
100
AcDbVertex
100
AcDb2dVertex
 10
1283.912404809329
 20
493.7563096831235
 30
0.0
  0
VERTEX
  5
B8
330
74
100
AcDbEntity
  8
2D$base$enganches
100
AcDbVertex
100
AcDb2dVertex
 10
1293.912404809329
 20
493.7563096831235
 30
0.0
  0
VERTEX
  5
B9
330
74
100
AcDbEntity
  8
2D$base$enganches
100
AcDbVertex
100
AcDb2dVertex
 10
1293.912404809329
 20
543.9563096831235
 30
0.0
  0
VERTEX
  5
BA
330
74
100
AcDbEntity
  8
2D$base$enganches
100
AcDbVertex
100
AcDb2dVertex
 10
1283.912404809329
 20
543.9563096831235
 30
0.0
  0
VERTEX
  5
BB
330
74
100
AcDbEntity
  8
2D$base$enganches
100
AcDbVertex
100
AcDb2dVertex
 10
1283.912404809329
 20
593.7563096831235
 30
0.0
  0
VERTEX
  5
BC
330
74
100
AcDbEntity
  8
2D$base$enganches
100
AcDbVertex
100
AcDb2dVertex
 10
1293.912404809329
 20
593.7563096831235
 30
0.0
  0
VERTEX
  5
BD
330
74
100
AcDbEntity
  8
2D$base$enganches
100
AcDbVertex
100
AcDb2dVertex
 10
1293.91240480933
 20
643.9563096831235
 30
0.0
  0
VERTEX
  5
BE
330
74
100
AcDbEntity
  8
2D$base$enganches
100
AcDbVertex
100
AcDb2dVertex
 10
1283.91240480933
 20
643.9563096831235
 30
0.0
  0
VERTEX
  5
BF
330
74
100
AcDbEntity
  8
2D$base$enganches
100
AcDbVertex
100
AcDb2dVertex
 10
1283.91240480933
 20
693.7563096831235
 30
0.0
  0
VERTEX
  5
C0
330
74
100
AcDbEntity
  8
2D$base$enganches
100
AcDbVertex
100
AcDb2dVertex
 10
1293.91240480933
 20
693.7563096831235
 30
0.0
  0
VERTEX
  5
C1
330
74
100
AcDbEntity
  8
2D$base$enganches
100
AcDbVertex
100
AcDb2dVertex
 10
1293.91240480933
 20
743.9563096831235
 30
0.0
  0
VERTEX
  5
C2
330
74
100
AcDbEntity
  8
2D$base$enganches
100
AcDbVertex
100
AcDb2dVertex
 10
1283.91240480933
 20
743.9563096831235
 30
0.0
  0
VERTEX
  5
C3
330
74
100
AcDbEntity
  8
2D$base$enganches
100
AcDbVertex
100
AcDb2dVertex
 10
1283.91240480933
 20
793.7563096831235
 30
0.0
  0
VERTEX
  5
C4
330
74
100
AcDbEntity
  8
2D$base$enganches
100
AcDbVertex
100
AcDb2dVertex
 10
1293.91240480933
 20
793.7563096831235
 30
0.0
  0
VERTEX
  5
C5
330
74
100
AcDbEntity
  8
2D$base$enganches
100
AcDbVertex
100
AcDb2dVertex
 10
1293.91240480933
 20
843.9563096831235
 30
0.0
  0
VERTEX
  5
C6
330
74
100
AcDbEntity
  8
2D$base$enganches
100
AcDbVertex
100
AcDb2dVertex
 10
1283.91240480933
 20
843.9563096831235
 30
0.0
  0
VERTEX
  5
C7
330
74
100
AcDbEntity
  8
2D$base$enganches
100
AcDbVertex
100
AcDb2dVertex
 10
1283.91240480933
 20
893.7563096831235
 30
0.0
  0
VERTEX
  5
C8
330
74
100
AcDbEntity
  8
2D$base$enganches
100
AcDbVertex
100
AcDb2dVertex
 10
1293.91240480933
 20
893.7563096831235
 30
0.0
  0
VERTEX
  5
C9
330
74
100
AcDbEntity
  8
2D$base$enganches
100
AcDbVertex
100
AcDb2dVertex
 10
1293.91240480933
 20
930.856309683124
 30
0.0
  0
SEQEND
  5
CA
330
74
100
AcDbEntity
  8
2D$base$enganches
  0
POLYLINE
  5
CB
330
1F
100
AcDbEntity
  8
2D$base$rebaje 25mm
100
AcDb2dPolyline
 66
     1
 10
0.0
 20
0.0
 30
0.0
  0
VERTEX
  5
CC
330
CB
100
AcDbEntity
  8
2D$base$rebaje 25mm
100
AcDbVertex
100
AcDb2dVertex
 10
1281.60045195877
 20
195.025047145356
 30
0.0
  0
VERTEX
  5
CD
330
CB
100
AcDbEntity
  8
2D$base$rebaje 25mm
100
AcDbVertex
100
AcDb2dVertex
 10
1738.019521374285
 20
195.025047145356
 30
0.0
  0
VERTEX
  5
CE
330
CB
100
AcDbEntity
  8
2D$base$rebaje 25mm
100
AcDbVertex
100
AcDb2dVertex
 10
1738.019521374285
 20
942.3755145077793
 30
0.0
  0
VERTEX
  5
CF
330
CB
100
AcDbEntity
  8
2D$base$rebaje 25mm
100
AcDbVertex
100
AcDb2dVertex
 10
1281.60045195877
 20
942.3755145077793
 30
0.0
  0
VERTEX
  5
D0
330
CB
100
AcDbEntity
  8
2D$base$rebaje 25mm
100
AcDbVertex
100
AcDb2dVertex
 10
1281.60045195877
 20
195.025047145356
 30
0.0
  0
SEQEND
  5
D1
330
CB
100
AcDbEntity
  8
2D$base$rebaje 25mm
  0
POLYLINE
  5
D3
330
1F
100
AcDbEntity
  8
2D$base$rebajes -2.5mm
100
AcDb2dPolyline
 66
     1
 10
0.0
 20
0.0
 30
0.0
  0
VERTEX
  5
D4
330
D3
100
AcDbEntity
  8
2D$base$rebajes -2.5mm
100
AcDbVertex
100
AcDb2dVertex
 10
1298.91240480933
 20
930.8563096831238
 30
0.0
  0
VERTEX
  5
D5
330
D3
100
AcDbEntity
  8
2D$base$rebajes -2.5mm
100
AcDbVertex
100
AcDb2dVertex
 10
1298.91240480933
 20
890.8563096831238
 30
0.0
  0
VERTEX
  5
D6
330
D3
100
AcDbEntity
  8
2D$base$rebajes -2.5mm
100
AcDbVertex
100
AcDb2dVertex
 10
1720.91240480933
 20
890.8563096831238
 30
0.0
  0
VERTEX
  5
D7
330
D3
100
AcDbEntity
  8
2D$base$rebajes -2.5mm
100
AcDbVertex
100
AcDb2dVertex
 10
1720.91240480933
 20
930.8563096831234
 30
0.0
  0
VERTEX
  5
D8
330
D3
100
AcDbEntity
  8
2D$base$rebajes -2.5mm
100
AcDbVertex
100
AcDb2dVertex
 10
1298.91240480933
 20
930.8563096831238
 30
0.0
  0
SEQEND
  5
D9
330
D3
100
AcDbEntity
  8
2D$base$rebajes -2.5mm
  0
POLYLINE
  5
DA
330
1F
100
AcDbEntity
  8
2D$base$rebajes -2.5mm
100
AcDb2dPolyline
 66
     1
 10
0.0
 20
0.0
 30
0.0
  0
VERTEX
  5
DB
330
DA
100
AcDbEntity
  8
2D$base$rebajes -2.5mm
100
AcDbVertex
100
AcDb2dVertex
 10
1298.912404809329
 20
206.8563096831238
 30
0.0
  0
VERTEX
  5
DC
330
DA
100
AcDbEntity
  8
2D$base$rebajes -2.5mm
100
AcDbVertex
100
AcDb2dVertex
 10
1298.912404809329
 20
246.8563096831238
 30
0.0
  0
VERTEX
  5
DD
330
DA
100
AcDbEntity
  8
2D$base$rebajes -2.5mm
100
AcDbVertex
100
AcDb2dVertex
 10
1720.912404809329
 20
246.8563096831231
 30
0.0
  0
VERTEX
  5
DE
330
DA
100
AcDbEntity
  8
2D$base$rebajes -2.5mm
100
AcDbVertex
100
AcDb2dVertex
 10
1720.912404809329
 20
206.8563096831234
 30
0.0
  0
VERTEX
  5
DF
330
DA
100
AcDbEntity
  8
2D$base$rebajes -2.5mm
100
AcDbVertex
100
AcDb2dVertex
 10
1298.912404809329
 20
206.8563096831238
 30
0.0
  0
SEQEND
  5
E0
330
DA
100
AcDbEntity
  8
2D$base$rebajes -2.5mm
  0
ENDSEC
  0
SECTION
  2
OBJECTS
  0
DICTIONARY
  5
C
330
0
100
AcDbDictionary
281
     1
  3
ACAD_GROUP
350
D
  3
ACAD_LAYOUT
350
1A
  3
ACAD_MATERIAL
350
3B
  3
ACAD_MLEADERSTYLE
350
108
  3
ACAD_MLINESTYLE
350
17
  3
ACAD_PLOTSETTINGS
350
19
  3
ACAD_PLOTSTYLENAME
350
E
  3
ACAD_TABLESTYLE
350
107
  3
ACAD_VISUALSTYLE
350
2A
  0
DICTIONARY
  5
D
102
{ACAD_REACTORS
330
C
102
}
330
C
100
AcDbDictionary
281
     1
  0
DICTIONARY
  5
1A
102
{ACAD_REACTORS
330
C
102
}
330
C
100
AcDbDictionary
281
     1
  3
Layout1
350
1E
  3
Layout2
350
26
  3
Model
350
22
  0
DICTIONARY
  5
3B
102
{ACAD_REACTORS
330
C
102
}
330
C
100
AcDbDictionary
281
     1
  3
ByBlock
350
3D
  3
ByLayer
350
3C
  3
Global
350
3E
  0
DICTIONARY
  5
108
102
{ACAD_REACTORS
330
C
102
}
330
C
100
AcDbDictionary
281
     1
  0
DICTIONARY
  5
17
102
{ACAD_REACTORS
330
C
102
}
330
C
100
AcDbDictionary
281
     1
  3
Standard
350
18
  0
DICTIONARY
  5
19
102
{ACAD_REACTORS
330
C
102
}
330
C
100
AcDbDictionary
281
     1
  0
ACDBDICTIONARYWDFLT
  5
E
102
{ACAD_REACTORS
330
C
102
}
330
C
100
AcDbDictionary
281
     1
  3
Normal
350
F
100
AcDbDictionaryWithDefault
340
F
  0
DICTIONARY
  5
107
102
{ACAD_REACTORS
330
C
102
}
330
C
100
AcDbDictionary
281
     1
  0
DICTIONARY
  5
2A
102
{ACAD_REACTORS
330
C
102
}
330
C
100
AcDbDictionary
281
     1
  3
2dWireframe
350
2F
  3
3D Hidden
350
31
  3
3dWireframe
350
30
  3
Basic
350
32
  3
Brighten
350
36
  3
ColorChange
350
3A
  3
Conceptual
350
34
  3
Dim
350
35
  3
Facepattern
350
39
  3
Flat
350
2B
  3
FlatWithEdges
350
2C
  3
Gouraud
350
2D
  3
GouraudWithEdges
350
2E
  3
Linepattern
350
38
  3
Realistic
350
33
  3
Thicken
350
37
  0
LAYOUT
  5
1E
102
{ACAD_REACTORS
330
1A
102
}
330
1A
100
AcDbPlotSettings
  1

  2
none_device
  4

  6

 40
0.0
 41
0.0
 42
0.0
 43
0.0
 44
0.0
 45
0.0
 46
0.0
 47
0.0
 48
0.0
 49
0.0
140
0.0
141
0.0
142
1.0
143
1.0
 70
   688
 72
     0
 73
     0
 74
     5
  7

 75
    16
 76
     0
 77
     2
 78
   300
147
1.0
148
0.0
149
0.0
100
AcDbLayout
  1
Layout1
 70
     1
 71
     1
 10
0.0
 20
0.0
 11
12.0
 21
9.0
 12
0.0
 22
0.0
 32
0.0
 14
1.000000000000000E+20
 24
1.000000000000000E+20
 34
1.000000000000000E+20
 15
-1.000000000000000E+20
 25
-1.000000000000000E+20
 35
-1.000000000000000E+20
146
0.0
 13
0.0
 23
0.0
 33
0.0
 16
1.0
 26
0.0
 36
0.0
 17
0.0
 27
1.0
 37
0.0
 76
     0
330
1B
  0
LAYOUT
  5
26
102
{ACAD_REACTORS
330
1A
102
}
330
1A
100
AcDbPlotSettings
  1

  2
none_device
  4

  6

 40
0.0
 41
0.0
 42
0.0
 43
0.0
 44
0.0
 45
0.0
 46
0.0
 47
0.0
 48
0.0
 49
0.0
140
0.0
141
0.0
142
1.0
143
1.0
 70
   688
 72
     0
 73
     0
 74
     5
  7

 75
    16
 76
     0
 77
     2
 78
   300
147
1.0
148
0.0
149
0.0
100
AcDbLayout
  1
Layout2
 70
     1
 71
     2
 10
0.0
 20
0.0
 11
0.0
 21
0.0
 12
0.0
 22
0.0
 32
0.0
 14
0.0
 24
0.0
 34
0.0
 15
0.0
 25
0.0
 35
0.0
146
0.0
 13
0.0
 23
0.0
 33
0.0
 16
1.0
 26
0.0
 36
0.0
 17
0.0
 27
1.0
 37
0.0
 76
     0
330
23
  0
LAYOUT
  5
22
102
{ACAD_REACTORS
330
1A
102
}
330
1A
100
AcDbPlotSettings
  1

  2
none_device
  4

  6

 40
0.0
 41
0.0
 42
0.0
 43
0.0
 44
0.0
 45
0.0
 46
0.0
 47
0.0
 48
0.0
 49
0.0
140
0.0
141
0.0
142
1.0
143
1.0
 70
  1712
 72
     0
 73
     0
 74
     0
  7

 75
     0
 76
     0
 77
     2
 78
   300
147
1.0
148
0.0
149
0.0
100
AcDbLayout
  1
Model
 70
     1
 71
     0
 10
0.0
 20
0.0
 11
12.0
 21
9.0
 12
0.0
 22
0.0
 32
0.0
 14
1281.60045195877
 24
195.025047145356
 34
0.0
 15
1738.019521374285
 25
942.3755145077793
 35
0.0
146
0.0
 13
0.0
 23
0.0
 33
0.0
 16
1.0
 26
0.0
 36
0.0
 17
0.0
 27
1.0
 37
0.0
 76
     0
330
1F
331
29
  0
MATERIAL
  5
3D
102
{ACAD_REACTORS
330
3B
102
}
102
{ACAD_XDICTIONARY
360
103
102
}
330
3B
100
AcDbMaterial
  1
ByBlock
  0
MATERIAL
  5
3C
102
{ACAD_REACTORS
330
3B
102
}
102
{ACAD_XDICTIONARY
360
101
102
}
330
3B
100
AcDbMaterial
  1
ByLayer
  0
MATERIAL
  5
3E
102
{ACAD_REACTORS
330
3B
102
}
102
{ACAD_XDICTIONARY
360
105
102
}
330
3B
100
AcDbMaterial
  1
Global
  0
MLINESTYLE
  5
18
102
{ACAD_REACTORS
330
17
102
}
330
17
100
AcDbMlineStyle
  2
Standard
 70
     0
  3

 62
   256
 51
90.0
 52
90.0
 71
     2
 49
0.5
 62
   256
  6
BYLAYER
 49
-0.5
 62
   256
  6
BYLAYER
  0
ACDBPLACEHOLDER
  5
F
102
{ACAD_REACTORS
330
E
102
}
330
E
  0
VISUALSTYLE
  5
2F
102
{ACAD_REACTORS
330
2A
102
}
102
{ACAD_XDICTIONARY
360
E9
102
}
330
2A
100
AcDbVisualStyle
  2
2dWireframe
 70
     4
 71
     0
 72
     2
 73
     0
 90
        0
 40
-0.6
 41
-30.0
 62
     5
 63
     7
421
 16777215
 74
     1
 91
        4
 64
     7
 65
   257
 75
     1
175
     1
 42
1.0
 92
        0
 66
   257
 43
1.0
 76
     1
 77
     6
 78
     2
 67
     7
 79
     5
170
     0
171
     0
290
     0
174
     0
 93
        1
 44
0.0
173
     0
291
     0
 45
0.0
1001
ACAD
1000
AcDbSavedByObjectVersion
1070
     0
  0
VISUALSTYLE
  5
31
102
{ACAD_REACTORS
330
2A
102
}
102
{ACAD_XDICTIONARY
360
ED
102
}
330
2A
100
AcDbVisualStyle
  2
3D Hidden
 70
     6
 71
     1
 72
     2
 73
     2
 90
        0
 40
-0.6
 41
-30.0
 62
     5
 63
     7
421
 16777215
 74
     2
 91
        2
 64
     7
 65
   257
 75
     2
175
     1
 42
40.0
 92
        0
 66
   257
 43
1.0
 76
     1
 77
     6
 78
     2
 67
     7
 79
     3
170
     0
171
     0
290
     0
174
     0
 93
        1
 44
0.0
173
     0
291
     0
 45
0.0
1001
ACAD
1000
AcDbSavedByObjectVersion
1070
     0
  0
VISUALSTYLE
  5
30
102
{ACAD_REACTORS
330
2A
102
}
102
{ACAD_XDICTIONARY
360
EB
102
}
330
2A
100
AcDbVisualStyle
  2
3dWireframe
 70
     5
 71
     0
 72
     2
 73
     0
 90
        0
 40
-0.6
 41
-30.0
 62
     5
 63
     7
421
 16777215
 74
     1
 91
        4
 64
     7
 65
   257
 75
     1
175
     1
 42
1.0
 92
        0
 66
   257
 43
1.0
 76
     1
 77
     6
 78
     2
 67
     7
 79
     5
170
     0
171
     0
290
     0
174
     0
 93
        1
 44
0.0
173
     0
291
     0
 45
0.0
1001
ACAD
1000
AcDbSavedByObjectVersion
1070
     0
  0
VISUALSTYLE
  5
32
102
{ACAD_REACTORS
330
2A
102
}
102
{ACAD_XDICTIONARY
360
EF
102
}
330
2A
100
AcDbVisualStyle
  2
Basic
 70
     7
 71
     1
 72
     0
 73
     1
 90
        0
 40
-0.6
 41
-30.0
 62
     5
 63
     7
421
 16777215
 74
     0
 91
        4
 64
     7
 65
   257
 75
     1
175
     1
 42
1.0
 92
        8
 66
     7
 43
1.0
 76
     1
 77
     6
 78
     2
 67
     7
 79
     5
170
     0
171
     0
290
     0
174
     0
 93
        1
 44
0.0
173
     0
291
     1
 45
0.0
1001
ACAD
1000
AcDbSavedByObjectVersion
1070
     0
  0
VISUALSTYLE
  5
36
102
{ACAD_REACTORS
330
2A
102
}
102
{ACAD_XDICTIONARY
360
F7
102
}
330
2A
100
AcDbVisualStyle
  2
Brighten
 70
    12
 71
     2
 72
     2
 73
     0
 90
        0
 40
-0.6
 41
-30.0
 62
     5
 63
     7
421
 16777215
 74
     1
 91
        4
 64
     7
 65
   257
 75
     1
175
     1
 42
1.0
 92
        8
 66
     7
 43
1.0
 76
     1
 77
     6
 78
     2
 67
     7
 79
     5
170
     0
171
     0
290
     0
174
     0
 93
        1
 44
50.0
173
     0
291
     1
 45
0.0
1001
ACAD
1000
AcDbSavedByObjectVersion
1070
     0
  0
VISUALSTYLE
  5
3A
102
{ACAD_REACTORS
330
2A
102
}
102
{ACAD_XDICTIONARY
360
FF
102
}
330
2A
100
AcDbVisualStyle
  2
ColorChange
 70
    16
 71
     2
 72
     2
 73
     3
 90
        0
 40
-0.6
 41
-30.0
 62
     5
 63
     8
421
  8421504
 74
     1
 91
        4
 64
     7
 65
   257
 75
     1
175
     1
 42
1.0
 92
        8
 66
     8
424
  8421504
 43
1.0
 76
     1
 77
     6
 78
     2
 67
     7
 79
     5
170
     0
171
     0
290
     0
174
     0
 93
        1
 44
0.0
173
     0
291
     1
 45
0.0
1001
ACAD
1000
AcDbSavedByObjectVersion
1070
     0
  0
VISUALSTYLE
  5
34
102
{ACAD_REACTORS
330
2A
102
}
102
{ACAD_XDICTIONARY
360
F3
102
}
330
2A
100
AcDbVisualStyle
  2
Conceptual
 70
     9
 71
     3
 72
     2
 73
     0
 90
        0
 40
-0.6
 41
-30.0
 62
     5
 63
     7
421
 16777215
 74
     2
 91
        2
 64
     7
 65
   257
 75
     1
175
     1
 42
40.0
 92
        8
 66
     7
 43
1.0
 76
     1
 77
     6
 78
     2
 67
     7
 79
     3
170
     0
171
     0
290
     0
174
     0
 93
        1
 44
0.0
173
     0
291
     0
 45
0.0
1001
ACAD
1000
AcDbSavedByObjectVersion
1070
     0
  0
VISUALSTYLE
  5
35
102
{ACAD_REACTORS
330
2A
102
}
102
{ACAD_XDICTIONARY
360
F5
102
}
330
2A
100
AcDbVisualStyle
  2
Dim
 70
    11
 71
     2
 72
     2
 73
     0
 90
        0
 40
-0.6
 41
-30.0
 62
     5
 63
     7
421
 16777215
 74
     1
 91
        4
 64
     7
 65
   257
 75
     1
175
     1
 42
1.0
 92
        8
 66
     7
 43
1.0
 76
     1
 77
     6
 78
     2
 67
     7
 79
     5
170
     0
171
     0
290
     0
174
     0
 93
        1
 44
-50.0
173
     0
291
     1
 45
0.0
1001
ACAD
1000
AcDbSavedByObjectVersion
1070
     0
  0
VISUALSTYLE
  5
39
102
{ACAD_REACTORS
330
2A
102
}
102
{ACAD_XDICTIONARY
360
FD
102
}
330
2A
100
AcDbVisualStyle
  2
Facepattern
 70
    15
 71
     2
 72
     2
 73
     0
 90
        0
 40
-0.6
 41
-30.0
 62
     5
 63
     7
421
 16777215
 74
     1
 91
        4
 64
     7
 65
   257
 75
     1
175
     1
 42
1.0
 92
        8
 66
     7
 43
1.0
 76
     1
 77
     6
 78
     2
 67
     7
 79
     5
170
     0
171
     0
290
     0
174
     0
 93
        1
 44
0.0
173
     0
291
     1
 45
0.0
1001
ACAD
1000
AcDbSavedByObjectVersion
1070
     0
  0
VISUALSTYLE
  5
2B
102
{ACAD_REACTORS
330
2A
102
}
102
{ACAD_XDICTIONARY
360
E1
102
}
330
2A
100
AcDbVisualStyle
  2
Flat
 70
     0
 71
     2
 72
     1
 73
     1
 90
        2
 40
-0.6
 41
30.0
 62
     5
 63
     7
421
 16777215
 74
     0
 91
        4
 64
     7
 65
   257
 75
     1
175
     1
 42
1.0
 92
        8
 66
     7
 43
1.0
 76
     1
 77
     6
 78
     2
 67
     7
 79
     5
170
     0
171
     0
290
     0
174
     0
 93
       13
 44
0.0
173
     0
291
     1
 45
0.0
1001
ACAD
1000
AcDbSavedByObjectVersion
1070
     0
  0
VISUALSTYLE
  5
2C
102
{ACAD_REACTORS
330
2A
102
}
102
{ACAD_XDICTIONARY
360
E3
102
}
330
2A
100
AcDbVisualStyle
  2
FlatWithEdges
 70
     1
 71
     2
 72
     1
 73
     1
 90
        2
 40
-0.6
 41
30.0
 62
     5
 63
     7
421
 16777215
 74
     1
 91
        4
 64
     7
 65
   257
 75
     1
175
     1
 42
1.0
 92
        0
 66
   257
 43
1.0
 76
     1
 77
     6
 78
     2
 67
     7
 79
     5
170
     0
171
     0
290
     0
174
     0
 93
       13
 44
0.0
173
     0
291
     1
 45
0.0
1001
ACAD
1000
AcDbSavedByObjectVersion
1070
     0
  0
VISUALSTYLE
  5
2D
102
{ACAD_REACTORS
330
2A
102
}
102
{ACAD_XDICTIONARY
360
E5
102
}
330
2A
100
AcDbVisualStyle
  2
Gouraud
 70
     2
 71
     2
 72
     2
 73
     1
 90
        2
 40
-0.6
 41
30.0
 62
     5
 63
     7
421
 16777215
 74
     0
 91
        4
 64
     7
 65
   257
 75
     1
175
     1
 42
1.0
 92
        0
 66
     7
 43
1.0
 76
     1
 77
     6
 78
     2
 67
     7
 79
     5
170
     0
171
     0
290
     0
174
     0
 93
       13
 44
0.0
173
     0
291
     1
 45
0.0
1001
ACAD
1000
AcDbSavedByObjectVersion
1070
     0
  0
VISUALSTYLE
  5
2E
102
{ACAD_REACTORS
330
2A
102
}
102
{ACAD_XDICTIONARY
360
E7
102
}
330
2A
100
AcDbVisualStyle
  2
GouraudWithEdges
 70
     3
 71
     2
 72
     2
 73
     1
 90
        2
 40
-0.6
 41
30.0
 62
     5
 63
     7
421
 16777215
 74
     1
 91
        4
 64
     7
 65
   257
 75
     1
175
     1
 42
1.0
 92
        0
 66
   257
 43
1.0
 76
     1
 77
     6
 78
     2
 67
     7
 79
     5
170
     0
171
     0
290
     0
174
     0
 93
       13
 44
0.0
173
     0
291
     1
 45
0.0
1001
ACAD
1000
AcDbSavedByObjectVersion
1070
     0
  0
VISUALSTYLE
  5
38
102
{ACAD_REACTORS
330
2A
102
}
102
{ACAD_XDICTIONARY
360
FB
102
}
330
2A
100
AcDbVisualStyle
  2
Linepattern
 70
    14
 71
     2
 72
     2
 73
     0
 90
        0
 40
-0.6
 41
-30.0
 62
     5
 63
     7
421
 16777215
 74
     1
 91
        4
 64
     7
 65
   257
 75
     7
175
     7
 42
1.0
 92
        8
 66
     7
 43
1.0
 76
     1
 77
     6
 78
     2
 67
     7
 79
     5
170
     0
171
     0
290
     0
174
     0
 93
        1
 44
0.0
173
     0
291
     1
 45
0.0
1001
ACAD
1000
AcDbSavedByObjectVersion
1070
     0
  0
VISUALSTYLE
  5
33
102
{ACAD_REACTORS
330
2A
102
}
102
{ACAD_XDICTIONARY
360
F1
102
}
330
2A
100
AcDbVisualStyle
  2
Realistic
 70
     8
 71
     2
 72
     2
 73
     0
 90
        0
 40
-0.6
 41
-30.0
 62
     5
 63
     7
421
 16777215
 74
     1
 91
        0
 64
     7
 65
   257
 75
     1
175
     1
 42
1.0
 92
        8
 66
     8
424
  7895160
 43
1.0
 76
     1
 77
     6
 78
     2
 67
     7
 79
     5
170
     0
171
     0
290
     0
174
     0
 93
       13
 44
0.0
173
     0
291
     0
 45
0.0
1001
ACAD
1000
AcDbSavedByObjectVersion
1070
     0
  0
VISUALSTYLE
  5
37
102
{ACAD_REACTORS
330
2A
102
}
102
{ACAD_XDICTIONARY
360
F9
102
}
330
2A
100
AcDbVisualStyle
  2
Thicken
 70
    13
 71
     2
 72
     2
 73
     0
 90
        0
 40
-0.6
 41
-30.0
 62
     5
 63
     7
421
 16777215
 74
     1
 91
        4
 64
     7
 65
   257
 75
     1
175
     1
 42
1.0
 92
       12
 66
     7
 43
1.0
 76
     1
 77
     6
 78
     2
 67
     7
 79
     5
170
     0
171
     0
290
     0
174
     0
 93
        1
 44
0.0
173
     0
291
     1
 45
0.0
1001
ACAD
1000
AcDbSavedByObjectVersion
1070
     0
  0
DICTIONARY
  5
103
330
3D
100
AcDbDictionary
280
     1
281
     1
  3
ACAD_XREC_ROUNDTRIP
360
104
  0
DICTIONARY
  5
101
330
3C
100
AcDbDictionary
280
     1
281
     1
  3
ACAD_XREC_ROUNDTRIP
360
102
  0
DICTIONARY
  5
105
330
3E
100
AcDbDictionary
280
     1
281
     1
  3
ACAD_XREC_ROUNDTRIP
360
106
  0
DICTIONARY
  5
E9
330
2F
100
AcDbDictionary
280
     1
281
     1
  3
ACAD_XREC_ROUNDTRIP
360
EA
  0
DICTIONARY
  5
ED
330
31
100
AcDbDictionary
280
     1
281
     1
  3
ACAD_XREC_ROUNDTRIP
360
EE
  0
DICTIONARY
  5
EB
330
30
100
AcDbDictionary
280
     1
281
     1
  3
ACAD_XREC_ROUNDTRIP
360
EC
  0
DICTIONARY
  5
EF
330
32
100
AcDbDictionary
280
     1
281
     1
  3
ACAD_XREC_ROUNDTRIP
360
F0
  0
DICTIONARY
  5
F7
330
36
100
AcDbDictionary
280
     1
281
     1
  3
ACAD_XREC_ROUNDTRIP
360
F8
  0
DICTIONARY
  5
FF
330
3A
100
AcDbDictionary
280
     1
281
     1
  3
ACAD_XREC_ROUNDTRIP
360
100
  0
DICTIONARY
  5
F3
330
34
100
AcDbDictionary
280
     1
281
     1
  3
ACAD_XREC_ROUNDTRIP
360
F4
  0
DICTIONARY
  5
F5
330
35
100
AcDbDictionary
280
     1
281
     1
  3
ACAD_XREC_ROUNDTRIP
360
F6
  0
DICTIONARY
  5
FD
330
39
100
AcDbDictionary
280
     1
281
     1
  3
ACAD_XREC_ROUNDTRIP
360
FE
  0
DICTIONARY
  5
E1
330
2B
100
AcDbDictionary
280
     1
281
     1
  3
ACAD_XREC_ROUNDTRIP
360
E2
  0
DICTIONARY
  5
E3
330
2C
100
AcDbDictionary
280
     1
281
     1
  3
ACAD_XREC_ROUNDTRIP
360
E4
  0
DICTIONARY
  5
E5
330
2D
100
AcDbDictionary
280
     1
281
     1
  3
ACAD_XREC_ROUNDTRIP
360
E6
  0
DICTIONARY
  5
E7
330
2E
100
AcDbDictionary
280
     1
281
     1
  3
ACAD_XREC_ROUNDTRIP
360
E8
  0
DICTIONARY
  5
FB
330
38
100
AcDbDictionary
280
     1
281
     1
  3
ACAD_XREC_ROUNDTRIP
360
FC
  0
DICTIONARY
  5
F1
330
33
100
AcDbDictionary
280
     1
281
     1
  3
ACAD_XREC_ROUNDTRIP
360
F2
  0
DICTIONARY
  5
F9
330
37
100
AcDbDictionary
280
     1
281
     1
  3
ACAD_XREC_ROUNDTRIP
360
FA
  0
XRECORD
  5
104
102
{ACAD_REACTORS
330
103
102
}
330
103
100
AcDbXrecord
280
     1
102
MATERIAL
148
0.0
149
0.0
149
0.0
 93
        0
 94
      127
282
     0
 72
     1
 77
     1
171
     1
175
     1
179
     1
273
     0
  0
XRECORD
  5
102
102
{ACAD_REACTORS
330
101
102
}
330
101
100
AcDbXrecord
280
     1
102
MATERIAL
148
0.0
149
0.0
149
0.0
 93
        0
 94
      127
282
     0
 72
     1
 77
     1
171
     1
175
     1
179
     1
273
     0
  0
XRECORD
  5
106
102
{ACAD_REACTORS
330
105
102
}
330
105
100
AcDbXrecord
280
     1
102
MATERIAL
148
0.0
149
0.0
149
0.0
 93
        0
 94
      127
282
     0
 72
     1
 77
     1
171
     1
175
     1
179
     1
273
     0
  0
XRECORD
  5
EA
102
{ACAD_REACTORS
330
E9
102
}
330
E9
100
AcDbXrecord
280
     1
102
RTVSPropertyOp0
 70
     1
102
RTVSPropertyOp1
 70
     1
102
RTVSPropertyOp2
 70
     1
102
RTVSPropertyOp3
 70
     1
102
RTVSPropertyOp4
 70
     1
102
RTVSPropertyOp5
 70
     1
102
RTVSPropertyOp6
 70
     1
102
RTVSPropertyOp7
 70
     1
102
RTVSPropertyOp8
 70
     1
102
RTVSPropertyOp9
 70
     1
102
RTVSPropertyOp10
 70
     1
102
RTVSPropertyOp11
 70
     1
102
RTVSPropertyOp12
 70
     1
102
RTVSPropertyOp13
 70
     1
102
RTVSPropertyOp14
 70
     1
102
RTVSPropertyOp15
 70
     1
102
RTVSPropertyOp16
 70
     1
102
RTVSPropertyOp17
 70
     1
102
RTVSPropertyOp18
 70
     1
102
RTVSPropertyOp19
 70
     1
102
RTVSPropertyOp20
 70
     1
102
RTVSPropertyOp21
 70
     1
102
RTVSPropertyOp22
 70
     1
102
RTVSPropertyOp23
 70
     1
102
RTVSPropertyOp24
 70
     1
102
RTVSPropertyOp25
 70
     1
102
RTVSPropertyOp26
 70
     1
102
RTVSPropertyOp27
 70
     1
102
RTVSPropertyOp28
 70
     1
102
RTVSPropertyOp29
 70
     1
102
RTVSPropertyOp30
 70
     1
102
RTVSPropertyOp31
 70
     1
102
RTVSPropertyOp32
 70
     1
  0
XRECORD
  5
EE
102
{ACAD_REACTORS
330
ED
102
}
330
ED
100
AcDbXrecord
280
     1
102
RTVSPropertyOp0
 70
     1
102
RTVSPropertyOp1
 70
     1
102
RTVSPropertyOp2
 70
     1
102
RTVSPropertyOp3
 70
     1
102
RTVSPropertyOp4
 70
     1
102
RTVSPropertyOp5
 70
     1
102
RTVSPropertyOp6
 70
     1
102
RTVSPropertyOp7
 70
     1
102
RTVSPropertyOp8
 70
     1
102
RTVSPropertyOp9
 70
     1
102
RTVSPropertyOp10
 70
     1
102
RTVSPropertyOp11
 70
     1
102
RTVSPropertyOp12
 70
     1
102
RTVSPropertyOp13
 70
     1
102
RTVSPropertyOp14
 70
     1
102
RTVSPropertyOp15
 70
     1
102
RTVSPropertyOp16
 70
     1
102
RTVSPropertyOp17
 70
     1
102
RTVSPropertyOp18
 70
     1
102
RTVSPropertyOp19
 70
     1
102
RTVSPropertyOp20
 70
     1
102
RTVSPropertyOp21
 70
     1
102
RTVSPropertyOp22
 70
     1
102
RTVSPropertyOp23
 70
     1
102
RTVSPropertyOp24
 70
     1
102
RTVSPropertyOp25
 70
     1
102
RTVSPropertyOp26
 70
     1
102
RTVSPropertyOp27
 70
     1
102
RTVSPropertyOp28
 70
     1
102
RTVSPropertyOp29
 70
     1
102
RTVSPropertyOp30
 70
     1
102
RTVSPropertyOp31
 70
     1
102
RTVSPropertyOp32
 70
     1
  0
XRECORD
  5
EC
102
{ACAD_REACTORS
330
EB
102
}
330
EB
100
AcDbXrecord
280
     1
102
RTVSPropertyOp0
 70
     1
102
RTVSPropertyOp1
 70
     1
102
RTVSPropertyOp2
 70
     1
102
RTVSPropertyOp3
 70
     1
102
RTVSPropertyOp4
 70
     1
102
RTVSPropertyOp5
 70
     1
102
RTVSPropertyOp6
 70
     1
102
RTVSPropertyOp7
 70
     1
102
RTVSPropertyOp8
 70
     1
102
RTVSPropertyOp9
 70
     1
102
RTVSPropertyOp10
 70
     1
102
RTVSPropertyOp11
 70
     1
102
RTVSPropertyOp12
 70
     1
102
RTVSPropertyOp13
 70
     1
102
RTVSPropertyOp14
 70
     1
102
RTVSPropertyOp15
 70
     1
102
RTVSPropertyOp16
 70
     1
102
RTVSPropertyOp17
 70
     1
102
RTVSPropertyOp18
 70
     1
102
RTVSPropertyOp19
 70
     1
102
RTVSPropertyOp20
 70
     1
102
RTVSPropertyOp21
 70
     1
102
RTVSPropertyOp22
 70
     1
102
RTVSPropertyOp23
 70
     1
102
RTVSPropertyOp24
 70
     1
102
RTVSPropertyOp25
 70
     1
102
RTVSPropertyOp26
 70
     1
102
RTVSPropertyOp27
 70
     1
102
RTVSPropertyOp28
 70
     1
102
RTVSPropertyOp29
 70
     1
102
RTVSPropertyOp30
 70
     1
102
RTVSPropertyOp31
 70
     1
102
RTVSPropertyOp32
 70
     1
  0
XRECORD
  5
F0
102
{ACAD_REACTORS
330
EF
102
}
330
EF
100
AcDbXrecord
280
     1
102
RTVSPropertyOp0
 70
     1
102
RTVSPropertyOp1
 70
     1
102
RTVSPropertyOp2
 70
     1
102
RTVSPropertyOp3
 70
     1
102
RTVSPropertyOp4
 70
     1
102
RTVSPropertyOp5
 70
     1
102
RTVSPropertyOp6
 70
     1
102
RTVSPropertyOp7
 70
     1
102
RTVSPropertyOp8
 70
     1
102
RTVSPropertyOp9
 70
     1
102
RTVSPropertyOp10
 70
     1
102
RTVSPropertyOp11
 70
     1
102
RTVSPropertyOp12
 70
     1
102
RTVSPropertyOp13
 70
     1
102
RTVSPropertyOp14
 70
     1
102
RTVSPropertyOp15
 70
     1
102
RTVSPropertyOp16
 70
     1
102
RTVSPropertyOp17
 70
     1
102
RTVSPropertyOp18
 70
     1
102
RTVSPropertyOp19
 70
     1
102
RTVSPropertyOp20
 70
     1
102
RTVSPropertyOp21
 70
     1
102
RTVSPropertyOp22
 70
     1
102
RTVSPropertyOp23
 70
     1
102
RTVSPropertyOp24
 70
     1
102
RTVSPropertyOp25
 70
     1
102
RTVSPropertyOp26
 70
     1
102
RTVSPropertyOp27
 70
     1
102
RTVSPropertyOp28
 70
     1
102
RTVSPropertyOp29
 70
     1
102
RTVSPropertyOp30
 70
     1
102
RTVSPropertyOp31
 70
     1
102
RTVSPropertyOp32
 70
     1
  0
XRECORD
  5
F8
102
{ACAD_REACTORS
330
F7
102
}
330
F7
100
AcDbXrecord
280
     1
102
RTVSPropertyOp0
 70
     1
102
RTVSPropertyOp1
 70
     1
102
RTVSPropertyOp2
 70
     1
102
RTVSPropertyOp3
 70
     1
102
RTVSPropertyOp4
 70
     1
102
RTVSPropertyOp5
 70
     1
102
RTVSPropertyOp6
 70
     1
102
RTVSPropertyOp7
 70
     1
102
RTVSPropertyOp8
 70
     1
102
RTVSPropertyOp9
 70
     1
102
RTVSPropertyOp10
 70
     1
102
RTVSPropertyOp11
 70
     1
102
RTVSPropertyOp12
 70
     1
102
RTVSPropertyOp13
 70
     1
102
RTVSPropertyOp14
 70
     1
102
RTVSPropertyOp15
 70
     1
102
RTVSPropertyOp16
 70
     1
102
RTVSPropertyOp17
 70
     1
102
RTVSPropertyOp18
 70
     1
102
RTVSPropertyOp19
 70
     1
102
RTVSPropertyOp20
 70
     1
102
RTVSPropertyOp21
 70
     1
102
RTVSPropertyOp22
 70
     1
102
RTVSPropertyOp23
 70
     1
102
RTVSPropertyOp24
 70
     1
102
RTVSPropertyOp25
 70
     1
102
RTVSPropertyOp26
 70
     1
102
RTVSPropertyOp27
 70
     1
102
RTVSPropertyOp28
 70
     1
102
RTVSPropertyOp29
 70
     1
102
RTVSPropertyOp30
 70
     1
102
RTVSPropertyOp31
 70
     1
102
RTVSPropertyOp32
 70
     1
  0
XRECORD
  5
100
102
{ACAD_REACTORS
330
FF
102
}
330
FF
100
AcDbXrecord
280
     1
102
RTVSPropertyOp0
 70
     1
102
RTVSPropertyOp1
 70
     1
102
RTVSPropertyOp2
 70
     1
102
RTVSPropertyOp3
 70
     1
102
RTVSPropertyOp4
 70
     1
102
RTVSPropertyOp5
 70
     1
102
RTVSPropertyOp6
 70
     1
102
RTVSPropertyOp7
 70
     1
102
RTVSPropertyOp8
 70
     1
102
RTVSPropertyOp9
 70
     1
102
RTVSPropertyOp10
 70
     1
102
RTVSPropertyOp11
 70
     1
102
RTVSPropertyOp12
 70
     1
102
RTVSPropertyOp13
 70
     1
102
RTVSPropertyOp14
 70
     1
102
RTVSPropertyOp15
 70
     1
102
RTVSPropertyOp16
 70
     1
102
RTVSPropertyOp17
 70
     1
102
RTVSPropertyOp18
 70
     1
102
RTVSPropertyOp19
 70
     1
102
RTVSPropertyOp20
 70
     1
102
RTVSPropertyOp21
 70
     1
102
RTVSPropertyOp22
 70
     1
102
RTVSPropertyOp23
 70
     1
102
RTVSPropertyOp24
 70
     1
102
RTVSPropertyOp25
 70
     1
102
RTVSPropertyOp26
 70
     1
102
RTVSPropertyOp27
 70
     1
102
RTVSPropertyOp28
 70
     1
102
RTVSPropertyOp29
 70
     1
102
RTVSPropertyOp30
 70
     1
102
RTVSPropertyOp31
 70
     1
102
RTVSPropertyOp32
 70
     1
  0
XRECORD
  5
F4
102
{ACAD_REACTORS
330
F3
102
}
330
F3
100
AcDbXrecord
280
     1
102
RTVSPropertyOp0
 70
     1
102
RTVSPropertyOp1
 70
     1
102
RTVSPropertyOp2
 70
     1
102
RTVSPropertyOp3
 70
     1
102
RTVSPropertyOp4
 70
     1
102
RTVSPropertyOp5
 70
     1
102
RTVSPropertyOp6
 70
     1
102
RTVSPropertyOp7
 70
     1
102
RTVSPropertyOp8
 70
     1
102
RTVSPropertyOp9
 70
     1
102
RTVSPropertyOp10
 70
     1
102
RTVSPropertyOp11
 70
     1
102
RTVSPropertyOp12
 70
     1
102
RTVSPropertyOp13
 70
     1
102
RTVSPropertyOp14
 70
     1
102
RTVSPropertyOp15
 70
     1
102
RTVSPropertyOp16
 70
     1
102
RTVSPropertyOp17
 70
     1
102
RTVSPropertyOp18
 70
     1
102
RTVSPropertyOp19
 70
     1
102
RTVSPropertyOp20
 70
     1
102
RTVSPropertyOp21
 70
     1
102
RTVSPropertyOp22
 70
     1
102
RTVSPropertyOp23
 70
     1
102
RTVSPropertyOp24
 70
     1
102
RTVSPropertyOp25
 70
     1
102
RTVSPropertyOp26
 70
     1
102
RTVSPropertyOp27
 70
     1
102
RTVSPropertyOp28
 70
     1
102
RTVSPropertyOp29
 70
     1
102
RTVSPropertyOp30
 70
     1
102
RTVSPropertyOp31
 70
     1
102
RTVSPropertyOp32
 70
     1
  0
XRECORD
  5
F6
102
{ACAD_REACTORS
330
F5
102
}
330
F5
100
AcDbXrecord
280
     1
102
RTVSPropertyOp0
 70
     1
102
RTVSPropertyOp1
 70
     1
102
RTVSPropertyOp2
 70
     1
102
RTVSPropertyOp3
 70
     1
102
RTVSPropertyOp4
 70
     1
102
RTVSPropertyOp5
 70
     1
102
RTVSPropertyOp6
 70
     1
102
RTVSPropertyOp7
 70
     1
102
RTVSPropertyOp8
 70
     1
102
RTVSPropertyOp9
 70
     1
102
RTVSPropertyOp10
 70
     1
102
RTVSPropertyOp11
 70
     1
102
RTVSPropertyOp12
 70
     1
102
RTVSPropertyOp13
 70
     1
102
RTVSPropertyOp14
 70
     1
102
RTVSPropertyOp15
 70
     1
102
RTVSPropertyOp16
 70
     1
102
RTVSPropertyOp17
 70
     1
102
RTVSPropertyOp18
 70
     1
102
RTVSPropertyOp19
 70
     1
102
RTVSPropertyOp20
 70
     1
102
RTVSPropertyOp21
 70
     1
102
RTVSPropertyOp22
 70
     1
102
RTVSPropertyOp23
 70
     1
102
RTVSPropertyOp24
 70
     1
102
RTVSPropertyOp25
 70
     1
102
RTVSPropertyOp26
 70
     1
102
RTVSPropertyOp27
 70
     1
102
RTVSPropertyOp28
 70
     1
102
RTVSPropertyOp29
 70
     1
102
RTVSPropertyOp30
 70
     1
102
RTVSPropertyOp31
 70
     1
102
RTVSPropertyOp32
 70
     1
  0
XRECORD
  5
FE
102
{ACAD_REACTORS
330
FD
102
}
330
FD
100
AcDbXrecord
280
     1
102
RTVSPropertyOp0
 70
     1
102
RTVSPropertyOp1
 70
     1
102
RTVSPropertyOp2
 70
     1
102
RTVSPropertyOp3
 70
     1
102
RTVSPropertyOp4
 70
     1
102
RTVSPropertyOp5
 70
     1
102
RTVSPropertyOp6
 70
     1
102
RTVSPropertyOp7
 70
     1
102
RTVSPropertyOp8
 70
     1
102
RTVSPropertyOp9
 70
     1
102
RTVSPropertyOp10
 70
     1
102
RTVSPropertyOp11
 70
     1
102
RTVSPropertyOp12
 70
     1
102
RTVSPropertyOp13
 70
     1
102
RTVSPropertyOp14
 70
     1
102
RTVSPropertyOp15
 70
     1
102
RTVSPropertyOp16
 70
     1
102
RTVSPropertyOp17
 70
     1
102
RTVSPropertyOp18
 70
     1
102
RTVSPropertyOp19
 70
     1
102
RTVSPropertyOp20
 70
     1
102
RTVSPropertyOp21
 70
     1
102
RTVSPropertyOp22
 70
     1
102
RTVSPropertyOp23
 70
     1
102
RTVSPropertyOp24
 70
     1
102
RTVSPropertyOp25
 70
     1
102
RTVSPropertyOp26
 70
     1
102
RTVSPropertyOp27
 70
     1
102
RTVSPropertyOp28
 70
     1
102
RTVSPropertyOp29
 70
     1
102
RTVSPropertyOp30
 70
     1
102
RTVSPropertyOp31
 70
     1
102
RTVSPropertyOp32
 70
     1
  0
XRECORD
  5
E2
102
{ACAD_REACTORS
330
E1
102
}
330
E1
100
AcDbXrecord
280
     1
102
RTVSPropertyOp0
 70
     1
102
RTVSPropertyOp1
 70
     1
102
RTVSPropertyOp2
 70
     1
102
RTVSPropertyOp3
 70
     1
102
RTVSPropertyOp4
 70
     1
102
RTVSPropertyOp5
 70
     1
102
RTVSPropertyOp6
 70
     1
102
RTVSPropertyOp7
 70
     1
102
RTVSPropertyOp8
 70
     1
102
RTVSPropertyOp9
 70
     1
102
RTVSPropertyOp10
 70
     1
102
RTVSPropertyOp11
 70
     1
102
RTVSPropertyOp12
 70
     1
102
RTVSPropertyOp13
 70
     1
102
RTVSPropertyOp14
 70
     1
102
RTVSPropertyOp15
 70
     1
102
RTVSPropertyOp16
 70
     1
102
RTVSPropertyOp17
 70
     1
102
RTVSPropertyOp18
 70
     1
102
RTVSPropertyOp19
 70
     1
102
RTVSPropertyOp20
 70
     1
102
RTVSPropertyOp21
 70
     1
102
RTVSPropertyOp22
 70
     1
102
RTVSPropertyOp23
 70
     1
102
RTVSPropertyOp24
 70
     1
102
RTVSPropertyOp25
 70
     1
102
RTVSPropertyOp26
 70
     1
102
RTVSPropertyOp27
 70
     1
102
RTVSPropertyOp28
 70
     1
102
RTVSPropertyOp29
 70
     1
102
RTVSPropertyOp30
 70
     1
102
RTVSPropertyOp31
 70
     1
102
RTVSPropertyOp32
 70
     1
  0
XRECORD
  5
E4
102
{ACAD_REACTORS
330
E3
102
}
330
E3
100
AcDbXrecord
280
     1
102
RTVSPropertyOp0
 70
     1
102
RTVSPropertyOp1
 70
     1
102
RTVSPropertyOp2
 70
     1
102
RTVSPropertyOp3
 70
     1
102
RTVSPropertyOp4
 70
     1
102
RTVSPropertyOp5
 70
     1
102
RTVSPropertyOp6
 70
     1
102
RTVSPropertyOp7
 70
     1
102
RTVSPropertyOp8
 70
     1
102
RTVSPropertyOp9
 70
     1
102
RTVSPropertyOp10
 70
     1
102
RTVSPropertyOp11
 70
     1
102
RTVSPropertyOp12
 70
     1
102
RTVSPropertyOp13
 70
     1
102
RTVSPropertyOp14
 70
     1
102
RTVSPropertyOp15
 70
     1
102
RTVSPropertyOp16
 70
     1
102
RTVSPropertyOp17
 70
     1
102
RTVSPropertyOp18
 70
     1
102
RTVSPropertyOp19
 70
     1
102
RTVSPropertyOp20
 70
     1
102
RTVSPropertyOp21
 70
     1
102
RTVSPropertyOp22
 70
     1
102
RTVSPropertyOp23
 70
     1
102
RTVSPropertyOp24
 70
     1
102
RTVSPropertyOp25
 70
     1
102
RTVSPropertyOp26
 70
     1
102
RTVSPropertyOp27
 70
     1
102
RTVSPropertyOp28
 70
     1
102
RTVSPropertyOp29
 70
     1
102
RTVSPropertyOp30
 70
     1
102
RTVSPropertyOp31
 70
     1
102
RTVSPropertyOp32
 70
     1
  0
XRECORD
  5
E6
102
{ACAD_REACTORS
330
E5
102
}
330
E5
100
AcDbXrecord
280
     1
102
RTVSPropertyOp0
 70
     1
102
RTVSPropertyOp1
 70
     1
102
RTVSPropertyOp2
 70
     1
102
RTVSPropertyOp3
 70
     1
102
RTVSPropertyOp4
 70
     1
102
RTVSPropertyOp5
 70
     1
102
RTVSPropertyOp6
 70
     1
102
RTVSPropertyOp7
 70
     1
102
RTVSPropertyOp8
 70
     1
102
RTVSPropertyOp9
 70
     1
102
RTVSPropertyOp10
 70
     1
102
RTVSPropertyOp11
 70
     1
102
RTVSPropertyOp12
 70
     1
102
RTVSPropertyOp13
 70
     1
102
RTVSPropertyOp14
 70
     1
102
RTVSPropertyOp15
 70
     1
102
RTVSPropertyOp16
 70
     1
102
RTVSPropertyOp17
 70
     1
102
RTVSPropertyOp18
 70
     1
102
RTVSPropertyOp19
 70
     1
102
RTVSPropertyOp20
 70
     1
102
RTVSPropertyOp21
 70
     1
102
RTVSPropertyOp22
 70
     1
102
RTVSPropertyOp23
 70
     1
102
RTVSPropertyOp24
 70
     1
102
RTVSPropertyOp25
 70
     1
102
RTVSPropertyOp26
 70
     1
102
RTVSPropertyOp27
 70
     1
102
RTVSPropertyOp28
 70
     1
102
RTVSPropertyOp29
 70
     1
102
RTVSPropertyOp30
 70
     1
102
RTVSPropertyOp31
 70
     1
102
RTVSPropertyOp32
 70
     1
  0
XRECORD
  5
E8
102
{ACAD_REACTORS
330
E7
102
}
330
E7
100
AcDbXrecord
280
     1
102
RTVSPropertyOp0
 70
     1
102
RTVSPropertyOp1
 70
     1
102
RTVSPropertyOp2
 70
     1
102
RTVSPropertyOp3
 70
     1
102
RTVSPropertyOp4
 70
     1
102
RTVSPropertyOp5
 70
     1
102
RTVSPropertyOp6
 70
     1
102
RTVSPropertyOp7
 70
     1
102
RTVSPropertyOp8
 70
     1
102
RTVSPropertyOp9
 70
     1
102
RTVSPropertyOp10
 70
     1
102
RTVSPropertyOp11
 70
     1
102
RTVSPropertyOp12
 70
     1
102
RTVSPropertyOp13
 70
     1
102
RTVSPropertyOp14
 70
     1
102
RTVSPropertyOp15
 70
     1
102
RTVSPropertyOp16
 70
     1
102
RTVSPropertyOp17
 70
     1
102
RTVSPropertyOp18
 70
     1
102
RTVSPropertyOp19
 70
     1
102
RTVSPropertyOp20
 70
     1
102
RTVSPropertyOp21
 70
     1
102
RTVSPropertyOp22
 70
     1
102
RTVSPropertyOp23
 70
     1
102
RTVSPropertyOp24
 70
     1
102
RTVSPropertyOp25
 70
     1
102
RTVSPropertyOp26
 70
     1
102
RTVSPropertyOp27
 70
     1
102
RTVSPropertyOp28
 70
     1
102
RTVSPropertyOp29
 70
     1
102
RTVSPropertyOp30
 70
     1
102
RTVSPropertyOp31
 70
     1
102
RTVSPropertyOp32
 70
     1
  0
XRECORD
  5
FC
102
{ACAD_REACTORS
330
FB
102
}
330
FB
100
AcDbXrecord
280
     1
102
RTVSPropertyOp0
 70
     1
102
RTVSPropertyOp1
 70
     1
102
RTVSPropertyOp2
 70
     1
102
RTVSPropertyOp3
 70
     1
102
RTVSPropertyOp4
 70
     1
102
RTVSPropertyOp5
 70
     1
102
RTVSPropertyOp6
 70
     1
102
RTVSPropertyOp7
 70
     1
102
RTVSPropertyOp8
 70
     1
102
RTVSPropertyOp9
 70
     1
102
RTVSPropertyOp10
 70
     1
102
RTVSPropertyOp11
 70
     1
102
RTVSPropertyOp12
 70
     1
102
RTVSPropertyOp13
 70
     1
102
RTVSPropertyOp14
 70
     1
102
RTVSPropertyOp15
 70
     1
102
RTVSPropertyOp16
 70
     1
102
RTVSPropertyOp17
 70
     1
102
RTVSPropertyOp18
 70
     1
102
RTVSPropertyOp19
 70
     1
102
RTVSPropertyOp20
 70
     1
102
RTVSPropertyOp21
 70
     1
102
RTVSPropertyOp22
 70
     1
102
RTVSPropertyOp23
 70
     1
102
RTVSPropertyOp24
 70
     1
102
RTVSPropertyOp25
 70
     1
102
RTVSPropertyOp26
 70
     1
102
RTVSPropertyOp27
 70
     1
102
RTVSPropertyOp28
 70
     1
102
RTVSPropertyOp29
 70
     1
102
RTVSPropertyOp30
 70
     1
102
RTVSPropertyOp31
 70
     1
102
RTVSPropertyOp32
 70
     1
  0
XRECORD
  5
F2
102
{ACAD_REACTORS
330
F1
102
}
330
F1
100
AcDbXrecord
280
     1
102
RTVSPropertyOp0
 70
     1
102
RTVSPropertyOp1
 70
     1
102
RTVSPropertyOp2
 70
     1
102
RTVSPropertyOp3
 70
     1
102
RTVSPropertyOp4
 70
     1
102
RTVSPropertyOp5
 70
     1
102
RTVSPropertyOp6
 70
     1
102
RTVSPropertyOp7
 70
     1
102
RTVSPropertyOp8
 70
     1
102
RTVSPropertyOp9
 70
     1
102
RTVSPropertyOp10
 70
     1
102
RTVSPropertyOp11
 70
     1
102
RTVSPropertyOp12
 70
     1
102
RTVSPropertyOp13
 70
     1
102
RTVSPropertyOp14
 70
     1
102
RTVSPropertyOp15
 70
     1
102
RTVSPropertyOp16
 70
     1
102
RTVSPropertyOp17
 70
     1
102
RTVSPropertyOp18
 70
     1
102
RTVSPropertyOp19
 70
     1
102
RTVSPropertyOp20
 70
     1
102
RTVSPropertyOp21
 70
     1
102
RTVSPropertyOp22
 70
     1
102
RTVSPropertyOp23
 70
     1
102
RTVSPropertyOp24
 70
     1
102
RTVSPropertyOp25
 70
     1
102
RTVSPropertyOp26
 70
     1
102
RTVSPropertyOp27
 70
     1
102
RTVSPropertyOp28
 70
     1
102
RTVSPropertyOp29
 70
     1
102
RTVSPropertyOp30
 70
     1
102
RTVSPropertyOp31
 70
     1
102
RTVSPropertyOp32
 70
     1
  0
XRECORD
  5
FA
102
{ACAD_REACTORS
330
F9
102
}
330
F9
100
AcDbXrecord
280
     1
102
RTVSPropertyOp0
 70
     1
102
RTVSPropertyOp1
 70
     1
102
RTVSPropertyOp2
 70
     1
102
RTVSPropertyOp3
 70
     1
102
RTVSPropertyOp4
 70
     1
102
RTVSPropertyOp5
 70
     1
102
RTVSPropertyOp6
 70
     1
102
RTVSPropertyOp7
 70
     1
102
RTVSPropertyOp8
 70
     1
102
RTVSPropertyOp9
 70
     1
102
RTVSPropertyOp10
 70
     1
102
RTVSPropertyOp11
 70
     1
102
RTVSPropertyOp12
 70
     1
102
RTVSPropertyOp13
 70
     1
102
RTVSPropertyOp14
 70
     1
102
RTVSPropertyOp15
 70
     1
102
RTVSPropertyOp16
 70
     1
102
RTVSPropertyOp17
 70
     1
102
RTVSPropertyOp18
 70
     1
102
RTVSPropertyOp19
 70
     1
102
RTVSPropertyOp20
 70
     1
102
RTVSPropertyOp21
 70
     1
102
RTVSPropertyOp22
 70
     1
102
RTVSPropertyOp23
 70
     1
102
RTVSPropertyOp24
 70
     1
102
RTVSPropertyOp25
 70
     1
102
RTVSPropertyOp26
 70
     1
102
RTVSPropertyOp27
 70
     1
102
RTVSPropertyOp28
 70
     1
102
RTVSPropertyOp29
 70
     1
102
RTVSPropertyOp30
 70
     1
102
RTVSPropertyOp31
 70
     1
102
RTVSPropertyOp32
 70
     1
  0
ENDSEC
  0
EOF
