  0
SECTION
  2
HEADER
  9
$ACADVER
  1
AC1018
  9
$ACADMAINTVER
 70
     0
  9
$DWGCODEPAGE
  3
ANSI_1252
  9
$INSBASE
 10
0.0
 20
0.0
 30
0.0
  9
$EXTMIN
 10
46.59930337792008
 20
-87.9643989139705
 30
-0.0000000000005695
  9
$EXTMAX
 10
1025.408311102546
 20
1137.796617001781
 30
0.7827754846138077
  9
$LIMMIN
 10
0.0
 20
0.0
  9
$LIMMAX
 10
12.0
 20
9.0
  9
$ORTHOMODE
 70
     0
  9
$REGENMODE
 70
     1
  9
$FILLMODE
 70
     1
  9
$QTEXTMODE
 70
     0
  9
$MIRRTEXT
 70
     1
  9
$LTSCALE
 40
1.0
  9
$ATTMODE
 70
     1
  9
$TEXTSIZE
 40
0.2
  9
$TRACEWID
 40
0.05
  9
$TEXTSTYLE
  7
Standard
  9
$CLAYER
  8
4
  9
$CELTYPE
  6
ByLayer
  9
$CECOLOR
 62
   256
  9
$CELTSCALE
 40
1.0
  9
$DISPSILH
 70
     0
  9
$DIMSCALE
 40
1.0
  9
$DIMASZ
 40
0.18
  9
$DIMEXO
 40
0.0625
  9
$DIMDLI
 40
0.38
  9
$DIMRND
 40
0.0
  9
$DIMDLE
 40
0.0
  9
$DIMEXE
 40
0.18
  9
$DIMTP
 40
0.0
  9
$DIMTM
 40
0.0
  9
$DIMTXT
 40
0.18
  9
$DIMCEN
 40
0.09
  9
$DIMTSZ
 40
0.0
  9
$DIMTOL
 70
     0
  9
$DIMLIM
 70
     0
  9
$DIMTIH
 70
     1
  9
$DIMTOH
 70
     1
  9
$DIMSE1
 70
     0
  9
$DIMSE2
 70
     0
  9
$DIMTAD
 70
     0
  9
$DIMZIN
 70
     0
  9
$DIMBLK
  1

  9
$DIMASO
 70
     1
  9
$DIMSHO
 70
     1
  9
$DIMPOST
  1

  9
$DIMAPOST
  1

  9
$DIMALT
 70
     0
  9
$DIMALTD
 70
     2
  9
$DIMALTF
 40
25.4
  9
$DIMLFAC
 40
1.0
  9
$DIMTOFL
 70
     0
  9
$DIMTVP
 40
0.0
  9
$DIMTIX
 70
     0
  9
$DIMSOXD
 70
     0
  9
$DIMSAH
 70
     0
  9
$DIMBLK1
  1

  9
$DIMBLK2
  1

  9
$DIMSTYLE
  2
Standard
  9
$DIMCLRD
 70
     0
  9
$DIMCLRE
 70
     0
  9
$DIMCLRT
 70
     0
  9
$DIMTFAC
 40
1.0
  9
$DIMGAP
 40
0.09
  9
$DIMJUST
 70
     0
  9
$DIMSD1
 70
     0
  9
$DIMSD2
 70
     0
  9
$DIMTOLJ
 70
     1
  9
$DIMTZIN
 70
     0
  9
$DIMALTZ
 70
     0
  9
$DIMALTTZ
 70
     0
  9
$DIMUPT
 70
     0
  9
$DIMDEC
 70
     4
  9
$DIMTDEC
 70
     4
  9
$DIMALTU
 70
     2
  9
$DIMALTTD
 70
     2
  9
$DIMTXSTY
  7
Standard
  9
$DIMAUNIT
 70
     0
  9
$DIMADEC
 70
     0
  9
$DIMALTRND
 40
0.0
  9
$DIMAZIN
 70
     0
  9
$DIMDSEP
 70
    46
  9
$DIMATFIT
 70
     3
  9
$DIMFRAC
 70
     0
  9
$DIMLDRBLK
  1

  9
$DIMLUNIT
 70
     2
  9
$DIMLWD
 70
    -2
  9
$DIMLWE
 70
    -2
  9
$DIMTMOVE
 70
     2
  9
$LUNITS
 70
     2
  9
$LUPREC
 70
     2
  9
$SKETCHINC
 40
0.1
  9
$FILLETRAD
 40
0.5
  9
$AUNITS
 70
     0
  9
$AUPREC
 70
     0
  9
$MENU
  1
.
  9
$ELEVATION
 40
0.0
  9
$PELEVATION
 40
0.0
  9
$THICKNESS
 40
0.0
  9
$LIMCHECK
 70
     0
  9
$CHAMFERA
 40
0.5
  9
$CHAMFERB
 40
0.5
  9
$CHAMFERC
 40
1.0
  9
$CHAMFERD
 40
0.0
  9
$SKPOLY
 70
     0
  9
$TDCREATE
 40
2457104.752958229
  9
$TDUCREATE
 40
2457104.711291562
  9
$TDUPDATE
 40
2457104.75297375
  9
$TDUUPDATE
 40
2457104.711307083
  9
$TDINDWG
 40
0.0000000116
  9
$TDUSRTIMER
 40
0.0000000116
  9
$USRTIMER
 70
     1
  9
$ANGBASE
 50
0.0
  9
$ANGDIR
 70
     0
  9
$PDMODE
 70
     0
  9
$PDSIZE
 40
0.0
  9
$PLINEWID
 40
0.0
  9
$SPLFRAME
 70
     0
  9
$SPLINETYPE
 70
     6
  9
$SPLINESEGS
 70
     8
  9
$HANDSEED
  5
362
  9
$SURFTAB1
 70
     6
  9
$SURFTAB2
 70
     6
  9
$SURFTYPE
 70
     6
  9
$SURFU
 70
     6
  9
$SURFV
 70
     6
  9
$UCSBASE
  2

  9
$UCSNAME
  2

  9
$UCSORG
 10
0.0
 20
0.0
 30
0.0
  9
$UCSXDIR
 10
1.0
 20
0.0
 30
0.0
  9
$UCSYDIR
 10
0.0
 20
1.0
 30
0.0
  9
$UCSORTHOREF
  2

  9
$UCSORTHOVIEW
 70
     0
  9
$UCSORGTOP
 10
0.0
 20
0.0
 30
0.0
  9
$UCSORGBOTTOM
 10
0.0
 20
0.0
 30
0.0
  9
$UCSORGLEFT
 10
0.0
 20
0.0
 30
0.0
  9
$UCSORGRIGHT
 10
0.0
 20
0.0
 30
0.0
  9
$UCSORGFRONT
 10
0.0
 20
0.0
 30
0.0
  9
$UCSORGBACK
 10
0.0
 20
0.0
 30
0.0
  9
$PUCSBASE
  2

  9
$PUCSNAME
  2

  9
$PUCSORG
 10
0.0
 20
0.0
 30
0.0
  9
$PUCSXDIR
 10
1.0
 20
0.0
 30
0.0
  9
$PUCSYDIR
 10
0.0
 20
1.0
 30
0.0
  9
$PUCSORTHOREF
  2

  9
$PUCSORTHOVIEW
 70
     0
  9
$PUCSORGTOP
 10
0.0
 20
0.0
 30
0.0
  9
$PUCSORGBOTTOM
 10
0.0
 20
0.0
 30
0.0
  9
$PUCSORGLEFT
 10
0.0
 20
0.0
 30
0.0
  9
$PUCSORGRIGHT
 10
0.0
 20
0.0
 30
0.0
  9
$PUCSORGFRONT
 10
0.0
 20
0.0
 30
0.0
  9
$PUCSORGBACK
 10
0.0
 20
0.0
 30
0.0
  9
$USERI1
 70
     0
  9
$USERI2
 70
     0
  9
$USERI3
 70
     0
  9
$USERI4
 70
     0
  9
$USERI5
 70
     0
  9
$USERR1
 40
0.0
  9
$USERR2
 40
0.0
  9
$USERR3
 40
0.0
  9
$USERR4
 40
0.0
  9
$USERR5
 40
0.0
  9
$WORLDVIEW
 70
     1
  9
$SHADEDGE
 70
     3
  9
$SHADEDIF
 70
    70
  9
$TILEMODE
 70
     1
  9
$MAXACTVP
 70
    64
  9
$PINSBASE
 10
0.0
 20
0.0
 30
0.0
  9
$PLIMCHECK
 70
     0
  9
$PEXTMIN
 10
1.000000000000000E+20
 20
1.000000000000000E+20
 30
1.000000000000000E+20
  9
$PEXTMAX
 10
-1.000000000000000E+20
 20
-1.000000000000000E+20
 30
-1.000000000000000E+20
  9
$PLIMMIN
 10
0.0
 20
0.0
  9
$PLIMMAX
 10
12.0
 20
9.0
  9
$UNITMODE
 70
     0
  9
$VISRETAIN
 70
     1
  9
$PLINEGEN
 70
     0
  9
$PSLTSCALE
 70
     1
  9
$TREEDEPTH
 70
  3020
  9
$CMLSTYLE
  2
Standard
  9
$CMLJUST
 70
     0
  9
$CMLSCALE
 40
1.0
  9
$PROXYGRAPHICS
 70
     1
  9
$MEASUREMENT
 70
     0
  9
$CELWEIGHT
370
    -1
  9
$ENDCAPS
280
     0
  9
$JOINSTYLE
280
     0
  9
$LWDISPLAY
290
     0
  9
$INSUNITS
 70
     4
  9
$HYPERLINKBASE
  1

  9
$STYLESHEET
  1

  9
$XEDIT
290
     1
  9
$CEPSNTYPE
380
     0
  9
$PSTYLEMODE
290
     1
  9
$FINGERPRINTGUID
  2
{8DD9DF21-5E0F-4463-9480-FCB5DCE4901C}
  9
$VERSIONGUID
  2
{FAEB1C32-E019-11D5-929B-00C0DF256EC4}
  9
$EXTNAMES
290
     1
  9
$PSVPSCALE
 40
0.0
  9
$OLESTARTUP
290
     0
  9
$SORTENTS
280
   127
  9
$INDEXCTL
280
     0
  9
$HIDETEXT
280
     1
  9
$XCLIPFRAME
290
     0
  9
$HALOGAP
280
     0
  9
$OBSCOLOR
 70
   257
  9
$OBSLTYPE
280
     0
  9
$INTERSECTIONDISPLAY
280
     0
  9
$INTERSECTIONCOLOR
 70
   257
  9
$DIMASSOC
280
     2
  9
$PROJECTNAME
  1

  0
ENDSEC
  0
SECTION
  2
CLASSES
  0
CLASS
  1
ACDBDICTIONARYWDFLT
  2
AcDbDictionaryWithDefault
  3
ObjectDBX Classes
 90
        0
 91
        4
280
     0
281
     0
  0
CLASS
  1
VISUALSTYLE
  2
AcDbVisualStyle
  3
ObjectDBX Classes
 90
     4095
 91
        4
280
     0
281
     0
  0
CLASS
  1
MATERIAL
  2
AcDbMaterial
  3
ObjectDBX Classes
 90
     1153
 91
        4
280
     0
281
     0
  0
CLASS
  1
SUN
  2
AcDbSun
  3
SCENEOE
 90
     1024
 91
        4
280
     0
281
     0
  0
ENDSEC
  0
SECTION
  2
TABLES
  0
TABLE
  2
VPORT
  5
8
330
0
100
AcDbSymbolTable
 70
     1
  0
VPORT
  5
29
330
8
100
AcDbSymbolTableRecord
100
AcDbViewportTableRecord
  2
*Active
 70
     0
 10
0.0
 20
0.0
 11
1.0
 21
1.0
 12
536.0038072402331
 22
524.9161090439048
 13
0.0
 23
0.0
 14
0.5
 24
0.5
 15
0.5
 25
0.5
 16
0.0
 26
0.0
 36
1.0
 17
0.0
 27
0.0
 37
0.0
 40
1250.276236234066
 41
0.7985316835952482
 42
50.0
 43
0.0
 44
0.0
 50
0.0
 51
0.0
 71
     0
 72
   100
 73
     1
 74
     3
 75
     0
 76
     0
 77
     0
 78
     0
281
     0
 65
     1
110
0.0
120
0.0
130
0.0
111
1.0
121
0.0
131
0.0
112
0.0
122
1.0
132
0.0
 79
     0
146
0.0
  0
ENDTAB
  0
TABLE
  2
LTYPE
  5
5
330
0
100
AcDbSymbolTable
 70
     1
  0
LTYPE
  5
14
330
5
100
AcDbSymbolTableRecord
100
AcDbLinetypeTableRecord
  2
ByBlock
 70
     0
  3

 72
    65
 73
     0
 40
0.0
  0
LTYPE
  5
15
330
5
100
AcDbSymbolTableRecord
100
AcDbLinetypeTableRecord
  2
ByLayer
 70
     0
  3

 72
    65
 73
     0
 40
0.0
  0
LTYPE
  5
16
330
5
100
AcDbSymbolTableRecord
100
AcDbLinetypeTableRecord
  2
Continuous
 70
     0
  3
Solid line
 72
    65
 73
     0
 40
0.0
  0
ENDTAB
  0
TABLE
  2
LAYER
  5
2
330
0
100
AcDbSymbolTable
 70
     6
  0
LAYER
  5
10
330
2
100
AcDbSymbolTableRecord
100
AcDbLayerTableRecord
  2
0
 70
     0
 62
     7
  6
Continuous
370
    -3
390
F
  0
LAYER
  5
40
330
2
100
AcDbSymbolTableRecord
100
AcDbLayerTableRecord
  2
4
 70
     0
 62
    18
420
        0
  6
Continuous
370
    -3
390
F
  0
LAYER
  5
60
330
2
100
AcDbSymbolTableRecord
100
AcDbLayerTableRecord
  2
1
 70
     0
 62
     7
420
 16777215
  6
Continuous
370
    -3
390
F
  0
LAYER
  5
68
330
2
100
AcDbSymbolTableRecord
100
AcDbLayerTableRecord
  2
2
 70
     0
 62
   200
420
 12533759
  6
Continuous
370
    -3
390
F
  0
LAYER
  5
70
330
2
100
AcDbSymbolTableRecord
100
AcDbLayerTableRecord
  2
5mm
 70
     0
 62
    96
420
    32512
  6
Continuous
370
    -3
390
F
  0
LAYER
  5
A2
330
2
100
AcDbSymbolTableRecord
100
AcDbLayerTableRecord
  2
3
 70
     0
 62
    40
420
 16760576
  6
Continuous
370
    -3
390
F
  0
ENDTAB
  0
TABLE
  2
STYLE
  5
3
330
0
100
AcDbSymbolTable
 70
     1
  0
STYLE
  5
11
330
3
100
AcDbSymbolTableRecord
100
AcDbTextStyleTableRecord
  2
Standard
 70
     0
 40
0.0
 41
1.0
 50
0.0
 71
     0
 42
0.2
  3
txt
  4

  0
ENDTAB
  0
TABLE
  2
VIEW
  5
6
330
0
100
AcDbSymbolTable
 70
     0
  0
ENDTAB
  0
TABLE
  2
UCS
  5
7
330
0
100
AcDbSymbolTable
 70
     0
  0
ENDTAB
  0
TABLE
  2
APPID
  5
9
330
0
100
AcDbSymbolTable
 70
     1
  0
APPID
  5
12
330
9
100
AcDbSymbolTableRecord
100
AcDbRegAppTableRecord
  2
ACAD
 70
     0
  0
ENDTAB
  0
TABLE
  2
DIMSTYLE
  5
A
330
0
100
AcDbSymbolTable
 70
     1
100
AcDbDimStyleTable
  0
DIMSTYLE
105
27
330
A
100
AcDbSymbolTableRecord
100
AcDbDimStyleTableRecord
  2
Standard
 70
     0
178
     0
340
11
  0
ENDTAB
  0
TABLE
  2
BLOCK_RECORD
  5
1
330
0
100
AcDbSymbolTable
 70
     1
  0
BLOCK_RECORD
  5
1F
330
1
100
AcDbSymbolTableRecord
100
AcDbBlockTableRecord
  2
*Model_Space
340
22
  0
BLOCK_RECORD
  5
1B
330
1
100
AcDbSymbolTableRecord
100
AcDbBlockTableRecord
  2
*Paper_Space
340
1E
  0
BLOCK_RECORD
  5
23
330
1
100
AcDbSymbolTableRecord
100
AcDbBlockTableRecord
  2
*Paper_Space0
340
26
  0
ENDTAB
  0
ENDSEC
  0
SECTION
  2
BLOCKS
  0
BLOCK
  5
20
330
1F
100
AcDbEntity
  8
0
100
AcDbBlockBegin
  2
*Model_Space
 70
     0
 10
0.0
 20
0.0
 30
0.0
  3
*Model_Space
  1

  0
ENDBLK
  5
21
330
1F
100
AcDbEntity
  8
0
100
AcDbBlockEnd
  0
BLOCK
  5
1C
330
1B
100
AcDbEntity
 67
     1
  8
0
100
AcDbBlockBegin
  2
*Paper_Space
 70
     0
 10
0.0
 20
0.0
 30
0.0
  3
*Paper_Space
  1

  0
ENDBLK
  5
1D
330
1B
100
AcDbEntity
 67
     1
  8
0
100
AcDbBlockEnd
  0
BLOCK
  5
24
330
23
100
AcDbEntity
  8
0
100
AcDbBlockBegin
  2
*Paper_Space0
 70
     0
 10
0.0
 20
0.0
 30
0.0
  3
*Paper_Space0
  1

  0
ENDBLK
  5
25
330
23
100
AcDbEntity
  8
0
100
AcDbBlockEnd
  0
ENDSEC
  0
SECTION
  2
ENTITIES
  0
POLYLINE
  5
41
330
1F
100
AcDbEntity
  8
4
100
AcDb3dPolyline
 66
     1
 10
0.0
 20
0.0
 30
0.0
 70
     8
  0
VERTEX
  5
42
330
41
100
AcDbEntity
  8
4
100
AcDbVertex
100
AcDb3dPolylineVertex
 10
58.59930337792008
 20
-23.96439891397061
 30
0.0
 70
    32
  0
VERTEX
  5
43
330
41
100
AcDbEntity
  8
4
100
AcDbVertex
100
AcDb3dPolylineVertex
 10
58.59930337792008
 20
-46.06439891397052
 30
0.0
 70
    32
  0
VERTEX
  5
44
330
41
100
AcDbEntity
  8
4
100
AcDbVertex
100
AcDb3dPolylineVertex
 10
46.59930337792008
 20
-46.06439891397052
 30
0.0
 70
    32
  0
VERTEX
  5
45
330
41
100
AcDbEntity
  8
4
100
AcDbVertex
100
AcDb3dPolylineVertex
 10
46.59930337792014
 20
-65.86439891397048
 30
0.0
 70
    32
  0
VERTEX
  5
46
330
41
100
AcDbEntity
  8
4
100
AcDbVertex
100
AcDb3dPolylineVertex
 10
58.59930337792014
 20
-65.86439891397048
 30
0.0
 70
    32
  0
VERTEX
  5
47
330
41
100
AcDbEntity
  8
4
100
AcDbVertex
100
AcDb3dPolylineVertex
 10
58.59930337792014
 20
-87.9643989139705
 30
0.0
 70
    32
  0
VERTEX
  5
48
330
41
100
AcDbEntity
  8
4
100
AcDbVertex
100
AcDb3dPolylineVertex
 10
466.5993033779202
 20
-87.96439891397038
 30
0.0
 70
    32
  0
VERTEX
  5
49
330
41
100
AcDbEntity
  8
4
100
AcDbVertex
100
AcDb3dPolylineVertex
 10
466.5993033779202
 20
-65.86439891397036
 30
0.0
 70
    32
  0
VERTEX
  5
4A
330
41
100
AcDbEntity
  8
4
100
AcDbVertex
100
AcDb3dPolylineVertex
 10
478.5993033779202
 20
-65.86439891397036
 30
0.0
 70
    32
  0
VERTEX
  5
4B
330
41
100
AcDbEntity
  8
4
100
AcDbVertex
100
AcDb3dPolylineVertex
 10
478.5993033779202
 20
-46.06439891397041
 30
0.0
 70
    32
  0
VERTEX
  5
4C
330
41
100
AcDbEntity
  8
4
100
AcDbVertex
100
AcDb3dPolylineVertex
 10
466.5993033779202
 20
-46.06439891397041
 30
0.0
 70
    32
  0
VERTEX
  5
4D
330
41
100
AcDbEntity
  8
4
100
AcDbVertex
100
AcDb3dPolylineVertex
 10
466.5993033779201
 20
-23.96439891397038
 30
0.0
 70
    32
  0
VERTEX
  5
4E
330
41
100
AcDbEntity
  8
4
100
AcDbVertex
100
AcDb3dPolylineVertex
 10
418.1777399842592
 20
-23.9643989139705
 30
0.7827754846132393
 70
    32
  0
VERTEX
  5
4F
330
41
100
AcDbEntity
  8
4
100
AcDbVertex
100
AcDb3dPolylineVertex
 10
418.1777399842591
 20
-28.96439891397038
 30
0.7827754846132393
 70
    32
  0
VERTEX
  5
50
330
41
100
AcDbEntity
  8
4
100
AcDbVertex
100
AcDb3dPolylineVertex
 10
367.1777399842592
 20
-28.96439891397038
 30
0.7827754846132393
 70
    32
  0
VERTEX
  5
51
330
41
100
AcDbEntity
  8
4
100
AcDbVertex
100
AcDb3dPolylineVertex
 10
367.1777399842592
 20
-23.96439891397038
 30
0.7827754846132393
 70
    32
  0
VERTEX
  5
52
330
41
100
AcDbEntity
  8
4
100
AcDbVertex
100
AcDb3dPolylineVertex
 10
338.6798098829248
 20
-23.9643989139705
 30
-0.0000000000003979
 70
    32
  0
VERTEX
  5
53
330
41
100
AcDbEntity
  8
4
100
AcDbVertex
100
AcDb3dPolylineVertex
 10
338.6798098829248
 20
-28.9643989139705
 30
-0.0000000000003979
 70
    32
  0
VERTEX
  5
54
330
41
100
AcDbEntity
  8
4
100
AcDbVertex
100
AcDb3dPolylineVertex
 10
287.6798098829248
 20
-28.9643989139705
 30
-0.0000000000003979
 70
    32
  0
VERTEX
  5
55
330
41
100
AcDbEntity
  8
4
100
AcDbVertex
100
AcDb3dPolylineVertex
 10
287.6798098829248
 20
-23.9643989139705
 30
-0.0000000000003979
 70
    32
  0
VERTEX
  5
56
330
41
100
AcDbEntity
  8
4
100
AcDbVertex
100
AcDb3dPolylineVertex
 10
237.5187968729154
 20
-23.96439891397061
 30
0.0
 70
    32
  0
VERTEX
  5
57
330
41
100
AcDbEntity
  8
4
100
AcDbVertex
100
AcDb3dPolylineVertex
 10
237.5187968729154
 20
-28.96439891397061
 30
0.0
 70
    32
  0
VERTEX
  5
58
330
41
100
AcDbEntity
  8
4
100
AcDbVertex
100
AcDb3dPolylineVertex
 10
186.5187968729154
 20
-28.96439891397061
 30
0.0
 70
    32
  0
VERTEX
  5
59
330
41
100
AcDbEntity
  8
4
100
AcDbVertex
100
AcDb3dPolylineVertex
 10
186.5187968729154
 20
-23.96439891397061
 30
0.0
 70
    32
  0
VERTEX
  5
5A
330
41
100
AcDbEntity
  8
4
100
AcDbVertex
100
AcDb3dPolylineVertex
 10
158.020866771581
 20
-23.96439891397073
 30
0.7827754846132393
 70
    32
  0
VERTEX
  5
5B
330
41
100
AcDbEntity
  8
4
100
AcDbVertex
100
AcDb3dPolylineVertex
 10
158.020866771581
 20
-28.96439891397095
 30
0.7827754846132393
 70
    32
  0
VERTEX
  5
5C
330
41
100
AcDbEntity
  8
4
100
AcDbVertex
100
AcDb3dPolylineVertex
 10
107.020866771581
 20
-28.96439891397095
 30
0.7827754846132393
 70
    32
  0
VERTEX
  5
5D
330
41
100
AcDbEntity
  8
4
100
AcDbVertex
100
AcDb3dPolylineVertex
 10
107.020866771581
 20
-23.96439891397095
 30
0.7827754846132393
 70
    32
  0
VERTEX
  5
5E
330
41
100
AcDbEntity
  8
4
100
AcDbVertex
100
AcDb3dPolylineVertex
 10
58.59930337792008
 20
-23.96439891397061
 30
0.0
 70
    32
  0
SEQEND
  5
5F
330
41
100
AcDbEntity
  8
4
  0
POLYLINE
  5
61
330
1F
100
AcDbEntity
  8
1
100
AcDb2dPolyline
 66
     1
 10
0.0
 20
0.0
 30
0.7827754846132393
  0
VERTEX
  5
62
330
61
100
AcDbEntity
  8
1
100
AcDbVertex
100
AcDb2dVertex
 10
850.3342238372304
 20
1063.941143935724
 30
0.7827754846132393
  0
VERTEX
  5
63
330
61
100
AcDbEntity
  8
1
100
AcDbVertex
100
AcDb2dVertex
 10
775.3342238372304
 20
1061.700963066047
 30
0.7827754846132393
  0
VERTEX
  5
64
330
61
100
AcDbEntity
  8
1
100
AcDbVertex
100
AcDb2dVertex
 10
775.3342238372304
 20
1013.941143935724
 30
0.7827754846132393
  0
VERTEX
  5
65
330
61
100
AcDbEntity
  8
1
100
AcDbVertex
100
AcDb2dVertex
 10
850.3342238372305
 20
978.1289561103465
 30
0.7827754846132393
  0
VERTEX
  5
66
330
61
100
AcDbEntity
  8
1
100
AcDbVertex
100
AcDb2dVertex
 10
850.3342238372304
 20
1063.941143935724
 30
0.7827754846132393
  0
SEQEND
  5
67
330
61
100
AcDbEntity
  8
1
  0
POLYLINE
  5
69
330
1F
100
AcDbEntity
  8
2
100
AcDb2dPolyline
 66
     1
 10
0.0
 20
0.0
 30
0.7827754846132393
  0
VERTEX
  5
6A
330
69
100
AcDbEntity
  8
2
100
AcDbVertex
100
AcDb2dVertex
 10
887.8342238372302
 20
1081.27951610863
 30
0.7827754846132393
  0
VERTEX
  5
6B
330
69
100
AcDbEntity
  8
2
100
AcDbVertex
100
AcDb2dVertex
 10
737.8342238372302
 20
1076.052427412716
 30
0.7827754846132393
  0
VERTEX
  5
6C
330
69
100
AcDbEntity
  8
2
100
AcDbVertex
100
AcDb2dVertex
 10
737.8342238372304
 20
1002.934597848842
 30
0.7827754846132393
  0
VERTEX
  5
6D
330
69
100
AcDbEntity
  8
2
100
AcDbVertex
100
AcDb2dVertex
 10
887.8342238372305
 20
927.5765874152918
 30
0.7827754846132393
  0
VERTEX
  5
6E
330
69
100
AcDbEntity
  8
2
100
AcDbVertex
100
AcDb2dVertex
 10
887.8342238372302
 20
1081.27951610863
 30
0.7827754846132393
  0
SEQEND
  5
6F
330
69
100
AcDbEntity
  8
2
  0
POLYLINE
  5
71
330
1F
100
AcDbEntity
  8
5mm
100
AcDb2dPolyline
 66
     1
 10
0.0
 20
0.0
 30
-0.0000000000003979
  0
VERTEX
  5
72
330
71
100
AcDbEntity
  8
5mm
100
AcDbVertex
100
AcDb2dVertex
 10
866.8342238372303
 20
999.5531897297309
 30
-0.0000000000003979
  0
VERTEX
  5
73
330
71
100
AcDbEntity
  8
5mm
100
AcDbVertex
100
AcDb2dVertex
 10
866.8342238372304
 20
948.553189729731
 30
-0.0000000000003979
  0
VERTEX
  5
74
330
71
100
AcDbEntity
  8
5mm
100
AcDbVertex
100
AcDb2dVertex
 10
887.8342238372304
 20
948.553189729731
 30
-0.0000000000003979
  0
VERTEX
  5
75
330
71
100
AcDbEntity
  8
5mm
100
AcDbVertex
100
AcDb2dVertex
 10
887.8342238372303
 20
999.5531897297309
 30
-0.0000000000003979
  0
VERTEX
  5
76
330
71
100
AcDbEntity
  8
5mm
100
AcDbVertex
100
AcDb2dVertex
 10
866.8342238372303
 20
999.5531897297309
 30
-0.0000000000003979
  0
SEQEND
  5
77
330
71
100
AcDbEntity
  8
5mm
  0
POLYLINE
  5
78
330
1F
100
AcDbEntity
  8
5mm
100
AcDb2dPolyline
 66
     1
 10
0.0
 20
0.0
 30
0.7827754846132393
  0
VERTEX
  5
79
330
78
100
AcDbEntity
  8
5mm
100
AcDbVertex
100
AcDb2dVertex
 10
737.8342238372302
 20
1061.623966191434
 30
0.7827754846132393
  0
VERTEX
  5
7A
330
78
100
AcDbEntity
  8
5mm
100
AcDbVertex
100
AcDb2dVertex
 10
737.8342238372304
 20
1010.623966191434
 30
0.7827754846132393
  0
VERTEX
  5
7B
330
78
100
AcDbEntity
  8
5mm
100
AcDbVertex
100
AcDb2dVertex
 10
758.8342238372304
 20
1010.623966191434
 30
0.7827754846132393
  0
VERTEX
  5
7C
330
78
100
AcDbEntity
  8
5mm
100
AcDbVertex
100
AcDb2dVertex
 10
758.8342238372302
 20
1061.623966191434
 30
0.7827754846132393
  0
VERTEX
  5
7D
330
78
100
AcDbEntity
  8
5mm
100
AcDbVertex
100
AcDb2dVertex
 10
737.8342238372302
 20
1061.623966191434
 30
0.7827754846132393
  0
SEQEND
  5
7E
330
78
100
AcDbEntity
  8
5mm
  0
POLYLINE
  5
7F
330
1F
100
AcDbEntity
  8
5mm
100
AcDb2dPolyline
 66
     1
 10
0.0
 20
0.0
 30
0.7827754846132393
  0
VERTEX
  5
80
330
7F
100
AcDbEntity
  8
5mm
100
AcDbVertex
100
AcDb2dVertex
 10
866.8342238372302
 20
1079.051119831066
 30
0.7827754846132393
  0
VERTEX
  5
81
330
7F
100
AcDbEntity
  8
5mm
100
AcDbVertex
100
AcDb2dVertex
 10
866.8342238372302
 20
1028.051119831066
 30
0.7827754846132393
  0
VERTEX
  5
82
330
7F
100
AcDbEntity
  8
5mm
100
AcDbVertex
100
AcDb2dVertex
 10
887.8342238372302
 20
1028.051119831066
 30
0.7827754846132393
  0
VERTEX
  5
83
330
7F
100
AcDbEntity
  8
5mm
100
AcDbVertex
100
AcDb2dVertex
 10
887.8342238372302
 20
1079.051119831066
 30
0.7827754846132393
  0
VERTEX
  5
84
330
7F
100
AcDbEntity
  8
5mm
100
AcDbVertex
100
AcDb2dVertex
 10
866.8342238372302
 20
1079.051119831066
 30
0.7827754846132393
  0
SEQEND
  5
85
330
7F
100
AcDbEntity
  8
5mm
  0
POLYLINE
  5
86
330
1F
100
AcDbEntity
  8
4
100
AcDb2dPolyline
 66
     1
 10
0.0
 20
0.0
 30
-0.0000000000005684
  0
VERTEX
  5
87
330
86
100
AcDbEntity
  8
4
100
AcDbVertex
100
AcDb2dVertex
 10
197.9829842642065
 20
776.0451403760701
 30
-0.0000000000005684
  0
VERTEX
  5
88
330
86
100
AcDbEntity
  8
4
100
AcDbVertex
100
AcDb2dVertex
 10
721.9829842642064
 20
776.0451403760702
 30
-0.0000000000005684
  0
VERTEX
  5
89
330
86
100
AcDbEntity
  8
4
100
AcDbVertex
100
AcDb2dVertex
 10
721.9829842642064
 20
792.0451403760702
 30
-0.0000000000005684
  0
VERTEX
  5
8A
330
86
100
AcDbEntity
  8
4
100
AcDbVertex
100
AcDb2dVertex
 10
197.9829842642058
 20
792.0451403760703
 30
-0.0000000000005684
  0
VERTEX
  5
8B
330
86
100
AcDbEntity
  8
4
100
AcDbVertex
100
AcDb2dVertex
 10
197.9829842642065
 20
776.0451403760701
 30
-0.0000000000005684
  0
SEQEND
  5
8C
330
86
100
AcDbEntity
  8
4
  0
POLYLINE
  5
8D
330
1F
100
AcDbEntity
  8
5mm
100
AcDb2dPolyline
 66
     1
 10
0.0
 20
0.0
 30
-0.0000000000005684
  0
VERTEX
  5
8E
330
8D
100
AcDbEntity
  8
5mm
100
AcDbVertex
100
AcDb2dVertex
 10
485.4829842642064
 20
776.0451403760702
 30
-0.0000000000005684
  0
VERTEX
  5
8F
330
8D
100
AcDbEntity
  8
5mm
100
AcDbVertex
100
AcDb2dVertex
 10
434.4829842642062
 20
776.0451403760702
 30
-0.0000000000005684
  0
VERTEX
  5
90
330
8D
100
AcDbEntity
  8
5mm
100
AcDbVertex
100
AcDb2dVertex
 10
434.4829842642064
 20
792.0451403760707
 30
-0.0000000000005684
  0
VERTEX
  5
91
330
8D
100
AcDbEntity
  8
5mm
100
AcDbVertex
100
AcDb2dVertex
 10
485.4829842642064
 20
792.0451403760704
 30
-0.0000000000005684
  0
VERTEX
  5
92
330
8D
100
AcDbEntity
  8
5mm
100
AcDbVertex
100
AcDb2dVertex
 10
485.4829842642064
 20
776.0451403760702
 30
-0.0000000000005684
  0
SEQEND
  5
93
330
8D
100
AcDbEntity
  8
5mm
  0
POLYLINE
  5
94
330
1F
100
AcDbEntity
  8
5mm
100
AcDb2dPolyline
 66
     1
 10
0.0
 20
0.0
 30
-0.0000000000005684
  0
VERTEX
  5
95
330
94
100
AcDbEntity
  8
5mm
100
AcDbVertex
100
AcDb2dVertex
 10
349.6735426925117
 20
776.0451403760703
 30
-0.0000000000005684
  0
VERTEX
  5
96
330
94
100
AcDbEntity
  8
5mm
100
AcDbVertex
100
AcDb2dVertex
 10
298.6735426925117
 20
776.0451403760705
 30
-0.0000000000005684
  0
VERTEX
  5
97
330
94
100
AcDbEntity
  8
5mm
100
AcDbVertex
100
AcDb2dVertex
 10
298.6735426925119
 20
792.0451403760705
 30
-0.0000000000005684
  0
VERTEX
  5
98
330
94
100
AcDbEntity
  8
5mm
100
AcDbVertex
100
AcDb2dVertex
 10
349.6735426925119
 20
792.0451403760704
 30
-0.0000000000005684
  0
VERTEX
  5
99
330
94
100
AcDbEntity
  8
5mm
100
AcDbVertex
100
AcDb2dVertex
 10
349.6735426925117
 20
776.0451403760703
 30
-0.0000000000005684
  0
SEQEND
  5
9A
330
94
100
AcDbEntity
  8
5mm
  0
POLYLINE
  5
9B
330
1F
100
AcDbEntity
  8
5mm
100
AcDb2dPolyline
 66
     1
 10
0.0
 20
0.0
 30
-0.0000000000005684
  0
VERTEX
  5
9C
330
9B
100
AcDbEntity
  8
5mm
100
AcDbVertex
100
AcDb2dVertex
 10
637.5088284258128
 20
776.04514037607
 30
-0.0000000000005684
  0
VERTEX
  5
9D
330
9B
100
AcDbEntity
  8
5mm
100
AcDbVertex
100
AcDb2dVertex
 10
586.5088284258128
 20
776.04514037607
 30
-0.0000000000005684
  0
VERTEX
  5
9E
330
9B
100
AcDbEntity
  8
5mm
100
AcDbVertex
100
AcDb2dVertex
 10
586.5088284258128
 20
792.0451403760702
 30
-0.0000000000005684
  0
VERTEX
  5
9F
330
9B
100
AcDbEntity
  8
5mm
100
AcDbVertex
100
AcDb2dVertex
 10
637.5088284258129
 20
792.0451403760702
 30
-0.0000000000005684
  0
VERTEX
  5
A0
330
9B
100
AcDbEntity
  8
5mm
100
AcDbVertex
100
AcDb2dVertex
 10
637.5088284258128
 20
776.04514037607
 30
-0.0000000000005684
  0
SEQEND
  5
A1
330
9B
100
AcDbEntity
  8
5mm
  0
POLYLINE
  5
A3
330
1F
100
AcDbEntity
  8
3
100
AcDb2dPolyline
 66
     1
 10
0.0
 20
0.0
 30
0.0000000000002851
  0
VERTEX
  5
A4
330
A3
100
AcDbEntity
  8
3
100
AcDbVertex
100
AcDb2dVertex
 10
480.3311802022348
 20
1104.90466765228
 30
0.0000000000002851
  0
VERTEX
  5
A5
330
A3
100
AcDbEntity
  8
3
100
AcDbVertex
100
AcDb2dVertex
 10
311.1535117082841
 20
1104.90466765228
 30
0.0000000000002851
  0
VERTEX
  5
A6
330
A3
100
AcDbEntity
  8
3
100
AcDbVertex
100
AcDb2dVertex
 10
311.1535117082841
 20
1050.817998134731
 30
0.0000000000002851
  0
VERTEX
  5
A7
330
A3
100
AcDbEntity
  8
3
100
AcDbVertex
100
AcDb2dVertex
 10
480.3311802022348
 20
1050.817998134731
 30
0.0000000000002851
  0
VERTEX
  5
A8
330
A3
100
AcDbEntity
  8
3
100
AcDbVertex
100
AcDb2dVertex
 10
480.3311802022348
 20
1104.90466765228
 30
0.0000000000002851
  0
SEQEND
  5
A9
330
A3
100
AcDbEntity
  8
3
  0
POLYLINE
  5
AA
330
1F
100
AcDbEntity
  8
3
100
AcDb2dPolyline
 66
     1
 10
0.0
 20
0.0
 30
-0.7771532439279302
210
-0.006338503784423252
220
-2.443008694118593E-15
230
0.999979911483113
  0
VERTEX
  5
AB
330
AA
100
AcDbEntity
  8
3
100
AcDbVertex
100
AcDb2dVertex
 10
246.1011572662343
 20
1107.272486934072
 30
-0.7771532439279302
  0
VERTEX
  5
AC
330
AA
100
AcDbEntity
  8
3
100
AcDbVertex
100
AcDb2dVertex
 10
246.1011572662345
 20
977.5613553657681
 30
-0.7771532439279302
  0
VERTEX
  5
AD
330
AA
100
AcDbEntity
  8
3
100
AcDbVertex
100
AcDb2dVertex
 10
122.6058480834172
 20
873.5729009626012
 30
-0.7771532439279302
  0
VERTEX
  5
AE
330
AA
100
AcDbEntity
  8
3
100
AcDbVertex
100
AcDb2dVertex
 10
122.6058480834171
 20
1106.904667652279
 30
-0.7771532439279302
  0
VERTEX
  5
AF
330
AA
100
AcDbEntity
  8
3
100
AcDbVertex
100
AcDb2dVertex
 10
246.1011572662343
 20
1107.272486934072
 30
-0.7771532439279302
  0
SEQEND
  5
B0
330
AA
100
AcDbEntity
  8
3
  0
POLYLINE
  5
B1
330
1F
100
AcDbEntity
  8
3
100
AcDb2dPolyline
 66
     1
 10
0.0
 20
0.0
 30
0.0000000000005693
  0
VERTEX
  5
B2
330
B1
100
AcDbEntity
  8
3
100
AcDbVertex
100
AcDb2dVertex
 10
905.4083111025454
 20
1104.904667652281
 30
0.0000000000005693
  0
VERTEX
  5
B3
330
B1
100
AcDbEntity
  8
3
100
AcDbVertex
100
AcDb2dVertex
 10
545.4083111025451
 20
1104.90466765228
 30
0.0000000000005693
  0
VERTEX
  5
B4
330
B1
100
AcDbEntity
  8
3
100
AcDbVertex
100
AcDb2dVertex
 10
545.4083111025452
 20
1018.052971555282
 30
0.0000000000005693
  0
VERTEX
  5
B5
330
B1
100
AcDbEntity
  8
3
100
AcDbVertex
100
AcDb2dVertex
 10
905.4083111025457
 20
846.4046676522808
 30
0.0000000000005693
  0
VERTEX
  5
B6
330
B1
100
AcDbEntity
  8
3
100
AcDbVertex
100
AcDb2dVertex
 10
905.4083111025454
 20
1104.904667652281
 30
0.0000000000005693
  0
SEQEND
  5
B7
330
B1
100
AcDbEntity
  8
3
  0
POLYLINE
  5
B8
330
1F
100
AcDbEntity
  8
5mm
100
AcDb2dPolyline
 66
     1
 10
0.0
 20
0.0
 30
0.7827754846132393
  0
VERTEX
  5
B9
330
B8
100
AcDbEntity
  8
5mm
100
AcDbVertex
100
AcDb2dVertex
 10
246.1011394477581
 20
1085.947899968487
 30
0.7827754846132393
  0
VERTEX
  5
BA
330
B8
100
AcDbEntity
  8
5mm
100
AcDbVertex
100
AcDb2dVertex
 10
246.1011394477582
 20
1034.947899968487
 30
0.7827754846132393
  0
VERTEX
  5
BB
330
B8
100
AcDbEntity
  8
5mm
100
AcDbVertex
100
AcDb2dVertex
 10
267.1011394477582
 20
1034.947899968487
 30
0.7827754846132393
  0
VERTEX
  5
BC
330
B8
100
AcDbEntity
  8
5mm
100
AcDbVertex
100
AcDb2dVertex
 10
267.1011394477581
 20
1085.947899968487
 30
0.7827754846132393
  0
VERTEX
  5
BD
330
B8
100
AcDbEntity
  8
5mm
100
AcDbVertex
100
AcDb2dVertex
 10
246.1011394477581
 20
1085.947899968487
 30
0.7827754846132393
  0
SEQEND
  5
BE
330
B8
100
AcDbEntity
  8
5mm
  0
POLYLINE
  5
BF
330
1F
100
AcDbEntity
  8
5mm
100
AcDb2dPolyline
 66
     1
 10
0.0
 20
0.0
 30
-0.0000000000005684
  0
VERTEX
  5
C0
330
BF
100
AcDbEntity
  8
5mm
100
AcDbVertex
100
AcDb2dVertex
 10
59.40831110254521
 20
1125.322461163385
 30
-0.0000000000005684
  0
VERTEX
  5
C1
330
BF
100
AcDbEntity
  8
5mm
100
AcDbVertex
100
AcDb2dVertex
 10
59.40831110254521
 20
1074.322461163385
 30
-0.0000000000005684
  0
VERTEX
  5
C2
330
BF
100
AcDbEntity
  8
5mm
100
AcDbVertex
100
AcDb2dVertex
 10
80.40831110254521
 20
1074.322461163385
 30
-0.0000000000005684
  0
VERTEX
  5
C3
330
BF
100
AcDbEntity
  8
5mm
100
AcDbVertex
100
AcDb2dVertex
 10
80.40831110254521
 20
1125.322461163385
 30
-0.0000000000005684
  0
VERTEX
  5
C4
330
BF
100
AcDbEntity
  8
5mm
100
AcDbVertex
100
AcDb2dVertex
 10
59.40831110254521
 20
1125.322461163385
 30
-0.0000000000005684
  0
SEQEND
  5
C5
330
BF
100
AcDbEntity
  8
5mm
  0
POLYLINE
  5
C6
330
1F
100
AcDbEntity
  8
5mm
100
AcDb2dPolyline
 66
     1
 10
0.0
 20
0.0
 30
-0.0000000000005684
  0
VERTEX
  5
C7
330
C6
100
AcDbEntity
  8
5mm
100
AcDbVertex
100
AcDb2dVertex
 10
59.40831110254533
 20
837.487175430084
 30
-0.0000000000005684
  0
VERTEX
  5
C8
330
C6
100
AcDbEntity
  8
5mm
100
AcDbVertex
100
AcDb2dVertex
 10
59.40831110254533
 20
786.487175430084
 30
-0.0000000000005684
  0
VERTEX
  5
C9
330
C6
100
AcDbEntity
  8
5mm
100
AcDbVertex
100
AcDb2dVertex
 10
80.40831110254533
 20
786.487175430084
 30
-0.0000000000005684
  0
VERTEX
  5
CA
330
C6
100
AcDbEntity
  8
5mm
100
AcDbVertex
100
AcDb2dVertex
 10
80.40831110254533
 20
837.487175430084
 30
-0.0000000000005684
  0
VERTEX
  5
CB
330
C6
100
AcDbEntity
  8
5mm
100
AcDbVertex
100
AcDb2dVertex
 10
59.40831110254533
 20
837.487175430084
 30
-0.0000000000005684
  0
SEQEND
  5
CC
330
C6
100
AcDbEntity
  8
5mm
  0
POLYLINE
  5
CD
330
1F
100
AcDbEntity
  8
5mm
100
AcDb2dPolyline
 66
     1
 10
0.0
 20
0.0
 30
-0.0000000000005684
  0
VERTEX
  5
CE
330
CD
100
AcDbEntity
  8
5mm
100
AcDbVertex
100
AcDb2dVertex
 10
59.40831110254533
 20
973.2966170017786
 30
-0.0000000000005684
  0
VERTEX
  5
CF
330
CD
100
AcDbEntity
  8
5mm
100
AcDbVertex
100
AcDb2dVertex
 10
59.40831110254533
 20
922.2966170017786
 30
-0.0000000000005684
  0
VERTEX
  5
D0
330
CD
100
AcDbEntity
  8
5mm
100
AcDbVertex
100
AcDb2dVertex
 10
80.40831110254533
 20
922.2966170017786
 30
-0.0000000000005684
  0
VERTEX
  5
D1
330
CD
100
AcDbEntity
  8
5mm
100
AcDbVertex
100
AcDb2dVertex
 10
80.40831110254533
 20
973.2966170017786
 30
-0.0000000000005684
  0
VERTEX
  5
D2
330
CD
100
AcDbEntity
  8
5mm
100
AcDbVertex
100
AcDb2dVertex
 10
59.40831110254533
 20
973.2966170017786
 30
-0.0000000000005684
  0
SEQEND
  5
D3
330
CD
100
AcDbEntity
  8
5mm
  0
POLYLINE
  5
D4
330
1F
100
AcDbEntity
  8
4
100
AcDb2dPolyline
 66
     1
 10
0.0
 20
0.0
 30
0.0
  0
VERTEX
  5
D5
330
D4
100
AcDbEntity
  8
4
100
AcDbVertex
100
AcDb2dVertex
 10
1025.408311102545
 20
1137.796617001781
 30
0.0
  0
VERTEX
  5
D6
330
D4
100
AcDbEntity
  8
4
100
AcDbVertex
100
AcDb2dVertex
 10
59.40831110254521
 20
1137.796617001778
 30
0.0
  0
VERTEX
  5
D7
330
D4
100
AcDbEntity
  8
4
100
AcDbVertex
100
AcDb2dVertex
 10
59.40831110254533
 20
757.7966170017786
 30
0.0
  0
VERTEX
  5
D8
330
D4
100
AcDbEntity
  8
4
100
AcDbVertex
100
AcDb2dVertex
 10
375.408311102545
 20
1023.877123506783
 30
0.0
  0
VERTEX
  5
D9
330
D4
100
AcDbEntity
  8
4
100
AcDbVertex
100
AcDb2dVertex
 10
425.4083111025452
 20
1023.877123506784
 30
0.0
  0
VERTEX
  5
DA
330
D4
100
AcDbEntity
  8
4
100
AcDbVertex
100
AcDb2dVertex
 10
1025.408311102546
 20
737.7966170017806
 30
0.0
  0
VERTEX
  5
DB
330
D4
100
AcDbEntity
  8
4
100
AcDbVertex
100
AcDb2dVertex
 10
1025.408311102545
 20
1137.796617001781
 30
0.0
  0
SEQEND
  5
DC
330
D4
100
AcDbEntity
  8
4
  0
POLYLINE
  5
DD
330
1F
100
AcDbEntity
  8
4
100
AcDb2dPolyline
 66
     1
 10
0.0
 20
0.0
 30
0.0
  0
VERTEX
  5
DE
330
DD
100
AcDbEntity
  8
4
100
AcDbVertex
100
AcDb2dVertex
 10
57.26671910636492
 20
348.0268736968229
 30
0.0
  0
VERTEX
  5
DF
330
DD
100
AcDbEntity
  8
4
100
AcDbVertex
100
AcDb2dVertex
 10
1023.266719106365
 20
348.0268736968245
 30
0.0
  0
VERTEX
  5
E0
330
DD
100
AcDbEntity
  8
4
100
AcDbVertex
100
AcDb2dVertex
 10
1023.266719106365
 20
728.0268736968245
 30
0.0
  0
VERTEX
  5
E1
330
DD
100
AcDbEntity
  8
4
100
AcDbVertex
100
AcDb2dVertex
 10
707.2667191063654
 20
461.9463671918198
 30
0.0
  0
VERTEX
  5
E2
330
DD
100
AcDbEntity
  8
4
100
AcDbVertex
100
AcDb2dVertex
 10
657.2667191063651
 20
461.9463671918198
 30
0.0
  0
VERTEX
  5
E3
330
DD
100
AcDbEntity
  8
4
100
AcDbVertex
100
AcDb2dVertex
 10
57.26671910636446
 20
748.0268736968228
 30
0.0
  0
VERTEX
  5
E4
330
DD
100
AcDbEntity
  8
4
100
AcDbVertex
100
AcDb2dVertex
 10
57.26671910636492
 20
348.0268736968229
 30
0.0
  0
SEQEND
  5
E5
330
DD
100
AcDbEntity
  8
4
  0
POLYLINE
  5
E6
330
1F
100
AcDbEntity
  8
3
100
AcDb2dPolyline
 66
     1
 10
0.0
 20
0.0
 30
0.0
  0
VERTEX
  5
E7
330
E6
100
AcDbEntity
  8
3
100
AcDbVertex
100
AcDb2dVertex
 10
671.1415709487508
 20
187.0293857954622
 30
0.0
  0
VERTEX
  5
E8
330
E6
100
AcDbEntity
  8
3
100
AcDbVertex
100
AcDb2dVertex
 10
671.1415709487508
 20
203.0293857954622
 30
0.0
  0
SEQEND
  5
E9
330
E6
100
AcDbEntity
  8
3
  0
POLYLINE
  5
EA
330
1F
100
AcDbEntity
  8
3
100
AcDb2dPolyline
 66
     1
 10
0.0
 20
0.0
 30
0.0
  0
VERTEX
  5
EB
330
EA
100
AcDbEntity
  8
3
100
AcDbVertex
100
AcDb2dVertex
 10
661.1415709487508
 20
187.0293857954622
 30
0.0
  0
VERTEX
  5
EC
330
EA
100
AcDbEntity
  8
3
100
AcDbVertex
100
AcDb2dVertex
 10
671.1415709487508
 20
187.0293857954622
 30
0.0
  0
SEQEND
  5
ED
330
EA
100
AcDbEntity
  8
3
  0
POLYLINE
  5
EE
330
1F
100
AcDbEntity
  8
3
100
AcDb2dPolyline
 66
     1
 10
0.0
 20
0.0
 30
0.0
  0
VERTEX
  5
EF
330
EE
100
AcDbEntity
  8
3
100
AcDbVertex
100
AcDb2dVertex
 10
661.1415709487508
 20
203.0293857954622
 30
0.0
  0
VERTEX
  5
F0
330
EE
100
AcDbEntity
  8
3
100
AcDbVertex
100
AcDb2dVertex
 10
661.1415709487508
 20
187.0293857954622
 30
0.0
  0
SEQEND
  5
F1
330
EE
100
AcDbEntity
  8
3
  0
POLYLINE
  5
F2
330
1F
100
AcDbEntity
  8
3
100
AcDb2dPolyline
 66
     1
 10
0.0
 20
0.0
 30
0.0
  0
VERTEX
  5
F3
330
F2
100
AcDbEntity
  8
3
100
AcDbVertex
100
AcDb2dVertex
 10
641.1415709487508
 20
203.0293857954622
 30
0.0
  0
VERTEX
  5
F4
330
F2
100
AcDbEntity
  8
3
100
AcDbVertex
100
AcDb2dVertex
 10
661.1415709487508
 20
203.0293857954622
 30
0.0
  0
SEQEND
  5
F5
330
F2
100
AcDbEntity
  8
3
  0
POLYLINE
  5
F6
330
1F
100
AcDbEntity
  8
3
100
AcDb2dPolyline
 66
     1
 10
0.0
 20
0.0
 30
0.0
  0
VERTEX
  5
F7
330
F6
100
AcDbEntity
  8
3
100
AcDbVertex
100
AcDb2dVertex
 10
641.1415709487508
 20
187.0293857954622
 30
0.0
  0
VERTEX
  5
F8
330
F6
100
AcDbEntity
  8
3
100
AcDbVertex
100
AcDb2dVertex
 10
641.1415709487508
 20
203.0293857954622
 30
0.0
  0
SEQEND
  5
F9
330
F6
100
AcDbEntity
  8
3
  0
POLYLINE
  5
FA
330
1F
100
AcDbEntity
  8
3
100
AcDb2dPolyline
 66
     1
 10
0.0
 20
0.0
 30
0.0
  0
VERTEX
  5
FB
330
FA
100
AcDbEntity
  8
3
100
AcDbVertex
100
AcDb2dVertex
 10
631.1415709487508
 20
187.0293857954622
 30
0.0
  0
VERTEX
  5
FC
330
FA
100
AcDbEntity
  8
3
100
AcDbVertex
100
AcDb2dVertex
 10
641.1415709487508
 20
187.0293857954622
 30
0.0
  0
SEQEND
  5
FD
330
FA
100
AcDbEntity
  8
3
  0
POLYLINE
  5
FE
330
1F
100
AcDbEntity
  8
3
100
AcDb2dPolyline
 66
     1
 10
0.0
 20
0.0
 30
0.0
  0
VERTEX
  5
FF
330
FE
100
AcDbEntity
  8
3
100
AcDbVertex
100
AcDb2dVertex
 10
631.1415709487508
 20
203.0293857954622
 30
0.0
  0
VERTEX
  5
100
330
FE
100
AcDbEntity
  8
3
100
AcDbVertex
100
AcDb2dVertex
 10
631.1415709487508
 20
187.0293857954622
 30
0.0
  0
SEQEND
  5
101
330
FE
100
AcDbEntity
  8
3
  0
POLYLINE
  5
102
330
1F
100
AcDbEntity
  8
3
100
AcDb2dPolyline
 66
     1
 10
0.0
 20
0.0
 30
0.0
  0
VERTEX
  5
103
330
102
100
AcDbEntity
  8
3
100
AcDbVertex
100
AcDb2dVertex
 10
611.1415709487508
 20
203.0293857954622
 30
0.0
  0
VERTEX
  5
104
330
102
100
AcDbEntity
  8
3
100
AcDbVertex
100
AcDb2dVertex
 10
631.1415709487508
 20
203.0293857954622
 30
0.0
  0
SEQEND
  5
105
330
102
100
AcDbEntity
  8
3
  0
POLYLINE
  5
106
330
1F
100
AcDbEntity
  8
3
100
AcDb2dPolyline
 66
     1
 10
0.0
 20
0.0
 30
0.0
  0
VERTEX
  5
107
330
106
100
AcDbEntity
  8
3
100
AcDbVertex
100
AcDb2dVertex
 10
611.1415709487508
 20
187.0293857954622
 30
0.0
  0
VERTEX
  5
108
330
106
100
AcDbEntity
  8
3
100
AcDbVertex
100
AcDb2dVertex
 10
611.1415709487508
 20
203.0293857954622
 30
0.0
  0
SEQEND
  5
109
330
106
100
AcDbEntity
  8
3
  0
POLYLINE
  5
10A
330
1F
100
AcDbEntity
  8
3
100
AcDb2dPolyline
 66
     1
 10
0.0
 20
0.0
 30
0.0
  0
VERTEX
  5
10B
330
10A
100
AcDbEntity
  8
3
100
AcDbVertex
100
AcDb2dVertex
 10
601.1415709487508
 20
187.0293857954622
 30
0.0
  0
VERTEX
  5
10C
330
10A
100
AcDbEntity
  8
3
100
AcDbVertex
100
AcDb2dVertex
 10
611.1415709487508
 20
187.0293857954622
 30
0.0
  0
SEQEND
  5
10D
330
10A
100
AcDbEntity
  8
3
  0
POLYLINE
  5
10E
330
1F
100
AcDbEntity
  8
3
100
AcDb2dPolyline
 66
     1
 10
0.0
 20
0.0
 30
0.0
  0
VERTEX
  5
10F
330
10E
100
AcDbEntity
  8
3
100
AcDbVertex
100
AcDb2dVertex
 10
601.1415709487508
 20
203.0293857954622
 30
0.0
  0
VERTEX
  5
110
330
10E
100
AcDbEntity
  8
3
100
AcDbVertex
100
AcDb2dVertex
 10
601.1415709487508
 20
187.0293857954622
 30
0.0
  0
SEQEND
  5
111
330
10E
100
AcDbEntity
  8
3
  0
POLYLINE
  5
112
330
1F
100
AcDbEntity
  8
3
100
AcDb2dPolyline
 66
     1
 10
0.0
 20
0.0
 30
0.0
  0
VERTEX
  5
113
330
112
100
AcDbEntity
  8
3
100
AcDbVertex
100
AcDb2dVertex
 10
581.1415709487508
 20
203.0293857954622
 30
0.0
  0
VERTEX
  5
114
330
112
100
AcDbEntity
  8
3
100
AcDbVertex
100
AcDb2dVertex
 10
601.1415709487508
 20
203.0293857954622
 30
0.0
  0
SEQEND
  5
115
330
112
100
AcDbEntity
  8
3
  0
POLYLINE
  5
116
330
1F
100
AcDbEntity
  8
3
100
AcDb2dPolyline
 66
     1
 10
0.0
 20
0.0
 30
0.0
  0
VERTEX
  5
117
330
116
100
AcDbEntity
  8
3
100
AcDbVertex
100
AcDb2dVertex
 10
581.1415709487508
 20
187.0293857954622
 30
0.0
  0
VERTEX
  5
118
330
116
100
AcDbEntity
  8
3
100
AcDbVertex
100
AcDb2dVertex
 10
581.1415709487508
 20
203.0293857954622
 30
0.0
  0
SEQEND
  5
119
330
116
100
AcDbEntity
  8
3
  0
POLYLINE
  5
11A
330
1F
100
AcDbEntity
  8
3
100
AcDb2dPolyline
 66
     1
 10
0.0
 20
0.0
 30
0.0
  0
VERTEX
  5
11B
330
11A
100
AcDbEntity
  8
3
100
AcDbVertex
100
AcDb2dVertex
 10
571.1415709487508
 20
187.0293857954622
 30
0.0
  0
VERTEX
  5
11C
330
11A
100
AcDbEntity
  8
3
100
AcDbVertex
100
AcDb2dVertex
 10
581.1415709487508
 20
187.0293857954622
 30
0.0
  0
SEQEND
  5
11D
330
11A
100
AcDbEntity
  8
3
  0
POLYLINE
  5
11E
330
1F
100
AcDbEntity
  8
3
100
AcDb2dPolyline
 66
     1
 10
0.0
 20
0.0
 30
0.0
  0
VERTEX
  5
11F
330
11E
100
AcDbEntity
  8
3
100
AcDbVertex
100
AcDb2dVertex
 10
571.1415709487508
 20
203.0293857954622
 30
0.0
  0
VERTEX
  5
120
330
11E
100
AcDbEntity
  8
3
100
AcDbVertex
100
AcDb2dVertex
 10
571.1415709487508
 20
187.0293857954622
 30
0.0
  0
SEQEND
  5
121
330
11E
100
AcDbEntity
  8
3
  0
POLYLINE
  5
122
330
1F
100
AcDbEntity
  8
3
100
AcDb2dPolyline
 66
     1
 10
0.0
 20
0.0
 30
0.0
  0
VERTEX
  5
123
330
122
100
AcDbEntity
  8
3
100
AcDbVertex
100
AcDb2dVertex
 10
551.1415709487508
 20
203.0293857954621
 30
0.0
  0
VERTEX
  5
124
330
122
100
AcDbEntity
  8
3
100
AcDbVertex
100
AcDb2dVertex
 10
571.1415709487508
 20
203.0293857954622
 30
0.0
  0
SEQEND
  5
125
330
122
100
AcDbEntity
  8
3
  0
POLYLINE
  5
126
330
1F
100
AcDbEntity
  8
3
100
AcDb2dPolyline
 66
     1
 10
0.0
 20
0.0
 30
0.0
  0
VERTEX
  5
127
330
126
100
AcDbEntity
  8
3
100
AcDbVertex
100
AcDb2dVertex
 10
551.1415709487508
 20
187.0293857954622
 30
0.0
  0
VERTEX
  5
128
330
126
100
AcDbEntity
  8
3
100
AcDbVertex
100
AcDb2dVertex
 10
551.1415709487508
 20
203.0293857954621
 30
0.0
  0
SEQEND
  5
129
330
126
100
AcDbEntity
  8
3
  0
POLYLINE
  5
12A
330
1F
100
AcDbEntity
  8
3
100
AcDb2dPolyline
 66
     1
 10
0.0
 20
0.0
 30
0.0
  0
VERTEX
  5
12B
330
12A
100
AcDbEntity
  8
3
100
AcDbVertex
100
AcDb2dVertex
 10
541.1415709487508
 20
187.0293857954622
 30
0.0
  0
VERTEX
  5
12C
330
12A
100
AcDbEntity
  8
3
100
AcDbVertex
100
AcDb2dVertex
 10
551.1415709487508
 20
187.0293857954622
 30
0.0
  0
SEQEND
  5
12D
330
12A
100
AcDbEntity
  8
3
  0
POLYLINE
  5
12E
330
1F
100
AcDbEntity
  8
3
100
AcDb2dPolyline
 66
     1
 10
0.0
 20
0.0
 30
0.0
  0
VERTEX
  5
12F
330
12E
100
AcDbEntity
  8
3
100
AcDbVertex
100
AcDb2dVertex
 10
541.1415709487508
 20
203.0293857954621
 30
0.0
  0
VERTEX
  5
130
330
12E
100
AcDbEntity
  8
3
100
AcDbVertex
100
AcDb2dVertex
 10
541.1415709487508
 20
187.0293857954622
 30
0.0
  0
SEQEND
  5
131
330
12E
100
AcDbEntity
  8
3
  0
POLYLINE
  5
132
330
1F
100
AcDbEntity
  8
3
100
AcDb2dPolyline
 66
     1
 10
0.0
 20
0.0
 30
0.0
  0
VERTEX
  5
133
330
132
100
AcDbEntity
  8
3
100
AcDbVertex
100
AcDb2dVertex
 10
521.1415709487508
 20
203.0293857954621
 30
0.0
  0
VERTEX
  5
134
330
132
100
AcDbEntity
  8
3
100
AcDbVertex
100
AcDb2dVertex
 10
541.1415709487508
 20
203.0293857954621
 30
0.0
  0
SEQEND
  5
135
330
132
100
AcDbEntity
  8
3
  0
POLYLINE
  5
136
330
1F
100
AcDbEntity
  8
3
100
AcDb2dPolyline
 66
     1
 10
0.0
 20
0.0
 30
0.0
  0
VERTEX
  5
137
330
136
100
AcDbEntity
  8
3
100
AcDbVertex
100
AcDb2dVertex
 10
521.1415709487512
 20
167.0293857954621
 30
0.0
  0
VERTEX
  5
138
330
136
100
AcDbEntity
  8
3
100
AcDbVertex
100
AcDb2dVertex
 10
521.1415709487508
 20
203.0293857954621
 30
0.0
  0
SEQEND
  5
139
330
136
100
AcDbEntity
  8
3
  0
POLYLINE
  5
13A
330
1F
100
AcDbEntity
  8
3
100
AcDb2dPolyline
 66
     1
 10
0.0
 20
0.0
 30
0.0
  0
VERTEX
  5
13B
330
13A
100
AcDbEntity
  8
3
100
AcDbVertex
100
AcDb2dVertex
 10
691.1415709487508
 20
167.0293857954622
 30
0.0
  0
VERTEX
  5
13C
330
13A
100
AcDbEntity
  8
3
100
AcDbVertex
100
AcDb2dVertex
 10
521.1415709487512
 20
167.0293857954621
 30
0.0
  0
SEQEND
  5
13D
330
13A
100
AcDbEntity
  8
3
  0
POLYLINE
  5
13E
330
1F
100
AcDbEntity
  8
3
100
AcDb2dPolyline
 66
     1
 10
0.0
 20
0.0
 30
0.0
  0
VERTEX
  5
13F
330
13E
100
AcDbEntity
  8
3
100
AcDbVertex
100
AcDb2dVertex
 10
691.1415709487508
 20
203.0293857954622
 30
0.0
  0
VERTEX
  5
140
330
13E
100
AcDbEntity
  8
3
100
AcDbVertex
100
AcDb2dVertex
 10
691.1415709487508
 20
167.0293857954622
 30
0.0
  0
SEQEND
  5
141
330
13E
100
AcDbEntity
  8
3
  0
POLYLINE
  5
142
330
1F
100
AcDbEntity
  8
3
100
AcDb2dPolyline
 66
     1
 10
0.0
 20
0.0
 30
0.0
  0
VERTEX
  5
143
330
142
100
AcDbEntity
  8
3
100
AcDbVertex
100
AcDb2dVertex
 10
671.1415709487508
 20
203.0293857954622
 30
0.0
  0
VERTEX
  5
144
330
142
100
AcDbEntity
  8
3
100
AcDbVertex
100
AcDb2dVertex
 10
691.1415709487508
 20
203.0293857954622
 30
0.0
  0
SEQEND
  5
145
330
142
100
AcDbEntity
  8
3
  0
POLYLINE
  5
146
330
1F
100
AcDbEntity
  8
3
100
AcDb2dPolyline
 66
     1
 10
0.0
 20
0.0
 30
0.0
  0
VERTEX
  5
147
330
146
100
AcDbEntity
  8
3
100
AcDbVertex
100
AcDb2dVertex
 10
172.8623372605778
 20
187.0293857954622
 30
0.0
  0
VERTEX
  5
148
330
146
100
AcDbEntity
  8
3
100
AcDbVertex
100
AcDb2dVertex
 10
172.8623372605778
 20
203.0293857954622
 30
0.0
  0
SEQEND
  5
149
330
146
100
AcDbEntity
  8
3
  0
POLYLINE
  5
14A
330
1F
100
AcDbEntity
  8
3
100
AcDb2dPolyline
 66
     1
 10
0.0
 20
0.0
 30
0.0
  0
VERTEX
  5
14B
330
14A
100
AcDbEntity
  8
3
100
AcDbVertex
100
AcDb2dVertex
 10
182.8623372605778
 20
187.0293857954622
 30
0.0
  0
VERTEX
  5
14C
330
14A
100
AcDbEntity
  8
3
100
AcDbVertex
100
AcDb2dVertex
 10
172.8623372605778
 20
187.0293857954622
 30
0.0
  0
SEQEND
  5
14D
330
14A
100
AcDbEntity
  8
3
  0
POLYLINE
  5
14E
330
1F
100
AcDbEntity
  8
3
100
AcDb2dPolyline
 66
     1
 10
0.0
 20
0.0
 30
0.0
  0
VERTEX
  5
14F
330
14E
100
AcDbEntity
  8
3
100
AcDbVertex
100
AcDb2dVertex
 10
182.8623372605778
 20
203.0293857954622
 30
0.0
  0
VERTEX
  5
150
330
14E
100
AcDbEntity
  8
3
100
AcDbVertex
100
AcDb2dVertex
 10
182.8623372605778
 20
187.0293857954622
 30
0.0
  0
SEQEND
  5
151
330
14E
100
AcDbEntity
  8
3
  0
POLYLINE
  5
152
330
1F
100
AcDbEntity
  8
3
100
AcDb2dPolyline
 66
     1
 10
0.0
 20
0.0
 30
0.0
  0
VERTEX
  5
153
330
152
100
AcDbEntity
  8
3
100
AcDbVertex
100
AcDb2dVertex
 10
202.8623372605778
 20
203.0293857954622
 30
0.0
  0
VERTEX
  5
154
330
152
100
AcDbEntity
  8
3
100
AcDbVertex
100
AcDb2dVertex
 10
182.8623372605778
 20
203.0293857954622
 30
0.0
  0
SEQEND
  5
155
330
152
100
AcDbEntity
  8
3
  0
POLYLINE
  5
156
330
1F
100
AcDbEntity
  8
3
100
AcDb2dPolyline
 66
     1
 10
0.0
 20
0.0
 30
0.0
  0
VERTEX
  5
157
330
156
100
AcDbEntity
  8
3
100
AcDbVertex
100
AcDb2dVertex
 10
202.8623372605778
 20
187.0293857954622
 30
0.0
  0
VERTEX
  5
158
330
156
100
AcDbEntity
  8
3
100
AcDbVertex
100
AcDb2dVertex
 10
202.8623372605778
 20
203.0293857954622
 30
0.0
  0
SEQEND
  5
159
330
156
100
AcDbEntity
  8
3
  0
POLYLINE
  5
15A
330
1F
100
AcDbEntity
  8
3
100
AcDb2dPolyline
 66
     1
 10
0.0
 20
0.0
 30
0.0
  0
VERTEX
  5
15B
330
15A
100
AcDbEntity
  8
3
100
AcDbVertex
100
AcDb2dVertex
 10
212.8623372605778
 20
187.0293857954622
 30
0.0
  0
VERTEX
  5
15C
330
15A
100
AcDbEntity
  8
3
100
AcDbVertex
100
AcDb2dVertex
 10
202.8623372605778
 20
187.0293857954622
 30
0.0
  0
SEQEND
  5
15D
330
15A
100
AcDbEntity
  8
3
  0
POLYLINE
  5
15E
330
1F
100
AcDbEntity
  8
3
100
AcDb2dPolyline
 66
     1
 10
0.0
 20
0.0
 30
0.0
  0
VERTEX
  5
15F
330
15E
100
AcDbEntity
  8
3
100
AcDbVertex
100
AcDb2dVertex
 10
212.8623372605778
 20
203.0293857954622
 30
0.0
  0
VERTEX
  5
160
330
15E
100
AcDbEntity
  8
3
100
AcDbVertex
100
AcDb2dVertex
 10
212.8623372605778
 20
187.0293857954622
 30
0.0
  0
SEQEND
  5
161
330
15E
100
AcDbEntity
  8
3
  0
POLYLINE
  5
162
330
1F
100
AcDbEntity
  8
3
100
AcDb2dPolyline
 66
     1
 10
0.0
 20
0.0
 30
0.0
  0
VERTEX
  5
163
330
162
100
AcDbEntity
  8
3
100
AcDbVertex
100
AcDb2dVertex
 10
232.8623372605778
 20
203.0293857954622
 30
0.0
  0
VERTEX
  5
164
330
162
100
AcDbEntity
  8
3
100
AcDbVertex
100
AcDb2dVertex
 10
212.8623372605778
 20
203.0293857954622
 30
0.0
  0
SEQEND
  5
165
330
162
100
AcDbEntity
  8
3
  0
POLYLINE
  5
166
330
1F
100
AcDbEntity
  8
3
100
AcDb2dPolyline
 66
     1
 10
0.0
 20
0.0
 30
0.0
  0
VERTEX
  5
167
330
166
100
AcDbEntity
  8
3
100
AcDbVertex
100
AcDb2dVertex
 10
232.8623372605778
 20
187.0293857954622
 30
0.0
  0
VERTEX
  5
168
330
166
100
AcDbEntity
  8
3
100
AcDbVertex
100
AcDb2dVertex
 10
232.8623372605778
 20
203.0293857954622
 30
0.0
  0
SEQEND
  5
169
330
166
100
AcDbEntity
  8
3
  0
POLYLINE
  5
16A
330
1F
100
AcDbEntity
  8
3
100
AcDb2dPolyline
 66
     1
 10
0.0
 20
0.0
 30
0.0
  0
VERTEX
  5
16B
330
16A
100
AcDbEntity
  8
3
100
AcDbVertex
100
AcDb2dVertex
 10
242.8623372605778
 20
187.0293857954622
 30
0.0
  0
VERTEX
  5
16C
330
16A
100
AcDbEntity
  8
3
100
AcDbVertex
100
AcDb2dVertex
 10
232.8623372605778
 20
187.0293857954622
 30
0.0
  0
SEQEND
  5
16D
330
16A
100
AcDbEntity
  8
3
  0
POLYLINE
  5
16E
330
1F
100
AcDbEntity
  8
3
100
AcDb2dPolyline
 66
     1
 10
0.0
 20
0.0
 30
0.0
  0
VERTEX
  5
16F
330
16E
100
AcDbEntity
  8
3
100
AcDbVertex
100
AcDb2dVertex
 10
242.8623372605778
 20
203.0293857954622
 30
0.0
  0
VERTEX
  5
170
330
16E
100
AcDbEntity
  8
3
100
AcDbVertex
100
AcDb2dVertex
 10
242.8623372605778
 20
187.0293857954622
 30
0.0
  0
SEQEND
  5
171
330
16E
100
AcDbEntity
  8
3
  0
POLYLINE
  5
172
330
1F
100
AcDbEntity
  8
3
100
AcDb2dPolyline
 66
     1
 10
0.0
 20
0.0
 30
0.0
  0
VERTEX
  5
173
330
172
100
AcDbEntity
  8
3
100
AcDbVertex
100
AcDb2dVertex
 10
262.8623372605778
 20
203.0293857954622
 30
0.0
  0
VERTEX
  5
174
330
172
100
AcDbEntity
  8
3
100
AcDbVertex
100
AcDb2dVertex
 10
242.8623372605778
 20
203.0293857954622
 30
0.0
  0
SEQEND
  5
175
330
172
100
AcDbEntity
  8
3
  0
POLYLINE
  5
176
330
1F
100
AcDbEntity
  8
3
100
AcDb2dPolyline
 66
     1
 10
0.0
 20
0.0
 30
0.0
  0
VERTEX
  5
177
330
176
100
AcDbEntity
  8
3
100
AcDbVertex
100
AcDb2dVertex
 10
262.8623372605778
 20
187.0293857954622
 30
0.0
  0
VERTEX
  5
178
330
176
100
AcDbEntity
  8
3
100
AcDbVertex
100
AcDb2dVertex
 10
262.8623372605778
 20
203.0293857954622
 30
0.0
  0
SEQEND
  5
179
330
176
100
AcDbEntity
  8
3
  0
POLYLINE
  5
17A
330
1F
100
AcDbEntity
  8
3
100
AcDb2dPolyline
 66
     1
 10
0.0
 20
0.0
 30
0.0
  0
VERTEX
  5
17B
330
17A
100
AcDbEntity
  8
3
100
AcDbVertex
100
AcDb2dVertex
 10
272.8623372605778
 20
187.0293857954622
 30
0.0
  0
VERTEX
  5
17C
330
17A
100
AcDbEntity
  8
3
100
AcDbVertex
100
AcDb2dVertex
 10
262.8623372605778
 20
187.0293857954622
 30
0.0
  0
SEQEND
  5
17D
330
17A
100
AcDbEntity
  8
3
  0
POLYLINE
  5
17E
330
1F
100
AcDbEntity
  8
3
100
AcDb2dPolyline
 66
     1
 10
0.0
 20
0.0
 30
0.0
  0
VERTEX
  5
17F
330
17E
100
AcDbEntity
  8
3
100
AcDbVertex
100
AcDb2dVertex
 10
272.8623372605778
 20
203.0293857954622
 30
0.0
  0
VERTEX
  5
180
330
17E
100
AcDbEntity
  8
3
100
AcDbVertex
100
AcDb2dVertex
 10
272.8623372605778
 20
187.0293857954622
 30
0.0
  0
SEQEND
  5
181
330
17E
100
AcDbEntity
  8
3
  0
POLYLINE
  5
182
330
1F
100
AcDbEntity
  8
3
100
AcDb2dPolyline
 66
     1
 10
0.0
 20
0.0
 30
0.0
  0
VERTEX
  5
183
330
182
100
AcDbEntity
  8
3
100
AcDbVertex
100
AcDb2dVertex
 10
292.8623372605778
 20
203.0293857954621
 30
0.0
  0
VERTEX
  5
184
330
182
100
AcDbEntity
  8
3
100
AcDbVertex
100
AcDb2dVertex
 10
272.8623372605778
 20
203.0293857954622
 30
0.0
  0
SEQEND
  5
185
330
182
100
AcDbEntity
  8
3
  0
POLYLINE
  5
186
330
1F
100
AcDbEntity
  8
3
100
AcDb2dPolyline
 66
     1
 10
0.0
 20
0.0
 30
0.0
  0
VERTEX
  5
187
330
186
100
AcDbEntity
  8
3
100
AcDbVertex
100
AcDb2dVertex
 10
292.8623372605778
 20
187.0293857954622
 30
0.0
  0
VERTEX
  5
188
330
186
100
AcDbEntity
  8
3
100
AcDbVertex
100
AcDb2dVertex
 10
292.8623372605778
 20
203.0293857954621
 30
0.0
  0
SEQEND
  5
189
330
186
100
AcDbEntity
  8
3
  0
POLYLINE
  5
18A
330
1F
100
AcDbEntity
  8
3
100
AcDb2dPolyline
 66
     1
 10
0.0
 20
0.0
 30
0.0
  0
VERTEX
  5
18B
330
18A
100
AcDbEntity
  8
3
100
AcDbVertex
100
AcDb2dVertex
 10
302.8623372605778
 20
187.0293857954622
 30
0.0
  0
VERTEX
  5
18C
330
18A
100
AcDbEntity
  8
3
100
AcDbVertex
100
AcDb2dVertex
 10
292.8623372605778
 20
187.0293857954622
 30
0.0
  0
SEQEND
  5
18D
330
18A
100
AcDbEntity
  8
3
  0
POLYLINE
  5
18E
330
1F
100
AcDbEntity
  8
3
100
AcDb2dPolyline
 66
     1
 10
0.0
 20
0.0
 30
0.0
  0
VERTEX
  5
18F
330
18E
100
AcDbEntity
  8
3
100
AcDbVertex
100
AcDb2dVertex
 10
302.8623372605778
 20
203.0293857954621
 30
0.0
  0
VERTEX
  5
190
330
18E
100
AcDbEntity
  8
3
100
AcDbVertex
100
AcDb2dVertex
 10
302.8623372605778
 20
187.0293857954622
 30
0.0
  0
SEQEND
  5
191
330
18E
100
AcDbEntity
  8
3
  0
POLYLINE
  5
192
330
1F
100
AcDbEntity
  8
3
100
AcDb2dPolyline
 66
     1
 10
0.0
 20
0.0
 30
0.0
  0
VERTEX
  5
193
330
192
100
AcDbEntity
  8
3
100
AcDbVertex
100
AcDb2dVertex
 10
322.8623372605778
 20
203.0293857954621
 30
0.0
  0
VERTEX
  5
194
330
192
100
AcDbEntity
  8
3
100
AcDbVertex
100
AcDb2dVertex
 10
302.8623372605778
 20
203.0293857954621
 30
0.0
  0
SEQEND
  5
195
330
192
100
AcDbEntity
  8
3
  0
POLYLINE
  5
196
330
1F
100
AcDbEntity
  8
3
100
AcDb2dPolyline
 66
     1
 10
0.0
 20
0.0
 30
0.0
  0
VERTEX
  5
197
330
196
100
AcDbEntity
  8
3
100
AcDbVertex
100
AcDb2dVertex
 10
322.8623372605775
 20
167.0293857954621
 30
0.0
  0
VERTEX
  5
198
330
196
100
AcDbEntity
  8
3
100
AcDbVertex
100
AcDb2dVertex
 10
322.8623372605778
 20
203.0293857954621
 30
0.0
  0
SEQEND
  5
199
330
196
100
AcDbEntity
  8
3
  0
POLYLINE
  5
19A
330
1F
100
AcDbEntity
  8
3
100
AcDb2dPolyline
 66
     1
 10
0.0
 20
0.0
 30
0.0
  0
VERTEX
  5
19B
330
19A
100
AcDbEntity
  8
3
100
AcDbVertex
100
AcDb2dVertex
 10
152.8623372605778
 20
167.0293857954622
 30
0.0
  0
VERTEX
  5
19C
330
19A
100
AcDbEntity
  8
3
100
AcDbVertex
100
AcDb2dVertex
 10
322.8623372605775
 20
167.0293857954621
 30
0.0
  0
SEQEND
  5
19D
330
19A
100
AcDbEntity
  8
3
  0
POLYLINE
  5
19E
330
1F
100
AcDbEntity
  8
3
100
AcDb2dPolyline
 66
     1
 10
0.0
 20
0.0
 30
0.0
  0
VERTEX
  5
19F
330
19E
100
AcDbEntity
  8
3
100
AcDbVertex
100
AcDb2dVertex
 10
152.8623372605778
 20
203.0293857954622
 30
0.0
  0
VERTEX
  5
1A0
330
19E
100
AcDbEntity
  8
3
100
AcDbVertex
100
AcDb2dVertex
 10
152.8623372605778
 20
167.0293857954622
 30
0.0
  0
SEQEND
  5
1A1
330
19E
100
AcDbEntity
  8
3
  0
POLYLINE
  5
1A2
330
1F
100
AcDbEntity
  8
3
100
AcDb2dPolyline
 66
     1
 10
0.0
 20
0.0
 30
0.0
  0
VERTEX
  5
1A3
330
1A2
100
AcDbEntity
  8
3
100
AcDbVertex
100
AcDb2dVertex
 10
172.8623372605778
 20
203.0293857954622
 30
0.0
  0
VERTEX
  5
1A4
330
1A2
100
AcDbEntity
  8
3
100
AcDbVertex
100
AcDb2dVertex
 10
152.8623372605778
 20
203.0293857954622
 30
0.0
  0
SEQEND
  5
1A5
330
1A2
100
AcDbEntity
  8
3
  0
POLYLINE
  5
1A6
330
1F
100
AcDbEntity
  8
3
100
AcDb2dPolyline
 66
     1
 10
0.0
 20
0.0
 30
0.0
  0
VERTEX
  5
1A7
330
1A6
100
AcDbEntity
  8
3
100
AcDbVertex
100
AcDb2dVertex
 10
671.1415709487508
 20
281.2019612478519
 30
0.0
  0
VERTEX
  5
1A8
330
1A6
100
AcDbEntity
  8
3
100
AcDbVertex
100
AcDb2dVertex
 10
671.1415709487508
 20
297.2019612478519
 30
0.0
  0
SEQEND
  5
1A9
330
1A6
100
AcDbEntity
  8
3
  0
POLYLINE
  5
1AA
330
1F
100
AcDbEntity
  8
3
100
AcDb2dPolyline
 66
     1
 10
0.0
 20
0.0
 30
0.0
  0
VERTEX
  5
1AB
330
1AA
100
AcDbEntity
  8
3
100
AcDbVertex
100
AcDb2dVertex
 10
661.1415709487508
 20
281.2019612478519
 30
0.0
  0
VERTEX
  5
1AC
330
1AA
100
AcDbEntity
  8
3
100
AcDbVertex
100
AcDb2dVertex
 10
671.1415709487508
 20
281.2019612478519
 30
0.0
  0
SEQEND
  5
1AD
330
1AA
100
AcDbEntity
  8
3
  0
POLYLINE
  5
1AE
330
1F
100
AcDbEntity
  8
3
100
AcDb2dPolyline
 66
     1
 10
0.0
 20
0.0
 30
0.0
  0
VERTEX
  5
1AF
330
1AE
100
AcDbEntity
  8
3
100
AcDbVertex
100
AcDb2dVertex
 10
661.1415709487508
 20
297.2019612478519
 30
0.0
  0
VERTEX
  5
1B0
330
1AE
100
AcDbEntity
  8
3
100
AcDbVertex
100
AcDb2dVertex
 10
661.1415709487508
 20
281.2019612478519
 30
0.0
  0
SEQEND
  5
1B1
330
1AE
100
AcDbEntity
  8
3
  0
POLYLINE
  5
1B2
330
1F
100
AcDbEntity
  8
3
100
AcDb2dPolyline
 66
     1
 10
0.0
 20
0.0
 30
0.0
  0
VERTEX
  5
1B3
330
1B2
100
AcDbEntity
  8
3
100
AcDbVertex
100
AcDb2dVertex
 10
641.1415709487508
 20
297.2019612478519
 30
0.0
  0
VERTEX
  5
1B4
330
1B2
100
AcDbEntity
  8
3
100
AcDbVertex
100
AcDb2dVertex
 10
661.1415709487508
 20
297.2019612478519
 30
0.0
  0
SEQEND
  5
1B5
330
1B2
100
AcDbEntity
  8
3
  0
POLYLINE
  5
1B6
330
1F
100
AcDbEntity
  8
3
100
AcDb2dPolyline
 66
     1
 10
0.0
 20
0.0
 30
0.0
  0
VERTEX
  5
1B7
330
1B6
100
AcDbEntity
  8
3
100
AcDbVertex
100
AcDb2dVertex
 10
641.1415709487508
 20
281.2019612478519
 30
0.0
  0
VERTEX
  5
1B8
330
1B6
100
AcDbEntity
  8
3
100
AcDbVertex
100
AcDb2dVertex
 10
641.1415709487508
 20
297.2019612478519
 30
0.0
  0
SEQEND
  5
1B9
330
1B6
100
AcDbEntity
  8
3
  0
POLYLINE
  5
1BA
330
1F
100
AcDbEntity
  8
3
100
AcDb2dPolyline
 66
     1
 10
0.0
 20
0.0
 30
0.0
  0
VERTEX
  5
1BB
330
1BA
100
AcDbEntity
  8
3
100
AcDbVertex
100
AcDb2dVertex
 10
631.1415709487508
 20
281.2019612478519
 30
0.0
  0
VERTEX
  5
1BC
330
1BA
100
AcDbEntity
  8
3
100
AcDbVertex
100
AcDb2dVertex
 10
641.1415709487508
 20
281.2019612478519
 30
0.0
  0
SEQEND
  5
1BD
330
1BA
100
AcDbEntity
  8
3
  0
POLYLINE
  5
1BE
330
1F
100
AcDbEntity
  8
3
100
AcDb2dPolyline
 66
     1
 10
0.0
 20
0.0
 30
0.0
  0
VERTEX
  5
1BF
330
1BE
100
AcDbEntity
  8
3
100
AcDbVertex
100
AcDb2dVertex
 10
631.1415709487508
 20
297.2019612478519
 30
0.0
  0
VERTEX
  5
1C0
330
1BE
100
AcDbEntity
  8
3
100
AcDbVertex
100
AcDb2dVertex
 10
631.1415709487508
 20
281.2019612478519
 30
0.0
  0
SEQEND
  5
1C1
330
1BE
100
AcDbEntity
  8
3
  0
POLYLINE
  5
1C2
330
1F
100
AcDbEntity
  8
3
100
AcDb2dPolyline
 66
     1
 10
0.0
 20
0.0
 30
0.0
  0
VERTEX
  5
1C3
330
1C2
100
AcDbEntity
  8
3
100
AcDbVertex
100
AcDb2dVertex
 10
611.1415709487508
 20
297.2019612478519
 30
0.0
  0
VERTEX
  5
1C4
330
1C2
100
AcDbEntity
  8
3
100
AcDbVertex
100
AcDb2dVertex
 10
631.1415709487508
 20
297.2019612478519
 30
0.0
  0
SEQEND
  5
1C5
330
1C2
100
AcDbEntity
  8
3
  0
POLYLINE
  5
1C6
330
1F
100
AcDbEntity
  8
3
100
AcDb2dPolyline
 66
     1
 10
0.0
 20
0.0
 30
0.0
  0
VERTEX
  5
1C7
330
1C6
100
AcDbEntity
  8
3
100
AcDbVertex
100
AcDb2dVertex
 10
611.1415709487508
 20
281.2019612478519
 30
0.0
  0
VERTEX
  5
1C8
330
1C6
100
AcDbEntity
  8
3
100
AcDbVertex
100
AcDb2dVertex
 10
611.1415709487508
 20
297.2019612478519
 30
0.0
  0
SEQEND
  5
1C9
330
1C6
100
AcDbEntity
  8
3
  0
POLYLINE
  5
1CA
330
1F
100
AcDbEntity
  8
3
100
AcDb2dPolyline
 66
     1
 10
0.0
 20
0.0
 30
0.0
  0
VERTEX
  5
1CB
330
1CA
100
AcDbEntity
  8
3
100
AcDbVertex
100
AcDb2dVertex
 10
601.1415709487508
 20
281.2019612478519
 30
0.0
  0
VERTEX
  5
1CC
330
1CA
100
AcDbEntity
  8
3
100
AcDbVertex
100
AcDb2dVertex
 10
611.1415709487508
 20
281.2019612478519
 30
0.0
  0
SEQEND
  5
1CD
330
1CA
100
AcDbEntity
  8
3
  0
POLYLINE
  5
1CE
330
1F
100
AcDbEntity
  8
3
100
AcDb2dPolyline
 66
     1
 10
0.0
 20
0.0
 30
0.0
  0
VERTEX
  5
1CF
330
1CE
100
AcDbEntity
  8
3
100
AcDbVertex
100
AcDb2dVertex
 10
601.1415709487508
 20
297.2019612478519
 30
0.0
  0
VERTEX
  5
1D0
330
1CE
100
AcDbEntity
  8
3
100
AcDbVertex
100
AcDb2dVertex
 10
601.1415709487508
 20
281.2019612478519
 30
0.0
  0
SEQEND
  5
1D1
330
1CE
100
AcDbEntity
  8
3
  0
POLYLINE
  5
1D2
330
1F
100
AcDbEntity
  8
3
100
AcDb2dPolyline
 66
     1
 10
0.0
 20
0.0
 30
0.0
  0
VERTEX
  5
1D3
330
1D2
100
AcDbEntity
  8
3
100
AcDbVertex
100
AcDb2dVertex
 10
581.1415709487508
 20
297.2019612478519
 30
0.0
  0
VERTEX
  5
1D4
330
1D2
100
AcDbEntity
  8
3
100
AcDbVertex
100
AcDb2dVertex
 10
601.1415709487508
 20
297.2019612478519
 30
0.0
  0
SEQEND
  5
1D5
330
1D2
100
AcDbEntity
  8
3
  0
POLYLINE
  5
1D6
330
1F
100
AcDbEntity
  8
3
100
AcDb2dPolyline
 66
     1
 10
0.0
 20
0.0
 30
0.0
  0
VERTEX
  5
1D7
330
1D6
100
AcDbEntity
  8
3
100
AcDbVertex
100
AcDb2dVertex
 10
581.1415709487508
 20
281.2019612478519
 30
0.0
  0
VERTEX
  5
1D8
330
1D6
100
AcDbEntity
  8
3
100
AcDbVertex
100
AcDb2dVertex
 10
581.1415709487508
 20
297.2019612478519
 30
0.0
  0
SEQEND
  5
1D9
330
1D6
100
AcDbEntity
  8
3
  0
POLYLINE
  5
1DA
330
1F
100
AcDbEntity
  8
3
100
AcDb2dPolyline
 66
     1
 10
0.0
 20
0.0
 30
0.0
  0
VERTEX
  5
1DB
330
1DA
100
AcDbEntity
  8
3
100
AcDbVertex
100
AcDb2dVertex
 10
571.1415709487508
 20
281.2019612478519
 30
0.0
  0
VERTEX
  5
1DC
330
1DA
100
AcDbEntity
  8
3
100
AcDbVertex
100
AcDb2dVertex
 10
581.1415709487508
 20
281.2019612478519
 30
0.0
  0
SEQEND
  5
1DD
330
1DA
100
AcDbEntity
  8
3
  0
POLYLINE
  5
1DE
330
1F
100
AcDbEntity
  8
3
100
AcDb2dPolyline
 66
     1
 10
0.0
 20
0.0
 30
0.0
  0
VERTEX
  5
1DF
330
1DE
100
AcDbEntity
  8
3
100
AcDbVertex
100
AcDb2dVertex
 10
571.1415709487508
 20
297.2019612478519
 30
0.0
  0
VERTEX
  5
1E0
330
1DE
100
AcDbEntity
  8
3
100
AcDbVertex
100
AcDb2dVertex
 10
571.1415709487508
 20
281.2019612478519
 30
0.0
  0
SEQEND
  5
1E1
330
1DE
100
AcDbEntity
  8
3
  0
POLYLINE
  5
1E2
330
1F
100
AcDbEntity
  8
3
100
AcDb2dPolyline
 66
     1
 10
0.0
 20
0.0
 30
0.0
  0
VERTEX
  5
1E3
330
1E2
100
AcDbEntity
  8
3
100
AcDbVertex
100
AcDb2dVertex
 10
551.1415709487508
 20
297.2019612478518
 30
0.0
  0
VERTEX
  5
1E4
330
1E2
100
AcDbEntity
  8
3
100
AcDbVertex
100
AcDb2dVertex
 10
571.1415709487508
 20
297.2019612478519
 30
0.0
  0
SEQEND
  5
1E5
330
1E2
100
AcDbEntity
  8
3
  0
POLYLINE
  5
1E6
330
1F
100
AcDbEntity
  8
3
100
AcDb2dPolyline
 66
     1
 10
0.0
 20
0.0
 30
0.0
  0
VERTEX
  5
1E7
330
1E6
100
AcDbEntity
  8
3
100
AcDbVertex
100
AcDb2dVertex
 10
551.1415709487508
 20
281.2019612478519
 30
0.0
  0
VERTEX
  5
1E8
330
1E6
100
AcDbEntity
  8
3
100
AcDbVertex
100
AcDb2dVertex
 10
551.1415709487508
 20
297.2019612478518
 30
0.0
  0
SEQEND
  5
1E9
330
1E6
100
AcDbEntity
  8
3
  0
POLYLINE
  5
1EA
330
1F
100
AcDbEntity
  8
3
100
AcDb2dPolyline
 66
     1
 10
0.0
 20
0.0
 30
0.0
  0
VERTEX
  5
1EB
330
1EA
100
AcDbEntity
  8
3
100
AcDbVertex
100
AcDb2dVertex
 10
541.1415709487508
 20
281.2019612478519
 30
0.0
  0
VERTEX
  5
1EC
330
1EA
100
AcDbEntity
  8
3
100
AcDbVertex
100
AcDb2dVertex
 10
551.1415709487508
 20
281.2019612478519
 30
0.0
  0
SEQEND
  5
1ED
330
1EA
100
AcDbEntity
  8
3
  0
POLYLINE
  5
1EE
330
1F
100
AcDbEntity
  8
3
100
AcDb2dPolyline
 66
     1
 10
0.0
 20
0.0
 30
0.0
  0
VERTEX
  5
1EF
330
1EE
100
AcDbEntity
  8
3
100
AcDbVertex
100
AcDb2dVertex
 10
541.1415709487508
 20
297.2019612478518
 30
0.0
  0
VERTEX
  5
1F0
330
1EE
100
AcDbEntity
  8
3
100
AcDbVertex
100
AcDb2dVertex
 10
541.1415709487508
 20
281.2019612478519
 30
0.0
  0
SEQEND
  5
1F1
330
1EE
100
AcDbEntity
  8
3
  0
POLYLINE
  5
1F2
330
1F
100
AcDbEntity
  8
3
100
AcDb2dPolyline
 66
     1
 10
0.0
 20
0.0
 30
0.0
  0
VERTEX
  5
1F3
330
1F2
100
AcDbEntity
  8
3
100
AcDbVertex
100
AcDb2dVertex
 10
521.1415709487508
 20
297.2019612478518
 30
0.0
  0
VERTEX
  5
1F4
330
1F2
100
AcDbEntity
  8
3
100
AcDbVertex
100
AcDb2dVertex
 10
541.1415709487508
 20
297.2019612478518
 30
0.0
  0
SEQEND
  5
1F5
330
1F2
100
AcDbEntity
  8
3
  0
POLYLINE
  5
1F6
330
1F
100
AcDbEntity
  8
3
100
AcDb2dPolyline
 66
     1
 10
0.0
 20
0.0
 30
0.0
  0
VERTEX
  5
1F7
330
1F6
100
AcDbEntity
  8
3
100
AcDbVertex
100
AcDb2dVertex
 10
521.1415709487512
 20
261.2019612478518
 30
0.0
  0
VERTEX
  5
1F8
330
1F6
100
AcDbEntity
  8
3
100
AcDbVertex
100
AcDb2dVertex
 10
521.1415709487508
 20
297.2019612478518
 30
0.0
  0
SEQEND
  5
1F9
330
1F6
100
AcDbEntity
  8
3
  0
POLYLINE
  5
1FA
330
1F
100
AcDbEntity
  8
3
100
AcDb2dPolyline
 66
     1
 10
0.0
 20
0.0
 30
0.0
  0
VERTEX
  5
1FB
330
1FA
100
AcDbEntity
  8
3
100
AcDbVertex
100
AcDb2dVertex
 10
691.1415709487508
 20
261.2019612478519
 30
0.0
  0
VERTEX
  5
1FC
330
1FA
100
AcDbEntity
  8
3
100
AcDbVertex
100
AcDb2dVertex
 10
521.1415709487512
 20
261.2019612478518
 30
0.0
  0
SEQEND
  5
1FD
330
1FA
100
AcDbEntity
  8
3
  0
POLYLINE
  5
1FE
330
1F
100
AcDbEntity
  8
3
100
AcDb2dPolyline
 66
     1
 10
0.0
 20
0.0
 30
0.0
  0
VERTEX
  5
1FF
330
1FE
100
AcDbEntity
  8
3
100
AcDbVertex
100
AcDb2dVertex
 10
691.1415709487508
 20
297.2019612478519
 30
0.0
  0
VERTEX
  5
200
330
1FE
100
AcDbEntity
  8
3
100
AcDbVertex
100
AcDb2dVertex
 10
691.1415709487508
 20
261.2019612478519
 30
0.0
  0
SEQEND
  5
201
330
1FE
100
AcDbEntity
  8
3
  0
POLYLINE
  5
202
330
1F
100
AcDbEntity
  8
3
100
AcDb2dPolyline
 66
     1
 10
0.0
 20
0.0
 30
0.0
  0
VERTEX
  5
203
330
202
100
AcDbEntity
  8
3
100
AcDbVertex
100
AcDb2dVertex
 10
671.1415709487508
 20
297.2019612478519
 30
0.0
  0
VERTEX
  5
204
330
202
100
AcDbEntity
  8
3
100
AcDbVertex
100
AcDb2dVertex
 10
691.1415709487508
 20
297.2019612478519
 30
0.0
  0
SEQEND
  5
205
330
202
100
AcDbEntity
  8
3
  0
POLYLINE
  5
206
330
1F
100
AcDbEntity
  8
3
100
AcDb2dPolyline
 66
     1
 10
0.0
 20
0.0
 30
0.0
  0
VERTEX
  5
207
330
206
100
AcDbEntity
  8
3
100
AcDbVertex
100
AcDb2dVertex
 10
172.8623372605778
 20
281.2019612478519
 30
0.0
  0
VERTEX
  5
208
330
206
100
AcDbEntity
  8
3
100
AcDbVertex
100
AcDb2dVertex
 10
172.8623372605778
 20
297.2019612478519
 30
0.0
  0
SEQEND
  5
209
330
206
100
AcDbEntity
  8
3
  0
POLYLINE
  5
20A
330
1F
100
AcDbEntity
  8
3
100
AcDb2dPolyline
 66
     1
 10
0.0
 20
0.0
 30
0.0
  0
VERTEX
  5
20B
330
20A
100
AcDbEntity
  8
3
100
AcDbVertex
100
AcDb2dVertex
 10
182.8623372605778
 20
281.2019612478519
 30
0.0
  0
VERTEX
  5
20C
330
20A
100
AcDbEntity
  8
3
100
AcDbVertex
100
AcDb2dVertex
 10
172.8623372605778
 20
281.2019612478519
 30
0.0
  0
SEQEND
  5
20D
330
20A
100
AcDbEntity
  8
3
  0
POLYLINE
  5
20E
330
1F
100
AcDbEntity
  8
3
100
AcDb2dPolyline
 66
     1
 10
0.0
 20
0.0
 30
0.0
  0
VERTEX
  5
20F
330
20E
100
AcDbEntity
  8
3
100
AcDbVertex
100
AcDb2dVertex
 10
182.8623372605778
 20
297.2019612478519
 30
0.0
  0
VERTEX
  5
210
330
20E
100
AcDbEntity
  8
3
100
AcDbVertex
100
AcDb2dVertex
 10
182.8623372605778
 20
281.2019612478519
 30
0.0
  0
SEQEND
  5
211
330
20E
100
AcDbEntity
  8
3
  0
POLYLINE
  5
212
330
1F
100
AcDbEntity
  8
3
100
AcDb2dPolyline
 66
     1
 10
0.0
 20
0.0
 30
0.0
  0
VERTEX
  5
213
330
212
100
AcDbEntity
  8
3
100
AcDbVertex
100
AcDb2dVertex
 10
202.8623372605778
 20
297.2019612478519
 30
0.0
  0
VERTEX
  5
214
330
212
100
AcDbEntity
  8
3
100
AcDbVertex
100
AcDb2dVertex
 10
182.8623372605778
 20
297.2019612478519
 30
0.0
  0
SEQEND
  5
215
330
212
100
AcDbEntity
  8
3
  0
POLYLINE
  5
216
330
1F
100
AcDbEntity
  8
3
100
AcDb2dPolyline
 66
     1
 10
0.0
 20
0.0
 30
0.0
  0
VERTEX
  5
217
330
216
100
AcDbEntity
  8
3
100
AcDbVertex
100
AcDb2dVertex
 10
202.8623372605778
 20
281.2019612478519
 30
0.0
  0
VERTEX
  5
218
330
216
100
AcDbEntity
  8
3
100
AcDbVertex
100
AcDb2dVertex
 10
202.8623372605778
 20
297.2019612478519
 30
0.0
  0
SEQEND
  5
219
330
216
100
AcDbEntity
  8
3
  0
POLYLINE
  5
21A
330
1F
100
AcDbEntity
  8
3
100
AcDb2dPolyline
 66
     1
 10
0.0
 20
0.0
 30
0.0
  0
VERTEX
  5
21B
330
21A
100
AcDbEntity
  8
3
100
AcDbVertex
100
AcDb2dVertex
 10
212.8623372605778
 20
281.2019612478519
 30
0.0
  0
VERTEX
  5
21C
330
21A
100
AcDbEntity
  8
3
100
AcDbVertex
100
AcDb2dVertex
 10
202.8623372605778
 20
281.2019612478519
 30
0.0
  0
SEQEND
  5
21D
330
21A
100
AcDbEntity
  8
3
  0
POLYLINE
  5
21E
330
1F
100
AcDbEntity
  8
3
100
AcDb2dPolyline
 66
     1
 10
0.0
 20
0.0
 30
0.0
  0
VERTEX
  5
21F
330
21E
100
AcDbEntity
  8
3
100
AcDbVertex
100
AcDb2dVertex
 10
212.8623372605778
 20
297.2019612478519
 30
0.0
  0
VERTEX
  5
220
330
21E
100
AcDbEntity
  8
3
100
AcDbVertex
100
AcDb2dVertex
 10
212.8623372605778
 20
281.2019612478519
 30
0.0
  0
SEQEND
  5
221
330
21E
100
AcDbEntity
  8
3
  0
POLYLINE
  5
222
330
1F
100
AcDbEntity
  8
3
100
AcDb2dPolyline
 66
     1
 10
0.0
 20
0.0
 30
0.0
  0
VERTEX
  5
223
330
222
100
AcDbEntity
  8
3
100
AcDbVertex
100
AcDb2dVertex
 10
232.8623372605778
 20
297.2019612478519
 30
0.0
  0
VERTEX
  5
224
330
222
100
AcDbEntity
  8
3
100
AcDbVertex
100
AcDb2dVertex
 10
212.8623372605778
 20
297.2019612478519
 30
0.0
  0
SEQEND
  5
225
330
222
100
AcDbEntity
  8
3
  0
POLYLINE
  5
226
330
1F
100
AcDbEntity
  8
3
100
AcDb2dPolyline
 66
     1
 10
0.0
 20
0.0
 30
0.0
  0
VERTEX
  5
227
330
226
100
AcDbEntity
  8
3
100
AcDbVertex
100
AcDb2dVertex
 10
232.8623372605778
 20
281.2019612478519
 30
0.0
  0
VERTEX
  5
228
330
226
100
AcDbEntity
  8
3
100
AcDbVertex
100
AcDb2dVertex
 10
232.8623372605778
 20
297.2019612478519
 30
0.0
  0
SEQEND
  5
229
330
226
100
AcDbEntity
  8
3
  0
POLYLINE
  5
22A
330
1F
100
AcDbEntity
  8
3
100
AcDb2dPolyline
 66
     1
 10
0.0
 20
0.0
 30
0.0
  0
VERTEX
  5
22B
330
22A
100
AcDbEntity
  8
3
100
AcDbVertex
100
AcDb2dVertex
 10
242.8623372605778
 20
281.2019612478519
 30
0.0
  0
VERTEX
  5
22C
330
22A
100
AcDbEntity
  8
3
100
AcDbVertex
100
AcDb2dVertex
 10
232.8623372605778
 20
281.2019612478519
 30
0.0
  0
SEQEND
  5
22D
330
22A
100
AcDbEntity
  8
3
  0
POLYLINE
  5
22E
330
1F
100
AcDbEntity
  8
3
100
AcDb2dPolyline
 66
     1
 10
0.0
 20
0.0
 30
0.0
  0
VERTEX
  5
22F
330
22E
100
AcDbEntity
  8
3
100
AcDbVertex
100
AcDb2dVertex
 10
242.8623372605778
 20
297.2019612478519
 30
0.0
  0
VERTEX
  5
230
330
22E
100
AcDbEntity
  8
3
100
AcDbVertex
100
AcDb2dVertex
 10
242.8623372605778
 20
281.2019612478519
 30
0.0
  0
SEQEND
  5
231
330
22E
100
AcDbEntity
  8
3
  0
POLYLINE
  5
232
330
1F
100
AcDbEntity
  8
3
100
AcDb2dPolyline
 66
     1
 10
0.0
 20
0.0
 30
0.0
  0
VERTEX
  5
233
330
232
100
AcDbEntity
  8
3
100
AcDbVertex
100
AcDb2dVertex
 10
262.8623372605778
 20
297.2019612478519
 30
0.0
  0
VERTEX
  5
234
330
232
100
AcDbEntity
  8
3
100
AcDbVertex
100
AcDb2dVertex
 10
242.8623372605778
 20
297.2019612478519
 30
0.0
  0
SEQEND
  5
235
330
232
100
AcDbEntity
  8
3
  0
POLYLINE
  5
236
330
1F
100
AcDbEntity
  8
3
100
AcDb2dPolyline
 66
     1
 10
0.0
 20
0.0
 30
0.0
  0
VERTEX
  5
237
330
236
100
AcDbEntity
  8
3
100
AcDbVertex
100
AcDb2dVertex
 10
262.8623372605778
 20
281.2019612478519
 30
0.0
  0
VERTEX
  5
238
330
236
100
AcDbEntity
  8
3
100
AcDbVertex
100
AcDb2dVertex
 10
262.8623372605778
 20
297.2019612478519
 30
0.0
  0
SEQEND
  5
239
330
236
100
AcDbEntity
  8
3
  0
POLYLINE
  5
23A
330
1F
100
AcDbEntity
  8
3
100
AcDb2dPolyline
 66
     1
 10
0.0
 20
0.0
 30
0.0
  0
VERTEX
  5
23B
330
23A
100
AcDbEntity
  8
3
100
AcDbVertex
100
AcDb2dVertex
 10
272.8623372605778
 20
281.2019612478519
 30
0.0
  0
VERTEX
  5
23C
330
23A
100
AcDbEntity
  8
3
100
AcDbVertex
100
AcDb2dVertex
 10
262.8623372605778
 20
281.2019612478519
 30
0.0
  0
SEQEND
  5
23D
330
23A
100
AcDbEntity
  8
3
  0
POLYLINE
  5
23E
330
1F
100
AcDbEntity
  8
3
100
AcDb2dPolyline
 66
     1
 10
0.0
 20
0.0
 30
0.0
  0
VERTEX
  5
23F
330
23E
100
AcDbEntity
  8
3
100
AcDbVertex
100
AcDb2dVertex
 10
272.8623372605778
 20
297.2019612478519
 30
0.0
  0
VERTEX
  5
240
330
23E
100
AcDbEntity
  8
3
100
AcDbVertex
100
AcDb2dVertex
 10
272.8623372605778
 20
281.2019612478519
 30
0.0
  0
SEQEND
  5
241
330
23E
100
AcDbEntity
  8
3
  0
POLYLINE
  5
242
330
1F
100
AcDbEntity
  8
3
100
AcDb2dPolyline
 66
     1
 10
0.0
 20
0.0
 30
0.0
  0
VERTEX
  5
243
330
242
100
AcDbEntity
  8
3
100
AcDbVertex
100
AcDb2dVertex
 10
292.8623372605778
 20
297.2019612478518
 30
0.0
  0
VERTEX
  5
244
330
242
100
AcDbEntity
  8
3
100
AcDbVertex
100
AcDb2dVertex
 10
272.8623372605778
 20
297.2019612478519
 30
0.0
  0
SEQEND
  5
245
330
242
100
AcDbEntity
  8
3
  0
POLYLINE
  5
246
330
1F
100
AcDbEntity
  8
3
100
AcDb2dPolyline
 66
     1
 10
0.0
 20
0.0
 30
0.0
  0
VERTEX
  5
247
330
246
100
AcDbEntity
  8
3
100
AcDbVertex
100
AcDb2dVertex
 10
292.8623372605778
 20
281.2019612478519
 30
0.0
  0
VERTEX
  5
248
330
246
100
AcDbEntity
  8
3
100
AcDbVertex
100
AcDb2dVertex
 10
292.8623372605778
 20
297.2019612478518
 30
0.0
  0
SEQEND
  5
249
330
246
100
AcDbEntity
  8
3
  0
POLYLINE
  5
24A
330
1F
100
AcDbEntity
  8
3
100
AcDb2dPolyline
 66
     1
 10
0.0
 20
0.0
 30
0.0
  0
VERTEX
  5
24B
330
24A
100
AcDbEntity
  8
3
100
AcDbVertex
100
AcDb2dVertex
 10
302.8623372605778
 20
281.2019612478519
 30
0.0
  0
VERTEX
  5
24C
330
24A
100
AcDbEntity
  8
3
100
AcDbVertex
100
AcDb2dVertex
 10
292.8623372605778
 20
281.2019612478519
 30
0.0
  0
SEQEND
  5
24D
330
24A
100
AcDbEntity
  8
3
  0
POLYLINE
  5
24E
330
1F
100
AcDbEntity
  8
3
100
AcDb2dPolyline
 66
     1
 10
0.0
 20
0.0
 30
0.0
  0
VERTEX
  5
24F
330
24E
100
AcDbEntity
  8
3
100
AcDbVertex
100
AcDb2dVertex
 10
302.8623372605778
 20
297.2019612478518
 30
0.0
  0
VERTEX
  5
250
330
24E
100
AcDbEntity
  8
3
100
AcDbVertex
100
AcDb2dVertex
 10
302.8623372605778
 20
281.2019612478519
 30
0.0
  0
SEQEND
  5
251
330
24E
100
AcDbEntity
  8
3
  0
POLYLINE
  5
252
330
1F
100
AcDbEntity
  8
3
100
AcDb2dPolyline
 66
     1
 10
0.0
 20
0.0
 30
0.0
  0
VERTEX
  5
253
330
252
100
AcDbEntity
  8
3
100
AcDbVertex
100
AcDb2dVertex
 10
322.8623372605778
 20
297.2019612478518
 30
0.0
  0
VERTEX
  5
254
330
252
100
AcDbEntity
  8
3
100
AcDbVertex
100
AcDb2dVertex
 10
302.8623372605778
 20
297.2019612478518
 30
0.0
  0
SEQEND
  5
255
330
252
100
AcDbEntity
  8
3
  0
POLYLINE
  5
256
330
1F
100
AcDbEntity
  8
3
100
AcDb2dPolyline
 66
     1
 10
0.0
 20
0.0
 30
0.0
  0
VERTEX
  5
257
330
256
100
AcDbEntity
  8
3
100
AcDbVertex
100
AcDb2dVertex
 10
322.8623372605775
 20
261.2019612478518
 30
0.0
  0
VERTEX
  5
258
330
256
100
AcDbEntity
  8
3
100
AcDbVertex
100
AcDb2dVertex
 10
322.8623372605778
 20
297.2019612478518
 30
0.0
  0
SEQEND
  5
259
330
256
100
AcDbEntity
  8
3
  0
POLYLINE
  5
25A
330
1F
100
AcDbEntity
  8
3
100
AcDb2dPolyline
 66
     1
 10
0.0
 20
0.0
 30
0.0
  0
VERTEX
  5
25B
330
25A
100
AcDbEntity
  8
3
100
AcDbVertex
100
AcDb2dVertex
 10
152.8623372605778
 20
261.2019612478519
 30
0.0
  0
VERTEX
  5
25C
330
25A
100
AcDbEntity
  8
3
100
AcDbVertex
100
AcDb2dVertex
 10
322.8623372605775
 20
261.2019612478518
 30
0.0
  0
SEQEND
  5
25D
330
25A
100
AcDbEntity
  8
3
  0
POLYLINE
  5
25E
330
1F
100
AcDbEntity
  8
3
100
AcDb2dPolyline
 66
     1
 10
0.0
 20
0.0
 30
0.0
  0
VERTEX
  5
25F
330
25E
100
AcDbEntity
  8
3
100
AcDbVertex
100
AcDb2dVertex
 10
152.8623372605778
 20
297.2019612478519
 30
0.0
  0
VERTEX
  5
260
330
25E
100
AcDbEntity
  8
3
100
AcDbVertex
100
AcDb2dVertex
 10
152.8623372605778
 20
261.2019612478519
 30
0.0
  0
SEQEND
  5
261
330
25E
100
AcDbEntity
  8
3
  0
POLYLINE
  5
262
330
1F
100
AcDbEntity
  8
3
100
AcDb2dPolyline
 66
     1
 10
0.0
 20
0.0
 30
0.0
  0
VERTEX
  5
263
330
262
100
AcDbEntity
  8
3
100
AcDbVertex
100
AcDb2dVertex
 10
172.8623372605778
 20
297.2019612478519
 30
0.0
  0
VERTEX
  5
264
330
262
100
AcDbEntity
  8
3
100
AcDbVertex
100
AcDb2dVertex
 10
152.8623372605778
 20
297.2019612478519
 30
0.0
  0
SEQEND
  5
265
330
262
100
AcDbEntity
  8
3
  0
POLYLINE
  5
266
330
1F
100
AcDbEntity
  8
5mm
100
AcDb2dPolyline
 66
     1
 10
0.0
 20
0.0
 30
-0.0000000000005684
  0
VERTEX
  5
267
330
266
100
AcDbEntity
  8
5mm
100
AcDbVertex
100
AcDb2dVertex
 10
1023.266719106365
 20
512.5268736968245
 30
-0.0000000000005684
  0
VERTEX
  5
268
330
266
100
AcDbEntity
  8
5mm
100
AcDbVertex
100
AcDb2dVertex
 10
1023.266719106365
 20
563.5268736968245
 30
-0.0000000000005684
  0
VERTEX
  5
269
330
266
100
AcDbEntity
  8
5mm
100
AcDbVertex
100
AcDb2dVertex
 10
1002.266719106365
 20
563.5268736968245
 30
-0.0000000000005684
  0
VERTEX
  5
26A
330
266
100
AcDbEntity
  8
5mm
100
AcDbVertex
100
AcDb2dVertex
 10
1002.266719106365
 20
512.5268736968245
 30
-0.0000000000005684
  0
VERTEX
  5
26B
330
266
100
AcDbEntity
  8
5mm
100
AcDbVertex
100
AcDb2dVertex
 10
1023.266719106365
 20
512.5268736968245
 30
-0.0000000000005684
  0
SEQEND
  5
26C
330
266
100
AcDbEntity
  8
5mm
  0
POLYLINE
  5
26D
330
1F
100
AcDbEntity
  8
5mm
100
AcDb2dPolyline
 66
     1
 10
0.0
 20
0.0
 30
-0.0000000000005684
  0
VERTEX
  5
26E
330
26D
100
AcDbEntity
  8
5mm
100
AcDbVertex
100
AcDb2dVertex
 10
1023.266719106365
 20
648.3363152685191
 30
-0.0000000000005684
  0
VERTEX
  5
26F
330
26D
100
AcDbEntity
  8
5mm
100
AcDbVertex
100
AcDb2dVertex
 10
1023.266719106365
 20
699.3363152685191
 30
-0.0000000000005684
  0
VERTEX
  5
270
330
26D
100
AcDbEntity
  8
5mm
100
AcDbVertex
100
AcDb2dVertex
 10
1002.266719106365
 20
699.3363152685191
 30
-0.0000000000005684
  0
VERTEX
  5
271
330
26D
100
AcDbEntity
  8
5mm
100
AcDbVertex
100
AcDb2dVertex
 10
1002.266719106365
 20
648.3363152685191
 30
-0.0000000000005684
  0
VERTEX
  5
272
330
26D
100
AcDbEntity
  8
5mm
100
AcDbVertex
100
AcDb2dVertex
 10
1023.266719106365
 20
648.3363152685191
 30
-0.0000000000005684
  0
SEQEND
  5
273
330
26D
100
AcDbEntity
  8
5mm
  0
POLYLINE
  5
274
330
1F
100
AcDbEntity
  8
5mm
100
AcDb2dPolyline
 66
     1
 10
0.0
 20
0.0
 30
-0.0000000000005684
  0
VERTEX
  5
275
330
274
100
AcDbEntity
  8
5mm
100
AcDbVertex
100
AcDb2dVertex
 10
1023.266719106365
 20
360.5010295352182
 30
-0.0000000000005684
  0
VERTEX
  5
276
330
274
100
AcDbEntity
  8
5mm
100
AcDbVertex
100
AcDb2dVertex
 10
1023.266719106365
 20
411.5010295352182
 30
-0.0000000000005684
  0
VERTEX
  5
277
330
274
100
AcDbEntity
  8
5mm
100
AcDbVertex
100
AcDb2dVertex
 10
1002.266719106365
 20
411.5010295352182
 30
-0.0000000000005684
  0
VERTEX
  5
278
330
274
100
AcDbEntity
  8
5mm
100
AcDbVertex
100
AcDb2dVertex
 10
1002.266719106365
 20
360.5010295352182
 30
-0.0000000000005684
  0
VERTEX
  5
279
330
274
100
AcDbEntity
  8
5mm
100
AcDbVertex
100
AcDb2dVertex
 10
1023.266719106365
 20
360.5010295352182
 30
-0.0000000000005684
  0
SEQEND
  5
27A
330
274
100
AcDbEntity
  8
5mm
  0
POLYLINE
  5
27B
330
1F
100
AcDbEntity
  8
5mm
100
AcDb2dPolyline
 66
     1
 10
0.0
 20
0.0
 30
0.7827754846132393
  0
VERTEX
  5
27C
330
27B
100
AcDbEntity
  8
5mm
100
AcDbVertex
100
AcDb2dVertex
 10
836.5738907611521
 20
399.8755907301163
 30
0.7827754846132393
  0
VERTEX
  5
27D
330
27B
100
AcDbEntity
  8
5mm
100
AcDbVertex
100
AcDb2dVertex
 10
836.5738907611521
 20
450.8755907301163
 30
0.7827754846132393
  0
VERTEX
  5
27E
330
27B
100
AcDbEntity
  8
5mm
100
AcDbVertex
100
AcDb2dVertex
 10
815.5738907611521
 20
450.8755907301163
 30
0.7827754846132393
  0
VERTEX
  5
27F
330
27B
100
AcDbEntity
  8
5mm
100
AcDbVertex
100
AcDb2dVertex
 10
815.5738907611521
 20
399.8755907301163
 30
0.7827754846132393
  0
VERTEX
  5
280
330
27B
100
AcDbEntity
  8
5mm
100
AcDbVertex
100
AcDb2dVertex
 10
836.5738907611521
 20
399.8755907301163
 30
0.7827754846132393
  0
SEQEND
  5
281
330
27B
100
AcDbEntity
  8
5mm
  0
POLYLINE
  5
282
330
1F
100
AcDbEntity
  8
3
100
AcDb2dPolyline
 66
     1
 10
0.0
 20
0.0
 30
0.0
  0
VERTEX
  5
283
330
282
100
AcDbEntity
  8
3
100
AcDbVertex
100
AcDb2dVertex
 10
415.9019541046642
 20
197.314005029847
 30
0.0
  0
VERTEX
  5
284
330
282
100
AcDbEntity
  8
3
100
AcDbVertex
100
AcDb2dVertex
 10
415.9019541046642
 20
174.314005029847
 30
0.0
  0
SEQEND
  5
285
330
282
100
AcDbEntity
  8
3
  0
POLYLINE
  5
286
330
1F
100
AcDbEntity
  8
3
100
AcDb2dPolyline
 66
     1
 10
0.0
 20
0.0
 30
0.0
  0
VERTEX
  5
287
330
286
100
AcDbEntity
  8
3
100
AcDbVertex
100
AcDb2dVertex
 10
428.1019541046643
 20
197.314005029847
 30
0.0
  0
VERTEX
  5
288
330
286
100
AcDbEntity
  8
3
100
AcDbVertex
100
AcDb2dVertex
 10
415.9019541046642
 20
197.314005029847
 30
0.0
  0
SEQEND
  5
289
330
286
100
AcDbEntity
  8
3
  0
POLYLINE
  5
28A
330
1F
100
AcDbEntity
  8
3
100
AcDb2dPolyline
 66
     1
 10
0.0
 20
0.0
 30
0.0
  0
VERTEX
  5
28B
330
28A
100
AcDbEntity
  8
3
100
AcDbVertex
100
AcDb2dVertex
 10
428.1019541046643
 20
174.314005029847
 30
0.0
  0
VERTEX
  5
28C
330
28A
100
AcDbEntity
  8
3
100
AcDbVertex
100
AcDb2dVertex
 10
428.1019541046643
 20
197.314005029847
 30
0.0
  0
SEQEND
  5
28D
330
28A
100
AcDbEntity
  8
3
  0
POLYLINE
  5
28E
330
1F
100
AcDbEntity
  8
3
100
AcDb2dPolyline
 66
     1
 10
0.0
 20
0.0
 30
0.0
  0
VERTEX
  5
28F
330
28E
100
AcDbEntity
  8
3
100
AcDbVertex
100
AcDb2dVertex
 10
415.9019541046642
 20
174.314005029847
 30
0.0
  0
VERTEX
  5
290
330
28E
100
AcDbEntity
  8
3
100
AcDbVertex
100
AcDb2dVertex
 10
428.1019541046643
 20
174.314005029847
 30
0.0
  0
SEQEND
  5
291
330
28E
100
AcDbEntity
  8
3
  0
POLYLINE
  5
292
330
1F
100
AcDbEntity
  8
3
100
AcDb2dPolyline
 66
     1
 10
0.0
 20
0.0
 30
0.0
  0
VERTEX
  5
293
330
292
100
AcDbEntity
  8
3
100
AcDbVertex
100
AcDb2dVertex
 10
428.1019541046643
 20
291.4865804822367
 30
0.0
  0
VERTEX
  5
294
330
292
100
AcDbEntity
  8
3
100
AcDbVertex
100
AcDb2dVertex
 10
428.1019541046643
 20
268.4865804822367
 30
0.0
  0
SEQEND
  5
295
330
292
100
AcDbEntity
  8
3
  0
POLYLINE
  5
296
330
1F
100
AcDbEntity
  8
3
100
AcDb2dPolyline
 66
     1
 10
0.0
 20
0.0
 30
0.0
  0
VERTEX
  5
297
330
296
100
AcDbEntity
  8
3
100
AcDbVertex
100
AcDb2dVertex
 10
415.9019541046642
 20
291.4865804822367
 30
0.0
  0
VERTEX
  5
298
330
296
100
AcDbEntity
  8
3
100
AcDbVertex
100
AcDb2dVertex
 10
428.1019541046643
 20
291.4865804822367
 30
0.0
  0
SEQEND
  5
299
330
296
100
AcDbEntity
  8
3
  0
POLYLINE
  5
29A
330
1F
100
AcDbEntity
  8
3
100
AcDb2dPolyline
 66
     1
 10
0.0
 20
0.0
 30
0.0
  0
VERTEX
  5
29B
330
29A
100
AcDbEntity
  8
3
100
AcDbVertex
100
AcDb2dVertex
 10
415.9019541046642
 20
268.4865804822367
 30
0.0
  0
VERTEX
  5
29C
330
29A
100
AcDbEntity
  8
3
100
AcDbVertex
100
AcDb2dVertex
 10
415.9019541046642
 20
291.4865804822367
 30
0.0
  0
SEQEND
  5
29D
330
29A
100
AcDbEntity
  8
3
  0
POLYLINE
  5
29E
330
1F
100
AcDbEntity
  8
3
100
AcDb2dPolyline
 66
     1
 10
0.0
 20
0.0
 30
0.0
  0
VERTEX
  5
29F
330
29E
100
AcDbEntity
  8
3
100
AcDbVertex
100
AcDb2dVertex
 10
428.1019541046643
 20
268.4865804822367
 30
0.0
  0
VERTEX
  5
2A0
330
29E
100
AcDbEntity
  8
3
100
AcDbVertex
100
AcDb2dVertex
 10
415.9019541046642
 20
268.4865804822367
 30
0.0
  0
SEQEND
  5
2A1
330
29E
100
AcDbEntity
  8
3
  0
POLYLINE
  5
2A2
330
1F
100
AcDbEntity
  8
4
100
AcDb2dPolyline
 66
     1
 10
0.0
 20
0.0
 30
0.0
  0
VERTEX
  5
2A3
330
2A2
100
AcDbEntity
  8
4
100
AcDbVertex
100
AcDb2dVertex
 10
784.0019541046643
 20
234.314005029847
 30
0.0
  0
VERTEX
  5
2A4
330
2A2
100
AcDbEntity
  8
4
100
AcDbVertex
100
AcDb2dVertex
 10
784.0019541046643
 20
195.814005029847
 30
0.0
  0
VERTEX
  5
2A5
330
2A2
100
AcDbEntity
  8
4
100
AcDbVertex
100
AcDb2dVertex
 10
772.0019541046643
 20
195.814005029847
 30
0.0
  0
VERTEX
  5
2A6
330
2A2
100
AcDbEntity
  8
4
100
AcDbVertex
100
AcDb2dVertex
 10
772.0019541046643
 20
175.814005029847
 30
0.0
  0
VERTEX
  5
2A7
330
2A2
100
AcDbEntity
  8
4
100
AcDbVertex
100
AcDb2dVertex
 10
784.0019541046643
 20
175.814005029847
 30
0.0
  0
VERTEX
  5
2A8
330
2A2
100
AcDbEntity
  8
4
100
AcDbVertex
100
AcDb2dVertex
 10
784.0019541046643
 20
154.314005029847
 30
0.0
  0
VERTEX
  5
2A9
330
2A2
100
AcDbEntity
  8
4
100
AcDbVertex
100
AcDb2dVertex
 10
60.00195410466426
 20
154.314005029847
 30
0.0
  0
VERTEX
  5
2AA
330
2A2
100
AcDbEntity
  8
4
100
AcDbVertex
100
AcDb2dVertex
 10
60.00195410466426
 20
175.814005029847
 30
0.0
  0
VERTEX
  5
2AB
330
2A2
100
AcDbEntity
  8
4
100
AcDbVertex
100
AcDb2dVertex
 10
72.00195410466426
 20
175.814005029847
 30
0.0
  0
VERTEX
  5
2AC
330
2A2
100
AcDbEntity
  8
4
100
AcDbVertex
100
AcDb2dVertex
 10
72.00195410466426
 20
195.814005029847
 30
0.0
  0
VERTEX
  5
2AD
330
2A2
100
AcDbEntity
  8
4
100
AcDbVertex
100
AcDb2dVertex
 10
60.00195410466426
 20
195.814005029847
 30
0.0
  0
VERTEX
  5
2AE
330
2A2
100
AcDbEntity
  8
4
100
AcDbVertex
100
AcDb2dVertex
 10
60.00195410466426
 20
234.314005029847
 30
0.0
  0
VERTEX
  5
2AF
330
2A2
100
AcDbEntity
  8
4
100
AcDbVertex
100
AcDb2dVertex
 10
76.00195410466426
 20
234.314005029847
 30
0.0
  0
VERTEX
  5
2B0
330
2A2
100
AcDbEntity
  8
4
100
AcDbVertex
100
AcDb2dVertex
 10
76.00195410466426
 20
218.314005029847
 30
0.0
  0
VERTEX
  5
2B1
330
2A2
100
AcDbEntity
  8
4
100
AcDbVertex
100
AcDb2dVertex
 10
768.0019541046643
 20
218.314005029847
 30
0.0
  0
VERTEX
  5
2B2
330
2A2
100
AcDbEntity
  8
4
100
AcDbVertex
100
AcDb2dVertex
 10
768.0019541046643
 20
234.314005029847
 30
0.0
  0
VERTEX
  5
2B3
330
2A2
100
AcDbEntity
  8
4
100
AcDbVertex
100
AcDb2dVertex
 10
784.0019541046643
 20
234.314005029847
 30
0.0
  0
SEQEND
  5
2B4
330
2A2
100
AcDbEntity
  8
4
  0
POLYLINE
  5
2B5
330
1F
100
AcDbEntity
  8
4
100
AcDb2dPolyline
 66
     1
 10
0.0
 20
0.0
 30
0.0
  0
VERTEX
  5
2B6
330
2B5
100
AcDbEntity
  8
4
100
AcDbVertex
100
AcDb2dVertex
 10
784.0019541046643
 20
328.4865804822367
 30
0.0
  0
VERTEX
  5
2B7
330
2B5
100
AcDbEntity
  8
4
100
AcDbVertex
100
AcDb2dVertex
 10
784.0019541046643
 20
289.9865804822367
 30
0.0
  0
VERTEX
  5
2B8
330
2B5
100
AcDbEntity
  8
4
100
AcDbVertex
100
AcDb2dVertex
 10
772.0019541046643
 20
289.9865804822367
 30
0.0
  0
VERTEX
  5
2B9
330
2B5
100
AcDbEntity
  8
4
100
AcDbVertex
100
AcDb2dVertex
 10
772.0019541046643
 20
269.9865804822367
 30
0.0
  0
VERTEX
  5
2BA
330
2B5
100
AcDbEntity
  8
4
100
AcDbVertex
100
AcDb2dVertex
 10
784.0019541046643
 20
269.9865804822367
 30
0.0
  0
VERTEX
  5
2BB
330
2B5
100
AcDbEntity
  8
4
100
AcDbVertex
100
AcDb2dVertex
 10
784.0019541046643
 20
248.4865804822367
 30
0.0
  0
VERTEX
  5
2BC
330
2B5
100
AcDbEntity
  8
4
100
AcDbVertex
100
AcDb2dVertex
 10
60.00195410466426
 20
248.4865804822367
 30
0.0
  0
VERTEX
  5
2BD
330
2B5
100
AcDbEntity
  8
4
100
AcDbVertex
100
AcDb2dVertex
 10
60.00195410466426
 20
269.9865804822367
 30
0.0
  0
VERTEX
  5
2BE
330
2B5
100
AcDbEntity
  8
4
100
AcDbVertex
100
AcDb2dVertex
 10
72.00195410466426
 20
269.9865804822367
 30
0.0
  0
VERTEX
  5
2BF
330
2B5
100
AcDbEntity
  8
4
100
AcDbVertex
100
AcDb2dVertex
 10
72.00195410466426
 20
289.9865804822367
 30
0.0
  0
VERTEX
  5
2C0
330
2B5
100
AcDbEntity
  8
4
100
AcDbVertex
100
AcDb2dVertex
 10
60.00195410466426
 20
289.9865804822367
 30
0.0
  0
VERTEX
  5
2C1
330
2B5
100
AcDbEntity
  8
4
100
AcDbVertex
100
AcDb2dVertex
 10
60.00195410466426
 20
328.4865804822367
 30
0.0
  0
VERTEX
  5
2C2
330
2B5
100
AcDbEntity
  8
4
100
AcDbVertex
100
AcDb2dVertex
 10
76.00195410466426
 20
328.4865804822367
 30
0.0
  0
VERTEX
  5
2C3
330
2B5
100
AcDbEntity
  8
4
100
AcDbVertex
100
AcDb2dVertex
 10
76.00195410466426
 20
312.4865804822367
 30
0.0
  0
VERTEX
  5
2C4
330
2B5
100
AcDbEntity
  8
4
100
AcDbVertex
100
AcDb2dVertex
 10
768.0019541046643
 20
312.4865804822367
 30
0.0
  0
VERTEX
  5
2C5
330
2B5
100
AcDbEntity
  8
4
100
AcDbVertex
100
AcDb2dVertex
 10
768.0019541046643
 20
328.4865804822367
 30
0.0
  0
VERTEX
  5
2C6
330
2B5
100
AcDbEntity
  8
4
100
AcDbVertex
100
AcDb2dVertex
 10
784.0019541046643
 20
328.4865804822367
 30
0.0
  0
SEQEND
  5
2C7
330
2B5
100
AcDbEntity
  8
4
  0
POLYLINE
  5
2C8
330
1F
100
AcDbEntity
  8
3
100
AcDb2dPolyline
 66
     1
 10
0.0
 20
0.0
 30
0.0000000000005693
  0
VERTEX
  5
2C9
330
2C8
100
AcDbEntity
  8
3
100
AcDbVertex
100
AcDb2dVertex
 10
177.2667191063649
 20
380.9188230463225
 30
0.0000000000005693
  0
VERTEX
  5
2CA
330
2C8
100
AcDbEntity
  8
3
100
AcDbVertex
100
AcDb2dVertex
 10
537.2667191063651
 20
380.9188230463232
 30
0.0000000000005693
  0
VERTEX
  5
2CB
330
2C8
100
AcDbEntity
  8
3
100
AcDbVertex
100
AcDb2dVertex
 10
537.2667191063651
 20
467.7705191433209
 30
0.0000000000005693
  0
VERTEX
  5
2CC
330
2C8
100
AcDbEntity
  8
3
100
AcDbVertex
100
AcDb2dVertex
 10
177.2667191063647
 20
639.4188230463226
 30
0.0000000000005693
  0
VERTEX
  5
2CD
330
2C8
100
AcDbEntity
  8
3
100
AcDbVertex
100
AcDb2dVertex
 10
177.2667191063649
 20
380.9188230463225
 30
0.0000000000005693
  0
SEQEND
  5
2CE
330
2C8
100
AcDbEntity
  8
3
  0
POLYLINE
  5
2CF
330
1F
100
AcDbEntity
  8
3
100
AcDb2dPolyline
 66
     1
 10
0.0
 20
0.0
 30
6.085386532355435
210
0.006338503784423252
220
2.439920368592406E-15
230
0.999979911483113
  0
VERTEX
  5
2D0
330
2CF
100
AcDbEntity
  8
3
100
AcDbVertex
100
AcDb2dVertex
 10
836.5521236070484
 20
378.5510037645313
 30
6.085386532355435
  0
VERTEX
  5
2D1
330
2CF
100
AcDbEntity
  8
3
100
AcDbVertex
100
AcDb2dVertex
 10
836.5521236070484
 20
508.262135332835
 30
6.085386532355435
  0
VERTEX
  5
2D2
330
2CF
100
AcDbEntity
  8
3
100
AcDbVertex
100
AcDb2dVertex
 10
960.0474327898658
 20
612.2505897360019
 30
6.085386532355435
  0
VERTEX
  5
2D3
330
2CF
100
AcDbEntity
  8
3
100
AcDbVertex
100
AcDb2dVertex
 10
960.0474327898658
 20
378.918823046324
 30
6.085386532355435
  0
VERTEX
  5
2D4
330
2CF
100
AcDbEntity
  8
3
100
AcDbVertex
100
AcDb2dVertex
 10
836.5521236070484
 20
378.5510037645313
 30
6.085386532355435
  0
SEQEND
  5
2D5
330
2CF
100
AcDbEntity
  8
3
  0
POLYLINE
  5
2D6
330
1F
100
AcDbEntity
  8
3
100
AcDb2dPolyline
 66
     1
 10
0.0
 20
0.0
 30
0.0000000000002851
  0
VERTEX
  5
2D7
330
2D6
100
AcDbEntity
  8
3
100
AcDbVertex
100
AcDb2dVertex
 10
602.3438500066754
 20
380.9188230463232
 30
0.0000000000002851
  0
VERTEX
  5
2D8
330
2D6
100
AcDbEntity
  8
3
100
AcDbVertex
100
AcDb2dVertex
 10
771.5215185006261
 20
380.9188230463232
 30
0.0000000000002851
  0
VERTEX
  5
2D9
330
2D6
100
AcDbEntity
  8
3
100
AcDbVertex
100
AcDb2dVertex
 10
771.5215185006261
 20
435.0054925638723
 30
0.0000000000002851
  0
VERTEX
  5
2DA
330
2D6
100
AcDbEntity
  8
3
100
AcDbVertex
100
AcDb2dVertex
 10
602.3438500066754
 20
435.0054925638723
 30
0.0000000000002851
  0
VERTEX
  5
2DB
330
2D6
100
AcDbEntity
  8
3
100
AcDbVertex
100
AcDb2dVertex
 10
602.3438500066754
 20
380.9188230463232
 30
0.0000000000002851
  0
SEQEND
  5
2DC
330
2D6
100
AcDbEntity
  8
3
  0
POLYLINE
  5
2DD
330
1F
100
AcDbEntity
  8
4
100
AcDb2dPolyline
 66
     1
 10
0.0
 20
0.0
 30
0.0
  0
VERTEX
  5
2DE
330
2DD
100
AcDbEntity
  8
4
100
AcDbVertex
100
AcDb2dVertex
 10
60.68354308212037
 20
32.19420511819931
 30
0.0
  0
VERTEX
  5
2DF
330
2DD
100
AcDbEntity
  8
4
100
AcDbVertex
100
AcDb2dVertex
 10
48.68354308212037
 20
32.19420511819942
 30
0.0
  0
VERTEX
  5
2E0
330
2DD
100
AcDbEntity
  8
4
100
AcDbVertex
100
AcDb2dVertex
 10
48.68354308212048
 20
12.39420511819947
 30
0.0
  0
VERTEX
  5
2E1
330
2DD
100
AcDbEntity
  8
4
100
AcDbVertex
100
AcDb2dVertex
 10
60.68354308212048
 20
12.39420511819935
 30
0.0
  0
VERTEX
  5
2E2
330
2DD
100
AcDbEntity
  8
4
100
AcDbVertex
100
AcDb2dVertex
 10
60.68354308212037
 20
-9.70579488180067
 30
0.0
  0
VERTEX
  5
2E3
330
2DD
100
AcDbEntity
  8
4
100
AcDbVertex
100
AcDb2dVertex
 10
468.6835430821202
 20
-9.705794881801353
 30
0.0
  0
VERTEX
  5
2E4
330
2DD
100
AcDbEntity
  8
4
100
AcDbVertex
100
AcDb2dVertex
 10
468.6835430821202
 20
12.39420511819867
 30
0.0
  0
VERTEX
  5
2E5
330
2DD
100
AcDbEntity
  8
4
100
AcDbVertex
100
AcDb2dVertex
 10
480.6835430821202
 20
12.39420511819867
 30
0.0
  0
VERTEX
  5
2E6
330
2DD
100
AcDbEntity
  8
4
100
AcDbVertex
100
AcDb2dVertex
 10
480.6835430821205
 20
32.19420511819862
 30
0.0
  0
VERTEX
  5
2E7
330
2DD
100
AcDbEntity
  8
4
100
AcDbVertex
100
AcDb2dVertex
 10
468.6835430821205
 20
32.19420511819862
 30
0.0
  0
VERTEX
  5
2E8
330
2DD
100
AcDbEntity
  8
4
100
AcDbVertex
100
AcDb2dVertex
 10
468.6835430821207
 20
54.29420511819842
 30
0.0
  0
VERTEX
  5
2E9
330
2DD
100
AcDbEntity
  8
4
100
AcDbVertex
100
AcDb2dVertex
 10
60.68354308212071
 20
54.29420511819922
 30
0.0
  0
VERTEX
  5
2EA
330
2DD
100
AcDbEntity
  8
4
100
AcDbVertex
100
AcDb2dVertex
 10
60.68354308212037
 20
32.19420511819931
 30
0.0
  0
SEQEND
  5
2EB
330
2DD
100
AcDbEntity
  8
4
  0
POLYLINE
  5
2EC
330
1F
100
AcDbEntity
  8
4
100
AcDb2dPolyline
 66
     1
 10
0.0
 20
0.0
 30
0.0
  0
VERTEX
  5
2ED
330
2EC
100
AcDbEntity
  8
4
100
AcDbVertex
100
AcDb2dVertex
 10
60.68354308212037
 20
118.4246087885216
 30
0.0
  0
VERTEX
  5
2EE
330
2EC
100
AcDbEntity
  8
4
100
AcDbVertex
100
AcDb2dVertex
 10
48.68354308212037
 20
118.4246087885217
 30
0.0
  0
VERTEX
  5
2EF
330
2EC
100
AcDbEntity
  8
4
100
AcDbVertex
100
AcDb2dVertex
 10
48.68354308212048
 20
98.62460878852175
 30
0.0
  0
VERTEX
  5
2F0
330
2EC
100
AcDbEntity
  8
4
100
AcDbVertex
100
AcDb2dVertex
 10
60.68354308212048
 20
98.62460878852164
 30
0.0
  0
VERTEX
  5
2F1
330
2EC
100
AcDbEntity
  8
4
100
AcDbVertex
100
AcDb2dVertex
 10
60.68354308212037
 20
76.52460878852162
 30
0.0
  0
VERTEX
  5
2F2
330
2EC
100
AcDbEntity
  8
4
100
AcDbVertex
100
AcDb2dVertex
 10
468.6835430821202
 20
76.52460878852094
 30
0.0
  0
VERTEX
  5
2F3
330
2EC
100
AcDbEntity
  8
4
100
AcDbVertex
100
AcDb2dVertex
 10
468.6835430821202
 20
98.62460878852096
 30
0.0
  0
VERTEX
  5
2F4
330
2EC
100
AcDbEntity
  8
4
100
AcDbVertex
100
AcDb2dVertex
 10
480.6835430821202
 20
98.62460878852096
 30
0.0
  0
VERTEX
  5
2F5
330
2EC
100
AcDbEntity
  8
4
100
AcDbVertex
100
AcDb2dVertex
 10
480.6835430821205
 20
118.4246087885209
 30
0.0
  0
VERTEX
  5
2F6
330
2EC
100
AcDbEntity
  8
4
100
AcDbVertex
100
AcDb2dVertex
 10
468.6835430821205
 20
118.4246087885209
 30
0.0
  0
VERTEX
  5
2F7
330
2EC
100
AcDbEntity
  8
4
100
AcDbVertex
100
AcDb2dVertex
 10
468.6835430821207
 20
140.5246087885207
 30
0.0
  0
VERTEX
  5
2F8
330
2EC
100
AcDbEntity
  8
4
100
AcDbVertex
100
AcDb2dVertex
 10
60.68354308212071
 20
140.5246087885215
 30
0.0
  0
VERTEX
  5
2F9
330
2EC
100
AcDbEntity
  8
4
100
AcDbVertex
100
AcDb2dVertex
 10
60.68354308212037
 20
118.4246087885216
 30
0.0
  0
SEQEND
  5
2FA
330
2EC
100
AcDbEntity
  8
4
  0
POLYLINE
  5
2FB
330
1F
100
AcDbEntity
  8
5mm
100
AcDb2dPolyline
 66
     1
 10
0.0
 20
0.0
 30
-0.0000000000005684
  0
VERTEX
  5
2FC
330
2FB
100
AcDbEntity
  8
5mm
100
AcDbVertex
100
AcDb2dVertex
 10
445.1662017830976
 20
709.7783503225332
 30
-0.0000000000005684
  0
VERTEX
  5
2FD
330
2FB
100
AcDbEntity
  8
5mm
100
AcDbVertex
100
AcDb2dVertex
 10
496.1662017830976
 20
709.7783503225332
 30
-0.0000000000005684
  0
VERTEX
  5
2FE
330
2FB
100
AcDbEntity
  8
5mm
100
AcDbVertex
100
AcDb2dVertex
 10
496.1662017830976
 20
693.778350322533
 30
-0.0000000000005684
  0
VERTEX
  5
2FF
330
2FB
100
AcDbEntity
  8
5mm
100
AcDbVertex
100
AcDb2dVertex
 10
445.1662017830975
 20
693.778350322533
 30
-0.0000000000005684
  0
VERTEX
  5
300
330
2FB
100
AcDbEntity
  8
5mm
100
AcDbVertex
100
AcDb2dVertex
 10
445.1662017830976
 20
709.7783503225332
 30
-0.0000000000005684
  0
SEQEND
  5
301
330
2FB
100
AcDbEntity
  8
5mm
  0
POLYLINE
  5
302
330
1F
100
AcDbEntity
  8
5mm
100
AcDb2dPolyline
 66
     1
 10
0.0
 20
0.0
 30
-0.0000000000005684
  0
VERTEX
  5
303
330
302
100
AcDbEntity
  8
5mm
100
AcDbVertex
100
AcDb2dVertex
 10
733.0014875163987
 20
709.7783503225328
 30
-0.0000000000005684
  0
VERTEX
  5
304
330
302
100
AcDbEntity
  8
5mm
100
AcDbVertex
100
AcDb2dVertex
 10
784.0014875163987
 20
709.7783503225326
 30
-0.0000000000005684
  0
VERTEX
  5
305
330
302
100
AcDbEntity
  8
5mm
100
AcDbVertex
100
AcDb2dVertex
 10
784.0014875163985
 20
693.7783503225326
 30
-0.0000000000005684
  0
VERTEX
  5
306
330
302
100
AcDbEntity
  8
5mm
100
AcDbVertex
100
AcDb2dVertex
 10
733.0014875163985
 20
693.7783503225327
 30
-0.0000000000005684
  0
VERTEX
  5
307
330
302
100
AcDbEntity
  8
5mm
100
AcDbVertex
100
AcDb2dVertex
 10
733.0014875163987
 20
709.7783503225328
 30
-0.0000000000005684
  0
SEQEND
  5
308
330
302
100
AcDbEntity
  8
5mm
  0
POLYLINE
  5
309
330
1F
100
AcDbEntity
  8
5mm
100
AcDb2dPolyline
 66
     1
 10
0.0
 20
0.0
 30
-0.0000000000005684
  0
VERTEX
  5
30A
330
309
100
AcDbEntity
  8
5mm
100
AcDbVertex
100
AcDb2dVertex
 10
597.192045944704
 20
709.778350322533
 30
-0.0000000000005684
  0
VERTEX
  5
30B
330
309
100
AcDbEntity
  8
5mm
100
AcDbVertex
100
AcDb2dVertex
 10
648.1920459447042
 20
709.778350322533
 30
-0.0000000000005684
  0
VERTEX
  5
30C
330
309
100
AcDbEntity
  8
5mm
100
AcDbVertex
100
AcDb2dVertex
 10
648.192045944704
 20
693.7783503225326
 30
-0.0000000000005684
  0
VERTEX
  5
30D
330
309
100
AcDbEntity
  8
5mm
100
AcDbVertex
100
AcDb2dVertex
 10
597.192045944704
 20
693.7783503225328
 30
-0.0000000000005684
  0
VERTEX
  5
30E
330
309
100
AcDbEntity
  8
5mm
100
AcDbVertex
100
AcDb2dVertex
 10
597.192045944704
 20
709.778350322533
 30
-0.0000000000005684
  0
SEQEND
  5
30F
330
309
100
AcDbEntity
  8
5mm
  0
POLYLINE
  5
310
330
1F
100
AcDbEntity
  8
4
100
AcDb2dPolyline
 66
     1
 10
0.0
 20
0.0
 30
-0.0000000000005684
  0
VERTEX
  5
311
330
310
100
AcDbEntity
  8
4
100
AcDbVertex
100
AcDb2dVertex
 10
884.6920459447039
 20
709.778350322533
 30
-0.0000000000005684
  0
VERTEX
  5
312
330
310
100
AcDbEntity
  8
4
100
AcDbVertex
100
AcDb2dVertex
 10
360.6920459447041
 20
709.7783503225331
 30
-0.0000000000005684
  0
VERTEX
  5
313
330
310
100
AcDbEntity
  8
4
100
AcDbVertex
100
AcDb2dVertex
 10
360.692045944704
 20
693.7783503225331
 30
-0.0000000000005684
  0
VERTEX
  5
314
330
310
100
AcDbEntity
  8
4
100
AcDbVertex
100
AcDb2dVertex
 10
884.6920459447045
 20
693.7783503225328
 30
-0.0000000000005684
  0
VERTEX
  5
315
330
310
100
AcDbEntity
  8
4
100
AcDbVertex
100
AcDb2dVertex
 10
884.6920459447039
 20
709.778350322533
 30
-0.0000000000005684
  0
SEQEND
  5
316
330
310
100
AcDbEntity
  8
4
  0
POLYLINE
  5
317
330
1F
100
AcDbEntity
  8
5mm
100
AcDb2dPolyline
 66
     1
 10
0.0
 20
0.0
 30
0.7827754846132393
  0
VERTEX
  5
318
330
317
100
AcDbEntity
  8
5mm
100
AcDbVertex
100
AcDb2dVertex
 10
215.8408063716802
 20
406.772370867538
 30
0.7827754846132393
  0
VERTEX
  5
319
330
317
100
AcDbEntity
  8
5mm
100
AcDbVertex
100
AcDb2dVertex
 10
215.8408063716801
 20
457.772370867538
 30
0.7827754846132393
  0
VERTEX
  5
31A
330
317
100
AcDbEntity
  8
5mm
100
AcDbVertex
100
AcDb2dVertex
 10
194.8408063716801
 20
457.772370867538
 30
0.7827754846132393
  0
VERTEX
  5
31B
330
317
100
AcDbEntity
  8
5mm
100
AcDbVertex
100
AcDb2dVertex
 10
194.8408063716802
 20
406.772370867538
 30
0.7827754846132393
  0
VERTEX
  5
31C
330
317
100
AcDbEntity
  8
5mm
100
AcDbVertex
100
AcDb2dVertex
 10
215.8408063716802
 20
406.772370867538
 30
0.7827754846132393
  0
SEQEND
  5
31D
330
317
100
AcDbEntity
  8
5mm
  0
POLYLINE
  5
31E
330
1F
100
AcDbEntity
  8
5mm
100
AcDb2dPolyline
 66
     1
 10
0.0
 20
0.0
 30
0.7827754846132393
  0
VERTEX
  5
31F
330
31E
100
AcDbEntity
  8
5mm
100
AcDbVertex
100
AcDb2dVertex
 10
344.8408063716801
 20
424.1995245071691
 30
0.7827754846132393
  0
VERTEX
  5
320
330
31E
100
AcDbEntity
  8
5mm
100
AcDbVertex
100
AcDb2dVertex
 10
344.8408063716799
 20
475.1995245071691
 30
0.7827754846132393
  0
VERTEX
  5
321
330
31E
100
AcDbEntity
  8
5mm
100
AcDbVertex
100
AcDb2dVertex
 10
323.8408063716799
 20
475.1995245071691
 30
0.7827754846132393
  0
VERTEX
  5
322
330
31E
100
AcDbEntity
  8
5mm
100
AcDbVertex
100
AcDb2dVertex
 10
323.8408063716801
 20
424.199524507169
 30
0.7827754846132393
  0
VERTEX
  5
323
330
31E
100
AcDbEntity
  8
5mm
100
AcDbVertex
100
AcDb2dVertex
 10
344.8408063716801
 20
424.1995245071691
 30
0.7827754846132393
  0
SEQEND
  5
324
330
31E
100
AcDbEntity
  8
5mm
  0
POLYLINE
  5
325
330
1F
100
AcDbEntity
  8
5mm
100
AcDb2dPolyline
 66
     1
 10
0.0
 20
0.0
 30
-0.0000000000003979
  0
VERTEX
  5
326
330
325
100
AcDbEntity
  8
5mm
100
AcDbVertex
100
AcDb2dVertex
 10
215.8408063716801
 20
486.2703009688724
 30
-0.0000000000003979
  0
VERTEX
  5
327
330
325
100
AcDbEntity
  8
5mm
100
AcDbVertex
100
AcDb2dVertex
 10
215.8408063716799
 20
537.2703009688723
 30
-0.0000000000003979
  0
VERTEX
  5
328
330
325
100
AcDbEntity
  8
5mm
100
AcDbVertex
100
AcDb2dVertex
 10
194.8408063716799
 20
537.2703009688723
 30
-0.0000000000003979
  0
VERTEX
  5
329
330
325
100
AcDbEntity
  8
5mm
100
AcDbVertex
100
AcDb2dVertex
 10
194.8408063716801
 20
486.2703009688724
 30
-0.0000000000003979
  0
VERTEX
  5
32A
330
325
100
AcDbEntity
  8
5mm
100
AcDbVertex
100
AcDb2dVertex
 10
215.8408063716801
 20
486.2703009688724
 30
-0.0000000000003979
  0
SEQEND
  5
32B
330
325
100
AcDbEntity
  8
5mm
  0
POLYLINE
  5
32C
330
1F
100
AcDbEntity
  8
2
100
AcDb2dPolyline
 66
     1
 10
0.0
 20
0.0
 30
0.7827754846132393
  0
VERTEX
  5
32D
330
32C
100
AcDbEntity
  8
2
100
AcDbVertex
100
AcDb2dVertex
 10
194.8408063716802
 20
404.5439745899738
 30
0.7827754846132393
  0
VERTEX
  5
32E
330
32C
100
AcDbEntity
  8
2
100
AcDbVertex
100
AcDb2dVertex
 10
344.8408063716801
 20
409.7710632858875
 30
0.7827754846132393
  0
VERTEX
  5
32F
330
32C
100
AcDbEntity
  8
2
100
AcDbVertex
100
AcDb2dVertex
 10
344.8408063716798
 20
482.8888928497611
 30
0.7827754846132393
  0
VERTEX
  5
330
330
32C
100
AcDbEntity
  8
2
100
AcDbVertex
100
AcDb2dVertex
 10
194.8408063716798
 20
558.2469032833116
 30
0.7827754846132393
  0
VERTEX
  5
331
330
32C
100
AcDbEntity
  8
2
100
AcDbVertex
100
AcDb2dVertex
 10
194.8408063716802
 20
404.5439745899738
 30
0.7827754846132393
  0
SEQEND
  5
332
330
32C
100
AcDbEntity
  8
2
  0
POLYLINE
  5
333
330
1F
100
AcDbEntity
  8
1
100
AcDb2dPolyline
 66
     1
 10
0.0
 20
0.0
 30
0.7827754846132393
  0
VERTEX
  5
334
330
333
100
AcDbEntity
  8
1
100
AcDbVertex
100
AcDb2dVertex
 10
232.3408063716799
 20
421.882346762879
 30
0.7827754846132393
  0
VERTEX
  5
335
330
333
100
AcDbEntity
  8
1
100
AcDbVertex
100
AcDb2dVertex
 10
307.3408063716799
 20
424.1225276325563
 30
0.7827754846132393
  0
VERTEX
  5
336
330
333
100
AcDbEntity
  8
1
100
AcDbVertex
100
AcDb2dVertex
 10
307.3408063716799
 20
471.8823467628791
 30
0.7827754846132393
  0
VERTEX
  5
337
330
333
100
AcDbEntity
  8
1
100
AcDbVertex
100
AcDb2dVertex
 10
232.3408063716798
 20
507.6945345882568
 30
0.7827754846132393
  0
VERTEX
  5
338
330
333
100
AcDbEntity
  8
1
100
AcDbVertex
100
AcDb2dVertex
 10
232.3408063716799
 20
421.882346762879
 30
0.7827754846132393
  0
SEQEND
  5
339
330
333
100
AcDbEntity
  8
1
  0
ENDSEC
  0
SECTION
  2
OBJECTS
  0
DICTIONARY
  5
C
330
0
100
AcDbDictionary
281
     1
  3
ACAD_GROUP
350
D
  3
ACAD_LAYOUT
350
1A
  3
ACAD_MATERIAL
350
3B
  3
ACAD_MLEADERSTYLE
350
361
  3
ACAD_MLINESTYLE
350
17
  3
ACAD_PLOTSETTINGS
350
19
  3
ACAD_PLOTSTYLENAME
350
E
  3
ACAD_TABLESTYLE
350
360
  3
ACAD_VISUALSTYLE
350
2A
  0
DICTIONARY
  5
D
102
{ACAD_REACTORS
330
C
102
}
330
C
100
AcDbDictionary
281
     1
  0
DICTIONARY
  5
1A
102
{ACAD_REACTORS
330
C
102
}
330
C
100
AcDbDictionary
281
     1
  3
Layout1
350
1E
  3
Layout2
350
26
  3
Model
350
22
  0
DICTIONARY
  5
3B
102
{ACAD_REACTORS
330
C
102
}
330
C
100
AcDbDictionary
281
     1
  3
ByBlock
350
3D
  3
ByLayer
350
3C
  3
Global
350
3E
  0
DICTIONARY
  5
361
102
{ACAD_REACTORS
330
C
102
}
330
C
100
AcDbDictionary
281
     1
  0
DICTIONARY
  5
17
102
{ACAD_REACTORS
330
C
102
}
330
C
100
AcDbDictionary
281
     1
  3
Standard
350
18
  0
DICTIONARY
  5
19
102
{ACAD_REACTORS
330
C
102
}
330
C
100
AcDbDictionary
281
     1
  0
ACDBDICTIONARYWDFLT
  5
E
102
{ACAD_REACTORS
330
C
102
}
330
C
100
AcDbDictionary
281
     1
  3
Normal
350
F
100
AcDbDictionaryWithDefault
340
F
  0
DICTIONARY
  5
360
102
{ACAD_REACTORS
330
C
102
}
330
C
100
AcDbDictionary
281
     1
  0
DICTIONARY
  5
2A
102
{ACAD_REACTORS
330
C
102
}
330
C
100
AcDbDictionary
281
     1
  3
2dWireframe
350
2F
  3
3D Hidden
350
31
  3
3dWireframe
350
30
  3
Basic
350
32
  3
Brighten
350
36
  3
ColorChange
350
3A
  3
Conceptual
350
34
  3
Dim
350
35
  3
Facepattern
350
39
  3
Flat
350
2B
  3
FlatWithEdges
350
2C
  3
Gouraud
350
2D
  3
GouraudWithEdges
350
2E
  3
Linepattern
350
38
  3
Realistic
350
33
  3
Thicken
350
37
  0
LAYOUT
  5
1E
102
{ACAD_REACTORS
330
1A
102
}
330
1A
100
AcDbPlotSettings
  1

  2
none_device
  4

  6

 40
0.0
 41
0.0
 42
0.0
 43
0.0
 44
0.0
 45
0.0
 46
0.0
 47
0.0
 48
0.0
 49
0.0
140
0.0
141
0.0
142
1.0
143
1.0
 70
   688
 72
     0
 73
     0
 74
     5
  7

 75
    16
 76
     0
 77
     2
 78
   300
147
1.0
148
0.0
149
0.0
100
AcDbLayout
  1
Layout1
 70
     1
 71
     1
 10
0.0
 20
0.0
 11
12.0
 21
9.0
 12
0.0
 22
0.0
 32
0.0
 14
1.000000000000000E+20
 24
1.000000000000000E+20
 34
1.000000000000000E+20
 15
-1.000000000000000E+20
 25
-1.000000000000000E+20
 35
-1.000000000000000E+20
146
0.0
 13
0.0
 23
0.0
 33
0.0
 16
1.0
 26
0.0
 36
0.0
 17
0.0
 27
1.0
 37
0.0
 76
     0
330
1B
  0
LAYOUT
  5
26
102
{ACAD_REACTORS
330
1A
102
}
330
1A
100
AcDbPlotSettings
  1

  2
none_device
  4

  6

 40
0.0
 41
0.0
 42
0.0
 43
0.0
 44
0.0
 45
0.0
 46
0.0
 47
0.0
 48
0.0
 49
0.0
140
0.0
141
0.0
142
1.0
143
1.0
 70
   688
 72
     0
 73
     0
 74
     5
  7

 75
    16
 76
     0
 77
     2
 78
   300
147
1.0
148
0.0
149
0.0
100
AcDbLayout
  1
Layout2
 70
     1
 71
     2
 10
0.0
 20
0.0
 11
0.0
 21
0.0
 12
0.0
 22
0.0
 32
0.0
 14
0.0
 24
0.0
 34
0.0
 15
0.0
 25
0.0
 35
0.0
146
0.0
 13
0.0
 23
0.0
 33
0.0
 16
1.0
 26
0.0
 36
0.0
 17
0.0
 27
1.0
 37
0.0
 76
     0
330
23
  0
LAYOUT
  5
22
102
{ACAD_REACTORS
330
1A
102
}
330
1A
100
AcDbPlotSettings
  1

  2
none_device
  4

  6

 40
0.0
 41
0.0
 42
0.0
 43
0.0
 44
0.0
 45
0.0
 46
0.0
 47
0.0
 48
0.0
 49
0.0
140
0.0
141
0.0
142
1.0
143
1.0
 70
  1712
 72
     0
 73
     0
 74
     0
  7

 75
     0
 76
     0
 77
     2
 78
   300
147
1.0
148
0.0
149
0.0
100
AcDbLayout
  1
Model
 70
     1
 71
     0
 10
0.0
 20
0.0
 11
12.0
 21
9.0
 12
0.0
 22
0.0
 32
0.0
 14
46.59930337792008
 24
-87.9643989139705
 34
-0.0000000000005695
 15
1025.408311102546
 25
1137.796617001781
 35
0.7827754846138077
146
0.0
 13
0.0
 23
0.0
 33
0.0
 16
1.0
 26
0.0
 36
0.0
 17
0.0
 27
1.0
 37
0.0
 76
     0
330
1F
331
29
  0
MATERIAL
  5
3D
102
{ACAD_REACTORS
330
3B
102
}
102
{ACAD_XDICTIONARY
360
35C
102
}
330
3B
100
AcDbMaterial
  1
ByBlock
  0
MATERIAL
  5
3C
102
{ACAD_REACTORS
330
3B
102
}
102
{ACAD_XDICTIONARY
360
35A
102
}
330
3B
100
AcDbMaterial
  1
ByLayer
  0
MATERIAL
  5
3E
102
{ACAD_REACTORS
330
3B
102
}
102
{ACAD_XDICTIONARY
360
35E
102
}
330
3B
100
AcDbMaterial
  1
Global
  0
MLINESTYLE
  5
18
102
{ACAD_REACTORS
330
17
102
}
330
17
100
AcDbMlineStyle
  2
Standard
 70
     0
  3

 62
   256
 51
90.0
 52
90.0
 71
     2
 49
0.5
 62
   256
  6
BYLAYER
 49
-0.5
 62
   256
  6
BYLAYER
  0
ACDBPLACEHOLDER
  5
F
102
{ACAD_REACTORS
330
E
102
}
330
E
  0
VISUALSTYLE
  5
2F
102
{ACAD_REACTORS
330
2A
102
}
102
{ACAD_XDICTIONARY
360
342
102
}
330
2A
100
AcDbVisualStyle
  2
2dWireframe
 70
     4
 71
     0
 72
     2
 73
     0
 90
        0
 40
-0.6
 41
-30.0
 62
     5
 63
     7
421
 16777215
 74
     1
 91
        4
 64
     7
 65
   257
 75
     1
175
     1
 42
1.0
 92
        0
 66
   257
 43
1.0
 76
     1
 77
     6
 78
     2
 67
     7
 79
     5
170
     0
171
     0
290
     0
174
     0
 93
        1
 44
0.0
173
     0
291
     0
 45
0.0
1001
ACAD
1000
AcDbSavedByObjectVersion
1070
     0
  0
VISUALSTYLE
  5
31
102
{ACAD_REACTORS
330
2A
102
}
102
{ACAD_XDICTIONARY
360
346
102
}
330
2A
100
AcDbVisualStyle
  2
3D Hidden
 70
     6
 71
     1
 72
     2
 73
     2
 90
        0
 40
-0.6
 41
-30.0
 62
     5
 63
     7
421
 16777215
 74
     2
 91
        2
 64
     7
 65
   257
 75
     2
175
     1
 42
40.0
 92
        0
 66
   257
 43
1.0
 76
     1
 77
     6
 78
     2
 67
     7
 79
     3
170
     0
171
     0
290
     0
174
     0
 93
        1
 44
0.0
173
     0
291
     0
 45
0.0
1001
ACAD
1000
AcDbSavedByObjectVersion
1070
     0
  0
VISUALSTYLE
  5
30
102
{ACAD_REACTORS
330
2A
102
}
102
{ACAD_XDICTIONARY
360
344
102
}
330
2A
100
AcDbVisualStyle
  2
3dWireframe
 70
     5
 71
     0
 72
     2
 73
     0
 90
        0
 40
-0.6
 41
-30.0
 62
     5
 63
     7
421
 16777215
 74
     1
 91
        4
 64
     7
 65
   257
 75
     1
175
     1
 42
1.0
 92
        0
 66
   257
 43
1.0
 76
     1
 77
     6
 78
     2
 67
     7
 79
     5
170
     0
171
     0
290
     0
174
     0
 93
        1
 44
0.0
173
     0
291
     0
 45
0.0
1001
ACAD
1000
AcDbSavedByObjectVersion
1070
     0
  0
VISUALSTYLE
  5
32
102
{ACAD_REACTORS
330
2A
102
}
102
{ACAD_XDICTIONARY
360
348
102
}
330
2A
100
AcDbVisualStyle
  2
Basic
 70
     7
 71
     1
 72
     0
 73
     1
 90
        0
 40
-0.6
 41
-30.0
 62
     5
 63
     7
421
 16777215
 74
     0
 91
        4
 64
     7
 65
   257
 75
     1
175
     1
 42
1.0
 92
        8
 66
     7
 43
1.0
 76
     1
 77
     6
 78
     2
 67
     7
 79
     5
170
     0
171
     0
290
     0
174
     0
 93
        1
 44
0.0
173
     0
291
     1
 45
0.0
1001
ACAD
1000
AcDbSavedByObjectVersion
1070
     0
  0
VISUALSTYLE
  5
36
102
{ACAD_REACTORS
330
2A
102
}
102
{ACAD_XDICTIONARY
360
350
102
}
330
2A
100
AcDbVisualStyle
  2
Brighten
 70
    12
 71
     2
 72
     2
 73
     0
 90
        0
 40
-0.6
 41
-30.0
 62
     5
 63
     7
421
 16777215
 74
     1
 91
        4
 64
     7
 65
   257
 75
     1
175
     1
 42
1.0
 92
        8
 66
     7
 43
1.0
 76
     1
 77
     6
 78
     2
 67
     7
 79
     5
170
     0
171
     0
290
     0
174
     0
 93
        1
 44
50.0
173
     0
291
     1
 45
0.0
1001
ACAD
1000
AcDbSavedByObjectVersion
1070
     0
  0
VISUALSTYLE
  5
3A
102
{ACAD_REACTORS
330
2A
102
}
102
{ACAD_XDICTIONARY
360
358
102
}
330
2A
100
AcDbVisualStyle
  2
ColorChange
 70
    16
 71
     2
 72
     2
 73
     3
 90
        0
 40
-0.6
 41
-30.0
 62
     5
 63
     8
421
  8421504
 74
     1
 91
        4
 64
     7
 65
   257
 75
     1
175
     1
 42
1.0
 92
        8
 66
     8
424
  8421504
 43
1.0
 76
     1
 77
     6
 78
     2
 67
     7
 79
     5
170
     0
171
     0
290
     0
174
     0
 93
        1
 44
0.0
173
     0
291
     1
 45
0.0
1001
ACAD
1000
AcDbSavedByObjectVersion
1070
     0
  0
VISUALSTYLE
  5
34
102
{ACAD_REACTORS
330
2A
102
}
102
{ACAD_XDICTIONARY
360
34C
102
}
330
2A
100
AcDbVisualStyle
  2
Conceptual
 70
     9
 71
     3
 72
     2
 73
     0
 90
        0
 40
-0.6
 41
-30.0
 62
     5
 63
     7
421
 16777215
 74
     2
 91
        2
 64
     7
 65
   257
 75
     1
175
     1
 42
40.0
 92
        8
 66
     7
 43
1.0
 76
     1
 77
     6
 78
     2
 67
     7
 79
     3
170
     0
171
     0
290
     0
174
     0
 93
        1
 44
0.0
173
     0
291
     0
 45
0.0
1001
ACAD
1000
AcDbSavedByObjectVersion
1070
     0
  0
VISUALSTYLE
  5
35
102
{ACAD_REACTORS
330
2A
102
}
102
{ACAD_XDICTIONARY
360
34E
102
}
330
2A
100
AcDbVisualStyle
  2
Dim
 70
    11
 71
     2
 72
     2
 73
     0
 90
        0
 40
-0.6
 41
-30.0
 62
     5
 63
     7
421
 16777215
 74
     1
 91
        4
 64
     7
 65
   257
 75
     1
175
     1
 42
1.0
 92
        8
 66
     7
 43
1.0
 76
     1
 77
     6
 78
     2
 67
     7
 79
     5
170
     0
171
     0
290
     0
174
     0
 93
        1
 44
-50.0
173
     0
291
     1
 45
0.0
1001
ACAD
1000
AcDbSavedByObjectVersion
1070
     0
  0
VISUALSTYLE
  5
39
102
{ACAD_REACTORS
330
2A
102
}
102
{ACAD_XDICTIONARY
360
356
102
}
330
2A
100
AcDbVisualStyle
  2
Facepattern
 70
    15
 71
     2
 72
     2
 73
     0
 90
        0
 40
-0.6
 41
-30.0
 62
     5
 63
     7
421
 16777215
 74
     1
 91
        4
 64
     7
 65
   257
 75
     1
175
     1
 42
1.0
 92
        8
 66
     7
 43
1.0
 76
     1
 77
     6
 78
     2
 67
     7
 79
     5
170
     0
171
     0
290
     0
174
     0
 93
        1
 44
0.0
173
     0
291
     1
 45
0.0
1001
ACAD
1000
AcDbSavedByObjectVersion
1070
     0
  0
VISUALSTYLE
  5
2B
102
{ACAD_REACTORS
330
2A
102
}
102
{ACAD_XDICTIONARY
360
33A
102
}
330
2A
100
AcDbVisualStyle
  2
Flat
 70
     0
 71
     2
 72
     1
 73
     1
 90
        2
 40
-0.6
 41
30.0
 62
     5
 63
     7
421
 16777215
 74
     0
 91
        4
 64
     7
 65
   257
 75
     1
175
     1
 42
1.0
 92
        8
 66
     7
 43
1.0
 76
     1
 77
     6
 78
     2
 67
     7
 79
     5
170
     0
171
     0
290
     0
174
     0
 93
       13
 44
0.0
173
     0
291
     1
 45
0.0
1001
ACAD
1000
AcDbSavedByObjectVersion
1070
     0
  0
VISUALSTYLE
  5
2C
102
{ACAD_REACTORS
330
2A
102
}
102
{ACAD_XDICTIONARY
360
33C
102
}
330
2A
100
AcDbVisualStyle
  2
FlatWithEdges
 70
     1
 71
     2
 72
     1
 73
     1
 90
        2
 40
-0.6
 41
30.0
 62
     5
 63
     7
421
 16777215
 74
     1
 91
        4
 64
     7
 65
   257
 75
     1
175
     1
 42
1.0
 92
        0
 66
   257
 43
1.0
 76
     1
 77
     6
 78
     2
 67
     7
 79
     5
170
     0
171
     0
290
     0
174
     0
 93
       13
 44
0.0
173
     0
291
     1
 45
0.0
1001
ACAD
1000
AcDbSavedByObjectVersion
1070
     0
  0
VISUALSTYLE
  5
2D
102
{ACAD_REACTORS
330
2A
102
}
102
{ACAD_XDICTIONARY
360
33E
102
}
330
2A
100
AcDbVisualStyle
  2
Gouraud
 70
     2
 71
     2
 72
     2
 73
     1
 90
        2
 40
-0.6
 41
30.0
 62
     5
 63
     7
421
 16777215
 74
     0
 91
        4
 64
     7
 65
   257
 75
     1
175
     1
 42
1.0
 92
        0
 66
     7
 43
1.0
 76
     1
 77
     6
 78
     2
 67
     7
 79
     5
170
     0
171
     0
290
     0
174
     0
 93
       13
 44
0.0
173
     0
291
     1
 45
0.0
1001
ACAD
1000
AcDbSavedByObjectVersion
1070
     0
  0
VISUALSTYLE
  5
2E
102
{ACAD_REACTORS
330
2A
102
}
102
{ACAD_XDICTIONARY
360
340
102
}
330
2A
100
AcDbVisualStyle
  2
GouraudWithEdges
 70
     3
 71
     2
 72
     2
 73
     1
 90
        2
 40
-0.6
 41
30.0
 62
     5
 63
     7
421
 16777215
 74
     1
 91
        4
 64
     7
 65
   257
 75
     1
175
     1
 42
1.0
 92
        0
 66
   257
 43
1.0
 76
     1
 77
     6
 78
     2
 67
     7
 79
     5
170
     0
171
     0
290
     0
174
     0
 93
       13
 44
0.0
173
     0
291
     1
 45
0.0
1001
ACAD
1000
AcDbSavedByObjectVersion
1070
     0
  0
VISUALSTYLE
  5
38
102
{ACAD_REACTORS
330
2A
102
}
102
{ACAD_XDICTIONARY
360
354
102
}
330
2A
100
AcDbVisualStyle
  2
Linepattern
 70
    14
 71
     2
 72
     2
 73
     0
 90
        0
 40
-0.6
 41
-30.0
 62
     5
 63
     7
421
 16777215
 74
     1
 91
        4
 64
     7
 65
   257
 75
     7
175
     7
 42
1.0
 92
        8
 66
     7
 43
1.0
 76
     1
 77
     6
 78
     2
 67
     7
 79
     5
170
     0
171
     0
290
     0
174
     0
 93
        1
 44
0.0
173
     0
291
     1
 45
0.0
1001
ACAD
1000
AcDbSavedByObjectVersion
1070
     0
  0
VISUALSTYLE
  5
33
102
{ACAD_REACTORS
330
2A
102
}
102
{ACAD_XDICTIONARY
360
34A
102
}
330
2A
100
AcDbVisualStyle
  2
Realistic
 70
     8
 71
     2
 72
     2
 73
     0
 90
        0
 40
-0.6
 41
-30.0
 62
     5
 63
     7
421
 16777215
 74
     1
 91
        0
 64
     7
 65
   257
 75
     1
175
     1
 42
1.0
 92
        8
 66
     8
424
  7895160
 43
1.0
 76
     1
 77
     6
 78
     2
 67
     7
 79
     5
170
     0
171
     0
290
     0
174
     0
 93
       13
 44
0.0
173
     0
291
     0
 45
0.0
1001
ACAD
1000
AcDbSavedByObjectVersion
1070
     0
  0
VISUALSTYLE
  5
37
102
{ACAD_REACTORS
330
2A
102
}
102
{ACAD_XDICTIONARY
360
352
102
}
330
2A
100
AcDbVisualStyle
  2
Thicken
 70
    13
 71
     2
 72
     2
 73
     0
 90
        0
 40
-0.6
 41
-30.0
 62
     5
 63
     7
421
 16777215
 74
     1
 91
        4
 64
     7
 65
   257
 75
     1
175
     1
 42
1.0
 92
       12
 66
     7
 43
1.0
 76
     1
 77
     6
 78
     2
 67
     7
 79
     5
170
     0
171
     0
290
     0
174
     0
 93
        1
 44
0.0
173
     0
291
     1
 45
0.0
1001
ACAD
1000
AcDbSavedByObjectVersion
1070
     0
  0
DICTIONARY
  5
35C
330
3D
100
AcDbDictionary
280
     1
281
     1
  3
ACAD_XREC_ROUNDTRIP
360
35D
  0
DICTIONARY
  5
35A
330
3C
100
AcDbDictionary
280
     1
281
     1
  3
ACAD_XREC_ROUNDTRIP
360
35B
  0
DICTIONARY
  5
35E
330
3E
100
AcDbDictionary
280
     1
281
     1
  3
ACAD_XREC_ROUNDTRIP
360
35F
  0
DICTIONARY
  5
342
330
2F
100
AcDbDictionary
280
     1
281
     1
  3
ACAD_XREC_ROUNDTRIP
360
343
  0
DICTIONARY
  5
346
330
31
100
AcDbDictionary
280
     1
281
     1
  3
ACAD_XREC_ROUNDTRIP
360
347
  0
DICTIONARY
  5
344
330
30
100
AcDbDictionary
280
     1
281
     1
  3
ACAD_XREC_ROUNDTRIP
360
345
  0
DICTIONARY
  5
348
330
32
100
AcDbDictionary
280
     1
281
     1
  3
ACAD_XREC_ROUNDTRIP
360
349
  0
DICTIONARY
  5
350
330
36
100
AcDbDictionary
280
     1
281
     1
  3
ACAD_XREC_ROUNDTRIP
360
351
  0
DICTIONARY
  5
358
330
3A
100
AcDbDictionary
280
     1
281
     1
  3
ACAD_XREC_ROUNDTRIP
360
359
  0
DICTIONARY
  5
34C
330
34
100
AcDbDictionary
280
     1
281
     1
  3
ACAD_XREC_ROUNDTRIP
360
34D
  0
DICTIONARY
  5
34E
330
35
100
AcDbDictionary
280
     1
281
     1
  3
ACAD_XREC_ROUNDTRIP
360
34F
  0
DICTIONARY
  5
356
330
39
100
AcDbDictionary
280
     1
281
     1
  3
ACAD_XREC_ROUNDTRIP
360
357
  0
DICTIONARY
  5
33A
330
2B
100
AcDbDictionary
280
     1
281
     1
  3
ACAD_XREC_ROUNDTRIP
360
33B
  0
DICTIONARY
  5
33C
330
2C
100
AcDbDictionary
280
     1
281
     1
  3
ACAD_XREC_ROUNDTRIP
360
33D
  0
DICTIONARY
  5
33E
330
2D
100
AcDbDictionary
280
     1
281
     1
  3
ACAD_XREC_ROUNDTRIP
360
33F
  0
DICTIONARY
  5
340
330
2E
100
AcDbDictionary
280
     1
281
     1
  3
ACAD_XREC_ROUNDTRIP
360
341
  0
DICTIONARY
  5
354
330
38
100
AcDbDictionary
280
     1
281
     1
  3
ACAD_XREC_ROUNDTRIP
360
355
  0
DICTIONARY
  5
34A
330
33
100
AcDbDictionary
280
     1
281
     1
  3
ACAD_XREC_ROUNDTRIP
360
34B
  0
DICTIONARY
  5
352
330
37
100
AcDbDictionary
280
     1
281
     1
  3
ACAD_XREC_ROUNDTRIP
360
353
  0
XRECORD
  5
35D
102
{ACAD_REACTORS
330
35C
102
}
330
35C
100
AcDbXrecord
280
     1
102
MATERIAL
148
0.0
149
0.0
149
0.0
 93
        0
 94
      127
282
     0
 72
     1
 77
     1
171
     1
175
     1
179
     1
273
     0
  0
XRECORD
  5
35B
102
{ACAD_REACTORS
330
35A
102
}
330
35A
100
AcDbXrecord
280
     1
102
MATERIAL
148
0.0
149
0.0
149
0.0
 93
        0
 94
      127
282
     0
 72
     1
 77
     1
171
     1
175
     1
179
     1
273
     0
  0
XRECORD
  5
35F
102
{ACAD_REACTORS
330
35E
102
}
330
35E
100
AcDbXrecord
280
     1
102
MATERIAL
148
0.0
149
0.0
149
0.0
 93
        0
 94
      127
282
     0
 72
     1
 77
     1
171
     1
175
     1
179
     1
273
     0
  0
XRECORD
  5
343
102
{ACAD_REACTORS
330
342
102
}
330
342
100
AcDbXrecord
280
     1
102
RTVSPropertyOp0
 70
     1
102
RTVSPropertyOp1
 70
     1
102
RTVSPropertyOp2
 70
     1
102
RTVSPropertyOp3
 70
     1
102
RTVSPropertyOp4
 70
     1
102
RTVSPropertyOp5
 70
     1
102
RTVSPropertyOp6
 70
     1
102
RTVSPropertyOp7
 70
     1
102
RTVSPropertyOp8
 70
     1
102
RTVSPropertyOp9
 70
     1
102
RTVSPropertyOp10
 70
     1
102
RTVSPropertyOp11
 70
     1
102
RTVSPropertyOp12
 70
     1
102
RTVSPropertyOp13
 70
     1
102
RTVSPropertyOp14
 70
     1
102
RTVSPropertyOp15
 70
     1
102
RTVSPropertyOp16
 70
     1
102
RTVSPropertyOp17
 70
     1
102
RTVSPropertyOp18
 70
     1
102
RTVSPropertyOp19
 70
     1
102
RTVSPropertyOp20
 70
     1
102
RTVSPropertyOp21
 70
     1
102
RTVSPropertyOp22
 70
     1
102
RTVSPropertyOp23
 70
     1
102
RTVSPropertyOp24
 70
     1
102
RTVSPropertyOp25
 70
     1
102
RTVSPropertyOp26
 70
     1
102
RTVSPropertyOp27
 70
     1
102
RTVSPropertyOp28
 70
     1
102
RTVSPropertyOp29
 70
     1
102
RTVSPropertyOp30
 70
     1
102
RTVSPropertyOp31
 70
     1
102
RTVSPropertyOp32
 70
     1
  0
XRECORD
  5
347
102
{ACAD_REACTORS
330
346
102
}
330
346
100
AcDbXrecord
280
     1
102
RTVSPropertyOp0
 70
     1
102
RTVSPropertyOp1
 70
     1
102
RTVSPropertyOp2
 70
     1
102
RTVSPropertyOp3
 70
     1
102
RTVSPropertyOp4
 70
     1
102
RTVSPropertyOp5
 70
     1
102
RTVSPropertyOp6
 70
     1
102
RTVSPropertyOp7
 70
     1
102
RTVSPropertyOp8
 70
     1
102
RTVSPropertyOp9
 70
     1
102
RTVSPropertyOp10
 70
     1
102
RTVSPropertyOp11
 70
     1
102
RTVSPropertyOp12
 70
     1
102
RTVSPropertyOp13
 70
     1
102
RTVSPropertyOp14
 70
     1
102
RTVSPropertyOp15
 70
     1
102
RTVSPropertyOp16
 70
     1
102
RTVSPropertyOp17
 70
     1
102
RTVSPropertyOp18
 70
     1
102
RTVSPropertyOp19
 70
     1
102
RTVSPropertyOp20
 70
     1
102
RTVSPropertyOp21
 70
     1
102
RTVSPropertyOp22
 70
     1
102
RTVSPropertyOp23
 70
     1
102
RTVSPropertyOp24
 70
     1
102
RTVSPropertyOp25
 70
     1
102
RTVSPropertyOp26
 70
     1
102
RTVSPropertyOp27
 70
     1
102
RTVSPropertyOp28
 70
     1
102
RTVSPropertyOp29
 70
     1
102
RTVSPropertyOp30
 70
     1
102
RTVSPropertyOp31
 70
     1
102
RTVSPropertyOp32
 70
     1
  0
XRECORD
  5
345
102
{ACAD_REACTORS
330
344
102
}
330
344
100
AcDbXrecord
280
     1
102
RTVSPropertyOp0
 70
     1
102
RTVSPropertyOp1
 70
     1
102
RTVSPropertyOp2
 70
     1
102
RTVSPropertyOp3
 70
     1
102
RTVSPropertyOp4
 70
     1
102
RTVSPropertyOp5
 70
     1
102
RTVSPropertyOp6
 70
     1
102
RTVSPropertyOp7
 70
     1
102
RTVSPropertyOp8
 70
     1
102
RTVSPropertyOp9
 70
     1
102
RTVSPropertyOp10
 70
     1
102
RTVSPropertyOp11
 70
     1
102
RTVSPropertyOp12
 70
     1
102
RTVSPropertyOp13
 70
     1
102
RTVSPropertyOp14
 70
     1
102
RTVSPropertyOp15
 70
     1
102
RTVSPropertyOp16
 70
     1
102
RTVSPropertyOp17
 70
     1
102
RTVSPropertyOp18
 70
     1
102
RTVSPropertyOp19
 70
     1
102
RTVSPropertyOp20
 70
     1
102
RTVSPropertyOp21
 70
     1
102
RTVSPropertyOp22
 70
     1
102
RTVSPropertyOp23
 70
     1
102
RTVSPropertyOp24
 70
     1
102
RTVSPropertyOp25
 70
     1
102
RTVSPropertyOp26
 70
     1
102
RTVSPropertyOp27
 70
     1
102
RTVSPropertyOp28
 70
     1
102
RTVSPropertyOp29
 70
     1
102
RTVSPropertyOp30
 70
     1
102
RTVSPropertyOp31
 70
     1
102
RTVSPropertyOp32
 70
     1
  0
XRECORD
  5
349
102
{ACAD_REACTORS
330
348
102
}
330
348
100
AcDbXrecord
280
     1
102
RTVSPropertyOp0
 70
     1
102
RTVSPropertyOp1
 70
     1
102
RTVSPropertyOp2
 70
     1
102
RTVSPropertyOp3
 70
     1
102
RTVSPropertyOp4
 70
     1
102
RTVSPropertyOp5
 70
     1
102
RTVSPropertyOp6
 70
     1
102
RTVSPropertyOp7
 70
     1
102
RTVSPropertyOp8
 70
     1
102
RTVSPropertyOp9
 70
     1
102
RTVSPropertyOp10
 70
     1
102
RTVSPropertyOp11
 70
     1
102
RTVSPropertyOp12
 70
     1
102
RTVSPropertyOp13
 70
     1
102
RTVSPropertyOp14
 70
     1
102
RTVSPropertyOp15
 70
     1
102
RTVSPropertyOp16
 70
     1
102
RTVSPropertyOp17
 70
     1
102
RTVSPropertyOp18
 70
     1
102
RTVSPropertyOp19
 70
     1
102
RTVSPropertyOp20
 70
     1
102
RTVSPropertyOp21
 70
     1
102
RTVSPropertyOp22
 70
     1
102
RTVSPropertyOp23
 70
     1
102
RTVSPropertyOp24
 70
     1
102
RTVSPropertyOp25
 70
     1
102
RTVSPropertyOp26
 70
     1
102
RTVSPropertyOp27
 70
     1
102
RTVSPropertyOp28
 70
     1
102
RTVSPropertyOp29
 70
     1
102
RTVSPropertyOp30
 70
     1
102
RTVSPropertyOp31
 70
     1
102
RTVSPropertyOp32
 70
     1
  0
XRECORD
  5
351
102
{ACAD_REACTORS
330
350
102
}
330
350
100
AcDbXrecord
280
     1
102
RTVSPropertyOp0
 70
     1
102
RTVSPropertyOp1
 70
     1
102
RTVSPropertyOp2
 70
     1
102
RTVSPropertyOp3
 70
     1
102
RTVSPropertyOp4
 70
     1
102
RTVSPropertyOp5
 70
     1
102
RTVSPropertyOp6
 70
     1
102
RTVSPropertyOp7
 70
     1
102
RTVSPropertyOp8
 70
     1
102
RTVSPropertyOp9
 70
     1
102
RTVSPropertyOp10
 70
     1
102
RTVSPropertyOp11
 70
     1
102
RTVSPropertyOp12
 70
     1
102
RTVSPropertyOp13
 70
     1
102
RTVSPropertyOp14
 70
     1
102
RTVSPropertyOp15
 70
     1
102
RTVSPropertyOp16
 70
     1
102
RTVSPropertyOp17
 70
     1
102
RTVSPropertyOp18
 70
     1
102
RTVSPropertyOp19
 70
     1
102
RTVSPropertyOp20
 70
     1
102
RTVSPropertyOp21
 70
     1
102
RTVSPropertyOp22
 70
     1
102
RTVSPropertyOp23
 70
     1
102
RTVSPropertyOp24
 70
     1
102
RTVSPropertyOp25
 70
     1
102
RTVSPropertyOp26
 70
     1
102
RTVSPropertyOp27
 70
     1
102
RTVSPropertyOp28
 70
     1
102
RTVSPropertyOp29
 70
     1
102
RTVSPropertyOp30
 70
     1
102
RTVSPropertyOp31
 70
     1
102
RTVSPropertyOp32
 70
     1
  0
XRECORD
  5
359
102
{ACAD_REACTORS
330
358
102
}
330
358
100
AcDbXrecord
280
     1
102
RTVSPropertyOp0
 70
     1
102
RTVSPropertyOp1
 70
     1
102
RTVSPropertyOp2
 70
     1
102
RTVSPropertyOp3
 70
     1
102
RTVSPropertyOp4
 70
     1
102
RTVSPropertyOp5
 70
     1
102
RTVSPropertyOp6
 70
     1
102
RTVSPropertyOp7
 70
     1
102
RTVSPropertyOp8
 70
     1
102
RTVSPropertyOp9
 70
     1
102
RTVSPropertyOp10
 70
     1
102
RTVSPropertyOp11
 70
     1
102
RTVSPropertyOp12
 70
     1
102
RTVSPropertyOp13
 70
     1
102
RTVSPropertyOp14
 70
     1
102
RTVSPropertyOp15
 70
     1
102
RTVSPropertyOp16
 70
     1
102
RTVSPropertyOp17
 70
     1
102
RTVSPropertyOp18
 70
     1
102
RTVSPropertyOp19
 70
     1
102
RTVSPropertyOp20
 70
     1
102
RTVSPropertyOp21
 70
     1
102
RTVSPropertyOp22
 70
     1
102
RTVSPropertyOp23
 70
     1
102
RTVSPropertyOp24
 70
     1
102
RTVSPropertyOp25
 70
     1
102
RTVSPropertyOp26
 70
     1
102
RTVSPropertyOp27
 70
     1
102
RTVSPropertyOp28
 70
     1
102
RTVSPropertyOp29
 70
     1
102
RTVSPropertyOp30
 70
     1
102
RTVSPropertyOp31
 70
     1
102
RTVSPropertyOp32
 70
     1
  0
XRECORD
  5
34D
102
{ACAD_REACTORS
330
34C
102
}
330
34C
100
AcDbXrecord
280
     1
102
RTVSPropertyOp0
 70
     1
102
RTVSPropertyOp1
 70
     1
102
RTVSPropertyOp2
 70
     1
102
RTVSPropertyOp3
 70
     1
102
RTVSPropertyOp4
 70
     1
102
RTVSPropertyOp5
 70
     1
102
RTVSPropertyOp6
 70
     1
102
RTVSPropertyOp7
 70
     1
102
RTVSPropertyOp8
 70
     1
102
RTVSPropertyOp9
 70
     1
102
RTVSPropertyOp10
 70
     1
102
RTVSPropertyOp11
 70
     1
102
RTVSPropertyOp12
 70
     1
102
RTVSPropertyOp13
 70
     1
102
RTVSPropertyOp14
 70
     1
102
RTVSPropertyOp15
 70
     1
102
RTVSPropertyOp16
 70
     1
102
RTVSPropertyOp17
 70
     1
102
RTVSPropertyOp18
 70
     1
102
RTVSPropertyOp19
 70
     1
102
RTVSPropertyOp20
 70
     1
102
RTVSPropertyOp21
 70
     1
102
RTVSPropertyOp22
 70
     1
102
RTVSPropertyOp23
 70
     1
102
RTVSPropertyOp24
 70
     1
102
RTVSPropertyOp25
 70
     1
102
RTVSPropertyOp26
 70
     1
102
RTVSPropertyOp27
 70
     1
102
RTVSPropertyOp28
 70
     1
102
RTVSPropertyOp29
 70
     1
102
RTVSPropertyOp30
 70
     1
102
RTVSPropertyOp31
 70
     1
102
RTVSPropertyOp32
 70
     1
  0
XRECORD
  5
34F
102
{ACAD_REACTORS
330
34E
102
}
330
34E
100
AcDbXrecord
280
     1
102
RTVSPropertyOp0
 70
     1
102
RTVSPropertyOp1
 70
     1
102
RTVSPropertyOp2
 70
     1
102
RTVSPropertyOp3
 70
     1
102
RTVSPropertyOp4
 70
     1
102
RTVSPropertyOp5
 70
     1
102
RTVSPropertyOp6
 70
     1
102
RTVSPropertyOp7
 70
     1
102
RTVSPropertyOp8
 70
     1
102
RTVSPropertyOp9
 70
     1
102
RTVSPropertyOp10
 70
     1
102
RTVSPropertyOp11
 70
     1
102
RTVSPropertyOp12
 70
     1
102
RTVSPropertyOp13
 70
     1
102
RTVSPropertyOp14
 70
     1
102
RTVSPropertyOp15
 70
     1
102
RTVSPropertyOp16
 70
     1
102
RTVSPropertyOp17
 70
     1
102
RTVSPropertyOp18
 70
     1
102
RTVSPropertyOp19
 70
     1
102
RTVSPropertyOp20
 70
     1
102
RTVSPropertyOp21
 70
     1
102
RTVSPropertyOp22
 70
     1
102
RTVSPropertyOp23
 70
     1
102
RTVSPropertyOp24
 70
     1
102
RTVSPropertyOp25
 70
     1
102
RTVSPropertyOp26
 70
     1
102
RTVSPropertyOp27
 70
     1
102
RTVSPropertyOp28
 70
     1
102
RTVSPropertyOp29
 70
     1
102
RTVSPropertyOp30
 70
     1
102
RTVSPropertyOp31
 70
     1
102
RTVSPropertyOp32
 70
     1
  0
XRECORD
  5
357
102
{ACAD_REACTORS
330
356
102
}
330
356
100
AcDbXrecord
280
     1
102
RTVSPropertyOp0
 70
     1
102
RTVSPropertyOp1
 70
     1
102
RTVSPropertyOp2
 70
     1
102
RTVSPropertyOp3
 70
     1
102
RTVSPropertyOp4
 70
     1
102
RTVSPropertyOp5
 70
     1
102
RTVSPropertyOp6
 70
     1
102
RTVSPropertyOp7
 70
     1
102
RTVSPropertyOp8
 70
     1
102
RTVSPropertyOp9
 70
     1
102
RTVSPropertyOp10
 70
     1
102
RTVSPropertyOp11
 70
     1
102
RTVSPropertyOp12
 70
     1
102
RTVSPropertyOp13
 70
     1
102
RTVSPropertyOp14
 70
     1
102
RTVSPropertyOp15
 70
     1
102
RTVSPropertyOp16
 70
     1
102
RTVSPropertyOp17
 70
     1
102
RTVSPropertyOp18
 70
     1
102
RTVSPropertyOp19
 70
     1
102
RTVSPropertyOp20
 70
     1
102
RTVSPropertyOp21
 70
     1
102
RTVSPropertyOp22
 70
     1
102
RTVSPropertyOp23
 70
     1
102
RTVSPropertyOp24
 70
     1
102
RTVSPropertyOp25
 70
     1
102
RTVSPropertyOp26
 70
     1
102
RTVSPropertyOp27
 70
     1
102
RTVSPropertyOp28
 70
     1
102
RTVSPropertyOp29
 70
     1
102
RTVSPropertyOp30
 70
     1
102
RTVSPropertyOp31
 70
     1
102
RTVSPropertyOp32
 70
     1
  0
XRECORD
  5
33B
102
{ACAD_REACTORS
330
33A
102
}
330
33A
100
AcDbXrecord
280
     1
102
RTVSPropertyOp0
 70
     1
102
RTVSPropertyOp1
 70
     1
102
RTVSPropertyOp2
 70
     1
102
RTVSPropertyOp3
 70
     1
102
RTVSPropertyOp4
 70
     1
102
RTVSPropertyOp5
 70
     1
102
RTVSPropertyOp6
 70
     1
102
RTVSPropertyOp7
 70
     1
102
RTVSPropertyOp8
 70
     1
102
RTVSPropertyOp9
 70
     1
102
RTVSPropertyOp10
 70
     1
102
RTVSPropertyOp11
 70
     1
102
RTVSPropertyOp12
 70
     1
102
RTVSPropertyOp13
 70
     1
102
RTVSPropertyOp14
 70
     1
102
RTVSPropertyOp15
 70
     1
102
RTVSPropertyOp16
 70
     1
102
RTVSPropertyOp17
 70
     1
102
RTVSPropertyOp18
 70
     1
102
RTVSPropertyOp19
 70
     1
102
RTVSPropertyOp20
 70
     1
102
RTVSPropertyOp21
 70
     1
102
RTVSPropertyOp22
 70
     1
102
RTVSPropertyOp23
 70
     1
102
RTVSPropertyOp24
 70
     1
102
RTVSPropertyOp25
 70
     1
102
RTVSPropertyOp26
 70
     1
102
RTVSPropertyOp27
 70
     1
102
RTVSPropertyOp28
 70
     1
102
RTVSPropertyOp29
 70
     1
102
RTVSPropertyOp30
 70
     1
102
RTVSPropertyOp31
 70
     1
102
RTVSPropertyOp32
 70
     1
  0
XRECORD
  5
33D
102
{ACAD_REACTORS
330
33C
102
}
330
33C
100
AcDbXrecord
280
     1
102
RTVSPropertyOp0
 70
     1
102
RTVSPropertyOp1
 70
     1
102
RTVSPropertyOp2
 70
     1
102
RTVSPropertyOp3
 70
     1
102
RTVSPropertyOp4
 70
     1
102
RTVSPropertyOp5
 70
     1
102
RTVSPropertyOp6
 70
     1
102
RTVSPropertyOp7
 70
     1
102
RTVSPropertyOp8
 70
     1
102
RTVSPropertyOp9
 70
     1
102
RTVSPropertyOp10
 70
     1
102
RTVSPropertyOp11
 70
     1
102
RTVSPropertyOp12
 70
     1
102
RTVSPropertyOp13
 70
     1
102
RTVSPropertyOp14
 70
     1
102
RTVSPropertyOp15
 70
     1
102
RTVSPropertyOp16
 70
     1
102
RTVSPropertyOp17
 70
     1
102
RTVSPropertyOp18
 70
     1
102
RTVSPropertyOp19
 70
     1
102
RTVSPropertyOp20
 70
     1
102
RTVSPropertyOp21
 70
     1
102
RTVSPropertyOp22
 70
     1
102
RTVSPropertyOp23
 70
     1
102
RTVSPropertyOp24
 70
     1
102
RTVSPropertyOp25
 70
     1
102
RTVSPropertyOp26
 70
     1
102
RTVSPropertyOp27
 70
     1
102
RTVSPropertyOp28
 70
     1
102
RTVSPropertyOp29
 70
     1
102
RTVSPropertyOp30
 70
     1
102
RTVSPropertyOp31
 70
     1
102
RTVSPropertyOp32
 70
     1
  0
XRECORD
  5
33F
102
{ACAD_REACTORS
330
33E
102
}
330
33E
100
AcDbXrecord
280
     1
102
RTVSPropertyOp0
 70
     1
102
RTVSPropertyOp1
 70
     1
102
RTVSPropertyOp2
 70
     1
102
RTVSPropertyOp3
 70
     1
102
RTVSPropertyOp4
 70
     1
102
RTVSPropertyOp5
 70
     1
102
RTVSPropertyOp6
 70
     1
102
RTVSPropertyOp7
 70
     1
102
RTVSPropertyOp8
 70
     1
102
RTVSPropertyOp9
 70
     1
102
RTVSPropertyOp10
 70
     1
102
RTVSPropertyOp11
 70
     1
102
RTVSPropertyOp12
 70
     1
102
RTVSPropertyOp13
 70
     1
102
RTVSPropertyOp14
 70
     1
102
RTVSPropertyOp15
 70
     1
102
RTVSPropertyOp16
 70
     1
102
RTVSPropertyOp17
 70
     1
102
RTVSPropertyOp18
 70
     1
102
RTVSPropertyOp19
 70
     1
102
RTVSPropertyOp20
 70
     1
102
RTVSPropertyOp21
 70
     1
102
RTVSPropertyOp22
 70
     1
102
RTVSPropertyOp23
 70
     1
102
RTVSPropertyOp24
 70
     1
102
RTVSPropertyOp25
 70
     1
102
RTVSPropertyOp26
 70
     1
102
RTVSPropertyOp27
 70
     1
102
RTVSPropertyOp28
 70
     1
102
RTVSPropertyOp29
 70
     1
102
RTVSPropertyOp30
 70
     1
102
RTVSPropertyOp31
 70
     1
102
RTVSPropertyOp32
 70
     1
  0
XRECORD
  5
341
102
{ACAD_REACTORS
330
340
102
}
330
340
100
AcDbXrecord
280
     1
102
RTVSPropertyOp0
 70
     1
102
RTVSPropertyOp1
 70
     1
102
RTVSPropertyOp2
 70
     1
102
RTVSPropertyOp3
 70
     1
102
RTVSPropertyOp4
 70
     1
102
RTVSPropertyOp5
 70
     1
102
RTVSPropertyOp6
 70
     1
102
RTVSPropertyOp7
 70
     1
102
RTVSPropertyOp8
 70
     1
102
RTVSPropertyOp9
 70
     1
102
RTVSPropertyOp10
 70
     1
102
RTVSPropertyOp11
 70
     1
102
RTVSPropertyOp12
 70
     1
102
RTVSPropertyOp13
 70
     1
102
RTVSPropertyOp14
 70
     1
102
RTVSPropertyOp15
 70
     1
102
RTVSPropertyOp16
 70
     1
102
RTVSPropertyOp17
 70
     1
102
RTVSPropertyOp18
 70
     1
102
RTVSPropertyOp19
 70
     1
102
RTVSPropertyOp20
 70
     1
102
RTVSPropertyOp21
 70
     1
102
RTVSPropertyOp22
 70
     1
102
RTVSPropertyOp23
 70
     1
102
RTVSPropertyOp24
 70
     1
102
RTVSPropertyOp25
 70
     1
102
RTVSPropertyOp26
 70
     1
102
RTVSPropertyOp27
 70
     1
102
RTVSPropertyOp28
 70
     1
102
RTVSPropertyOp29
 70
     1
102
RTVSPropertyOp30
 70
     1
102
RTVSPropertyOp31
 70
     1
102
RTVSPropertyOp32
 70
     1
  0
XRECORD
  5
355
102
{ACAD_REACTORS
330
354
102
}
330
354
100
AcDbXrecord
280
     1
102
RTVSPropertyOp0
 70
     1
102
RTVSPropertyOp1
 70
     1
102
RTVSPropertyOp2
 70
     1
102
RTVSPropertyOp3
 70
     1
102
RTVSPropertyOp4
 70
     1
102
RTVSPropertyOp5
 70
     1
102
RTVSPropertyOp6
 70
     1
102
RTVSPropertyOp7
 70
     1
102
RTVSPropertyOp8
 70
     1
102
RTVSPropertyOp9
 70
     1
102
RTVSPropertyOp10
 70
     1
102
RTVSPropertyOp11
 70
     1
102
RTVSPropertyOp12
 70
     1
102
RTVSPropertyOp13
 70
     1
102
RTVSPropertyOp14
 70
     1
102
RTVSPropertyOp15
 70
     1
102
RTVSPropertyOp16
 70
     1
102
RTVSPropertyOp17
 70
     1
102
RTVSPropertyOp18
 70
     1
102
RTVSPropertyOp19
 70
     1
102
RTVSPropertyOp20
 70
     1
102
RTVSPropertyOp21
 70
     1
102
RTVSPropertyOp22
 70
     1
102
RTVSPropertyOp23
 70
     1
102
RTVSPropertyOp24
 70
     1
102
RTVSPropertyOp25
 70
     1
102
RTVSPropertyOp26
 70
     1
102
RTVSPropertyOp27
 70
     1
102
RTVSPropertyOp28
 70
     1
102
RTVSPropertyOp29
 70
     1
102
RTVSPropertyOp30
 70
     1
102
RTVSPropertyOp31
 70
     1
102
RTVSPropertyOp32
 70
     1
  0
XRECORD
  5
34B
102
{ACAD_REACTORS
330
34A
102
}
330
34A
100
AcDbXrecord
280
     1
102
RTVSPropertyOp0
 70
     1
102
RTVSPropertyOp1
 70
     1
102
RTVSPropertyOp2
 70
     1
102
RTVSPropertyOp3
 70
     1
102
RTVSPropertyOp4
 70
     1
102
RTVSPropertyOp5
 70
     1
102
RTVSPropertyOp6
 70
     1
102
RTVSPropertyOp7
 70
     1
102
RTVSPropertyOp8
 70
     1
102
RTVSPropertyOp9
 70
     1
102
RTVSPropertyOp10
 70
     1
102
RTVSPropertyOp11
 70
     1
102
RTVSPropertyOp12
 70
     1
102
RTVSPropertyOp13
 70
     1
102
RTVSPropertyOp14
 70
     1
102
RTVSPropertyOp15
 70
     1
102
RTVSPropertyOp16
 70
     1
102
RTVSPropertyOp17
 70
     1
102
RTVSPropertyOp18
 70
     1
102
RTVSPropertyOp19
 70
     1
102
RTVSPropertyOp20
 70
     1
102
RTVSPropertyOp21
 70
     1
102
RTVSPropertyOp22
 70
     1
102
RTVSPropertyOp23
 70
     1
102
RTVSPropertyOp24
 70
     1
102
RTVSPropertyOp25
 70
     1
102
RTVSPropertyOp26
 70
     1
102
RTVSPropertyOp27
 70
     1
102
RTVSPropertyOp28
 70
     1
102
RTVSPropertyOp29
 70
     1
102
RTVSPropertyOp30
 70
     1
102
RTVSPropertyOp31
 70
     1
102
RTVSPropertyOp32
 70
     1
  0
XRECORD
  5
353
102
{ACAD_REACTORS
330
352
102
}
330
352
100
AcDbXrecord
280
     1
102
RTVSPropertyOp0
 70
     1
102
RTVSPropertyOp1
 70
     1
102
RTVSPropertyOp2
 70
     1
102
RTVSPropertyOp3
 70
     1
102
RTVSPropertyOp4
 70
     1
102
RTVSPropertyOp5
 70
     1
102
RTVSPropertyOp6
 70
     1
102
RTVSPropertyOp7
 70
     1
102
RTVSPropertyOp8
 70
     1
102
RTVSPropertyOp9
 70
     1
102
RTVSPropertyOp10
 70
     1
102
RTVSPropertyOp11
 70
     1
102
RTVSPropertyOp12
 70
     1
102
RTVSPropertyOp13
 70
     1
102
RTVSPropertyOp14
 70
     1
102
RTVSPropertyOp15
 70
     1
102
RTVSPropertyOp16
 70
     1
102
RTVSPropertyOp17
 70
     1
102
RTVSPropertyOp18
 70
     1
102
RTVSPropertyOp19
 70
     1
102
RTVSPropertyOp20
 70
     1
102
RTVSPropertyOp21
 70
     1
102
RTVSPropertyOp22
 70
     1
102
RTVSPropertyOp23
 70
     1
102
RTVSPropertyOp24
 70
     1
102
RTVSPropertyOp25
 70
     1
102
RTVSPropertyOp26
 70
     1
102
RTVSPropertyOp27
 70
     1
102
RTVSPropertyOp28
 70
     1
102
RTVSPropertyOp29
 70
     1
102
RTVSPropertyOp30
 70
     1
102
RTVSPropertyOp31
 70
     1
102
RTVSPropertyOp32
 70
     1
  0
ENDSEC
  0
EOF
