  0
SECTION
  2
HEADER
  9
$ACADVER
  1
AC1018
  9
$ACADMAINTVER
 70
     0
  9
$DWGCODEPAGE
  3
MAC-ROMAN
  9
$INSBASE
 10
0.0
 20
0.0
 30
0.0
  9
$EXTMIN
 10
-194.8556721568058
 20
-44.18595618781291
 30
0.0
  9
$EXTMAX
 10
110.9863996894682
 20
98.30280532102941
 30
0.0
  9
$LIMMIN
 10
0.0
 20
0.0
  9
$LIMMAX
 10
12.0
 20
9.0
  9
$ORTHOMODE
 70
     0
  9
$REGENMODE
 70
     1
  9
$FILLMODE
 70
     1
  9
$QTEXTMODE
 70
     0
  9
$MIRRTEXT
 70
     1
  9
$LTSCALE
 40
1.0
  9
$ATTMODE
 70
     1
  9
$TEXTSIZE
 40
0.2
  9
$TRACEWID
 40
0.05
  9
$TEXTSTYLE
  7
Standard
  9
$CLAYER
  8
tagli interni
  9
$CELTYPE
  6
ByLayer
  9
$CECOLOR
 62
   256
  9
$CELTSCALE
 40
1.0
  9
$DISPSILH
 70
     0
  9
$DIMSCALE
 40
1.0
  9
$DIMASZ
 40
0.18
  9
$DIMEXO
 40
0.0625
  9
$DIMDLI
 40
0.38
  9
$DIMRND
 40
0.0
  9
$DIMDLE
 40
0.0
  9
$DIMEXE
 40
0.18
  9
$DIMTP
 40
0.0
  9
$DIMTM
 40
0.0
  9
$DIMTXT
 40
0.18
  9
$DIMCEN
 40
0.09
  9
$DIMTSZ
 40
0.0
  9
$DIMTOL
 70
     0
  9
$DIMLIM
 70
     0
  9
$DIMTIH
 70
     1
  9
$DIMTOH
 70
     1
  9
$DIMSE1
 70
     0
  9
$DIMSE2
 70
     0
  9
$DIMTAD
 70
     0
  9
$DIMZIN
 70
     0
  9
$DIMBLK
  1

  9
$DIMASO
 70
     1
  9
$DIMSHO
 70
     1
  9
$DIMPOST
  1

  9
$DIMAPOST
  1

  9
$DIMALT
 70
     0
  9
$DIMALTD
 70
     2
  9
$DIMALTF
 40
25.4
  9
$DIMLFAC
 40
1.0
  9
$DIMTOFL
 70
     0
  9
$DIMTVP
 40
0.0
  9
$DIMTIX
 70
     0
  9
$DIMSOXD
 70
     0
  9
$DIMSAH
 70
     0
  9
$DIMBLK1
  1

  9
$DIMBLK2
  1

  9
$DIMSTYLE
  2
Standard
  9
$DIMCLRD
 70
     0
  9
$DIMCLRE
 70
     0
  9
$DIMCLRT
 70
     0
  9
$DIMTFAC
 40
1.0
  9
$DIMGAP
 40
0.09
  9
$DIMJUST
 70
     0
  9
$DIMSD1
 70
     0
  9
$DIMSD2
 70
     0
  9
$DIMTOLJ
 70
     1
  9
$DIMTZIN
 70
     0
  9
$DIMALTZ
 70
     0
  9
$DIMALTTZ
 70
     0
  9
$DIMUPT
 70
     0
  9
$DIMDEC
 70
     4
  9
$DIMTDEC
 70
     4
  9
$DIMALTU
 70
     2
  9
$DIMALTTD
 70
     2
  9
$DIMTXSTY
  7
Standard
  9
$DIMAUNIT
 70
     0
  9
$DIMADEC
 70
     0
  9
$DIMALTRND
 40
0.0
  9
$DIMAZIN
 70
     0
  9
$DIMDSEP
 70
    46
  9
$DIMATFIT
 70
     3
  9
$DIMFRAC
 70
     0
  9
$DIMLDRBLK
  1

  9
$DIMLUNIT
 70
     2
  9
$DIMLWD
 70
    -2
  9
$DIMLWE
 70
    -2
  9
$DIMTMOVE
 70
     2
  9
$LUNITS
 70
     2
  9
$LUPREC
 70
     2
  9
$SKETCHINC
 40
0.1
  9
$FILLETRAD
 40
0.5
  9
$AUNITS
 70
     0
  9
$AUPREC
 70
     0
  9
$MENU
  1
.
  9
$ELEVATION
 40
0.0
  9
$PELEVATION
 40
0.0
  9
$THICKNESS
 40
0.0
  9
$LIMCHECK
 70
     0
  9
$CHAMFERA
 40
0.0
  9
$CHAMFERB
 40
0.0
  9
$CHAMFERC
 40
0.0
  9
$CHAMFERD
 40
0.0
  9
$SKPOLY
 70
     0
  9
$TDCREATE
 40
2457070.768946759
  9
$TDUCREATE
 40
2457070.727280092
  9
$TDUPDATE
 40
2457070.768981481
  9
$TDUUPDATE
 40
2457070.727314815
  9
$TDINDWG
 40
0.0000000116
  9
$TDUSRTIMER
 40
0.0000000116
  9
$USRTIMER
 70
     1
  9
$ANGBASE
 50
0.0
  9
$ANGDIR
 70
     0
  9
$PDMODE
 70
     0
  9
$PDSIZE
 40
0.0
  9
$PLINEWID
 40
0.0
  9
$SPLFRAME
 70
     0
  9
$SPLINETYPE
 70
     6
  9
$SPLINESEGS
 70
     8
  9
$HANDSEED
  5
444
  9
$SURFTAB1
 70
     6
  9
$SURFTAB2
 70
     6
  9
$SURFTYPE
 70
     6
  9
$SURFU
 70
     6
  9
$SURFV
 70
     6
  9
$UCSBASE
  2

  9
$UCSNAME
  2

  9
$UCSORG
 10
0.0
 20
0.0
 30
0.0
  9
$UCSXDIR
 10
1.0
 20
0.0
 30
0.0
  9
$UCSYDIR
 10
0.0
 20
1.0
 30
0.0
  9
$UCSORTHOREF
  2

  9
$UCSORTHOVIEW
 70
     0
  9
$UCSORGTOP
 10
0.0
 20
0.0
 30
0.0
  9
$UCSORGBOTTOM
 10
0.0
 20
0.0
 30
0.0
  9
$UCSORGLEFT
 10
0.0
 20
0.0
 30
0.0
  9
$UCSORGRIGHT
 10
0.0
 20
0.0
 30
0.0
  9
$UCSORGFRONT
 10
0.0
 20
0.0
 30
0.0
  9
$UCSORGBACK
 10
0.0
 20
0.0
 30
0.0
  9
$PUCSBASE
  2

  9
$PUCSNAME
  2

  9
$PUCSORG
 10
0.0
 20
0.0
 30
0.0
  9
$PUCSXDIR
 10
1.0
 20
0.0
 30
0.0
  9
$PUCSYDIR
 10
0.0
 20
1.0
 30
0.0
  9
$PUCSORTHOREF
  2

  9
$PUCSORTHOVIEW
 70
     0
  9
$PUCSORGTOP
 10
0.0
 20
0.0
 30
0.0
  9
$PUCSORGBOTTOM
 10
0.0
 20
0.0
 30
0.0
  9
$PUCSORGLEFT
 10
0.0
 20
0.0
 30
0.0
  9
$PUCSORGRIGHT
 10
0.0
 20
0.0
 30
0.0
  9
$PUCSORGFRONT
 10
0.0
 20
0.0
 30
0.0
  9
$PUCSORGBACK
 10
0.0
 20
0.0
 30
0.0
  9
$USERI1
 70
     0
  9
$USERI2
 70
     0
  9
$USERI3
 70
     0
  9
$USERI4
 70
     0
  9
$USERI5
 70
     0
  9
$USERR1
 40
0.0
  9
$USERR2
 40
0.0
  9
$USERR3
 40
0.0
  9
$USERR4
 40
0.0
  9
$USERR5
 40
0.0
  9
$WORLDVIEW
 70
     1
  9
$SHADEDGE
 70
     3
  9
$SHADEDIF
 70
    70
  9
$TILEMODE
 70
     1
  9
$MAXACTVP
 70
    64
  9
$PINSBASE
 10
0.0
 20
0.0
 30
0.0
  9
$PLIMCHECK
 70
     0
  9
$PEXTMIN
 10
1.000000000000000E+20
 20
1.000000000000000E+20
 30
1.000000000000000E+20
  9
$PEXTMAX
 10
-1.000000000000000E+20
 20
-1.000000000000000E+20
 30
-1.000000000000000E+20
  9
$PLIMMIN
 10
0.0
 20
0.0
  9
$PLIMMAX
 10
12.0
 20
9.0
  9
$UNITMODE
 70
     0
  9
$VISRETAIN
 70
     1
  9
$PLINEGEN
 70
     0
  9
$PSLTSCALE
 70
     1
  9
$TREEDEPTH
 70
  3020
  9
$CMLSTYLE
  2
Standard
  9
$CMLJUST
 70
     0
  9
$CMLSCALE
 40
1.0
  9
$PROXYGRAPHICS
 70
     1
  9
$MEASUREMENT
 70
     0
  9
$CELWEIGHT
370
    -1
  9
$ENDCAPS
280
     0
  9
$JOINSTYLE
280
     0
  9
$LWDISPLAY
290
     0
  9
$INSUNITS
 70
     4
  9
$HYPERLINKBASE
  1

  9
$STYLESHEET
  1

  9
$XEDIT
290
     1
  9
$CEPSNTYPE
380
     0
  9
$PSTYLEMODE
290
     1
  9
$FINGERPRINTGUID
  2
{A2682DC2-55A5-40E0-9B92-04CE2C687576}
  9
$VERSIONGUID
  2
{FAEB1C32-E019-11D5-929B-00C0DF256EC4}
  9
$EXTNAMES
290
     1
  9
$PSVPSCALE
 40
0.0
  9
$OLESTARTUP
290
     0
  9
$SORTENTS
280
   127
  9
$INDEXCTL
280
     0
  9
$HIDETEXT
280
     1
  9
$XCLIPFRAME
290
     0
  9
$HALOGAP
280
     0
  9
$OBSCOLOR
 70
   257
  9
$OBSLTYPE
280
     0
  9
$INTERSECTIONDISPLAY
280
     0
  9
$INTERSECTIONCOLOR
 70
   257
  9
$DIMASSOC
280
     2
  9
$PROJECTNAME
  1

  0
ENDSEC
  0
SECTION
  2
CLASSES
  0
CLASS
  1
ACDBDICTIONARYWDFLT
  2
AcDbDictionaryWithDefault
  3
ObjectDBX Classes
 90
        0
 91
        4
280
     0
281
     0
  0
CLASS
  1
VISUALSTYLE
  2
AcDbVisualStyle
  3
ObjectDBX Classes
 90
     4095
 91
        4
280
     0
281
     0
  0
CLASS
  1
MATERIAL
  2
AcDbMaterial
  3
ObjectDBX Classes
 90
     1153
 91
        4
280
     0
281
     0
  0
CLASS
  1
SCALE
  2
AcDbScale
  3
ObjectDBX Classes
 90
     1153
 91
        4
280
     0
281
     0
  0
CLASS
  1
TABLESTYLE
  2
AcDbTableStyle
  3
ObjectDBX Classes
 90
     4095
 91
        4
280
     0
281
     0
  0
CLASS
  1
MLEADERSTYLE
  2
AcDbMLeaderStyle
  3
ACDB_MLEADERSTYLE_CLASS
 90
     4095
 91
        4
280
     0
281
     0
  0
CLASS
  1
SUN
  2
AcDbSun
  3
SCENEOE
 90
     1153
 91
        4
280
     0
281
     0
  0
CLASS
  1
DICTIONARYVAR
  2
AcDbDictionaryVar
  3
ObjectDBX Classes
 90
        0
 91
        4
280
     0
281
     0
  0
CLASS
  1
CELLSTYLEMAP
  2
AcDbCellStyleMap
  3
ObjectDBX Classes
 90
     1152
 91
        4
280
     0
281
     0
  0
ENDSEC
  0
SECTION
  2
TABLES
  0
TABLE
  2
VPORT
  5
8
102
{ACAD_XDICTIONARY
360
3FD
102
}
330
0
100
AcDbSymbolTable
 70
     1
  0
VPORT
  5
29
330
8
100
AcDbSymbolTableRecord
100
AcDbViewportTableRecord
  2
*Active
 70
     0
 10
0.0
 20
0.0
 11
1.0
 21
1.0
 12
-41.93463623366884
 22
27.05842456660825
 13
0.0
 23
0.0
 14
0.5
 24
0.5
 15
0.5
 25
0.5
 16
0.0
 26
0.0
 36
1.0
 17
0.0
 27
0.0
 37
0.0
 40
145.3385367390192
 41
2.146429434908764
 42
50.0
 43
0.0
 44
0.0
 50
0.0
 51
0.0
 71
     0
 72
   100
 73
     1
 74
     3
 75
     0
 76
     0
 77
     0
 78
     0
281
     0
 65
     1
110
0.0
120
0.0
130
0.0
111
1.0
121
0.0
131
0.0
112
0.0
122
1.0
132
0.0
 79
     0
146
0.0
  0
ENDTAB
  0
TABLE
  2
LTYPE
  5
5
330
0
100
AcDbSymbolTable
 70
     1
  0
LTYPE
  5
14
330
5
100
AcDbSymbolTableRecord
100
AcDbLinetypeTableRecord
  2
ByBlock
 70
     0
  3

 72
    65
 73
     0
 40
0.0
  0
LTYPE
  5
15
330
5
100
AcDbSymbolTableRecord
100
AcDbLinetypeTableRecord
  2
ByLayer
 70
     0
  3

 72
    65
 73
     0
 40
0.0
  0
LTYPE
  5
16
330
5
100
AcDbSymbolTableRecord
100
AcDbLinetypeTableRecord
  2
Continuous
 70
     0
  3
Solid line
 72
    65
 73
     0
 40
0.0
  0
ENDTAB
  0
TABLE
  2
LAYER
  5
2
330
0
100
AcDbSymbolTable
 70
     4
  0
LAYER
  5
10
330
2
100
AcDbSymbolTableRecord
100
AcDbLayerTableRecord
  2
0
 70
     0
 62
     7
  6
Continuous
370
    -3
390
F
  0
LAYER
  5
6E
330
2
100
AcDbSymbolTableRecord
100
AcDbLayerTableRecord
  2
tagli esterni
 70
     0
 62
   192
420
  8201933
  6
Continuous
370
    -3
390
F
  0
LAYER
  5
A7
330
2
100
AcDbSymbolTableRecord
100
AcDbLayerTableRecord
  2
engrave
 70
     0
 62
     1
420
 16711680
  6
Continuous
370
    -3
390
F
  0
LAYER
  5
A9
330
2
100
AcDbSymbolTableRecord
100
AcDbLayerTableRecord
  2
tagli interni
 70
     0
 62
    96
420
    32512
  6
Continuous
370
    -3
390
F
  0
ENDTAB
  0
TABLE
  2
STYLE
  5
3
330
0
100
AcDbSymbolTable
 70
     1
  0
STYLE
  5
11
330
3
100
AcDbSymbolTableRecord
100
AcDbTextStyleTableRecord
  2
Standard
 70
     0
 40
0.0
 41
1.0
 50
0.0
 71
     0
 42
0.2
  3
txt
  4

  0
ENDTAB
  0
TABLE
  2
VIEW
  5
6
330
0
100
AcDbSymbolTable
 70
     0
  0
ENDTAB
  0
TABLE
  2
UCS
  5
7
330
0
100
AcDbSymbolTable
 70
     0
  0
ENDTAB
  0
TABLE
  2
APPID
  5
9
330
0
100
AcDbSymbolTable
 70
     2
  0
APPID
  5
12
330
9
100
AcDbSymbolTableRecord
100
AcDbRegAppTableRecord
  2
ACAD
 70
     0
  0
APPID
  5
43C
330
9
100
AcDbSymbolTableRecord
100
AcDbRegAppTableRecord
  2
ACAD_MLEADERVER
 70
     0
  0
ENDTAB
  0
TABLE
  2
DIMSTYLE
  5
A
330
0
100
AcDbSymbolTable
 70
     1
100
AcDbDimStyleTable
  0
DIMSTYLE
105
27
330
A
100
AcDbSymbolTableRecord
100
AcDbDimStyleTableRecord
  2
Standard
 70
     0
178
     0
340
11
  0
ENDTAB
  0
TABLE
  2
BLOCK_RECORD
  5
1
330
0
100
AcDbSymbolTable
 70
     1
  0
BLOCK_RECORD
  5
1F
330
1
100
AcDbSymbolTableRecord
100
AcDbBlockTableRecord
  2
*Model_Space
340
22
  0
BLOCK_RECORD
  5
1B
330
1
100
AcDbSymbolTableRecord
100
AcDbBlockTableRecord
  2
*Paper_Space
340
1E
  0
BLOCK_RECORD
  5
23
330
1
100
AcDbSymbolTableRecord
100
AcDbBlockTableRecord
  2
*Paper_Space0
340
26
  0
ENDTAB
  0
ENDSEC
  0
SECTION
  2
BLOCKS
  0
BLOCK
  5
20
330
1F
100
AcDbEntity
  8
0
100
AcDbBlockBegin
  2
*Model_Space
 70
     0
 10
0.0
 20
0.0
 30
0.0
  3
*Model_Space
  1

  0
ENDBLK
  5
21
330
1F
100
AcDbEntity
  8
0
100
AcDbBlockEnd
  0
BLOCK
  5
1C
330
1B
100
AcDbEntity
 67
     1
  8
0
100
AcDbBlockBegin
  2
*Paper_Space
 70
     0
 10
0.0
 20
0.0
 30
0.0
  3
*Paper_Space
  1

  0
ENDBLK
  5
1D
330
1B
100
AcDbEntity
 67
     1
  8
0
100
AcDbBlockEnd
  0
BLOCK
  5
24
330
23
100
AcDbEntity
  8
0
100
AcDbBlockBegin
  2
*Paper_Space0
 70
     0
 10
0.0
 20
0.0
 30
0.0
  3
*Paper_Space0
  1

  0
ENDBLK
  5
25
330
23
100
AcDbEntity
  8
0
100
AcDbBlockEnd
  0
ENDSEC
  0
SECTION
  2
ENTITIES
  0
POLYLINE
  5
6F
330
1F
100
AcDbEntity
  8
tagli esterni
100
AcDb2dPolyline
 66
     1
 10
0.0
 20
0.0
 30
0.0
 70
     1
  0
VERTEX
  5
70
330
6F
100
AcDbEntity
  8
tagli esterni
100
AcDbVertex
100
AcDb2dVertex
 10
42.11678994860699
 20
44.90185060643013
 30
0.0
  0
VERTEX
  5
71
330
6F
100
AcDbEntity
  8
tagli esterni
100
AcDbVertex
100
AcDb2dVertex
 10
46.51954314346389
 20
55.46923335970595
 30
0.0
  0
VERTEX
  5
72
330
6F
100
AcDbEntity
  8
tagli esterni
100
AcDbVertex
100
AcDb2dVertex
 10
64.7646746748745
 20
46.6823548514863
 30
0.0
  0
VERTEX
  5
73
330
6F
100
AcDbEntity
  8
tagli esterni
100
AcDbVertex
100
AcDb2dVertex
 10
64.90842310623151
 20
68.9812057032061
 30
0.0
  0
VERTEX
  5
74
330
6F
100
AcDbEntity
  8
tagli esterni
100
AcDbVertex
100
AcDb2dVertex
 10
71.66036458654703
 20
68.93767964875317
 30
0.0
  0
VERTEX
  5
75
330
6F
100
AcDbEntity
  8
tagli esterni
100
AcDbVertex
100
AcDb2dVertex
 10
71.67615806135862
 20
71.38762874335764
 30
0.0
  0
VERTEX
  5
76
330
6F
100
AcDbEntity
  8
tagli esterni
100
AcDbVertex
100
AcDb2dVertex
 10
64.92421658104314
 20
71.43115479781058
 30
0.0
  0
VERTEX
  5
77
330
6F
100
AcDbEntity
  8
tagli esterni
100
AcDbVertex
100
AcDb2dVertex
 10
64.9602674305635
 20
77.02351159046708
 30
0.0
  0
VERTEX
  5
78
330
6F
100
AcDbEntity
  8
tagli esterni
100
AcDbVertex
100
AcDb2dVertex
 10
75.53463161508712
 20
76.95534447843825
 30
0.0
  0
VERTEX
  5
79
330
6F
100
AcDbEntity
  8
tagli esterni
100
AcDbVertex
100
AcDb2dVertex
 10
75.42752015139881
 20
60.33977148924267
 30
0.0
  0
VERTEX
  5
7A
330
6F
100
AcDbEntity
  8
tagli esterni
100
AcDbVertex
100
AcDb2dVertex
 10
77.8774692460033
 20
60.32397801443108
 30
0.0
  0
VERTEX
  5
7B
330
6F
100
AcDbEntity
  8
tagli esterni
100
AcDbVertex
100
AcDb2dVertex
 10
77.9845807096916
 20
76.93955100362668
 30
0.0
  0
VERTEX
  5
7C
330
6F
100
AcDbEntity
  8
tagli esterni
100
AcDbVertex
100
AcDb2dVertex
 10
88.55894489421522
 20
76.87138389159784
 30
0.0
  0
VERTEX
  5
7D
330
6F
100
AcDbEntity
  8
tagli esterni
100
AcDbVertex
100
AcDb2dVertex
 10
88.52289404469482
 20
71.27902709894131
 30
0.0
  0
VERTEX
  5
7E
330
6F
100
AcDbEntity
  8
tagli esterni
100
AcDbVertex
100
AcDb2dVertex
 10
81.7709525643793
 20
71.32255315339425
 30
0.0
  0
VERTEX
  5
7F
330
6F
100
AcDbEntity
  8
tagli esterni
100
AcDbVertex
100
AcDb2dVertex
 10
81.75515908956771
 20
68.87260405878979
 30
0.0
  0
VERTEX
  5
80
330
6F
100
AcDbEntity
  8
tagli esterni
100
AcDbVertex
100
AcDb2dVertex
 10
88.50710056988322
 20
68.82907800433685
 30
0.0
  0
VERTEX
  5
81
330
6F
100
AcDbEntity
  8
tagli esterni
100
AcDbVertex
100
AcDb2dVertex
 10
88.36335213852621
 20
46.53022715261708
 30
0.0
  0
VERTEX
  5
82
330
6F
100
AcDbEntity
  8
tagli esterni
100
AcDbVertex
100
AcDb2dVertex
 10
106.720250958902
 20
55.08115249524364
 30
0.0
  0
VERTEX
  5
83
330
6F
100
AcDbEntity
  8
tagli esterni
100
AcDbVertex
100
AcDb2dVertex
 10
110.9863996894682
 20
44.45788609748524
 30
0.0
  0
VERTEX
  5
84
330
6F
100
AcDbEntity
  8
tagli esterni
100
AcDbVertex
100
AcDb2dVertex
 10
85.38678804974563
 20
33.06389648345316
 30
0.0
  0
VERTEX
  5
85
330
6F
100
AcDbEntity
  8
tagli esterni
100
AcDbVertex
100
AcDb2dVertex
 10
83.21956256838985
 20
33.07786739457381
 30
0.0
  0
VERTEX
  5
86
330
6F
100
AcDbEntity
  8
tagli esterni
100
AcDbVertex
100
AcDb2dVertex
 10
83.13263245475028
 20
19.59290884391569
 30
0.0
  0
VERTEX
  5
87
330
6F
100
AcDbEntity
  8
tagli esterni
100
AcDbVertex
100
AcDb2dVertex
 10
69.64767390409217
 20
19.67983895755525
 30
0.0
  0
VERTEX
  5
88
330
6F
100
AcDbEntity
  8
tagli esterni
100
AcDbVertex
100
AcDb2dVertex
 10
69.73460401773174
 20
33.16479750821337
 30
0.0
  0
VERTEX
  5
89
330
6F
100
AcDbEntity
  8
tagli esterni
100
AcDbVertex
100
AcDb2dVertex
 10
67.56737853637597
 20
33.17876841933401
 30
0.0
  0
SEQEND
  5
8A
330
6F
100
AcDbEntity
  8
tagli esterni
  0
POLYLINE
  5
8B
330
1F
100
AcDbEntity
  8
tagli esterni
100
AcDb2dPolyline
 66
     1
 10
0.0
 20
0.0
 30
0.0
 70
     1
  0
VERTEX
  5
8C
330
8B
100
AcDbEntity
  8
tagli esterni
100
AcDbVertex
100
AcDb2dVertex
 10
58.12188508047834
 20
73.25879051246886
 30
0.0
  0
VERTEX
  5
8D
330
8B
100
AcDbEntity
  8
tagli esterni
100
AcDbVertex
100
AcDb2dVertex
 10
53.78734405591979
 20
62.66324578577016
 30
0.0
  0
VERTEX
  5
8E
330
8B
100
AcDbEntity
  8
tagli esterni
100
AcDbVertex
100
AcDb2dVertex
 10
35.48594861889475
 20
71.33232783488731
 30
0.0
  0
VERTEX
  5
8F
330
8B
100
AcDbEntity
  8
tagli esterni
100
AcDbVertex
100
AcDb2dVertex
 10
35.48594861889475
 20
49.0330136544296
 30
0.0
  0
VERTEX
  5
90
330
8B
100
AcDbEntity
  8
tagli esterni
100
AcDbVertex
100
AcDb2dVertex
 10
28.7338668457657
 20
49.0330136544296
 30
0.0
  0
VERTEX
  5
91
330
8B
100
AcDbEntity
  8
tagli esterni
100
AcDbVertex
100
AcDb2dVertex
 10
28.7338668457657
 20
46.58301365442961
 30
0.0
  0
VERTEX
  5
92
330
8B
100
AcDbEntity
  8
tagli esterni
100
AcDbVertex
100
AcDb2dVertex
 10
35.4859486188947
 20
46.58301365442961
 30
0.0
  0
VERTEX
  5
93
330
8B
100
AcDbEntity
  8
tagli esterni
100
AcDbVertex
100
AcDb2dVertex
 10
35.48594861889475
 20
40.99054066297738
 30
0.0
  0
VERTEX
  5
94
330
8B
100
AcDbEntity
  8
tagli esterni
100
AcDbVertex
100
AcDb2dVertex
 10
24.91136471870755
 20
40.99054066297738
 30
0.0
  0
VERTEX
  5
95
330
8B
100
AcDbEntity
  8
tagli esterni
100
AcDbVertex
100
AcDb2dVertex
 10
24.91136471870757
 20
57.60645889294409
 30
0.0
  0
VERTEX
  5
96
330
8B
100
AcDbEntity
  8
tagli esterni
100
AcDbVertex
100
AcDb2dVertex
 10
22.46136471870759
 20
57.60645889294409
 30
0.0
  0
VERTEX
  5
97
330
8B
100
AcDbEntity
  8
tagli esterni
100
AcDbVertex
100
AcDb2dVertex
 10
22.46136471870759
 20
40.99054066297738
 30
0.0
  0
VERTEX
  5
98
330
8B
100
AcDbEntity
  8
tagli esterni
100
AcDbVertex
100
AcDb2dVertex
 10
11.88678081852036
 20
40.99054066297739
 30
0.0
  0
VERTEX
  5
99
330
8B
100
AcDbEntity
  8
tagli esterni
100
AcDbVertex
100
AcDb2dVertex
 10
11.88678081852038
 20
46.58301365442962
 30
0.0
  0
VERTEX
  5
9A
330
8B
100
AcDbEntity
  8
tagli esterni
100
AcDbVertex
100
AcDb2dVertex
 10
18.63886259164943
 20
46.58301365442962
 30
0.0
  0
VERTEX
  5
9B
330
8B
100
AcDbEntity
  8
tagli esterni
100
AcDbVertex
100
AcDb2dVertex
 10
18.63886259164943
 20
49.03301365442961
 30
0.0
  0
VERTEX
  5
9C
330
8B
100
AcDbEntity
  8
tagli esterni
100
AcDbVertex
100
AcDb2dVertex
 10
11.88678081852036
 20
49.03301365442961
 30
0.0
  0
VERTEX
  5
9D
330
8B
100
AcDbEntity
  8
tagli esterni
100
AcDbVertex
100
AcDb2dVertex
 10
11.88678081852036
 20
71.33232783488731
 30
0.0
  0
VERTEX
  5
9E
330
8B
100
AcDbEntity
  8
tagli esterni
100
AcDbVertex
100
AcDb2dVertex
 10
-6.414614618504672
 20
62.66324578577016
 30
0.0
  0
VERTEX
  5
9F
330
8B
100
AcDbEntity
  8
tagli esterni
100
AcDbVertex
100
AcDb2dVertex
 10
-10.74915564306323
 20
73.25879051246886
 30
0.0
  0
VERTEX
  5
A0
330
8B
100
AcDbEntity
  8
tagli esterni
100
AcDbVertex
100
AcDb2dVertex
 10
14.77647483489274
 20
84.81756657795836
 30
0.0
  0
VERTEX
  5
A1
330
8B
100
AcDbEntity
  8
tagli esterni
100
AcDbVertex
100
AcDb2dVertex
 10
16.94374534717204
 20
84.81756657795836
 30
0.0
  0
VERTEX
  5
A2
330
8B
100
AcDbEntity
  8
tagli esterni
100
AcDbVertex
100
AcDb2dVertex
 10
16.94374534717204
 20
98.30280532102941
 30
0.0
  0
VERTEX
  5
A3
330
8B
100
AcDbEntity
  8
tagli esterni
100
AcDbVertex
100
AcDb2dVertex
 10
30.42898409024306
 20
98.30280532102941
 30
0.0
  0
VERTEX
  5
A4
330
8B
100
AcDbEntity
  8
tagli esterni
100
AcDbVertex
100
AcDb2dVertex
 10
30.42898409024312
 20
84.81756657795836
 30
0.0
  0
VERTEX
  5
A5
330
8B
100
AcDbEntity
  8
tagli esterni
100
AcDbVertex
100
AcDb2dVertex
 10
32.59625460252235
 20
84.81756657795836
 30
0.0
  0
SEQEND
  5
A6
330
8B
100
AcDbEntity
  8
tagli esterni
  0
CIRCLE
  5
A8
330
1F
100
AcDbEntity
  8
engrave
100
AcDbCircle
 10
29.82423685134319
 20
24.87559430606427
 30
0.0
 40
4.8
  0
CIRCLE
  5
AA
330
1F
100
AcDbEntity
  8
tagli interni
100
AcDbCircle
 10
29.82423685134316
 20
24.87559430606427
 30
0.0
 40
2.8
  0
CIRCLE
  5
AB
330
1F
100
AcDbEntity
  8
engrave
100
AcDbCircle
 10
29.82423685134319
 20
11.28810855638051
 30
0.0
 40
4.8
  0
CIRCLE
  5
AC
330
1F
100
AcDbEntity
  8
tagli interni
100
AcDbCircle
 10
29.82423685134316
 20
11.28810855638051
 30
0.0
 40
2.8
  0
CIRCLE
  5
AD
330
1F
100
AcDbEntity
  8
tagli interni
100
AcDbCircle
 10
-10.62223235701785
 20
24.55960626537394
 30
0.0
 40
2.8
  0
CIRCLE
  5
AE
330
1F
100
AcDbEntity
  8
tagli interni
100
AcDbCircle
 10
-10.62223235701785
 20
10.97212051569018
 30
0.0
 40
2.8
  0
CIRCLE
  5
AF
330
1F
100
AcDbEntity
  8
engrave
100
AcDbCircle
 10
-10.62223235701782
 20
10.97212051569018
 30
0.0
 40
4.8
  0
CIRCLE
  5
B0
330
1F
100
AcDbEntity
  8
engrave
100
AcDbCircle
 10
-10.62223235701782
 20
24.55960626537394
 30
0.0
 40
4.8
  0
POLYLINE
  5
B1
330
1F
100
AcDbEntity
  8
engrave
100
AcDb2dPolyline
 66
     1
 10
0.0
 20
0.0
 30
0.0
 70
     1
  0
VERTEX
  5
B2
330
B1
100
AcDbEntity
  8
engrave
100
AcDbVertex
100
AcDb2dVertex
 10
44.96381457609803
 20
26.46281698857651
 30
0.0
  0
VERTEX
  5
B3
330
B1
100
AcDbEntity
  8
engrave
100
AcDbVertex
100
AcDb2dVertex
 10
44.39177465931195
 20
25.83989903169707
 30
0.0
  0
VERTEX
  5
B4
330
B1
100
AcDbEntity
  8
engrave
100
AcDbVertex
100
AcDb2dVertex
 10
43.85675815455778
 20
25.21912059594887
 30
0.0
  0
VERTEX
  5
B5
330
B1
100
AcDbEntity
  8
engrave
100
AcDbVertex
100
AcDb2dVertex
 10
43.35876452529975
 20
24.60065525791759
 30
0.0
  0
VERTEX
  5
B6
330
B1
100
AcDbEntity
  8
engrave
100
AcDbVertex
100
AcDb2dVertex
 10
43.12365112131437
 20
24.29234424322883
 30
0.0
  0
VERTEX
  5
B7
330
B1
100
AcDbEntity
  8
engrave
100
AcDbVertex
100
AcDb2dVertex
 10
42.89779323500209
 20
23.98467659418893
 30
0.0
  0
VERTEX
  5
B8
330
B1
100
AcDbEntity
  8
engrave
100
AcDbVertex
100
AcDb2dVertex
 10
42.68119079929597
 20
23.67767400787112
 30
0.0
  0
VERTEX
  5
B9
330
B1
100
AcDbEntity
  8
engrave
100
AcDbVertex
100
AcDb2dVertex
 10
42.47384374712902
 20
23.3713581813486
 30
0.0
  0
VERTEX
  5
BA
330
B1
100
AcDbEntity
  8
engrave
100
AcDbVertex
100
AcDb2dVertex
 10
42.27575201143429
 20
23.06575081169458
 30
0.0
  0
VERTEX
  5
BB
330
B1
100
AcDbEntity
  8
engrave
100
AcDbVertex
100
AcDb2dVertex
 10
42.08691552514479
 20
22.76087359598229
 30
0.0
  0
VERTEX
  5
BC
330
B1
100
AcDbEntity
  8
engrave
100
AcDbVertex
100
AcDb2dVertex
 10
41.90733422119355
 20
22.45674823128493
 30
0.0
  0
VERTEX
  5
BD
330
B1
100
AcDbEntity
  8
engrave
100
AcDbVertex
100
AcDb2dVertex
 10
41.7370080325136
 20
22.1533964146757
 30
0.0
  0
VERTEX
  5
BE
330
B1
100
AcDbEntity
  8
engrave
100
AcDbVertex
100
AcDb2dVertex
 10
41.57593689203797
 20
21.85083984322783
 30
0.0
  0
VERTEX
  5
BF
330
B1
100
AcDbEntity
  8
engrave
100
AcDbVertex
100
AcDb2dVertex
 10
41.42412073269968
 20
21.54910021401453
 30
0.0
  0
VERTEX
  5
C0
330
B1
100
AcDbEntity
  8
engrave
100
AcDbVertex
100
AcDb2dVertex
 10
41.28155948743178
 20
21.24819922410902
 30
0.0
  0
VERTEX
  5
C1
330
B1
100
AcDbEntity
  8
engrave
100
AcDbVertex
100
AcDb2dVertex
 10
41.14825308916728
 20
20.94815857058449
 30
0.0
  0
VERTEX
  5
C2
330
B1
100
AcDbEntity
  8
engrave
100
AcDbVertex
100
AcDb2dVertex
 10
41.02420147083921
 20
20.64899995051417
 30
0.0
  0
VERTEX
  5
C3
330
B1
100
AcDbEntity
  8
engrave
100
AcDbVertex
100
AcDb2dVertex
 10
40.90940456538061
 20
20.35074506097127
 30
0.0
  0
VERTEX
  5
C4
330
B1
100
AcDbEntity
  8
engrave
100
AcDbVertex
100
AcDb2dVertex
 10
40.80386230572451
 20
20.05341559902899
 30
0.0
  0
VERTEX
  5
C5
330
B1
100
AcDbEntity
  8
engrave
100
AcDbVertex
100
AcDb2dVertex
 10
40.70757462480391
 20
19.75703326176057
 30
0.0
  0
VERTEX
  5
C6
330
B1
100
AcDbEntity
  8
engrave
100
AcDbVertex
100
AcDb2dVertex
 10
40.62054145555187
 20
19.46161974623919
 30
0.0
  0
VERTEX
  5
C7
330
B1
100
AcDbEntity
  8
engrave
100
AcDbVertex
100
AcDb2dVertex
 10
40.5427627309014
 20
19.16719674953809
 30
0.0
  0
VERTEX
  5
C8
330
B1
100
AcDbEntity
  8
engrave
100
AcDbVertex
100
AcDb2dVertex
 10
40.47423838378555
 20
18.87378596873046
 30
0.0
  0
VERTEX
  5
C9
330
B1
100
AcDbEntity
  8
engrave
100
AcDbVertex
100
AcDb2dVertex
 10
40.41496834713731
 20
18.58140910088953
 30
0.0
  0
VERTEX
  5
CA
330
B1
100
AcDbEntity
  8
engrave
100
AcDbVertex
100
AcDb2dVertex
 10
40.36495255388974
 20
18.2900878430885
 30
0.0
  0
VERTEX
  5
CB
330
B1
100
AcDbEntity
  8
engrave
100
AcDbVertex
100
AcDb2dVertex
 10
40.32419093697586
 20
17.99984389240059
 30
0.0
  0
VERTEX
  5
CC
330
B1
100
AcDbEntity
  8
engrave
100
AcDbVertex
100
AcDb2dVertex
 10
40.2926834293287
 20
17.71069894589901
 30
0.0
  0
VERTEX
  5
CD
330
B1
100
AcDbEntity
  8
engrave
100
AcDbVertex
100
AcDb2dVertex
 10
40.27042996388128
 20
17.42267470065697
 30
0.0
  0
VERTEX
  5
CE
330
B1
100
AcDbEntity
  8
engrave
100
AcDbVertex
100
AcDb2dVertex
 10
40.25743047356664
 20
17.13579285374769
 30
0.0
  0
VERTEX
  5
CF
330
B1
100
AcDbEntity
  8
engrave
100
AcDbVertex
100
AcDb2dVertex
 10
40.25368489131782
 20
16.85007510224437
 30
0.0
  0
VERTEX
  5
D0
330
B1
100
AcDbEntity
  8
engrave
100
AcDbVertex
100
AcDb2dVertex
 10
40.25919315006782
 20
16.56554314322023
 30
0.0
  0
VERTEX
  5
D1
330
B1
100
AcDbEntity
  8
engrave
100
AcDbVertex
100
AcDb2dVertex
 10
40.27395518274967
 20
16.28221867374849
 30
0.0
  0
VERTEX
  5
D2
330
B1
100
AcDbEntity
  8
engrave
100
AcDbVertex
100
AcDb2dVertex
 10
40.29797092229643
 20
16.00012339090235
 30
0.0
  0
VERTEX
  5
D3
330
B1
100
AcDbEntity
  8
engrave
100
AcDbVertex
100
AcDb2dVertex
 10
40.3312403016411
 20
15.71927899175503
 30
0.0
  0
VERTEX
  5
D4
330
B1
100
AcDbEntity
  8
engrave
100
AcDbVertex
100
AcDb2dVertex
 10
40.37376325371672
 20
15.43970717337973
 30
0.0
  0
VERTEX
  5
D5
330
B1
100
AcDbEntity
  8
engrave
100
AcDbVertex
100
AcDb2dVertex
 10
40.42553971145631
 20
15.16142963284968
 30
0.0
  0
VERTEX
  5
D6
330
B1
100
AcDbEntity
  8
engrave
100
AcDbVertex
100
AcDb2dVertex
 10
40.4865696077929
 20
14.88446806723809
 30
0.0
  0
VERTEX
  5
D7
330
B1
100
AcDbEntity
  8
engrave
100
AcDbVertex
100
AcDb2dVertex
 10
40.55685287565952
 20
14.60884417361816
 30
0.0
  0
VERTEX
  5
D8
330
B1
100
AcDbEntity
  8
engrave
100
AcDbVertex
100
AcDb2dVertex
 10
40.6363894479892
 20
14.33457964906311
 30
0.0
  0
VERTEX
  5
D9
330
B1
100
AcDbEntity
  8
engrave
100
AcDbVertex
100
AcDb2dVertex
 10
40.72517925771498
 20
14.06169619064615
 30
0.0
  0
VERTEX
  5
DA
330
B1
100
AcDbEntity
  8
engrave
100
AcDbVertex
100
AcDb2dVertex
 10
40.82322223776987
 20
13.7902154954405
 30
0.0
  0
VERTEX
  5
DB
330
B1
100
AcDbEntity
  8
engrave
100
AcDbVertex
100
AcDb2dVertex
 10
40.93051832108691
 20
13.52015926051936
 30
0.0
  0
VERTEX
  5
DC
330
B1
100
AcDbEntity
  8
engrave
100
AcDbVertex
100
AcDb2dVertex
 10
41.04706744059912
 20
13.25154918295595
 30
0.0
  0
VERTEX
  5
DD
330
B1
100
AcDbEntity
  8
engrave
100
AcDbVertex
100
AcDb2dVertex
 10
41.17286952923953
 20
12.98440695982348
 30
0.0
  0
VERTEX
  5
DE
330
B1
100
AcDbEntity
  8
engrave
100
AcDbVertex
100
AcDb2dVertex
 10
41.30792451994118
 20
12.71875428819517
 30
0.0
  0
VERTEX
  5
DF
330
B1
100
AcDbEntity
  8
engrave
100
AcDbVertex
100
AcDb2dVertex
 10
41.45223234563709
 20
12.45461286514423
 30
0.0
  0
VERTEX
  5
E0
330
B1
100
AcDbEntity
  8
engrave
100
AcDbVertex
100
AcDb2dVertex
 10
41.60579293926028
 20
12.19200438774386
 30
0.0
  0
VERTEX
  5
E1
330
B1
100
AcDbEntity
  8
engrave
100
AcDbVertex
100
AcDb2dVertex
 10
41.7686062337438
 20
11.93095055306729
 30
0.0
  0
VERTEX
  5
E2
330
B1
100
AcDbEntity
  8
engrave
100
AcDbVertex
100
AcDb2dVertex
 10
41.94067216202065
 20
11.67147305818771
 30
0.0
  0
VERTEX
  5
E3
330
B1
100
AcDbEntity
  8
engrave
100
AcDbVertex
100
AcDb2dVertex
 10
42.12199065702387
 20
11.41359360017836
 30
0.0
  0
VERTEX
  5
E4
330
B1
100
AcDbEntity
  8
engrave
100
AcDbVertex
100
AcDb2dVertex
 10
42.31256165168651
 20
11.15733387611244
 30
0.0
  0
VERTEX
  5
E5
330
B1
100
AcDbEntity
  8
engrave
100
AcDbVertex
100
AcDb2dVertex
 10
42.51238507894157
 20
10.90271558306315
 30
0.0
  0
VERTEX
  5
E6
330
B1
100
AcDbEntity
  8
engrave
100
AcDbVertex
100
AcDb2dVertex
 10
42.72146087172209
 20
10.64976041810372
 30
0.0
  0
VERTEX
  5
E7
330
B1
100
AcDbEntity
  8
engrave
100
AcDbVertex
100
AcDb2dVertex
 10
42.9397889629611
 20
10.39849007830735
 30
0.0
  0
VERTEX
  5
E8
330
B1
100
AcDbEntity
  8
engrave
100
AcDbVertex
100
AcDb2dVertex
 10
43.16736928559163
 20
10.14892626074727
 30
0.0
  0
VERTEX
  5
E9
330
B1
100
AcDbEntity
  8
engrave
100
AcDbVertex
100
AcDb2dVertex
 10
43.4042017725467
 20
9.901090662496674
 30
0.0
  0
VERTEX
  5
EA
330
B1
100
AcDbEntity
  8
engrave
100
AcDbVertex
100
AcDb2dVertex
 10
43.65028635675934
 20
9.655004980628782
 30
0.0
  0
VERTEX
  5
EB
330
B1
100
AcDbEntity
  8
engrave
100
AcDbVertex
100
AcDb2dVertex
 10
43.90562297116259
 20
9.410690912216808
 30
0.0
  0
VERTEX
  5
EC
330
B1
100
AcDbEntity
  8
engrave
100
AcDbVertex
100
AcDb2dVertex
 10
44.17021154868946
 20
9.16817015433396
 30
0.0
  0
VERTEX
  5
ED
330
B1
100
AcDbEntity
  8
engrave
100
AcDbVertex
100
AcDb2dVertex
 10
44.44405202227298
 20
8.927464404053454
 30
0.0
  0
VERTEX
  5
EE
330
B1
100
AcDbEntity
  8
engrave
100
AcDbVertex
100
AcDb2dVertex
 10
44.72714432484621
 20
8.688595358448502
 30
0.0
  0
VERTEX
  5
EF
330
B1
100
AcDbEntity
  8
engrave
100
AcDbVertex
100
AcDb2dVertex
 10
45.01948838934214
 20
8.451584714592315
 30
0.0
 42
-0.1403614688971993
  0
SEQEND
  5
F0
330
B1
100
AcDbEntity
  8
engrave
  0
POLYLINE
  5
F1
330
1F
100
AcDbEntity
  8
tagli esterni
100
AcDb2dPolyline
 66
     1
 10
0.0
 20
0.0
 30
0.0
 70
     1
  0
VERTEX
  5
F2
330
F1
100
AcDbEntity
  8
tagli esterni
100
AcDbVertex
100
AcDb2dVertex
 10
19.65160657379263
 20
2.368751595724106
 30
0.0
  0
VERTEX
  5
F3
330
F1
100
AcDbEntity
  8
tagli esterni
100
AcDbVertex
100
AcDb2dVertex
 10
19.65160657379263
 20
7.368751595724106
 30
0.0
  0
VERTEX
  5
F4
330
F1
100
AcDbEntity
  8
tagli esterni
100
AcDbVertex
100
AcDb2dVertex
 10
15.65160657379263
 20
7.368751595724106
 30
0.0
  0
VERTEX
  5
F5
330
F1
100
AcDbEntity
  8
tagli esterni
100
AcDbVertex
100
AcDb2dVertex
 10
15.65160657379263
 20
12.36875159572411
 30
0.0
  0
VERTEX
  5
F6
330
F1
100
AcDbEntity
  8
tagli esterni
100
AcDbVertex
100
AcDb2dVertex
 10
19.65160657379263
 20
12.36875159572411
 30
0.0
  0
VERTEX
  5
F7
330
F1
100
AcDbEntity
  8
tagli esterni
100
AcDbVertex
100
AcDb2dVertex
 10
19.65160657379263
 20
22.36875159572411
 30
0.0
  0
VERTEX
  5
F8
330
F1
100
AcDbEntity
  8
tagli esterni
100
AcDbVertex
100
AcDb2dVertex
 10
15.65160657379263
 20
22.36875159572411
 30
0.0
  0
VERTEX
  5
F9
330
F1
100
AcDbEntity
  8
tagli esterni
100
AcDbVertex
100
AcDb2dVertex
 10
15.65160657379263
 20
27.36875159572411
 30
0.0
  0
VERTEX
  5
FA
330
F1
100
AcDbEntity
  8
tagli esterni
100
AcDbVertex
100
AcDb2dVertex
 10
19.65160657379263
 20
27.36875159572411
 30
0.0
  0
VERTEX
  5
FB
330
F1
100
AcDbEntity
  8
tagli esterni
100
AcDbVertex
100
AcDb2dVertex
 10
19.65160657379263
 20
32.36875159572411
 30
0.0
  0
VERTEX
  5
FC
330
F1
100
AcDbEntity
  8
tagli esterni
100
AcDbVertex
100
AcDb2dVertex
 10
49.65160657379263
 20
32.36875159572413
 30
0.0
  0
VERTEX
  5
FD
330
F1
100
AcDbEntity
  8
tagli esterni
100
AcDbVertex
100
AcDb2dVertex
 10
49.65160657379263
 20
27.36875159572411
 30
0.0
  0
VERTEX
  5
FE
330
F1
100
AcDbEntity
  8
tagli esterni
100
AcDbVertex
100
AcDb2dVertex
 10
53.65160657379263
 20
27.36875159572411
 30
0.0
  0
VERTEX
  5
FF
330
F1
100
AcDbEntity
  8
tagli esterni
100
AcDbVertex
100
AcDb2dVertex
 10
53.65160657379263
 20
22.36875159572411
 30
0.0
  0
VERTEX
  5
100
330
F1
100
AcDbEntity
  8
tagli esterni
100
AcDbVertex
100
AcDb2dVertex
 10
49.65160657379263
 20
22.36875159572411
 30
0.0
  0
VERTEX
  5
101
330
F1
100
AcDbEntity
  8
tagli esterni
100
AcDbVertex
100
AcDb2dVertex
 10
49.65160657379263
 20
12.36875159572411
 30
0.0
  0
VERTEX
  5
102
330
F1
100
AcDbEntity
  8
tagli esterni
100
AcDbVertex
100
AcDb2dVertex
 10
53.65160657379263
 20
12.36875159572411
 30
0.0
  0
VERTEX
  5
103
330
F1
100
AcDbEntity
  8
tagli esterni
100
AcDbVertex
100
AcDb2dVertex
 10
53.65160657379263
 20
7.368751595724106
 30
0.0
  0
VERTEX
  5
104
330
F1
100
AcDbEntity
  8
tagli esterni
100
AcDbVertex
100
AcDb2dVertex
 10
49.65160657379263
 20
7.368751595724106
 30
0.0
  0
VERTEX
  5
105
330
F1
100
AcDbEntity
  8
tagli esterni
100
AcDbVertex
100
AcDb2dVertex
 10
49.65160657379263
 20
2.368751595724106
 30
0.0
  0
SEQEND
  5
106
330
F1
100
AcDbEntity
  8
tagli esterni
  0
POLYLINE
  5
107
330
1F
100
AcDbEntity
  8
tagli esterni
100
AcDb2dPolyline
 66
     1
 10
0.0
 20
0.0
 30
0.0
 70
     1
  0
VERTEX
  5
108
330
107
100
AcDbEntity
  8
tagli esterni
100
AcDbVertex
100
AcDb2dVertex
 10
-20.79486263456837
 20
2.052763555033778
 30
0.0
  0
VERTEX
  5
109
330
107
100
AcDbEntity
  8
tagli esterni
100
AcDbVertex
100
AcDb2dVertex
 10
-20.79486263456837
 20
7.052763555033778
 30
0.0
  0
VERTEX
  5
10A
330
107
100
AcDbEntity
  8
tagli esterni
100
AcDbVertex
100
AcDb2dVertex
 10
-24.79486263456837
 20
7.052763555033778
 30
0.0
  0
VERTEX
  5
10B
330
107
100
AcDbEntity
  8
tagli esterni
100
AcDbVertex
100
AcDb2dVertex
 10
-24.79486263456837
 20
12.05276355503378
 30
0.0
  0
VERTEX
  5
10C
330
107
100
AcDbEntity
  8
tagli esterni
100
AcDbVertex
100
AcDb2dVertex
 10
-20.79486263456837
 20
12.05276355503378
 30
0.0
  0
VERTEX
  5
10D
330
107
100
AcDbEntity
  8
tagli esterni
100
AcDbVertex
100
AcDb2dVertex
 10
-20.79486263456837
 20
22.05276355503378
 30
0.0
  0
VERTEX
  5
10E
330
107
100
AcDbEntity
  8
tagli esterni
100
AcDbVertex
100
AcDb2dVertex
 10
-24.79486263456837
 20
22.05276355503378
 30
0.0
  0
VERTEX
  5
10F
330
107
100
AcDbEntity
  8
tagli esterni
100
AcDbVertex
100
AcDb2dVertex
 10
-24.79486263456837
 20
27.05276355503378
 30
0.0
  0
VERTEX
  5
110
330
107
100
AcDbEntity
  8
tagli esterni
100
AcDbVertex
100
AcDb2dVertex
 10
-20.79486263456837
 20
27.05276355503378
 30
0.0
  0
VERTEX
  5
111
330
107
100
AcDbEntity
  8
tagli esterni
100
AcDbVertex
100
AcDb2dVertex
 10
-20.79486263456837
 20
32.05276355503378
 30
0.0
  0
VERTEX
  5
112
330
107
100
AcDbEntity
  8
tagli esterni
100
AcDbVertex
100
AcDb2dVertex
 10
9.205137365431625
 20
32.05276355503381
 30
0.0
  0
VERTEX
  5
113
330
107
100
AcDbEntity
  8
tagli esterni
100
AcDbVertex
100
AcDb2dVertex
 10
9.205137365431625
 20
27.05276355503378
 30
0.0
  0
VERTEX
  5
114
330
107
100
AcDbEntity
  8
tagli esterni
100
AcDbVertex
100
AcDb2dVertex
 10
13.20513736543163
 20
27.05276355503378
 30
0.0
  0
VERTEX
  5
115
330
107
100
AcDbEntity
  8
tagli esterni
100
AcDbVertex
100
AcDb2dVertex
 10
13.20513736543163
 20
22.05276355503378
 30
0.0
  0
VERTEX
  5
116
330
107
100
AcDbEntity
  8
tagli esterni
100
AcDbVertex
100
AcDb2dVertex
 10
9.205137365431625
 20
22.05276355503378
 30
0.0
  0
VERTEX
  5
117
330
107
100
AcDbEntity
  8
tagli esterni
100
AcDbVertex
100
AcDb2dVertex
 10
9.205137365431625
 20
12.05276355503378
 30
0.0
  0
VERTEX
  5
118
330
107
100
AcDbEntity
  8
tagli esterni
100
AcDbVertex
100
AcDb2dVertex
 10
13.20513736543163
 20
12.05276355503378
 30
0.0
  0
VERTEX
  5
119
330
107
100
AcDbEntity
  8
tagli esterni
100
AcDbVertex
100
AcDb2dVertex
 10
13.20513736543163
 20
7.052763555033778
 30
0.0
  0
VERTEX
  5
11A
330
107
100
AcDbEntity
  8
tagli esterni
100
AcDbVertex
100
AcDb2dVertex
 10
9.205137365431625
 20
7.052763555033778
 30
0.0
  0
VERTEX
  5
11B
330
107
100
AcDbEntity
  8
tagli esterni
100
AcDbVertex
100
AcDb2dVertex
 10
9.205137365431625
 20
2.052763555033778
 30
0.0
  0
SEQEND
  5
11C
330
107
100
AcDbEntity
  8
tagli esterni
  0
POLYLINE
  5
11D
330
1F
100
AcDbEntity
  8
engrave
100
AcDb2dPolyline
 66
     1
 10
0.0
 20
0.0
 30
0.0
 70
     1
  0
VERTEX
  5
11E
330
11D
100
AcDbEntity
  8
engrave
100
AcDbVertex
100
AcDb2dVertex
 10
-0.1946270142372839
 20
8.128228149477295
 30
0.0
  0
VERTEX
  5
11F
330
11D
100
AcDbEntity
  8
engrave
100
AcDbVertex
100
AcDb2dVertex
 10
0.3793356377978674
 20
8.749374928804249
 30
0.0
  0
VERTEX
  5
120
330
11D
100
AcDbEntity
  8
engrave
100
AcDbVertex
100
AcDb2dVertex
 10
0.9162684413146218
 20
9.368496638290353
 30
0.0
  0
VERTEX
  5
121
330
11D
100
AcDbEntity
  8
engrave
100
AcDbVertex
100
AcDb2dVertex
 10
1.416171396312979
 20
9.985419700520676
 30
0.0
  0
VERTEX
  5
122
330
11D
100
AcDbEntity
  8
engrave
100
AcDbVertex
100
AcDb2dVertex
 10
1.652236680617759
 20
10.29300249597276
 30
0.0
  0
VERTEX
  5
123
330
11D
100
AcDbEntity
  8
engrave
100
AcDbVertex
100
AcDb2dVertex
 10
1.87904450279294
 20
10.59997053808029
 30
0.0
  0
VERTEX
  5
124
330
11D
100
AcDbEntity
  8
engrave
100
AcDbVertex
100
AcDb2dVertex
 10
2.096594862838522
 20
10.90630212966642
 30
0.0
  0
VERTEX
  5
125
330
11D
100
AcDbEntity
  8
engrave
100
AcDbVertex
100
AcDb2dVertex
 10
2.304887760754504
 20
11.21197557355427
 30
0.0
  0
VERTEX
  5
126
330
11D
100
AcDbEntity
  8
engrave
100
AcDbVertex
100
AcDb2dVertex
 10
2.503923196540887
 20
11.51696917256697
 30
0.0
  0
VERTEX
  5
127
330
11D
100
AcDbEntity
  8
engrave
100
AcDbVertex
100
AcDb2dVertex
 10
2.693701170197671
 20
11.82126122952767
 30
0.0
  0
VERTEX
  5
128
330
11D
100
AcDbEntity
  8
engrave
100
AcDbVertex
100
AcDb2dVertex
 10
2.874221681724856
 20
12.12483004725949
 30
0.0
  0
VERTEX
  5
129
330
11D
100
AcDbEntity
  8
engrave
100
AcDbVertex
100
AcDb2dVertex
 10
3.045484731122441
 20
12.42765392858558
 30
0.0
  0
VERTEX
  5
12A
330
11D
100
AcDbEntity
  8
engrave
100
AcDbVertex
100
AcDb2dVertex
 10
3.207490318390427
 20
12.72971117632905
 30
0.0
  0
VERTEX
  5
12B
330
11D
100
AcDbEntity
  8
engrave
100
AcDbVertex
100
AcDb2dVertex
 10
3.360238443528814
 20
13.03098009331305
 30
0.0
  0
VERTEX
  5
12C
330
11D
100
AcDbEntity
  8
engrave
100
AcDbVertex
100
AcDb2dVertex
 10
3.503729106537602
 20
13.33143898236071
 30
0.0
  0
VERTEX
  5
12D
330
11D
100
AcDbEntity
  8
engrave
100
AcDbVertex
100
AcDb2dVertex
 10
3.637962307416791
 20
13.63106614629516
 30
0.0
  0
VERTEX
  5
12E
330
11D
100
AcDbEntity
  8
engrave
100
AcDbVertex
100
AcDb2dVertex
 10
3.76293804616638
 20
13.92983988793955
 30
0.0
  0
VERTEX
  5
12F
330
11D
100
AcDbEntity
  8
engrave
100
AcDbVertex
100
AcDb2dVertex
 10
3.87865632278637
 20
14.22773851011699
 30
0.0
  0
VERTEX
  5
130
330
11D
100
AcDbEntity
  8
engrave
100
AcDbVertex
100
AcDb2dVertex
 10
3.985117137276761
 20
14.52474031565063
 30
0.0
  0
VERTEX
  5
131
330
11D
100
AcDbEntity
  8
engrave
100
AcDbVertex
100
AcDb2dVertex
 10
4.082320489637553
 20
14.8208236073636
 30
0.0
  0
VERTEX
  5
132
330
11D
100
AcDbEntity
  8
engrave
100
AcDbVertex
100
AcDb2dVertex
 10
4.170266379868746
 20
15.11596668807903
 30
0.0
  0
VERTEX
  5
133
330
11D
100
AcDbEntity
  8
engrave
100
AcDbVertex
100
AcDb2dVertex
 10
4.248954807970339
 20
15.41014786062006
 30
0.0
  0
VERTEX
  5
134
330
11D
100
AcDbEntity
  8
engrave
100
AcDbVertex
100
AcDb2dVertex
 10
4.318385773942333
 20
15.70334542780981
 30
0.0
  0
VERTEX
  5
135
330
11D
100
AcDbEntity
  8
engrave
100
AcDbVertex
100
AcDb2dVertex
 10
4.378559277784728
 20
15.99553769247143
 30
0.0
  0
VERTEX
  5
136
330
11D
100
AcDbEntity
  8
engrave
100
AcDbVertex
100
AcDb2dVertex
 10
4.429475319497524
 20
16.28670295742805
 30
0.0
  0
VERTEX
  5
137
330
11D
100
AcDbEntity
  8
engrave
100
AcDbVertex
100
AcDb2dVertex
 10
4.47113389908072
 20
16.5768195255028
 30
0.0
  0
VERTEX
  5
138
330
11D
100
AcDbEntity
  8
engrave
100
AcDbVertex
100
AcDb2dVertex
 10
4.503535016534317
 20
16.86586569951881
 30
0.0
  0
VERTEX
  5
139
330
11D
100
AcDbEntity
  8
engrave
100
AcDbVertex
100
AcDb2dVertex
 10
4.526678671858315
 20
17.15381978229923
 30
0.0
  0
VERTEX
  5
13A
330
11D
100
AcDbEntity
  8
engrave
100
AcDbVertex
100
AcDb2dVertex
 10
4.540564865052714
 20
17.44066007666717
 30
0.0
  0
VERTEX
  5
13B
330
11D
100
AcDbEntity
  8
engrave
100
AcDbVertex
100
AcDb2dVertex
 10
4.545193596117514
 20
17.72636488544578
 30
0.0
  0
VERTEX
  5
13C
330
11D
100
AcDbEntity
  8
engrave
100
AcDbVertex
100
AcDb2dVertex
 10
4.540564865052714
 20
18.01091251145819
 30
0.0
  0
VERTEX
  5
13D
330
11D
100
AcDbEntity
  8
engrave
100
AcDbVertex
100
AcDb2dVertex
 10
4.526678671858315
 20
18.29428125752754
 30
0.0
  0
VERTEX
  5
13E
330
11D
100
AcDbEntity
  8
engrave
100
AcDbVertex
100
AcDb2dVertex
 10
4.503535016534317
 20
18.57644942647695
 30
0.0
  0
VERTEX
  5
13F
330
11D
100
AcDbEntity
  8
engrave
100
AcDbVertex
100
AcDb2dVertex
 10
4.47113389908072
 20
18.85739532112957
 30
0.0
  0
VERTEX
  5
140
330
11D
100
AcDbEntity
  8
engrave
100
AcDbVertex
100
AcDb2dVertex
 10
4.429475319497524
 20
19.13709724430851
 30
0.0
  0
VERTEX
  5
141
330
11D
100
AcDbEntity
  8
engrave
100
AcDbVertex
100
AcDb2dVertex
 10
4.378559277784728
 20
19.41553349883693
 30
0.0
  0
VERTEX
  5
142
330
11D
100
AcDbEntity
  8
engrave
100
AcDbVertex
100
AcDb2dVertex
 10
4.318385773942333
 20
19.69268238753796
 30
0.0
  0
VERTEX
  5
143
330
11D
100
AcDbEntity
  8
engrave
100
AcDbVertex
100
AcDb2dVertex
 10
4.248954807970339
 20
19.96852221323471
 30
0.0
  0
VERTEX
  5
144
330
11D
100
AcDbEntity
  8
engrave
100
AcDbVertex
100
AcDb2dVertex
 10
4.170266379868746
 20
20.24303127875034
 30
0.0
  0
VERTEX
  5
145
330
11D
100
AcDbEntity
  8
engrave
100
AcDbVertex
100
AcDb2dVertex
 10
4.082320489637553
 20
20.51618788690797
 30
0.0
  0
VERTEX
  5
146
330
11D
100
AcDbEntity
  8
engrave
100
AcDbVertex
100
AcDb2dVertex
 10
3.985117137276761
 20
20.78797034053074
 30
0.0
  0
VERTEX
  5
147
330
11D
100
AcDbEntity
  8
engrave
100
AcDbVertex
100
AcDb2dVertex
 10
3.87865632278637
 20
21.05835694244179
 30
0.0
  0
VERTEX
  5
148
330
11D
100
AcDbEntity
  8
engrave
100
AcDbVertex
100
AcDb2dVertex
 10
3.76293804616638
 20
21.32732599546423
 30
0.0
  0
VERTEX
  5
149
330
11D
100
AcDbEntity
  8
engrave
100
AcDbVertex
100
AcDb2dVertex
 10
3.637962307416791
 20
21.59485580242121
 30
0.0
  0
VERTEX
  5
14A
330
11D
100
AcDbEntity
  8
engrave
100
AcDbVertex
100
AcDb2dVertex
 10
3.503729106537602
 20
21.86092466613587
 30
0.0
  0
VERTEX
  5
14B
330
11D
100
AcDbEntity
  8
engrave
100
AcDbVertex
100
AcDb2dVertex
 10
3.360238443528814
 20
22.12551088943134
 30
0.0
  0
VERTEX
  5
14C
330
11D
100
AcDbEntity
  8
engrave
100
AcDbVertex
100
AcDb2dVertex
 10
3.207490318390427
 20
22.38859277513075
 30
0.0
  0
VERTEX
  5
14D
330
11D
100
AcDbEntity
  8
engrave
100
AcDbVertex
100
AcDb2dVertex
 10
3.045484731122441
 20
22.65014862605722
 30
0.0
  0
VERTEX
  5
14E
330
11D
100
AcDbEntity
  8
engrave
100
AcDbVertex
100
AcDb2dVertex
 10
2.874221681724856
 20
22.91015674503391
 30
0.0
  0
VERTEX
  5
14F
330
11D
100
AcDbEntity
  8
engrave
100
AcDbVertex
100
AcDb2dVertex
 10
2.693701170197671
 20
23.16859543488393
 30
0.0
  0
VERTEX
  5
150
330
11D
100
AcDbEntity
  8
engrave
100
AcDbVertex
100
AcDb2dVertex
 10
2.503923196540887
 20
23.42544299843043
 30
0.0
  0
VERTEX
  5
151
330
11D
100
AcDbEntity
  8
engrave
100
AcDbVertex
100
AcDb2dVertex
 10
2.304887760754504
 20
23.68067773849655
 30
0.0
  0
VERTEX
  5
152
330
11D
100
AcDbEntity
  8
engrave
100
AcDbVertex
100
AcDb2dVertex
 10
2.096594862838522
 20
23.9342779579054
 30
0.0
  0
VERTEX
  5
153
330
11D
100
AcDbEntity
  8
engrave
100
AcDbVertex
100
AcDb2dVertex
 10
1.87904450279294
 20
24.18622195948013
 30
0.0
  0
VERTEX
  5
154
330
11D
100
AcDbEntity
  8
engrave
100
AcDbVertex
100
AcDb2dVertex
 10
1.652236680617759
 20
24.43648804604387
 30
0.0
  0
VERTEX
  5
155
330
11D
100
AcDbEntity
  8
engrave
100
AcDbVertex
100
AcDb2dVertex
 10
1.416171396312979
 20
24.68505452041975
 30
0.0
  0
VERTEX
  5
156
330
11D
100
AcDbEntity
  8
engrave
100
AcDbVertex
100
AcDb2dVertex
 10
1.1708486498786
 20
24.93189968543092
 30
0.0
  0
VERTEX
  5
157
330
11D
100
AcDbEntity
  8
engrave
100
AcDbVertex
100
AcDb2dVertex
 10
0.9162684413146218
 20
25.17700184390049
 30
0.0
  0
VERTEX
  5
158
330
11D
100
AcDbEntity
  8
engrave
100
AcDbVertex
100
AcDb2dVertex
 10
0.6524307706210443
 20
25.42033929865161
 30
0.0
  0
VERTEX
  5
159
330
11D
100
AcDbEntity
  8
engrave
100
AcDbVertex
100
AcDb2dVertex
 10
0.3793356377978674
 20
25.66189035250741
 30
0.0
  0
VERTEX
  5
15A
330
11D
100
AcDbEntity
  8
engrave
100
AcDbVertex
100
AcDb2dVertex
 10
0.0969830428450913
 20
25.90163330829102
 30
0.0
  0
VERTEX
  5
15B
330
11D
100
AcDbEntity
  8
engrave
100
AcDbVertex
100
AcDb2dVertex
 10
-0.1946270142372857
 20
26.13954646882557
 30
0.0
 42
-0.1403614688971985
  0
SEQEND
  5
15C
330
11D
100
AcDbEntity
  8
engrave
  0
POLYLINE
  5
15D
330
1F
100
AcDbEntity
  8
tagli esterni
100
AcDb2dPolyline
 66
     1
 10
0.0
 20
0.0
 30
0.0
 70
     1
  0
VERTEX
  5
15E
330
15D
100
AcDbEntity
  8
tagli esterni
100
AcDbVertex
100
AcDb2dVertex
 10
33.02683735378199
 20
-36.54452077176369
 30
0.0
  0
VERTEX
  5
15F
330
15D
100
AcDbEntity
  8
tagli esterni
100
AcDbVertex
100
AcDb2dVertex
 10
33.02683735378199
 20
-31.54452077176369
 30
0.0
  0
VERTEX
  5
160
330
15D
100
AcDbEntity
  8
tagli esterni
100
AcDbVertex
100
AcDb2dVertex
 10
29.02683735378199
 20
-31.54452077176369
 30
0.0
  0
VERTEX
  5
161
330
15D
100
AcDbEntity
  8
tagli esterni
100
AcDbVertex
100
AcDb2dVertex
 10
29.02683735378199
 20
-26.54452077176369
 30
0.0
  0
VERTEX
  5
162
330
15D
100
AcDbEntity
  8
tagli esterni
100
AcDbVertex
100
AcDb2dVertex
 10
33.02683735378199
 20
-26.54452077176369
 30
0.0
  0
VERTEX
  5
163
330
15D
100
AcDbEntity
  8
tagli esterni
100
AcDbVertex
100
AcDb2dVertex
 10
33.02683735378199
 20
-16.54452077176369
 30
0.0
  0
VERTEX
  5
164
330
15D
100
AcDbEntity
  8
tagli esterni
100
AcDbVertex
100
AcDb2dVertex
 10
29.02683735378199
 20
-16.54452077176369
 30
0.0
  0
VERTEX
  5
165
330
15D
100
AcDbEntity
  8
tagli esterni
100
AcDbVertex
100
AcDb2dVertex
 10
29.02683735378199
 20
-11.54452077176369
 30
0.0
  0
VERTEX
  5
166
330
15D
100
AcDbEntity
  8
tagli esterni
100
AcDbVertex
100
AcDb2dVertex
 10
33.02683735378199
 20
-11.54452077176369
 30
0.0
  0
VERTEX
  5
167
330
15D
100
AcDbEntity
  8
tagli esterni
100
AcDbVertex
100
AcDb2dVertex
 10
33.02683735378199
 20
-6.544520771763686
 30
0.0
  0
VERTEX
  5
168
330
15D
100
AcDbEntity
  8
tagli esterni
100
AcDbVertex
100
AcDb2dVertex
 10
63.026837353782
 20
-6.544520771763658
 30
0.0
  0
VERTEX
  5
169
330
15D
100
AcDbEntity
  8
tagli esterni
100
AcDbVertex
100
AcDb2dVertex
 10
63.026837353782
 20
-11.54452077176369
 30
0.0
  0
VERTEX
  5
16A
330
15D
100
AcDbEntity
  8
tagli esterni
100
AcDbVertex
100
AcDb2dVertex
 10
67.026837353782
 20
-11.54452077176369
 30
0.0
  0
VERTEX
  5
16B
330
15D
100
AcDbEntity
  8
tagli esterni
100
AcDbVertex
100
AcDb2dVertex
 10
67.026837353782
 20
-16.54452077176369
 30
0.0
  0
VERTEX
  5
16C
330
15D
100
AcDbEntity
  8
tagli esterni
100
AcDbVertex
100
AcDb2dVertex
 10
63.026837353782
 20
-16.54452077176369
 30
0.0
  0
VERTEX
  5
16D
330
15D
100
AcDbEntity
  8
tagli esterni
100
AcDbVertex
100
AcDb2dVertex
 10
63.026837353782
 20
-26.54452077176369
 30
0.0
  0
VERTEX
  5
16E
330
15D
100
AcDbEntity
  8
tagli esterni
100
AcDbVertex
100
AcDb2dVertex
 10
67.026837353782
 20
-26.54452077176369
 30
0.0
  0
VERTEX
  5
16F
330
15D
100
AcDbEntity
  8
tagli esterni
100
AcDbVertex
100
AcDb2dVertex
 10
67.026837353782
 20
-31.54452077176369
 30
0.0
  0
VERTEX
  5
170
330
15D
100
AcDbEntity
  8
tagli esterni
100
AcDbVertex
100
AcDb2dVertex
 10
63.026837353782
 20
-31.54452077176369
 30
0.0
  0
VERTEX
  5
171
330
15D
100
AcDbEntity
  8
tagli esterni
100
AcDbVertex
100
AcDb2dVertex
 10
63.026837353782
 20
-36.54452077176369
 30
0.0
  0
SEQEND
  5
172
330
15D
100
AcDbEntity
  8
tagli esterni
  0
POLYLINE
  5
173
330
1F
100
AcDbEntity
  8
tagli esterni
100
AcDb2dPolyline
 66
     1
 10
0.0
 20
0.0
 30
0.0
 70
     1
  0
VERTEX
  5
174
330
173
100
AcDbEntity
  8
tagli esterni
100
AcDbVertex
100
AcDb2dVertex
 10
-9.31556009872095
 20
-37.48274359480666
 30
0.0
  0
VERTEX
  5
175
330
173
100
AcDbEntity
  8
tagli esterni
100
AcDbVertex
100
AcDb2dVertex
 10
-9.31556009872095
 20
-32.48274359480666
 30
0.0
  0
VERTEX
  5
176
330
173
100
AcDbEntity
  8
tagli esterni
100
AcDbVertex
100
AcDb2dVertex
 10
-13.31556009872095
 20
-32.48274359480666
 30
0.0
  0
VERTEX
  5
177
330
173
100
AcDbEntity
  8
tagli esterni
100
AcDbVertex
100
AcDb2dVertex
 10
-13.31556009872095
 20
-27.48274359480667
 30
0.0
  0
VERTEX
  5
178
330
173
100
AcDbEntity
  8
tagli esterni
100
AcDbVertex
100
AcDb2dVertex
 10
-9.31556009872095
 20
-27.48274359480667
 30
0.0
  0
VERTEX
  5
179
330
173
100
AcDbEntity
  8
tagli esterni
100
AcDbVertex
100
AcDb2dVertex
 10
-9.31556009872095
 20
-17.48274359480667
 30
0.0
  0
VERTEX
  5
17A
330
173
100
AcDbEntity
  8
tagli esterni
100
AcDbVertex
100
AcDb2dVertex
 10
-13.31556009872095
 20
-17.48274359480667
 30
0.0
  0
VERTEX
  5
17B
330
173
100
AcDbEntity
  8
tagli esterni
100
AcDbVertex
100
AcDb2dVertex
 10
-13.31556009872095
 20
-12.48274359480667
 30
0.0
  0
VERTEX
  5
17C
330
173
100
AcDbEntity
  8
tagli esterni
100
AcDbVertex
100
AcDb2dVertex
 10
-9.31556009872095
 20
-12.48274359480667
 30
0.0
  0
VERTEX
  5
17D
330
173
100
AcDbEntity
  8
tagli esterni
100
AcDbVertex
100
AcDb2dVertex
 10
-9.31556009872095
 20
-7.482743594806671
 30
0.0
  0
VERTEX
  5
17E
330
173
100
AcDbEntity
  8
tagli esterni
100
AcDbVertex
100
AcDb2dVertex
 10
20.68443990127905
 20
-7.482743594806642
 30
0.0
  0
VERTEX
  5
17F
330
173
100
AcDbEntity
  8
tagli esterni
100
AcDbVertex
100
AcDb2dVertex
 10
20.68443990127905
 20
-12.48274359480667
 30
0.0
  0
VERTEX
  5
180
330
173
100
AcDbEntity
  8
tagli esterni
100
AcDbVertex
100
AcDb2dVertex
 10
24.68443990127905
 20
-12.48274359480667
 30
0.0
  0
VERTEX
  5
181
330
173
100
AcDbEntity
  8
tagli esterni
100
AcDbVertex
100
AcDb2dVertex
 10
24.68443990127905
 20
-17.48274359480667
 30
0.0
  0
VERTEX
  5
182
330
173
100
AcDbEntity
  8
tagli esterni
100
AcDbVertex
100
AcDb2dVertex
 10
20.68443990127905
 20
-17.48274359480667
 30
0.0
  0
VERTEX
  5
183
330
173
100
AcDbEntity
  8
tagli esterni
100
AcDbVertex
100
AcDb2dVertex
 10
20.68443990127905
 20
-27.48274359480667
 30
0.0
  0
VERTEX
  5
184
330
173
100
AcDbEntity
  8
tagli esterni
100
AcDbVertex
100
AcDb2dVertex
 10
24.68443990127905
 20
-27.48274359480667
 30
0.0
  0
VERTEX
  5
185
330
173
100
AcDbEntity
  8
tagli esterni
100
AcDbVertex
100
AcDb2dVertex
 10
24.68443990127905
 20
-32.48274359480666
 30
0.0
  0
VERTEX
  5
186
330
173
100
AcDbEntity
  8
tagli esterni
100
AcDbVertex
100
AcDb2dVertex
 10
20.68443990127905
 20
-32.48274359480666
 30
0.0
  0
VERTEX
  5
187
330
173
100
AcDbEntity
  8
tagli esterni
100
AcDbVertex
100
AcDb2dVertex
 10
20.68443990127905
 20
-37.48274359480666
 30
0.0
  0
SEQEND
  5
188
330
173
100
AcDbEntity
  8
tagli esterni
  0
POLYLINE
  5
189
330
1F
100
AcDbEntity
  8
tagli interni
100
AcDb2dPolyline
 66
     1
 10
0.0
 20
0.0
 30
0.0
 70
     1
  0
VERTEX
  5
18A
330
189
100
AcDbEntity
  8
tagli interni
100
AcDbVertex
100
AcDb2dVertex
 10
-46.99385073612243
 20
-24.0949681471226
 30
0.0
  0
VERTEX
  5
18B
330
189
100
AcDbEntity
  8
tagli interni
100
AcDbVertex
100
AcDb2dVertex
 10
-46.99385073612243
 20
-21.6449681471226
 30
0.0
  0
VERTEX
  5
18C
330
189
100
AcDbEntity
  8
tagli interni
100
AcDbVertex
100
AcDb2dVertex
 10
-33.50861199305136
 20
-21.64496814712258
 30
0.0
  0
VERTEX
  5
18D
330
189
100
AcDbEntity
  8
tagli interni
100
AcDbVertex
100
AcDb2dVertex
 10
-33.50861199305136
 20
-24.0949681471226
 30
0.0
  0
SEQEND
  5
18E
330
189
100
AcDbEntity
  8
tagli interni
  0
POLYLINE
  5
18F
330
1F
100
AcDbEntity
  8
tagli interni
100
AcDb2dPolyline
 66
     1
 10
0.0
 20
0.0
 30
0.0
 70
     1
  0
VERTEX
  5
190
330
18F
100
AcDbEntity
  8
tagli interni
100
AcDbVertex
100
AcDb2dVertex
 10
-91.54816447345758
 20
-24.4109561878129
 30
0.0
  0
VERTEX
  5
191
330
18F
100
AcDbEntity
  8
tagli interni
100
AcDbVertex
100
AcDb2dVertex
 10
-91.54816447345758
 20
-21.9609561878129
 30
0.0
  0
VERTEX
  5
192
330
18F
100
AcDbEntity
  8
tagli interni
100
AcDbVertex
100
AcDb2dVertex
 10
-78.06292573038651
 20
-21.96095618781288
 30
0.0
  0
VERTEX
  5
193
330
18F
100
AcDbEntity
  8
tagli interni
100
AcDbVertex
100
AcDb2dVertex
 10
-78.06292573038651
 20
-24.4109561878129
 30
0.0
  0
SEQEND
  5
194
330
18F
100
AcDbEntity
  8
tagli interni
  0
POLYLINE
  5
195
330
1F
100
AcDbEntity
  8
tagli interni
100
AcDb2dPolyline
 66
     1
 10
0.0
 20
0.0
 30
0.0
 70
     1
  0
VERTEX
  5
196
330
195
100
AcDbEntity
  8
tagli interni
100
AcDbVertex
100
AcDb2dVertex
 10
-74.80554510192208
 20
-40.58595618781291
 30
0.0
  0
VERTEX
  5
197
330
195
100
AcDbEntity
  8
tagli interni
100
AcDbVertex
100
AcDb2dVertex
 10
-74.80554510192208
 20
-38.18595618781291
 30
0.0
  0
VERTEX
  5
198
330
195
100
AcDbEntity
  8
tagli interni
100
AcDbVertex
100
AcDb2dVertex
 10
-79.80554510192208
 20
-38.18595618781291
 30
0.0
  0
VERTEX
  5
199
330
195
100
AcDbEntity
  8
tagli interni
100
AcDbVertex
100
AcDb2dVertex
 10
-79.80554510192208
 20
-40.58595618781291
 30
0.0
  0
SEQEND
  5
19A
330
195
100
AcDbEntity
  8
tagli interni
  0
CIRCLE
  5
19B
330
1F
100
AcDbEntity
  8
engrave
100
AcDbCircle
 10
-139.4449891566762
 20
88.00461056578752
 30
0.0
 40
4.8
  0
CIRCLE
  5
19C
330
1F
100
AcDbEntity
  8
tagli interni
100
AcDbCircle
 10
-139.4449891566762
 20
88.00461056578752
 30
0.0
 40
2.8
  0
CIRCLE
  5
19D
330
1F
100
AcDbEntity
  8
engrave
100
AcDbCircle
 10
-139.4449891566762
 20
74.41712481610375
 30
0.0
 40
4.8
  0
CIRCLE
  5
19E
330
1F
100
AcDbEntity
  8
tagli interni
100
AcDbCircle
 10
-139.4449891566762
 20
74.41712481610375
 30
0.0
 40
2.8
  0
CIRCLE
  5
19F
330
1F
100
AcDbEntity
  8
tagli interni
100
AcDbCircle
 10
-179.8914583650372
 20
87.6886225250972
 30
0.0
 40
2.8
  0
CIRCLE
  5
1A0
330
1F
100
AcDbEntity
  8
tagli interni
100
AcDbCircle
 10
-179.8914583650372
 20
74.10113677541344
 30
0.0
 40
2.8
  0
CIRCLE
  5
1A1
330
1F
100
AcDbEntity
  8
engrave
100
AcDbCircle
 10
-179.8914583650372
 20
74.10113677541344
 30
0.0
 40
4.8
  0
CIRCLE
  5
1A2
330
1F
100
AcDbEntity
  8
engrave
100
AcDbCircle
 10
-179.8914583650372
 20
87.6886225250972
 30
0.0
 40
4.8
  0
POLYLINE
  5
1A3
330
1F
100
AcDbEntity
  8
tagli esterni
100
AcDb2dPolyline
 66
     1
 10
0.0
 20
0.0
 30
0.0
 70
     1
  0
VERTEX
  5
1A4
330
1A3
100
AcDbEntity
  8
tagli esterni
100
AcDbVertex
100
AcDb2dVertex
 10
-67.31297374986498
 20
95.1386286973927
 30
0.0
  0
VERTEX
  5
1A5
330
1A3
100
AcDbEntity
  8
tagli esterni
100
AcDbVertex
100
AcDb2dVertex
 10
-72.31297374986498
 20
95.1386286973927
 30
0.0
  0
VERTEX
  5
1A6
330
1A3
100
AcDbEntity
  8
tagli esterni
100
AcDbVertex
100
AcDb2dVertex
 10
-72.31297374986498
 20
85.1386286973927
 30
0.0
  0
VERTEX
  5
1A7
330
1A3
100
AcDbEntity
  8
tagli esterni
100
AcDbVertex
100
AcDb2dVertex
 10
-42.06297374986498
 20
85.1386286973927
 30
0.0
  0
VERTEX
  5
1A8
330
1A3
100
AcDbEntity
  8
tagli esterni
100
AcDbVertex
100
AcDb2dVertex
 10
-42.06297374986498
 20
95.1386286973927
 30
0.0
  0
VERTEX
  5
1A9
330
1A3
100
AcDbEntity
  8
tagli esterni
100
AcDbVertex
100
AcDb2dVertex
 10
-47.06297374986498
 20
95.1386286973927
 30
0.0
  0
VERTEX
  5
1AA
330
1A3
100
AcDbEntity
  8
tagli esterni
100
AcDbVertex
100
AcDb2dVertex
 10
-47.06297374986498
 20
90.1386286973927
 30
0.0
  0
VERTEX
  5
1AB
330
1A3
100
AcDbEntity
  8
tagli esterni
100
AcDbVertex
100
AcDb2dVertex
 10
-49.51297374986497
 20
90.1386286973927
 30
0.0
  0
VERTEX
  5
1AC
330
1A3
100
AcDbEntity
  8
tagli esterni
100
AcDbVertex
100
AcDb2dVertex
 10
-49.51297374986497
 20
95.1386286973927
 30
0.0
  0
VERTEX
  5
1AD
330
1A3
100
AcDbEntity
  8
tagli esterni
100
AcDbVertex
100
AcDb2dVertex
 10
-64.86297374986499
 20
95.1386286973927
 30
0.0
  0
VERTEX
  5
1AE
330
1A3
100
AcDbEntity
  8
tagli esterni
100
AcDbVertex
100
AcDb2dVertex
 10
-64.86297374986499
 20
90.1386286973927
 30
0.0
  0
VERTEX
  5
1AF
330
1A3
100
AcDbEntity
  8
tagli esterni
100
AcDbVertex
100
AcDb2dVertex
 10
-67.31297374986498
 20
90.1386286973927
 30
0.0
  0
SEQEND
  5
1B0
330
1A3
100
AcDbEntity
  8
tagli esterni
  0
POLYLINE
  5
1B1
330
1F
100
AcDbEntity
  8
tagli esterni
100
AcDb2dPolyline
 66
     1
 10
0.0
 20
0.0
 30
0.0
 70
     1
  0
VERTEX
  5
1B2
330
1B1
100
AcDbEntity
  8
tagli esterni
100
AcDbVertex
100
AcDb2dVertex
 10
-105.366557504563
 20
71.43355063838194
 30
0.0
  0
VERTEX
  5
1B3
330
1B1
100
AcDbEntity
  8
tagli esterni
100
AcDbVertex
100
AcDb2dVertex
 10
-110.366557504563
 20
71.43355063838194
 30
0.0
  0
VERTEX
  5
1B4
330
1B1
100
AcDbEntity
  8
tagli esterni
100
AcDbVertex
100
AcDb2dVertex
 10
-110.366557504563
 20
61.43355063838195
 30
0.0
  0
VERTEX
  5
1B5
330
1B1
100
AcDbEntity
  8
tagli esterni
100
AcDbVertex
100
AcDb2dVertex
 10
-80.11655750456302
 20
61.43355063838195
 30
0.0
  0
VERTEX
  5
1B6
330
1B1
100
AcDbEntity
  8
tagli esterni
100
AcDbVertex
100
AcDb2dVertex
 10
-80.11655750456302
 20
71.43355063838194
 30
0.0
  0
VERTEX
  5
1B7
330
1B1
100
AcDbEntity
  8
tagli esterni
100
AcDbVertex
100
AcDb2dVertex
 10
-85.11655750456302
 20
71.43355063838194
 30
0.0
  0
VERTEX
  5
1B8
330
1B1
100
AcDbEntity
  8
tagli esterni
100
AcDbVertex
100
AcDb2dVertex
 10
-85.11655750456302
 20
66.43355063838194
 30
0.0
  0
VERTEX
  5
1B9
330
1B1
100
AcDbEntity
  8
tagli esterni
100
AcDbVertex
100
AcDb2dVertex
 10
-87.56655750456301
 20
66.43355063838194
 30
0.0
  0
VERTEX
  5
1BA
330
1B1
100
AcDbEntity
  8
tagli esterni
100
AcDbVertex
100
AcDb2dVertex
 10
-87.56655750456301
 20
71.43355063838194
 30
0.0
  0
VERTEX
  5
1BB
330
1B1
100
AcDbEntity
  8
tagli esterni
100
AcDbVertex
100
AcDb2dVertex
 10
-102.916557504563
 20
71.43355063838194
 30
0.0
  0
VERTEX
  5
1BC
330
1B1
100
AcDbEntity
  8
tagli esterni
100
AcDbVertex
100
AcDb2dVertex
 10
-102.916557504563
 20
66.43355063838194
 30
0.0
  0
VERTEX
  5
1BD
330
1B1
100
AcDbEntity
  8
tagli esterni
100
AcDbVertex
100
AcDb2dVertex
 10
-105.366557504563
 20
66.43355063838194
 30
0.0
  0
SEQEND
  5
1BE
330
1B1
100
AcDbEntity
  8
tagli esterni
  0
POLYLINE
  5
1BF
330
1F
100
AcDbEntity
  8
tagli esterni
100
AcDb2dPolyline
 66
     1
 10
0.0
 20
0.0
 30
0.0
  0
VERTEX
  5
1C0
330
1BF
100
AcDbEntity
  8
tagli esterni
100
AcDbVertex
100
AcDb2dVertex
 10
-42.06250331564296
 20
80.44961961062344
 30
0.0
  0
VERTEX
  5
1C1
330
1BF
100
AcDbEntity
  8
tagli esterni
100
AcDbVertex
100
AcDb2dVertex
 10
-12.20233181312845
 20
80.44961961062344
 30
0.0
  0
VERTEX
  5
1C2
330
1BF
100
AcDbEntity
  8
tagli esterni
100
AcDbVertex
100
AcDb2dVertex
 10
-14.68787536488501
 20
74.8571466191712
 30
0.0
  0
VERTEX
  5
1C3
330
1BF
100
AcDbEntity
  8
tagli esterni
100
AcDbVertex
100
AcDb2dVertex
 10
-22.52884602690293
 20
74.8571466191712
 30
0.0
  0
VERTEX
  5
1C4
330
1BF
100
AcDbEntity
  8
tagli esterni
100
AcDbVertex
100
AcDb2dVertex
 10
-22.52884602690293
 20
72.40714661917121
 30
0.0
  0
VERTEX
  5
1C5
330
1BF
100
AcDbEntity
  8
tagli esterni
100
AcDbVertex
100
AcDb2dVertex
 10
-15.77676425377388
 20
72.40714661917121
 30
0.0
  0
VERTEX
  5
1C6
330
1BF
100
AcDbEntity
  8
tagli esterni
100
AcDbVertex
100
AcDb2dVertex
 10
-25.6875705561995
 20
50.10783243871354
 30
0.0
  0
VERTEX
  5
1C7
330
1BF
100
AcDbEntity
  8
tagli esterni
100
AcDbVertex
100
AcDb2dVertex
 10
-7.386175119174453
 20
58.77691448783069
 30
0.0
  0
VERTEX
  5
1C8
330
1BF
100
AcDbEntity
  8
tagli esterni
100
AcDbVertex
100
AcDb2dVertex
 10
-3.051634094615906
 20
48.18136976113198
 30
0.0
  0
VERTEX
  5
1C9
330
1BF
100
AcDbEntity
  8
tagli esterni
100
AcDbVertex
100
AcDb2dVertex
 10
-28.57726457257187
 20
36.62259369564249
 30
0.0
  0
VERTEX
  5
1CA
330
1BF
100
AcDbEntity
  8
tagli esterni
100
AcDbVertex
100
AcDb2dVertex
 10
-30.74453508485116
 20
36.62259369564249
 30
0.0
  0
VERTEX
  5
1CB
330
1BF
100
AcDbEntity
  8
tagli esterni
100
AcDbVertex
100
AcDb2dVertex
 10
-30.74453508485115
 20
23.13735495257142
 30
0.0
  0
VERTEX
  5
1CC
330
1BF
100
AcDbEntity
  8
tagli esterni
100
AcDbVertex
100
AcDb2dVertex
 10
-44.2297738279222
 20
23.13735495257141
 30
0.0
  0
VERTEX
  5
1CD
330
1BF
100
AcDbEntity
  8
tagli esterni
100
AcDbVertex
100
AcDb2dVertex
 10
-44.22977382792222
 20
36.62259369564248
 30
0.0
  0
VERTEX
  5
1CE
330
1BF
100
AcDbEntity
  8
tagli esterni
100
AcDbVertex
100
AcDb2dVertex
 10
-46.3970443402015
 20
36.62259369564248
 30
0.0
  0
VERTEX
  5
1CF
330
1BF
100
AcDbEntity
  8
tagli esterni
100
AcDbVertex
100
AcDb2dVertex
 10
-71.92267481815745
 20
48.18136976113195
 30
0.0
  0
VERTEX
  5
1D0
330
1BF
100
AcDbEntity
  8
tagli esterni
100
AcDbVertex
100
AcDb2dVertex
 10
-67.58813379359891
 20
58.77691448783067
 30
0.0
  0
VERTEX
  5
1D1
330
1BF
100
AcDbEntity
  8
tagli esterni
100
AcDbVertex
100
AcDb2dVertex
 10
-49.28673835657388
 20
50.10783243871353
 30
0.0
  0
VERTEX
  5
1D2
330
1BF
100
AcDbEntity
  8
tagli esterni
100
AcDbVertex
100
AcDb2dVertex
 10
-59.19754465899951
 20
72.4071466191712
 30
0.0
  0
VERTEX
  5
1D3
330
1BF
100
AcDbEntity
  8
tagli esterni
100
AcDbVertex
100
AcDb2dVertex
 10
-52.44546288587046
 20
72.40714661917121
 30
0.0
  0
VERTEX
  5
1D4
330
1BF
100
AcDbEntity
  8
tagli esterni
100
AcDbVertex
100
AcDb2dVertex
 10
-52.44546288587046
 20
74.8571466191712
 30
0.0
  0
VERTEX
  5
1D5
330
1BF
100
AcDbEntity
  8
tagli esterni
100
AcDbVertex
100
AcDb2dVertex
 10
-60.28643354788839
 20
74.85714661917119
 30
0.0
  0
VERTEX
  5
1D6
330
1BF
100
AcDbEntity
  8
tagli esterni
100
AcDbVertex
100
AcDb2dVertex
 10
-62.77197709964494
 20
80.44961961062343
 30
0.0
  0
VERTEX
  5
1D7
330
1BF
100
AcDbEntity
  8
tagli esterni
100
AcDbVertex
100
AcDb2dVertex
 10
-32.91180559713043
 20
80.44961961062344
 30
0.0
  0
SEQEND
  5
1D8
330
1BF
100
AcDbEntity
  8
tagli esterni
  0
POLYLINE
  5
1D9
330
1F
100
AcDbEntity
  8
engrave
100
AcDb2dPolyline
 66
     1
 10
0.0
 20
0.0
 30
0.0
 70
     1
  0
VERTEX
  5
1DA
330
1D9
100
AcDbEntity
  8
engrave
100
AcDbVertex
100
AcDb2dVertex
 10
-124.3054114319213
 20
89.59183324829975
 30
0.0
  0
VERTEX
  5
1DB
330
1D9
100
AcDbEntity
  8
engrave
100
AcDbVertex
100
AcDb2dVertex
 10
-124.8774513487074
 20
88.96891529142032
 30
0.0
  0
VERTEX
  5
1DC
330
1D9
100
AcDbEntity
  8
engrave
100
AcDbVertex
100
AcDb2dVertex
 10
-125.4124678534616
 20
88.3481368556721
 30
0.0
  0
VERTEX
  5
1DD
330
1D9
100
AcDbEntity
  8
engrave
100
AcDbVertex
100
AcDb2dVertex
 10
-125.9104614827196
 20
87.72967151764081
 30
0.0
  0
VERTEX
  5
1DE
330
1D9
100
AcDbEntity
  8
engrave
100
AcDbVertex
100
AcDb2dVertex
 10
-126.145574886705
 20
87.42136050295207
 30
0.0
  0
VERTEX
  5
1DF
330
1D9
100
AcDbEntity
  8
engrave
100
AcDbVertex
100
AcDb2dVertex
 10
-126.3714327730173
 20
87.11369285391217
 30
0.0
  0
VERTEX
  5
1E0
330
1D9
100
AcDbEntity
  8
engrave
100
AcDbVertex
100
AcDb2dVertex
 10
-126.5880352087234
 20
86.80669026759435
 30
0.0
  0
VERTEX
  5
1E1
330
1D9
100
AcDbEntity
  8
engrave
100
AcDbVertex
100
AcDb2dVertex
 10
-126.7953822608903
 20
86.50037444107184
 30
0.0
  0
VERTEX
  5
1E2
330
1D9
100
AcDbEntity
  8
engrave
100
AcDbVertex
100
AcDb2dVertex
 10
-126.9934739965851
 20
86.19476707141783
 30
0.0
  0
VERTEX
  5
1E3
330
1D9
100
AcDbEntity
  8
engrave
100
AcDbVertex
100
AcDb2dVertex
 10
-127.1823104828746
 20
85.88988985570552
 30
0.0
  0
VERTEX
  5
1E4
330
1D9
100
AcDbEntity
  8
engrave
100
AcDbVertex
100
AcDb2dVertex
 10
-127.3618917868258
 20
85.58576449100815
 30
0.0
  0
VERTEX
  5
1E5
330
1D9
100
AcDbEntity
  8
engrave
100
AcDbVertex
100
AcDb2dVertex
 10
-127.5322179755058
 20
85.28241267439894
 30
0.0
  0
VERTEX
  5
1E6
330
1D9
100
AcDbEntity
  8
engrave
100
AcDbVertex
100
AcDb2dVertex
 10
-127.6932891159814
 20
84.97985610295109
 30
0.0
  0
VERTEX
  5
1E7
330
1D9
100
AcDbEntity
  8
engrave
100
AcDbVertex
100
AcDb2dVertex
 10
-127.8451052753197
 20
84.67811647373779
 30
0.0
  0
VERTEX
  5
1E8
330
1D9
100
AcDbEntity
  8
engrave
100
AcDbVertex
100
AcDb2dVertex
 10
-127.9876665205876
 20
84.37721548383226
 30
0.0
  0
VERTEX
  5
1E9
330
1D9
100
AcDbEntity
  8
engrave
100
AcDbVertex
100
AcDb2dVertex
 10
-128.1209729188521
 20
84.07717483030774
 30
0.0
  0
VERTEX
  5
1EA
330
1D9
100
AcDbEntity
  8
engrave
100
AcDbVertex
100
AcDb2dVertex
 10
-128.2450245371801
 20
83.77801621023741
 30
0.0
  0
VERTEX
  5
1EB
330
1D9
100
AcDbEntity
  8
engrave
100
AcDbVertex
100
AcDb2dVertex
 10
-128.3598214426387
 20
83.47976132069451
 30
0.0
  0
VERTEX
  5
1EC
330
1D9
100
AcDbEntity
  8
engrave
100
AcDbVertex
100
AcDb2dVertex
 10
-128.4653637022948
 20
83.18243185875222
 30
0.0
  0
VERTEX
  5
1ED
330
1D9
100
AcDbEntity
  8
engrave
100
AcDbVertex
100
AcDb2dVertex
 10
-128.5616513832155
 20
82.8860495214838
 30
0.0
  0
VERTEX
  5
1EE
330
1D9
100
AcDbEntity
  8
engrave
100
AcDbVertex
100
AcDb2dVertex
 10
-128.6486845524675
 20
82.59063600596244
 30
0.0
  0
VERTEX
  5
1EF
330
1D9
100
AcDbEntity
  8
engrave
100
AcDbVertex
100
AcDb2dVertex
 10
-128.7264632771179
 20
82.29621300926132
 30
0.0
  0
VERTEX
  5
1F0
330
1D9
100
AcDbEntity
  8
engrave
100
AcDbVertex
100
AcDb2dVertex
 10
-128.7949876242338
 20
82.0028022284537
 30
0.0
  0
VERTEX
  5
1F1
330
1D9
100
AcDbEntity
  8
engrave
100
AcDbVertex
100
AcDb2dVertex
 10
-128.854257660882
 20
81.71042536061277
 30
0.0
  0
VERTEX
  5
1F2
330
1D9
100
AcDbEntity
  8
engrave
100
AcDbVertex
100
AcDb2dVertex
 10
-128.9042734541296
 20
81.41910410281174
 30
0.0
  0
VERTEX
  5
1F3
330
1D9
100
AcDbEntity
  8
engrave
100
AcDbVertex
100
AcDb2dVertex
 10
-128.9450350710435
 20
81.12886015212383
 30
0.0
  0
VERTEX
  5
1F4
330
1D9
100
AcDbEntity
  8
engrave
100
AcDbVertex
100
AcDb2dVertex
 10
-128.9765425786907
 20
80.83971520562224
 30
0.0
  0
VERTEX
  5
1F5
330
1D9
100
AcDbEntity
  8
engrave
100
AcDbVertex
100
AcDb2dVertex
 10
-128.9987960441381
 20
80.55169096038021
 30
0.0
  0
VERTEX
  5
1F6
330
1D9
100
AcDbEntity
  8
engrave
100
AcDbVertex
100
AcDb2dVertex
 10
-129.0117955344527
 20
80.26480911347093
 30
0.0
  0
VERTEX
  5
1F7
330
1D9
100
AcDbEntity
  8
engrave
100
AcDbVertex
100
AcDb2dVertex
 10
-129.0155411167015
 20
79.97909136196762
 30
0.0
  0
VERTEX
  5
1F8
330
1D9
100
AcDbEntity
  8
engrave
100
AcDbVertex
100
AcDb2dVertex
 10
-129.0100328579516
 20
79.69455940294348
 30
0.0
  0
VERTEX
  5
1F9
330
1D9
100
AcDbEntity
  8
engrave
100
AcDbVertex
100
AcDb2dVertex
 10
-128.9952708252697
 20
79.41123493347173
 30
0.0
  0
VERTEX
  5
1FA
330
1D9
100
AcDbEntity
  8
engrave
100
AcDbVertex
100
AcDb2dVertex
 10
-128.9712550857229
 20
79.12913965062559
 30
0.0
  0
VERTEX
  5
1FB
330
1D9
100
AcDbEntity
  8
engrave
100
AcDbVertex
100
AcDb2dVertex
 10
-128.9379857063783
 20
78.84829525147828
 30
0.0
  0
VERTEX
  5
1FC
330
1D9
100
AcDbEntity
  8
engrave
100
AcDbVertex
100
AcDb2dVertex
 10
-128.8954627543026
 20
78.56872343310299
 30
0.0
  0
VERTEX
  5
1FD
330
1D9
100
AcDbEntity
  8
engrave
100
AcDbVertex
100
AcDb2dVertex
 10
-128.843686296563
 20
78.29044589257293
 30
0.0
  0
VERTEX
  5
1FE
330
1D9
100
AcDbEntity
  8
engrave
100
AcDbVertex
100
AcDb2dVertex
 10
-128.7826564002265
 20
78.01348432696133
 30
0.0
  0
VERTEX
  5
1FF
330
1D9
100
AcDbEntity
  8
engrave
100
AcDbVertex
100
AcDb2dVertex
 10
-128.7123731323598
 20
77.7378604333414
 30
0.0
  0
VERTEX
  5
200
330
1D9
100
AcDbEntity
  8
engrave
100
AcDbVertex
100
AcDb2dVertex
 10
-128.6328365600301
 20
77.46359590878635
 30
0.0
  0
VERTEX
  5
201
330
1D9
100
AcDbEntity
  8
engrave
100
AcDbVertex
100
AcDb2dVertex
 10
-128.5440467503043
 20
77.19071245036939
 30
0.0
  0
VERTEX
  5
202
330
1D9
100
AcDbEntity
  8
engrave
100
AcDbVertex
100
AcDb2dVertex
 10
-128.4460037702495
 20
76.91923175516374
 30
0.0
  0
VERTEX
  5
203
330
1D9
100
AcDbEntity
  8
engrave
100
AcDbVertex
100
AcDb2dVertex
 10
-128.3387076869324
 20
76.6491755202426
 30
0.0
  0
VERTEX
  5
204
330
1D9
100
AcDbEntity
  8
engrave
100
AcDbVertex
100
AcDb2dVertex
 10
-128.2221585674202
 20
76.38056544267918
 30
0.0
  0
VERTEX
  5
205
330
1D9
100
AcDbEntity
  8
engrave
100
AcDbVertex
100
AcDb2dVertex
 10
-128.0963564787798
 20
76.11342321954672
 30
0.0
  0
VERTEX
  5
206
330
1D9
100
AcDbEntity
  8
engrave
100
AcDbVertex
100
AcDb2dVertex
 10
-127.9613014880782
 20
75.84777054791842
 30
0.0
  0
VERTEX
  5
207
330
1D9
100
AcDbEntity
  8
engrave
100
AcDbVertex
100
AcDb2dVertex
 10
-127.8169936623823
 20
75.58362912486747
 30
0.0
  0
VERTEX
  5
208
330
1D9
100
AcDbEntity
  8
engrave
100
AcDbVertex
100
AcDb2dVertex
 10
-127.6634330687591
 20
75.3210206474671
 30
0.0
  0
VERTEX
  5
209
330
1D9
100
AcDbEntity
  8
engrave
100
AcDbVertex
100
AcDb2dVertex
 10
-127.5006197742756
 20
75.05996681279052
 30
0.0
  0
VERTEX
  5
20A
330
1D9
100
AcDbEntity
  8
engrave
100
AcDbVertex
100
AcDb2dVertex
 10
-127.3285538459987
 20
74.80048931791096
 30
0.0
  0
VERTEX
  5
20B
330
1D9
100
AcDbEntity
  8
engrave
100
AcDbVertex
100
AcDb2dVertex
 10
-127.1472353509955
 20
74.5426098599016
 30
0.0
  0
VERTEX
  5
20C
330
1D9
100
AcDbEntity
  8
engrave
100
AcDbVertex
100
AcDb2dVertex
 10
-126.9566643563329
 20
74.28635013583568
 30
0.0
  0
VERTEX
  5
20D
330
1D9
100
AcDbEntity
  8
engrave
100
AcDbVertex
100
AcDb2dVertex
 10
-126.7568409290778
 20
74.0317318427864
 30
0.0
  0
VERTEX
  5
20E
330
1D9
100
AcDbEntity
  8
engrave
100
AcDbVertex
100
AcDb2dVertex
 10
-126.5477651362973
 20
73.77877667782695
 30
0.0
  0
VERTEX
  5
20F
330
1D9
100
AcDbEntity
  8
engrave
100
AcDbVertex
100
AcDb2dVertex
 10
-126.3294370450583
 20
73.5275063380306
 30
0.0
  0
VERTEX
  5
210
330
1D9
100
AcDbEntity
  8
engrave
100
AcDbVertex
100
AcDb2dVertex
 10
-126.1018567224277
 20
73.27794252047053
 30
0.0
  0
VERTEX
  5
211
330
1D9
100
AcDbEntity
  8
engrave
100
AcDbVertex
100
AcDb2dVertex
 10
-125.8650242354726
 20
73.03010692221993
 30
0.0
  0
VERTEX
  5
212
330
1D9
100
AcDbEntity
  8
engrave
100
AcDbVertex
100
AcDb2dVertex
 10
-125.61893965126
 20
72.78402124035203
 30
0.0
  0
VERTEX
  5
213
330
1D9
100
AcDbEntity
  8
engrave
100
AcDbVertex
100
AcDb2dVertex
 10
-125.3636030368568
 20
72.53970717194005
 30
0.0
  0
VERTEX
  5
214
330
1D9
100
AcDbEntity
  8
engrave
100
AcDbVertex
100
AcDb2dVertex
 10
-125.0990144593299
 20
72.29718641405721
 30
0.0
  0
VERTEX
  5
215
330
1D9
100
AcDbEntity
  8
engrave
100
AcDbVertex
100
AcDb2dVertex
 10
-124.8251739857463
 20
72.0564806637767
 30
0.0
  0
VERTEX
  5
216
330
1D9
100
AcDbEntity
  8
engrave
100
AcDbVertex
100
AcDb2dVertex
 10
-124.5420816831731
 20
71.81761161817174
 30
0.0
  0
VERTEX
  5
217
330
1D9
100
AcDbEntity
  8
engrave
100
AcDbVertex
100
AcDb2dVertex
 10
-124.2497376186772
 20
71.58060097431557
 30
0.0
 42
-0.1403614688972
  0
SEQEND
  5
218
330
1D9
100
AcDbEntity
  8
engrave
  0
POLYLINE
  5
219
330
1F
100
AcDbEntity
  8
engrave
100
AcDb2dPolyline
 66
     1
 10
0.0
 20
0.0
 30
0.0
 70
     1
  0
VERTEX
  5
21A
330
219
100
AcDbEntity
  8
engrave
100
AcDbVertex
100
AcDb2dVertex
 10
-169.4638530222566
 20
71.25724440920055
 30
0.0
  0
VERTEX
  5
21B
330
219
100
AcDbEntity
  8
engrave
100
AcDbVertex
100
AcDb2dVertex
 10
-168.8898903702215
 20
71.8783911885275
 30
0.0
  0
VERTEX
  5
21C
330
219
100
AcDbEntity
  8
engrave
100
AcDbVertex
100
AcDb2dVertex
 10
-168.3529575667047
 20
72.49751289801362
 30
0.0
  0
VERTEX
  5
21D
330
219
100
AcDbEntity
  8
engrave
100
AcDbVertex
100
AcDb2dVertex
 10
-167.8530546117063
 20
73.11443596024395
 30
0.0
  0
VERTEX
  5
21E
330
219
100
AcDbEntity
  8
engrave
100
AcDbVertex
100
AcDb2dVertex
 10
-167.6169893274016
 20
73.42201875569603
 30
0.0
  0
VERTEX
  5
21F
330
219
100
AcDbEntity
  8
engrave
100
AcDbVertex
100
AcDb2dVertex
 10
-167.3901815052264
 20
73.72898679780356
 30
0.0
  0
VERTEX
  5
220
330
219
100
AcDbEntity
  8
engrave
100
AcDbVertex
100
AcDb2dVertex
 10
-167.1726311451808
 20
74.03531838938967
 30
0.0
  0
VERTEX
  5
221
330
219
100
AcDbEntity
  8
engrave
100
AcDbVertex
100
AcDb2dVertex
 10
-166.9643382472648
 20
74.34099183327754
 30
0.0
  0
VERTEX
  5
222
330
219
100
AcDbEntity
  8
engrave
100
AcDbVertex
100
AcDb2dVertex
 10
-166.7653028114784
 20
74.64598543229025
 30
0.0
  0
VERTEX
  5
223
330
219
100
AcDbEntity
  8
engrave
100
AcDbVertex
100
AcDb2dVertex
 10
-166.5755248378217
 20
74.95027748925094
 30
0.0
  0
VERTEX
  5
224
330
219
100
AcDbEntity
  8
engrave
100
AcDbVertex
100
AcDb2dVertex
 10
-166.3950043262944
 20
75.25384630698277
 30
0.0
  0
VERTEX
  5
225
330
219
100
AcDbEntity
  8
engrave
100
AcDbVertex
100
AcDb2dVertex
 10
-166.2237412768969
 20
75.55667018830884
 30
0.0
  0
VERTEX
  5
226
330
219
100
AcDbEntity
  8
engrave
100
AcDbVertex
100
AcDb2dVertex
 10
-166.0617356896289
 20
75.85872743605232
 30
0.0
  0
VERTEX
  5
227
330
219
100
AcDbEntity
  8
engrave
100
AcDbVertex
100
AcDb2dVertex
 10
-165.9089875644905
 20
76.15999635303632
 30
0.0
  0
VERTEX
  5
228
330
219
100
AcDbEntity
  8
engrave
100
AcDbVertex
100
AcDb2dVertex
 10
-165.7654969014818
 20
76.46045524208398
 30
0.0
  0
VERTEX
  5
229
330
219
100
AcDbEntity
  8
engrave
100
AcDbVertex
100
AcDb2dVertex
 10
-165.6312637006025
 20
76.76008240601843
 30
0.0
  0
VERTEX
  5
22A
330
219
100
AcDbEntity
  8
engrave
100
AcDbVertex
100
AcDb2dVertex
 10
-165.5062879618529
 20
77.05885614766281
 30
0.0
  0
VERTEX
  5
22B
330
219
100
AcDbEntity
  8
engrave
100
AcDbVertex
100
AcDb2dVertex
 10
-165.3905696852329
 20
77.35675476984025
 30
0.0
  0
VERTEX
  5
22C
330
219
100
AcDbEntity
  8
engrave
100
AcDbVertex
100
AcDb2dVertex
 10
-165.2841088707426
 20
77.6537565753739
 30
0.0
  0
VERTEX
  5
22D
330
219
100
AcDbEntity
  8
engrave
100
AcDbVertex
100
AcDb2dVertex
 10
-165.1869055183818
 20
77.94983986708687
 30
0.0
  0
VERTEX
  5
22E
330
219
100
AcDbEntity
  8
engrave
100
AcDbVertex
100
AcDb2dVertex
 10
-165.0989596281506
 20
78.24498294780228
 30
0.0
  0
VERTEX
  5
22F
330
219
100
AcDbEntity
  8
engrave
100
AcDbVertex
100
AcDb2dVertex
 10
-165.020271200049
 20
78.53916412034332
 30
0.0
  0
VERTEX
  5
230
330
219
100
AcDbEntity
  8
engrave
100
AcDbVertex
100
AcDb2dVertex
 10
-164.950840234077
 20
78.83236168753308
 30
0.0
  0
VERTEX
  5
231
330
219
100
AcDbEntity
  8
engrave
100
AcDbVertex
100
AcDb2dVertex
 10
-164.8906667302346
 20
79.1245539521947
 30
0.0
  0
VERTEX
  5
232
330
219
100
AcDbEntity
  8
engrave
100
AcDbVertex
100
AcDb2dVertex
 10
-164.8397506885218
 20
79.41571921715132
 30
0.0
  0
VERTEX
  5
233
330
219
100
AcDbEntity
  8
engrave
100
AcDbVertex
100
AcDb2dVertex
 10
-164.7980921089386
 20
79.70583578522607
 30
0.0
  0
VERTEX
  5
234
330
219
100
AcDbEntity
  8
engrave
100
AcDbVertex
100
AcDb2dVertex
 10
-164.765690991485
 20
79.99488195924208
 30
0.0
  0
VERTEX
  5
235
330
219
100
AcDbEntity
  8
engrave
100
AcDbVertex
100
AcDb2dVertex
 10
-164.742547336161
 20
80.28283604202248
 30
0.0
  0
VERTEX
  5
236
330
219
100
AcDbEntity
  8
engrave
100
AcDbVertex
100
AcDb2dVertex
 10
-164.7286611429666
 20
80.56967633639043
 30
0.0
  0
VERTEX
  5
237
330
219
100
AcDbEntity
  8
engrave
100
AcDbVertex
100
AcDb2dVertex
 10
-164.7240324119018
 20
80.85538114516905
 30
0.0
  0
VERTEX
  5
238
330
219
100
AcDbEntity
  8
engrave
100
AcDbVertex
100
AcDb2dVertex
 10
-164.7286611429666
 20
81.13992877118146
 30
0.0
  0
VERTEX
  5
239
330
219
100
AcDbEntity
  8
engrave
100
AcDbVertex
100
AcDb2dVertex
 10
-164.742547336161
 20
81.4232975172508
 30
0.0
  0
VERTEX
  5
23A
330
219
100
AcDbEntity
  8
engrave
100
AcDbVertex
100
AcDb2dVertex
 10
-164.765690991485
 20
81.70546568620021
 30
0.0
  0
VERTEX
  5
23B
330
219
100
AcDbEntity
  8
engrave
100
AcDbVertex
100
AcDb2dVertex
 10
-164.7980921089386
 20
81.98641158085283
 30
0.0
  0
VERTEX
  5
23C
330
219
100
AcDbEntity
  8
engrave
100
AcDbVertex
100
AcDb2dVertex
 10
-164.8397506885218
 20
82.26611350403178
 30
0.0
  0
VERTEX
  5
23D
330
219
100
AcDbEntity
  8
engrave
100
AcDbVertex
100
AcDb2dVertex
 10
-164.8906667302346
 20
82.5445497585602
 30
0.0
  0
VERTEX
  5
23E
330
219
100
AcDbEntity
  8
engrave
100
AcDbVertex
100
AcDb2dVertex
 10
-164.950840234077
 20
82.82169864726121
 30
0.0
  0
VERTEX
  5
23F
330
219
100
AcDbEntity
  8
engrave
100
AcDbVertex
100
AcDb2dVertex
 10
-165.020271200049
 20
83.09753847295798
 30
0.0
  0
VERTEX
  5
240
330
219
100
AcDbEntity
  8
engrave
100
AcDbVertex
100
AcDb2dVertex
 10
-165.0989596281506
 20
83.3720475384736
 30
0.0
  0
VERTEX
  5
241
330
219
100
AcDbEntity
  8
engrave
100
AcDbVertex
100
AcDb2dVertex
 10
-165.1869055183818
 20
83.64520414663123
 30
0.0
  0
VERTEX
  5
242
330
219
100
AcDbEntity
  8
engrave
100
AcDbVertex
100
AcDb2dVertex
 10
-165.2841088707426
 20
83.916986600254
 30
0.0
  0
VERTEX
  5
243
330
219
100
AcDbEntity
  8
engrave
100
AcDbVertex
100
AcDb2dVertex
 10
-165.3905696852329
 20
84.18737320216505
 30
0.0
  0
VERTEX
  5
244
330
219
100
AcDbEntity
  8
engrave
100
AcDbVertex
100
AcDb2dVertex
 10
-165.5062879618529
 20
84.4563422551875
 30
0.0
  0
VERTEX
  5
245
330
219
100
AcDbEntity
  8
engrave
100
AcDbVertex
100
AcDb2dVertex
 10
-165.6312637006025
 20
84.72387206214447
 30
0.0
  0
VERTEX
  5
246
330
219
100
AcDbEntity
  8
engrave
100
AcDbVertex
100
AcDb2dVertex
 10
-165.7654969014818
 20
84.98994092585912
 30
0.0
  0
VERTEX
  5
247
330
219
100
AcDbEntity
  8
engrave
100
AcDbVertex
100
AcDb2dVertex
 10
-165.9089875644905
 20
85.2545271491546
 30
0.0
  0
VERTEX
  5
248
330
219
100
AcDbEntity
  8
engrave
100
AcDbVertex
100
AcDb2dVertex
 10
-166.0617356896289
 20
85.51760903485402
 30
0.0
  0
VERTEX
  5
249
330
219
100
AcDbEntity
  8
engrave
100
AcDbVertex
100
AcDb2dVertex
 10
-166.2237412768969
 20
85.77916488578049
 30
0.0
  0
VERTEX
  5
24A
330
219
100
AcDbEntity
  8
engrave
100
AcDbVertex
100
AcDb2dVertex
 10
-166.3950043262944
 20
86.03917300475717
 30
0.0
  0
VERTEX
  5
24B
330
219
100
AcDbEntity
  8
engrave
100
AcDbVertex
100
AcDb2dVertex
 10
-166.5755248378217
 20
86.2976116946072
 30
0.0
  0
VERTEX
  5
24C
330
219
100
AcDbEntity
  8
engrave
100
AcDbVertex
100
AcDb2dVertex
 10
-166.7653028114784
 20
86.5544592581537
 30
0.0
  0
VERTEX
  5
24D
330
219
100
AcDbEntity
  8
engrave
100
AcDbVertex
100
AcDb2dVertex
 10
-166.9643382472648
 20
86.80969399821981
 30
0.0
  0
VERTEX
  5
24E
330
219
100
AcDbEntity
  8
engrave
100
AcDbVertex
100
AcDb2dVertex
 10
-167.1726311451808
 20
87.06329421762867
 30
0.0
  0
VERTEX
  5
24F
330
219
100
AcDbEntity
  8
engrave
100
AcDbVertex
100
AcDb2dVertex
 10
-167.3901815052264
 20
87.3152382192034
 30
0.0
  0
VERTEX
  5
250
330
219
100
AcDbEntity
  8
engrave
100
AcDbVertex
100
AcDb2dVertex
 10
-167.6169893274016
 20
87.56550430576713
 30
0.0
  0
VERTEX
  5
251
330
219
100
AcDbEntity
  8
engrave
100
AcDbVertex
100
AcDb2dVertex
 10
-167.8530546117063
 20
87.81407078014303
 30
0.0
  0
VERTEX
  5
252
330
219
100
AcDbEntity
  8
engrave
100
AcDbVertex
100
AcDb2dVertex
 10
-168.0983773581407
 20
88.06091594515419
 30
0.0
  0
VERTEX
  5
253
330
219
100
AcDbEntity
  8
engrave
100
AcDbVertex
100
AcDb2dVertex
 10
-168.3529575667047
 20
88.30601810362376
 30
0.0
  0
VERTEX
  5
254
330
219
100
AcDbEntity
  8
engrave
100
AcDbVertex
100
AcDb2dVertex
 10
-168.6167952373983
 20
88.54935555837487
 30
0.0
  0
VERTEX
  5
255
330
219
100
AcDbEntity
  8
engrave
100
AcDbVertex
100
AcDb2dVertex
 10
-168.8898903702215
 20
88.79090661223067
 30
0.0
  0
VERTEX
  5
256
330
219
100
AcDbEntity
  8
engrave
100
AcDbVertex
100
AcDb2dVertex
 10
-169.1722429651742
 20
89.03064956801427
 30
0.0
  0
VERTEX
  5
257
330
219
100
AcDbEntity
  8
engrave
100
AcDbVertex
100
AcDb2dVertex
 10
-169.4638530222566
 20
89.26856272854883
 30
0.0
 42
-0.1403614688972032
  0
SEQEND
  5
258
330
219
100
AcDbEntity
  8
engrave
  0
POLYLINE
  5
259
330
1F
100
AcDbEntity
  8
tagli esterni
100
AcDb2dPolyline
 66
     1
 10
0.0
 20
0.0
 30
0.0
 70
     1
  0
VERTEX
  5
25A
330
259
100
AcDbEntity
  8
tagli esterni
100
AcDbVertex
100
AcDb2dVertex
 10
-149.6176194342267
 20
65.49776785544735
 30
0.0
  0
VERTEX
  5
25B
330
259
100
AcDbEntity
  8
tagli esterni
100
AcDbVertex
100
AcDb2dVertex
 10
-149.6176194342267
 20
70.49776785544735
 30
0.0
  0
VERTEX
  5
25C
330
259
100
AcDbEntity
  8
tagli esterni
100
AcDbVertex
100
AcDb2dVertex
 10
-153.6176194342267
 20
70.49776785544735
 30
0.0
  0
VERTEX
  5
25D
330
259
100
AcDbEntity
  8
tagli esterni
100
AcDbVertex
100
AcDb2dVertex
 10
-153.6176194342267
 20
75.49776785544735
 30
0.0
  0
VERTEX
  5
25E
330
259
100
AcDbEntity
  8
tagli esterni
100
AcDbVertex
100
AcDb2dVertex
 10
-149.6176194342267
 20
75.49776785544735
 30
0.0
  0
VERTEX
  5
25F
330
259
100
AcDbEntity
  8
tagli esterni
100
AcDbVertex
100
AcDb2dVertex
 10
-149.6176194342267
 20
85.49776785544735
 30
0.0
  0
VERTEX
  5
260
330
259
100
AcDbEntity
  8
tagli esterni
100
AcDbVertex
100
AcDb2dVertex
 10
-153.6176194342267
 20
85.49776785544735
 30
0.0
  0
VERTEX
  5
261
330
259
100
AcDbEntity
  8
tagli esterni
100
AcDbVertex
100
AcDb2dVertex
 10
-153.6176194342267
 20
90.49776785544735
 30
0.0
  0
VERTEX
  5
262
330
259
100
AcDbEntity
  8
tagli esterni
100
AcDbVertex
100
AcDb2dVertex
 10
-149.6176194342267
 20
90.49776785544735
 30
0.0
  0
VERTEX
  5
263
330
259
100
AcDbEntity
  8
tagli esterni
100
AcDbVertex
100
AcDb2dVertex
 10
-149.6176194342267
 20
95.49776785544735
 30
0.0
  0
VERTEX
  5
264
330
259
100
AcDbEntity
  8
tagli esterni
100
AcDbVertex
100
AcDb2dVertex
 10
-119.6176194342267
 20
95.49776785544738
 30
0.0
  0
VERTEX
  5
265
330
259
100
AcDbEntity
  8
tagli esterni
100
AcDbVertex
100
AcDb2dVertex
 10
-119.6176194342267
 20
90.49776785544735
 30
0.0
  0
VERTEX
  5
266
330
259
100
AcDbEntity
  8
tagli esterni
100
AcDbVertex
100
AcDb2dVertex
 10
-115.6176194342267
 20
90.49776785544735
 30
0.0
  0
VERTEX
  5
267
330
259
100
AcDbEntity
  8
tagli esterni
100
AcDbVertex
100
AcDb2dVertex
 10
-115.6176194342267
 20
85.49776785544735
 30
0.0
  0
VERTEX
  5
268
330
259
100
AcDbEntity
  8
tagli esterni
100
AcDbVertex
100
AcDb2dVertex
 10
-119.6176194342267
 20
85.49776785544735
 30
0.0
  0
VERTEX
  5
269
330
259
100
AcDbEntity
  8
tagli esterni
100
AcDbVertex
100
AcDb2dVertex
 10
-119.6176194342267
 20
75.49776785544735
 30
0.0
  0
VERTEX
  5
26A
330
259
100
AcDbEntity
  8
tagli esterni
100
AcDbVertex
100
AcDb2dVertex
 10
-115.6176194342267
 20
75.49776785544735
 30
0.0
  0
VERTEX
  5
26B
330
259
100
AcDbEntity
  8
tagli esterni
100
AcDbVertex
100
AcDb2dVertex
 10
-115.6176194342267
 20
70.49776785544735
 30
0.0
  0
VERTEX
  5
26C
330
259
100
AcDbEntity
  8
tagli esterni
100
AcDbVertex
100
AcDb2dVertex
 10
-119.6176194342267
 20
70.49776785544735
 30
0.0
  0
VERTEX
  5
26D
330
259
100
AcDbEntity
  8
tagli esterni
100
AcDbVertex
100
AcDb2dVertex
 10
-119.6176194342267
 20
65.49776785544735
 30
0.0
  0
SEQEND
  5
26E
330
259
100
AcDbEntity
  8
tagli esterni
  0
POLYLINE
  5
26F
330
1F
100
AcDbEntity
  8
tagli interni
100
AcDb2dPolyline
 66
     1
 10
0.0
 20
0.0
 30
0.0
 70
     1
  0
VERTEX
  5
270
330
26F
100
AcDbEntity
  8
tagli interni
100
AcDbVertex
100
AcDb2dVertex
 10
-135.4705021294121
 20
-30.54742658231434
 30
0.0
  0
VERTEX
  5
271
330
26F
100
AcDbEntity
  8
tagli interni
100
AcDbVertex
100
AcDb2dVertex
 10
-135.4705021294121
 20
-32.99742658231433
 30
0.0
  0
VERTEX
  5
272
330
26F
100
AcDbEntity
  8
tagli interni
100
AcDbVertex
100
AcDb2dVertex
 10
-121.985263386341
 20
-32.99742658231436
 30
0.0
  0
VERTEX
  5
273
330
26F
100
AcDbEntity
  8
tagli interni
100
AcDbVertex
100
AcDb2dVertex
 10
-121.985263386341
 20
-30.54742658231434
 30
0.0
  0
SEQEND
  5
274
330
26F
100
AcDbEntity
  8
tagli interni
  0
POLYLINE
  5
275
330
1F
100
AcDbEntity
  8
tagli interni
100
AcDb2dPolyline
 66
     1
 10
0.0
 20
0.0
 30
0.0
 70
     1
  0
VERTEX
  5
276
330
275
100
AcDbEntity
  8
tagli interni
100
AcDbVertex
100
AcDb2dVertex
 10
-146.1278827578765
 20
-17.86996814712258
 30
0.0
  0
VERTEX
  5
277
330
275
100
AcDbEntity
  8
tagli interni
100
AcDbVertex
100
AcDb2dVertex
 10
-143.7278827578765
 20
-17.86996814712258
 30
0.0
  0
VERTEX
  5
278
330
275
100
AcDbEntity
  8
tagli interni
100
AcDbVertex
100
AcDb2dVertex
 10
-143.7278827578765
 20
-12.86996814712258
 30
0.0
  0
VERTEX
  5
279
330
275
100
AcDbEntity
  8
tagli interni
100
AcDbVertex
100
AcDb2dVertex
 10
-146.1278827578765
 20
-12.86996814712258
 30
0.0
  0
SEQEND
  5
27A
330
275
100
AcDbEntity
  8
tagli interni
  0
POLYLINE
  5
27B
330
1F
100
AcDbEntity
  8
tagli interni
100
AcDb2dPolyline
 66
     1
 10
0.0
 20
0.0
 30
0.0
 70
     1
  0
VERTEX
  5
27C
330
27B
100
AcDbEntity
  8
tagli interni
100
AcDbVertex
100
AcDb2dVertex
 10
-146.1278827578765
 20
-32.86996814712258
 30
0.0
  0
VERTEX
  5
27D
330
27B
100
AcDbEntity
  8
tagli interni
100
AcDbVertex
100
AcDb2dVertex
 10
-143.7278827578765
 20
-32.86996814712258
 30
0.0
  0
VERTEX
  5
27E
330
27B
100
AcDbEntity
  8
tagli interni
100
AcDbVertex
100
AcDb2dVertex
 10
-143.7278827578765
 20
-27.86996814712258
 30
0.0
  0
VERTEX
  5
27F
330
27B
100
AcDbEntity
  8
tagli interni
100
AcDbVertex
100
AcDb2dVertex
 10
-146.1278827578765
 20
-27.86996814712258
 30
0.0
  0
SEQEND
  5
280
330
27B
100
AcDbEntity
  8
tagli interni
  0
POLYLINE
  5
281
330
1F
100
AcDbEntity
  8
tagli interni
100
AcDb2dPolyline
 66
     1
 10
0.0
 20
0.0
 30
0.0
 70
     1
  0
VERTEX
  5
282
330
281
100
AcDbEntity
  8
tagli interni
100
AcDbVertex
100
AcDb2dVertex
 10
-113.7278827578765
 20
-32.86996814712258
 30
0.0
  0
VERTEX
  5
283
330
281
100
AcDbEntity
  8
tagli interni
100
AcDbVertex
100
AcDb2dVertex
 10
-111.3278827578765
 20
-32.86996814712258
 30
0.0
  0
VERTEX
  5
284
330
281
100
AcDbEntity
  8
tagli interni
100
AcDbVertex
100
AcDb2dVertex
 10
-111.3278827578765
 20
-27.86996814712258
 30
0.0
  0
VERTEX
  5
285
330
281
100
AcDbEntity
  8
tagli interni
100
AcDbVertex
100
AcDb2dVertex
 10
-113.7278827578765
 20
-27.86996814712258
 30
0.0
  0
SEQEND
  5
286
330
281
100
AcDbEntity
  8
tagli interni
  0
POLYLINE
  5
287
330
1F
100
AcDbEntity
  8
tagli esterni
100
AcDb2dPolyline
 66
     1
 10
0.0
 20
0.0
 30
0.0
 70
     1
  0
VERTEX
  5
288
330
287
100
AcDbEntity
  8
tagli esterni
100
AcDbVertex
100
AcDb2dVertex
 10
-149.7278827578765
 20
-43.86996814712258
 30
0.0
  0
VERTEX
  5
289
330
287
100
AcDbEntity
  8
tagli esterni
100
AcDbVertex
100
AcDb2dVertex
 10
-107.7278827578765
 20
-43.86996814712258
 30
0.0
  0
VERTEX
  5
28A
330
287
100
AcDbEntity
  8
tagli esterni
100
AcDbVertex
100
AcDb2dVertex
 10
-107.7278827578765
 20
-1.869968147122577
 30
0.0
  0
VERTEX
  5
28B
330
287
100
AcDbEntity
  8
tagli esterni
100
AcDbVertex
100
AcDb2dVertex
 10
-149.7278827578765
 20
-1.869968147122577
 30
0.0
  0
SEQEND
  5
28C
330
287
100
AcDbEntity
  8
tagli esterni
  0
POLYLINE
  5
28D
330
1F
100
AcDbEntity
  8
tagli interni
100
AcDb2dPolyline
 66
     1
 10
0.0
 20
0.0
 30
0.0
 70
     1
  0
VERTEX
  5
28E
330
28D
100
AcDbEntity
  8
tagli interni
100
AcDbVertex
100
AcDb2dVertex
 10
-113.7278827578765
 20
-17.86996814712258
 30
0.0
  0
VERTEX
  5
28F
330
28D
100
AcDbEntity
  8
tagli interni
100
AcDbVertex
100
AcDb2dVertex
 10
-111.3278827578765
 20
-17.86996814712258
 30
0.0
  0
VERTEX
  5
290
330
28D
100
AcDbEntity
  8
tagli interni
100
AcDbVertex
100
AcDb2dVertex
 10
-111.3278827578765
 20
-12.86996814712258
 30
0.0
  0
VERTEX
  5
291
330
28D
100
AcDbEntity
  8
tagli interni
100
AcDbVertex
100
AcDb2dVertex
 10
-113.7278827578765
 20
-12.86996814712258
 30
0.0
  0
SEQEND
  5
292
330
28D
100
AcDbEntity
  8
tagli interni
  0
POLYLINE
  5
293
330
1F
100
AcDbEntity
  8
tagli interni
100
AcDb2dPolyline
 66
     1
 10
0.0
 20
0.0
 30
0.0
 70
     1
  0
VERTEX
  5
294
330
293
100
AcDbEntity
  8
tagli interni
100
AcDbVertex
100
AcDb2dVertex
 10
-133.7278827578766
 20
-7.869968147122577
 30
0.0
  0
VERTEX
  5
295
330
293
100
AcDbEntity
  8
tagli interni
100
AcDbVertex
100
AcDb2dVertex
 10
-133.7278827578766
 20
-5.469968147122572
 30
0.0
  0
VERTEX
  5
296
330
293
100
AcDbEntity
  8
tagli interni
100
AcDbVertex
100
AcDb2dVertex
 10
-138.7278827578765
 20
-5.469968147122572
 30
0.0
  0
VERTEX
  5
297
330
293
100
AcDbEntity
  8
tagli interni
100
AcDbVertex
100
AcDb2dVertex
 10
-138.7278827578765
 20
-7.869968147122577
 30
0.0
  0
SEQEND
  5
298
330
293
100
AcDbEntity
  8
tagli interni
  0
POLYLINE
  5
299
330
1F
100
AcDbEntity
  8
tagli interni
100
AcDb2dPolyline
 66
     1
 10
0.0
 20
0.0
 30
0.0
 70
     1
  0
VERTEX
  5
29A
330
299
100
AcDbEntity
  8
tagli interni
100
AcDbVertex
100
AcDb2dVertex
 10
-118.7278827578766
 20
-7.869968147122577
 30
0.0
  0
VERTEX
  5
29B
330
299
100
AcDbEntity
  8
tagli interni
100
AcDbVertex
100
AcDb2dVertex
 10
-118.7278827578766
 20
-5.469968147122572
 30
0.0
  0
VERTEX
  5
29C
330
299
100
AcDbEntity
  8
tagli interni
100
AcDbVertex
100
AcDb2dVertex
 10
-123.7278827578766
 20
-5.469968147122572
 30
0.0
  0
VERTEX
  5
29D
330
299
100
AcDbEntity
  8
tagli interni
100
AcDbVertex
100
AcDb2dVertex
 10
-123.7278827578766
 20
-7.869968147122577
 30
0.0
  0
SEQEND
  5
29E
330
299
100
AcDbEntity
  8
tagli interni
  0
POLYLINE
  5
29F
330
1F
100
AcDbEntity
  8
tagli interni
100
AcDb2dPolyline
 66
     1
 10
0.0
 20
0.0
 30
0.0
 70
     1
  0
VERTEX
  5
2A0
330
29F
100
AcDbEntity
  8
tagli interni
100
AcDbVertex
100
AcDb2dVertex
 10
-118.7278827578766
 20
-40.26996814712258
 30
0.0
  0
VERTEX
  5
2A1
330
29F
100
AcDbEntity
  8
tagli interni
100
AcDbVertex
100
AcDb2dVertex
 10
-118.7278827578766
 20
-37.86996814712258
 30
0.0
  0
VERTEX
  5
2A2
330
29F
100
AcDbEntity
  8
tagli interni
100
AcDbVertex
100
AcDb2dVertex
 10
-123.7278827578766
 20
-37.86996814712258
 30
0.0
  0
VERTEX
  5
2A3
330
29F
100
AcDbEntity
  8
tagli interni
100
AcDbVertex
100
AcDb2dVertex
 10
-123.7278827578766
 20
-40.26996814712258
 30
0.0
  0
SEQEND
  5
2A4
330
29F
100
AcDbEntity
  8
tagli interni
  0
POLYLINE
  5
2A5
330
1F
100
AcDbEntity
  8
tagli interni
100
AcDb2dPolyline
 66
     1
 10
0.0
 20
0.0
 30
0.0
 70
     1
  0
VERTEX
  5
2A6
330
2A5
100
AcDbEntity
  8
tagli interni
100
AcDbVertex
100
AcDb2dVertex
 10
-133.7278827578766
 20
-40.26996814712258
 30
0.0
  0
VERTEX
  5
2A7
330
2A5
100
AcDbEntity
  8
tagli interni
100
AcDbVertex
100
AcDb2dVertex
 10
-133.7278827578766
 20
-37.86996814712258
 30
0.0
  0
VERTEX
  5
2A8
330
2A5
100
AcDbEntity
  8
tagli interni
100
AcDbVertex
100
AcDb2dVertex
 10
-138.7278827578765
 20
-37.86996814712258
 30
0.0
  0
VERTEX
  5
2A9
330
2A5
100
AcDbEntity
  8
tagli interni
100
AcDbVertex
100
AcDb2dVertex
 10
-138.7278827578765
 20
-40.26996814712258
 30
0.0
  0
SEQEND
  5
2AA
330
2A5
100
AcDbEntity
  8
tagli interni
  0
POLYLINE
  5
2AB
330
1F
100
AcDbEntity
  8
tagli interni
100
AcDb2dPolyline
 66
     1
 10
0.0
 20
0.0
 30
0.0
 70
     1
  0
VERTEX
  5
2AC
330
2AB
100
AcDbEntity
  8
tagli interni
100
AcDbVertex
100
AcDb2dVertex
 10
-135.4705021294121
 20
-15.19250971193082
 30
0.0
  0
VERTEX
  5
2AD
330
2AB
100
AcDbEntity
  8
tagli interni
100
AcDbVertex
100
AcDb2dVertex
 10
-135.4705021294121
 20
-12.74250971193081
 30
0.0
  0
VERTEX
  5
2AE
330
2AB
100
AcDbEntity
  8
tagli interni
100
AcDbVertex
100
AcDb2dVertex
 10
-121.985263386341
 20
-12.7425097119308
 30
0.0
  0
VERTEX
  5
2AF
330
2AB
100
AcDbEntity
  8
tagli interni
100
AcDbVertex
100
AcDb2dVertex
 10
-121.985263386341
 20
-15.19250971193082
 30
0.0
  0
SEQEND
  5
2B0
330
2AB
100
AcDbEntity
  8
tagli interni
  0
POLYLINE
  5
2B1
330
1F
100
AcDbEntity
  8
tagli esterni
100
AcDb2dPolyline
 66
     1
 10
0.0
 20
0.0
 30
0.0
 70
     1
  0
VERTEX
  5
2B2
330
2B1
100
AcDbEntity
  8
tagli esterni
100
AcDbVertex
100
AcDb2dVertex
 10
-189.9989231100417
 20
-0.7426574956539298
 30
0.0
  0
VERTEX
  5
2B3
330
2B1
100
AcDbEntity
  8
tagli esterni
100
AcDbVertex
100
AcDb2dVertex
 10
-189.9989231100417
 20
4.25734250434607
 30
0.0
  0
VERTEX
  5
2B4
330
2B1
100
AcDbEntity
  8
tagli esterni
100
AcDbVertex
100
AcDb2dVertex
 10
-193.9989231100417
 20
4.25734250434607
 30
0.0
  0
VERTEX
  5
2B5
330
2B1
100
AcDbEntity
  8
tagli esterni
100
AcDbVertex
100
AcDb2dVertex
 10
-193.9989231100417
 20
9.25734250434607
 30
0.0
  0
VERTEX
  5
2B6
330
2B1
100
AcDbEntity
  8
tagli esterni
100
AcDbVertex
100
AcDb2dVertex
 10
-189.9989231100417
 20
9.25734250434607
 30
0.0
  0
VERTEX
  5
2B7
330
2B1
100
AcDbEntity
  8
tagli esterni
100
AcDbVertex
100
AcDb2dVertex
 10
-189.9989231100417
 20
19.25734250434607
 30
0.0
  0
VERTEX
  5
2B8
330
2B1
100
AcDbEntity
  8
tagli esterni
100
AcDbVertex
100
AcDb2dVertex
 10
-193.9989231100417
 20
19.25734250434607
 30
0.0
  0
VERTEX
  5
2B9
330
2B1
100
AcDbEntity
  8
tagli esterni
100
AcDbVertex
100
AcDb2dVertex
 10
-193.9989231100417
 20
24.25734250434607
 30
0.0
  0
VERTEX
  5
2BA
330
2B1
100
AcDbEntity
  8
tagli esterni
100
AcDbVertex
100
AcDb2dVertex
 10
-189.9989231100417
 20
24.25734250434607
 30
0.0
  0
VERTEX
  5
2BB
330
2B1
100
AcDbEntity
  8
tagli esterni
100
AcDbVertex
100
AcDb2dVertex
 10
-189.9989231100417
 20
29.25734250434607
 30
0.0
  0
VERTEX
  5
2BC
330
2B1
100
AcDbEntity
  8
tagli esterni
100
AcDbVertex
100
AcDb2dVertex
 10
-159.9989231100417
 20
29.2573425043461
 30
0.0
  0
VERTEX
  5
2BD
330
2B1
100
AcDbEntity
  8
tagli esterni
100
AcDbVertex
100
AcDb2dVertex
 10
-159.9989231100417
 20
24.25734250434607
 30
0.0
  0
VERTEX
  5
2BE
330
2B1
100
AcDbEntity
  8
tagli esterni
100
AcDbVertex
100
AcDb2dVertex
 10
-155.9989231100417
 20
24.25734250434607
 30
0.0
  0
VERTEX
  5
2BF
330
2B1
100
AcDbEntity
  8
tagli esterni
100
AcDbVertex
100
AcDb2dVertex
 10
-155.9989231100417
 20
19.25734250434607
 30
0.0
  0
VERTEX
  5
2C0
330
2B1
100
AcDbEntity
  8
tagli esterni
100
AcDbVertex
100
AcDb2dVertex
 10
-159.9989231100417
 20
19.25734250434607
 30
0.0
  0
VERTEX
  5
2C1
330
2B1
100
AcDbEntity
  8
tagli esterni
100
AcDbVertex
100
AcDb2dVertex
 10
-159.9989231100417
 20
9.25734250434607
 30
0.0
  0
VERTEX
  5
2C2
330
2B1
100
AcDbEntity
  8
tagli esterni
100
AcDbVertex
100
AcDb2dVertex
 10
-155.9989231100417
 20
9.25734250434607
 30
0.0
  0
VERTEX
  5
2C3
330
2B1
100
AcDbEntity
  8
tagli esterni
100
AcDbVertex
100
AcDb2dVertex
 10
-155.9989231100417
 20
4.25734250434607
 30
0.0
  0
VERTEX
  5
2C4
330
2B1
100
AcDbEntity
  8
tagli esterni
100
AcDbVertex
100
AcDb2dVertex
 10
-159.9989231100417
 20
4.25734250434607
 30
0.0
  0
VERTEX
  5
2C5
330
2B1
100
AcDbEntity
  8
tagli esterni
100
AcDbVertex
100
AcDb2dVertex
 10
-159.9989231100417
 20
-0.7426574956539298
 30
0.0
  0
SEQEND
  5
2C6
330
2B1
100
AcDbEntity
  8
tagli esterni
  0
POLYLINE
  5
2C7
330
1F
100
AcDbEntity
  8
tagli esterni
100
AcDb2dPolyline
 66
     1
 10
0.0
 20
0.0
 30
0.0
 70
     1
  0
VERTEX
  5
2C8
330
2C7
100
AcDbEntity
  8
tagli esterni
100
AcDbVertex
100
AcDb2dVertex
 10
-190.0640886425877
 20
65.18177981475702
 30
0.0
  0
VERTEX
  5
2C9
330
2C7
100
AcDbEntity
  8
tagli esterni
100
AcDbVertex
100
AcDb2dVertex
 10
-190.0640886425877
 20
70.18177981475702
 30
0.0
  0
VERTEX
  5
2CA
330
2C7
100
AcDbEntity
  8
tagli esterni
100
AcDbVertex
100
AcDb2dVertex
 10
-194.0640886425877
 20
70.18177981475702
 30
0.0
  0
VERTEX
  5
2CB
330
2C7
100
AcDbEntity
  8
tagli esterni
100
AcDbVertex
100
AcDb2dVertex
 10
-194.0640886425877
 20
75.18177981475702
 30
0.0
  0
VERTEX
  5
2CC
330
2C7
100
AcDbEntity
  8
tagli esterni
100
AcDbVertex
100
AcDb2dVertex
 10
-190.0640886425877
 20
75.18177981475702
 30
0.0
  0
VERTEX
  5
2CD
330
2C7
100
AcDbEntity
  8
tagli esterni
100
AcDbVertex
100
AcDb2dVertex
 10
-190.0640886425877
 20
85.18177981475702
 30
0.0
  0
VERTEX
  5
2CE
330
2C7
100
AcDbEntity
  8
tagli esterni
100
AcDbVertex
100
AcDb2dVertex
 10
-194.0640886425877
 20
85.18177981475702
 30
0.0
  0
VERTEX
  5
2CF
330
2C7
100
AcDbEntity
  8
tagli esterni
100
AcDbVertex
100
AcDb2dVertex
 10
-194.0640886425877
 20
90.18177981475702
 30
0.0
  0
VERTEX
  5
2D0
330
2C7
100
AcDbEntity
  8
tagli esterni
100
AcDbVertex
100
AcDb2dVertex
 10
-190.0640886425877
 20
90.18177981475702
 30
0.0
  0
VERTEX
  5
2D1
330
2C7
100
AcDbEntity
  8
tagli esterni
100
AcDbVertex
100
AcDb2dVertex
 10
-190.0640886425877
 20
95.18177981475702
 30
0.0
  0
VERTEX
  5
2D2
330
2C7
100
AcDbEntity
  8
tagli esterni
100
AcDbVertex
100
AcDb2dVertex
 10
-160.0640886425877
 20
95.18177981475705
 30
0.0
  0
VERTEX
  5
2D3
330
2C7
100
AcDbEntity
  8
tagli esterni
100
AcDbVertex
100
AcDb2dVertex
 10
-160.0640886425877
 20
90.18177981475702
 30
0.0
  0
VERTEX
  5
2D4
330
2C7
100
AcDbEntity
  8
tagli esterni
100
AcDbVertex
100
AcDb2dVertex
 10
-156.0640886425877
 20
90.18177981475702
 30
0.0
  0
VERTEX
  5
2D5
330
2C7
100
AcDbEntity
  8
tagli esterni
100
AcDbVertex
100
AcDb2dVertex
 10
-156.0640886425877
 20
85.18177981475702
 30
0.0
  0
VERTEX
  5
2D6
330
2C7
100
AcDbEntity
  8
tagli esterni
100
AcDbVertex
100
AcDb2dVertex
 10
-160.0640886425877
 20
85.18177981475702
 30
0.0
  0
VERTEX
  5
2D7
330
2C7
100
AcDbEntity
  8
tagli esterni
100
AcDbVertex
100
AcDb2dVertex
 10
-160.0640886425877
 20
75.18177981475702
 30
0.0
  0
VERTEX
  5
2D8
330
2C7
100
AcDbEntity
  8
tagli esterni
100
AcDbVertex
100
AcDb2dVertex
 10
-156.0640886425877
 20
75.18177981475702
 30
0.0
  0
VERTEX
  5
2D9
330
2C7
100
AcDbEntity
  8
tagli esterni
100
AcDbVertex
100
AcDb2dVertex
 10
-156.0640886425877
 20
70.18177981475702
 30
0.0
  0
VERTEX
  5
2DA
330
2C7
100
AcDbEntity
  8
tagli esterni
100
AcDbVertex
100
AcDb2dVertex
 10
-160.0640886425877
 20
70.18177981475702
 30
0.0
  0
VERTEX
  5
2DB
330
2C7
100
AcDbEntity
  8
tagli esterni
100
AcDbVertex
100
AcDb2dVertex
 10
-160.0640886425877
 20
65.18177981475702
 30
0.0
  0
SEQEND
  5
2DC
330
2C7
100
AcDbEntity
  8
tagli esterni
  0
POLYLINE
  5
2DD
330
1F
100
AcDbEntity
  8
tagli interni
100
AcDb2dPolyline
 66
     1
 10
0.0
 20
0.0
 30
0.0
 70
     1
  0
VERTEX
  5
2DE
330
2DD
100
AcDbEntity
  8
tagli interni
100
AcDbVertex
100
AcDb2dVertex
 10
-89.80554510192206
 20
-40.58595618781291
 30
0.0
  0
VERTEX
  5
2DF
330
2DD
100
AcDbEntity
  8
tagli interni
100
AcDbVertex
100
AcDb2dVertex
 10
-89.80554510192206
 20
-38.18595618781291
 30
0.0
  0
VERTEX
  5
2E0
330
2DD
100
AcDbEntity
  8
tagli interni
100
AcDbVertex
100
AcDb2dVertex
 10
-94.80554510192204
 20
-38.18595618781291
 30
0.0
  0
VERTEX
  5
2E1
330
2DD
100
AcDbEntity
  8
tagli interni
100
AcDbVertex
100
AcDb2dVertex
 10
-94.80554510192204
 20
-40.58595618781291
 30
0.0
  0
SEQEND
  5
2E2
330
2DD
100
AcDbEntity
  8
tagli interni
  0
POLYLINE
  5
2E3
330
1F
100
AcDbEntity
  8
tagli interni
100
AcDb2dPolyline
 66
     1
 10
0.0
 20
0.0
 30
0.0
 70
     1
  0
VERTEX
  5
2E4
330
2E3
100
AcDbEntity
  8
tagli interni
100
AcDbVertex
100
AcDb2dVertex
 10
-74.80554510192208
 20
-8.185956187812906
 30
0.0
  0
VERTEX
  5
2E5
330
2E3
100
AcDbEntity
  8
tagli interni
100
AcDbVertex
100
AcDb2dVertex
 10
-74.80554510192208
 20
-5.7859561878129
 30
0.0
  0
VERTEX
  5
2E6
330
2E3
100
AcDbEntity
  8
tagli interni
100
AcDbVertex
100
AcDb2dVertex
 10
-79.80554510192208
 20
-5.7859561878129
 30
0.0
  0
VERTEX
  5
2E7
330
2E3
100
AcDbEntity
  8
tagli interni
100
AcDbVertex
100
AcDb2dVertex
 10
-79.80554510192208
 20
-8.185956187812906
 30
0.0
  0
SEQEND
  5
2E8
330
2E3
100
AcDbEntity
  8
tagli interni
  0
POLYLINE
  5
2E9
330
1F
100
AcDbEntity
  8
tagli interni
100
AcDb2dPolyline
 66
     1
 10
0.0
 20
0.0
 30
0.0
 70
     1
  0
VERTEX
  5
2EA
330
2E9
100
AcDbEntity
  8
tagli interni
100
AcDbVertex
100
AcDb2dVertex
 10
-69.80554510192205
 20
-18.18595618781291
 30
0.0
  0
VERTEX
  5
2EB
330
2E9
100
AcDbEntity
  8
tagli interni
100
AcDbVertex
100
AcDb2dVertex
 10
-67.40554510192204
 20
-18.18595618781291
 30
0.0
  0
VERTEX
  5
2EC
330
2E9
100
AcDbEntity
  8
tagli interni
100
AcDbVertex
100
AcDb2dVertex
 10
-67.40554510192204
 20
-13.18595618781291
 30
0.0
  0
VERTEX
  5
2ED
330
2E9
100
AcDbEntity
  8
tagli interni
100
AcDbVertex
100
AcDb2dVertex
 10
-69.80554510192205
 20
-13.18595618781291
 30
0.0
  0
SEQEND
  5
2EE
330
2E9
100
AcDbEntity
  8
tagli interni
  0
POLYLINE
  5
2EF
330
1F
100
AcDbEntity
  8
tagli esterni
100
AcDb2dPolyline
 66
     1
 10
0.0
 20
0.0
 30
0.0
 70
     1
  0
VERTEX
  5
2F0
330
2EF
100
AcDbEntity
  8
tagli esterni
100
AcDbVertex
100
AcDb2dVertex
 10
-105.805545101922
 20
-44.18595618781291
 30
0.0
  0
VERTEX
  5
2F1
330
2EF
100
AcDbEntity
  8
tagli esterni
100
AcDbVertex
100
AcDb2dVertex
 10
-63.80554510192205
 20
-44.18595618781291
 30
0.0
  0
VERTEX
  5
2F2
330
2EF
100
AcDbEntity
  8
tagli esterni
100
AcDbVertex
100
AcDb2dVertex
 10
-63.80554510192205
 20
-2.185956187812906
 30
0.0
  0
VERTEX
  5
2F3
330
2EF
100
AcDbEntity
  8
tagli esterni
100
AcDbVertex
100
AcDb2dVertex
 10
-105.805545101922
 20
-2.185956187812906
 30
0.0
  0
SEQEND
  5
2F4
330
2EF
100
AcDbEntity
  8
tagli esterni
  0
POLYLINE
  5
2F5
330
1F
100
AcDbEntity
  8
tagli interni
100
AcDb2dPolyline
 66
     1
 10
0.0
 20
0.0
 30
0.0
 70
     1
  0
VERTEX
  5
2F6
330
2F5
100
AcDbEntity
  8
tagli interni
100
AcDbVertex
100
AcDb2dVertex
 10
-69.80554510192205
 20
-33.18595618781291
 30
0.0
  0
VERTEX
  5
2F7
330
2F5
100
AcDbEntity
  8
tagli interni
100
AcDbVertex
100
AcDb2dVertex
 10
-67.40554510192204
 20
-33.18595618781291
 30
0.0
  0
VERTEX
  5
2F8
330
2F5
100
AcDbEntity
  8
tagli interni
100
AcDbVertex
100
AcDb2dVertex
 10
-67.40554510192204
 20
-28.18595618781291
 30
0.0
  0
VERTEX
  5
2F9
330
2F5
100
AcDbEntity
  8
tagli interni
100
AcDbVertex
100
AcDb2dVertex
 10
-69.80554510192205
 20
-28.18595618781291
 30
0.0
  0
SEQEND
  5
2FA
330
2F5
100
AcDbEntity
  8
tagli interni
  0
POLYLINE
  5
2FB
330
1F
100
AcDbEntity
  8
tagli interni
100
AcDb2dPolyline
 66
     1
 10
0.0
 20
0.0
 30
0.0
 70
     1
  0
VERTEX
  5
2FC
330
2FB
100
AcDbEntity
  8
tagli interni
100
AcDbVertex
100
AcDb2dVertex
 10
-102.205545101922
 20
-33.18595618781291
 30
0.0
  0
VERTEX
  5
2FD
330
2FB
100
AcDbEntity
  8
tagli interni
100
AcDbVertex
100
AcDb2dVertex
 10
-99.80554510192204
 20
-33.18595618781291
 30
0.0
  0
VERTEX
  5
2FE
330
2FB
100
AcDbEntity
  8
tagli interni
100
AcDbVertex
100
AcDb2dVertex
 10
-99.80554510192204
 20
-28.18595618781291
 30
0.0
  0
VERTEX
  5
2FF
330
2FB
100
AcDbEntity
  8
tagli interni
100
AcDbVertex
100
AcDb2dVertex
 10
-102.205545101922
 20
-28.18595618781291
 30
0.0
  0
SEQEND
  5
300
330
2FB
100
AcDbEntity
  8
tagli interni
  0
POLYLINE
  5
301
330
1F
100
AcDbEntity
  8
tagli interni
100
AcDb2dPolyline
 66
     1
 10
0.0
 20
0.0
 30
0.0
 70
     1
  0
VERTEX
  5
302
330
301
100
AcDbEntity
  8
tagli interni
100
AcDbVertex
100
AcDb2dVertex
 10
-102.205545101922
 20
-18.18595618781291
 30
0.0
  0
VERTEX
  5
303
330
301
100
AcDbEntity
  8
tagli interni
100
AcDbVertex
100
AcDb2dVertex
 10
-99.80554510192204
 20
-18.18595618781291
 30
0.0
  0
VERTEX
  5
304
330
301
100
AcDbEntity
  8
tagli interni
100
AcDbVertex
100
AcDb2dVertex
 10
-99.80554510192204
 20
-13.18595618781291
 30
0.0
  0
VERTEX
  5
305
330
301
100
AcDbEntity
  8
tagli interni
100
AcDbVertex
100
AcDb2dVertex
 10
-102.205545101922
 20
-13.18595618781291
 30
0.0
  0
SEQEND
  5
306
330
301
100
AcDbEntity
  8
tagli interni
  0
POLYLINE
  5
307
330
1F
100
AcDbEntity
  8
tagli interni
100
AcDb2dPolyline
 66
     1
 10
0.0
 20
0.0
 30
0.0
 70
     1
  0
VERTEX
  5
308
330
307
100
AcDbEntity
  8
tagli interni
100
AcDbVertex
100
AcDb2dVertex
 10
-89.80554510192206
 20
-8.185956187812906
 30
0.0
  0
VERTEX
  5
309
330
307
100
AcDbEntity
  8
tagli interni
100
AcDbVertex
100
AcDb2dVertex
 10
-89.80554510192206
 20
-5.7859561878129
 30
0.0
  0
VERTEX
  5
30A
330
307
100
AcDbEntity
  8
tagli interni
100
AcDbVertex
100
AcDb2dVertex
 10
-94.80554510192204
 20
-5.7859561878129
 30
0.0
  0
VERTEX
  5
30B
330
307
100
AcDbEntity
  8
tagli interni
100
AcDbVertex
100
AcDb2dVertex
 10
-94.80554510192204
 20
-8.185956187812906
 30
0.0
  0
SEQEND
  5
30C
330
307
100
AcDbEntity
  8
tagli interni
  0
POLYLINE
  5
30D
330
1F
100
AcDbEntity
  8
tagli interni
100
AcDb2dPolyline
 66
     1
 10
0.0
 20
0.0
 30
0.0
 70
     1
  0
VERTEX
  5
30E
330
30D
100
AcDbEntity
  8
tagli interni
100
AcDbVertex
100
AcDb2dVertex
 10
-57.65123136458686
 20
-17.86996814712259
 30
0.0
  0
VERTEX
  5
30F
330
30D
100
AcDbEntity
  8
tagli interni
100
AcDbVertex
100
AcDb2dVertex
 10
-55.25123136458689
 20
-17.86996814712259
 30
0.0
  0
VERTEX
  5
310
330
30D
100
AcDbEntity
  8
tagli interni
100
AcDbVertex
100
AcDb2dVertex
 10
-55.25123136458689
 20
-12.86996814712259
 30
0.0
  0
VERTEX
  5
311
330
30D
100
AcDbEntity
  8
tagli interni
100
AcDbVertex
100
AcDb2dVertex
 10
-57.65123136458686
 20
-12.86996814712259
 30
0.0
  0
SEQEND
  5
312
330
30D
100
AcDbEntity
  8
tagli interni
  0
POLYLINE
  5
313
330
1F
100
AcDbEntity
  8
tagli interni
100
AcDb2dPolyline
 66
     1
 10
0.0
 20
0.0
 30
0.0
 70
     1
  0
VERTEX
  5
314
330
313
100
AcDbEntity
  8
tagli interni
100
AcDbVertex
100
AcDb2dVertex
 10
-57.65123136458686
 20
-32.86996814712259
 30
0.0
  0
VERTEX
  5
315
330
313
100
AcDbEntity
  8
tagli interni
100
AcDbVertex
100
AcDb2dVertex
 10
-55.25123136458689
 20
-32.86996814712259
 30
0.0
  0
VERTEX
  5
316
330
313
100
AcDbEntity
  8
tagli interni
100
AcDbVertex
100
AcDb2dVertex
 10
-55.25123136458689
 20
-27.86996814712259
 30
0.0
  0
VERTEX
  5
317
330
313
100
AcDbEntity
  8
tagli interni
100
AcDbVertex
100
AcDb2dVertex
 10
-57.65123136458686
 20
-27.86996814712259
 30
0.0
  0
SEQEND
  5
318
330
313
100
AcDbEntity
  8
tagli interni
  0
POLYLINE
  5
319
330
1F
100
AcDbEntity
  8
tagli interni
100
AcDb2dPolyline
 66
     1
 10
0.0
 20
0.0
 30
0.0
 70
     1
  0
VERTEX
  5
31A
330
319
100
AcDbEntity
  8
tagli interni
100
AcDbVertex
100
AcDb2dVertex
 10
-25.2512313645869
 20
-32.86996814712259
 30
0.0
  0
VERTEX
  5
31B
330
319
100
AcDbEntity
  8
tagli interni
100
AcDbVertex
100
AcDb2dVertex
 10
-22.85123136458689
 20
-32.86996814712259
 30
0.0
  0
VERTEX
  5
31C
330
319
100
AcDbEntity
  8
tagli interni
100
AcDbVertex
100
AcDb2dVertex
 10
-22.85123136458689
 20
-27.86996814712259
 30
0.0
  0
VERTEX
  5
31D
330
319
100
AcDbEntity
  8
tagli interni
100
AcDbVertex
100
AcDb2dVertex
 10
-25.2512313645869
 20
-27.86996814712259
 30
0.0
  0
SEQEND
  5
31E
330
319
100
AcDbEntity
  8
tagli interni
  0
POLYLINE
  5
31F
330
1F
100
AcDbEntity
  8
tagli esterni
100
AcDb2dPolyline
 66
     1
 10
0.0
 20
0.0
 30
0.0
 70
     1
  0
VERTEX
  5
320
330
31F
100
AcDbEntity
  8
tagli esterni
100
AcDbVertex
100
AcDb2dVertex
 10
-61.25123136458689
 20
-43.86996814712259
 30
0.0
  0
VERTEX
  5
321
330
31F
100
AcDbEntity
  8
tagli esterni
100
AcDbVertex
100
AcDb2dVertex
 10
-19.2512313645869
 20
-43.86996814712259
 30
0.0
  0
VERTEX
  5
322
330
31F
100
AcDbEntity
  8
tagli esterni
100
AcDbVertex
100
AcDb2dVertex
 10
-19.2512313645869
 20
-1.869968147122592
 30
0.0
  0
VERTEX
  5
323
330
31F
100
AcDbEntity
  8
tagli esterni
100
AcDbVertex
100
AcDb2dVertex
 10
-61.25123136458689
 20
-1.869968147122592
 30
0.0
  0
SEQEND
  5
324
330
31F
100
AcDbEntity
  8
tagli esterni
  0
POLYLINE
  5
325
330
1F
100
AcDbEntity
  8
tagli interni
100
AcDb2dPolyline
 66
     1
 10
0.0
 20
0.0
 30
0.0
 70
     1
  0
VERTEX
  5
326
330
325
100
AcDbEntity
  8
tagli interni
100
AcDbVertex
100
AcDb2dVertex
 10
-25.2512313645869
 20
-17.86996814712259
 30
0.0
  0
VERTEX
  5
327
330
325
100
AcDbEntity
  8
tagli interni
100
AcDbVertex
100
AcDb2dVertex
 10
-22.85123136458689
 20
-17.86996814712259
 30
0.0
  0
VERTEX
  5
328
330
325
100
AcDbEntity
  8
tagli interni
100
AcDbVertex
100
AcDb2dVertex
 10
-22.85123136458689
 20
-12.86996814712259
 30
0.0
  0
VERTEX
  5
329
330
325
100
AcDbEntity
  8
tagli interni
100
AcDbVertex
100
AcDb2dVertex
 10
-25.2512313645869
 20
-12.86996814712259
 30
0.0
  0
SEQEND
  5
32A
330
325
100
AcDbEntity
  8
tagli interni
  0
POLYLINE
  5
32B
330
1F
100
AcDbEntity
  8
tagli interni
100
AcDb2dPolyline
 66
     1
 10
0.0
 20
0.0
 30
0.0
 70
     1
  0
VERTEX
  5
32C
330
32B
100
AcDbEntity
  8
tagli interni
100
AcDbVertex
100
AcDb2dVertex
 10
-45.25123136458691
 20
-7.869968147122592
 30
0.0
  0
VERTEX
  5
32D
330
32B
100
AcDbEntity
  8
tagli interni
100
AcDbVertex
100
AcDb2dVertex
 10
-45.25123136458691
 20
-5.469968147122586
 30
0.0
  0
VERTEX
  5
32E
330
32B
100
AcDbEntity
  8
tagli interni
100
AcDbVertex
100
AcDb2dVertex
 10
-50.25123136458689
 20
-5.469968147122586
 30
0.0
  0
VERTEX
  5
32F
330
32B
100
AcDbEntity
  8
tagli interni
100
AcDbVertex
100
AcDb2dVertex
 10
-50.25123136458689
 20
-7.869968147122592
 30
0.0
  0
SEQEND
  5
330
330
32B
100
AcDbEntity
  8
tagli interni
  0
POLYLINE
  5
331
330
1F
100
AcDbEntity
  8
tagli interni
100
AcDb2dPolyline
 66
     1
 10
0.0
 20
0.0
 30
0.0
 70
     1
  0
VERTEX
  5
332
330
331
100
AcDbEntity
  8
tagli interni
100
AcDbVertex
100
AcDb2dVertex
 10
-30.25123136458693
 20
-7.869968147122592
 30
0.0
  0
VERTEX
  5
333
330
331
100
AcDbEntity
  8
tagli interni
100
AcDbVertex
100
AcDb2dVertex
 10
-30.25123136458693
 20
-5.469968147122586
 30
0.0
  0
VERTEX
  5
334
330
331
100
AcDbEntity
  8
tagli interni
100
AcDbVertex
100
AcDb2dVertex
 10
-35.25123136458693
 20
-5.469968147122586
 30
0.0
  0
VERTEX
  5
335
330
331
100
AcDbEntity
  8
tagli interni
100
AcDbVertex
100
AcDb2dVertex
 10
-35.25123136458693
 20
-7.869968147122592
 30
0.0
  0
SEQEND
  5
336
330
331
100
AcDbEntity
  8
tagli interni
  0
POLYLINE
  5
337
330
1F
100
AcDbEntity
  8
tagli interni
100
AcDb2dPolyline
 66
     1
 10
0.0
 20
0.0
 30
0.0
 70
     1
  0
VERTEX
  5
338
330
337
100
AcDbEntity
  8
tagli interni
100
AcDbVertex
100
AcDb2dVertex
 10
-30.25123136458693
 20
-40.2699681471226
 30
0.0
  0
VERTEX
  5
339
330
337
100
AcDbEntity
  8
tagli interni
100
AcDbVertex
100
AcDb2dVertex
 10
-30.25123136458693
 20
-37.86996814712259
 30
0.0
  0
VERTEX
  5
33A
330
337
100
AcDbEntity
  8
tagli interni
100
AcDbVertex
100
AcDb2dVertex
 10
-35.25123136458693
 20
-37.86996814712259
 30
0.0
  0
VERTEX
  5
33B
330
337
100
AcDbEntity
  8
tagli interni
100
AcDbVertex
100
AcDb2dVertex
 10
-35.25123136458693
 20
-40.2699681471226
 30
0.0
  0
SEQEND
  5
33C
330
337
100
AcDbEntity
  8
tagli interni
  0
POLYLINE
  5
33D
330
1F
100
AcDbEntity
  8
tagli interni
100
AcDb2dPolyline
 66
     1
 10
0.0
 20
0.0
 30
0.0
 70
     1
  0
VERTEX
  5
33E
330
33D
100
AcDbEntity
  8
tagli interni
100
AcDbVertex
100
AcDb2dVertex
 10
-45.25123136458691
 20
-40.2699681471226
 30
0.0
  0
VERTEX
  5
33F
330
33D
100
AcDbEntity
  8
tagli interni
100
AcDbVertex
100
AcDb2dVertex
 10
-45.25123136458691
 20
-37.86996814712259
 30
0.0
  0
VERTEX
  5
340
330
33D
100
AcDbEntity
  8
tagli interni
100
AcDbVertex
100
AcDb2dVertex
 10
-50.25123136458689
 20
-37.86996814712259
 30
0.0
  0
VERTEX
  5
341
330
33D
100
AcDbEntity
  8
tagli interni
100
AcDbVertex
100
AcDb2dVertex
 10
-50.25123136458689
 20
-40.2699681471226
 30
0.0
  0
SEQEND
  5
342
330
33D
100
AcDbEntity
  8
tagli interni
  0
POLYLINE
  5
343
330
1F
100
AcDbEntity
  8
tagli esterni
100
AcDb2dPolyline
 66
     1
 10
0.0
 20
0.0
 30
0.0
 70
     1
  0
VERTEX
  5
344
330
343
100
AcDbEntity
  8
tagli esterni
100
AcDbVertex
100
AcDb2dVertex
 10
-190.8556721568058
 20
32.98685595093092
 30
0.0
  0
VERTEX
  5
345
330
343
100
AcDbEntity
  8
tagli esterni
100
AcDbVertex
100
AcDb2dVertex
 10
-190.8556721568058
 20
37.98685595093092
 30
0.0
  0
VERTEX
  5
346
330
343
100
AcDbEntity
  8
tagli esterni
100
AcDbVertex
100
AcDb2dVertex
 10
-194.8556721568058
 20
37.98685595093092
 30
0.0
  0
VERTEX
  5
347
330
343
100
AcDbEntity
  8
tagli esterni
100
AcDbVertex
100
AcDb2dVertex
 10
-194.8556721568058
 20
42.98685595093092
 30
0.0
  0
VERTEX
  5
348
330
343
100
AcDbEntity
  8
tagli esterni
100
AcDbVertex
100
AcDb2dVertex
 10
-190.8556721568058
 20
42.98685595093092
 30
0.0
  0
VERTEX
  5
349
330
343
100
AcDbEntity
  8
tagli esterni
100
AcDbVertex
100
AcDb2dVertex
 10
-190.8556721568058
 20
52.98685595093092
 30
0.0
  0
VERTEX
  5
34A
330
343
100
AcDbEntity
  8
tagli esterni
100
AcDbVertex
100
AcDb2dVertex
 10
-194.8556721568058
 20
52.98685595093092
 30
0.0
  0
VERTEX
  5
34B
330
343
100
AcDbEntity
  8
tagli esterni
100
AcDbVertex
100
AcDb2dVertex
 10
-194.8556721568058
 20
57.98685595093092
 30
0.0
  0
VERTEX
  5
34C
330
343
100
AcDbEntity
  8
tagli esterni
100
AcDbVertex
100
AcDb2dVertex
 10
-190.8556721568058
 20
57.98685595093092
 30
0.0
  0
VERTEX
  5
34D
330
343
100
AcDbEntity
  8
tagli esterni
100
AcDbVertex
100
AcDb2dVertex
 10
-190.8556721568058
 20
62.98685595093092
 30
0.0
  0
VERTEX
  5
34E
330
343
100
AcDbEntity
  8
tagli esterni
100
AcDbVertex
100
AcDb2dVertex
 10
-160.8556721568058
 20
62.98685595093094
 30
0.0
  0
VERTEX
  5
34F
330
343
100
AcDbEntity
  8
tagli esterni
100
AcDbVertex
100
AcDb2dVertex
 10
-160.8556721568058
 20
57.98685595093092
 30
0.0
  0
VERTEX
  5
350
330
343
100
AcDbEntity
  8
tagli esterni
100
AcDbVertex
100
AcDb2dVertex
 10
-156.8556721568058
 20
57.98685595093092
 30
0.0
  0
VERTEX
  5
351
330
343
100
AcDbEntity
  8
tagli esterni
100
AcDbVertex
100
AcDb2dVertex
 10
-156.8556721568058
 20
52.98685595093092
 30
0.0
  0
VERTEX
  5
352
330
343
100
AcDbEntity
  8
tagli esterni
100
AcDbVertex
100
AcDb2dVertex
 10
-160.8556721568058
 20
52.98685595093092
 30
0.0
  0
VERTEX
  5
353
330
343
100
AcDbEntity
  8
tagli esterni
100
AcDbVertex
100
AcDb2dVertex
 10
-160.8556721568058
 20
42.98685595093092
 30
0.0
  0
VERTEX
  5
354
330
343
100
AcDbEntity
  8
tagli esterni
100
AcDbVertex
100
AcDb2dVertex
 10
-156.8556721568058
 20
42.98685595093092
 30
0.0
  0
VERTEX
  5
355
330
343
100
AcDbEntity
  8
tagli esterni
100
AcDbVertex
100
AcDb2dVertex
 10
-156.8556721568058
 20
37.98685595093092
 30
0.0
  0
VERTEX
  5
356
330
343
100
AcDbEntity
  8
tagli esterni
100
AcDbVertex
100
AcDb2dVertex
 10
-160.8556721568058
 20
37.98685595093092
 30
0.0
  0
VERTEX
  5
357
330
343
100
AcDbEntity
  8
tagli esterni
100
AcDbVertex
100
AcDb2dVertex
 10
-160.8556721568058
 20
32.98685595093092
 30
0.0
  0
SEQEND
  5
358
330
343
100
AcDbEntity
  8
tagli esterni
  0
POLYLINE
  5
359
330
1F
100
AcDbEntity
  8
tagli esterni
100
AcDb2dPolyline
 66
     1
 10
0.0
 20
0.0
 30
0.0
 70
     1
  0
VERTEX
  5
35A
330
359
100
AcDbEntity
  8
tagli esterni
100
AcDbVertex
100
AcDb2dVertex
 10
-105.366557504563
 20
96.40621497740256
 30
0.0
  0
VERTEX
  5
35B
330
359
100
AcDbEntity
  8
tagli esterni
100
AcDbVertex
100
AcDb2dVertex
 10
-110.366557504563
 20
96.40621497740256
 30
0.0
  0
VERTEX
  5
35C
330
359
100
AcDbEntity
  8
tagli esterni
100
AcDbVertex
100
AcDb2dVertex
 10
-110.366557504563
 20
86.40621497740256
 30
0.0
  0
VERTEX
  5
35D
330
359
100
AcDbEntity
  8
tagli esterni
100
AcDbVertex
100
AcDb2dVertex
 10
-80.11655750456303
 20
86.40621497740256
 30
0.0
  0
VERTEX
  5
35E
330
359
100
AcDbEntity
  8
tagli esterni
100
AcDbVertex
100
AcDb2dVertex
 10
-80.11655750456303
 20
96.40621497740256
 30
0.0
  0
VERTEX
  5
35F
330
359
100
AcDbEntity
  8
tagli esterni
100
AcDbVertex
100
AcDb2dVertex
 10
-85.11655750456303
 20
96.40621497740256
 30
0.0
  0
VERTEX
  5
360
330
359
100
AcDbEntity
  8
tagli esterni
100
AcDbVertex
100
AcDb2dVertex
 10
-85.11655750456303
 20
91.40621497740256
 30
0.0
  0
VERTEX
  5
361
330
359
100
AcDbEntity
  8
tagli esterni
100
AcDbVertex
100
AcDb2dVertex
 10
-87.56655750456302
 20
91.40621497740256
 30
0.0
  0
VERTEX
  5
362
330
359
100
AcDbEntity
  8
tagli esterni
100
AcDbVertex
100
AcDb2dVertex
 10
-87.56655750456302
 20
96.40621497740256
 30
0.0
  0
VERTEX
  5
363
330
359
100
AcDbEntity
  8
tagli esterni
100
AcDbVertex
100
AcDb2dVertex
 10
-102.916557504563
 20
96.40621497740256
 30
0.0
  0
VERTEX
  5
364
330
359
100
AcDbEntity
  8
tagli esterni
100
AcDbVertex
100
AcDb2dVertex
 10
-102.916557504563
 20
91.40621497740256
 30
0.0
  0
VERTEX
  5
365
330
359
100
AcDbEntity
  8
tagli esterni
100
AcDbVertex
100
AcDb2dVertex
 10
-105.366557504563
 20
91.40621497740256
 30
0.0
  0
SEQEND
  5
366
330
359
100
AcDbEntity
  8
tagli esterni
  0
POLYLINE
  5
367
330
1F
100
AcDbEntity
  8
tagli esterni
100
AcDb2dPolyline
 66
     1
 10
0.0
 20
0.0
 30
0.0
 70
     1
  0
VERTEX
  5
368
330
367
100
AcDbEntity
  8
tagli esterni
100
AcDbVertex
100
AcDb2dVertex
 10
-105.366557504563
 20
85.03064551255105
 30
0.0
  0
VERTEX
  5
369
330
367
100
AcDbEntity
  8
tagli esterni
100
AcDbVertex
100
AcDb2dVertex
 10
-110.366557504563
 20
85.03064551255105
 30
0.0
  0
VERTEX
  5
36A
330
367
100
AcDbEntity
  8
tagli esterni
100
AcDbVertex
100
AcDb2dVertex
 10
-110.366557504563
 20
75.03064551255105
 30
0.0
  0
VERTEX
  5
36B
330
367
100
AcDbEntity
  8
tagli esterni
100
AcDbVertex
100
AcDb2dVertex
 10
-80.11655750456303
 20
75.03064551255105
 30
0.0
  0
VERTEX
  5
36C
330
367
100
AcDbEntity
  8
tagli esterni
100
AcDbVertex
100
AcDb2dVertex
 10
-80.11655750456303
 20
85.03064551255105
 30
0.0
  0
VERTEX
  5
36D
330
367
100
AcDbEntity
  8
tagli esterni
100
AcDbVertex
100
AcDb2dVertex
 10
-85.11655750456303
 20
85.03064551255105
 30
0.0
  0
VERTEX
  5
36E
330
367
100
AcDbEntity
  8
tagli esterni
100
AcDbVertex
100
AcDb2dVertex
 10
-85.11655750456303
 20
80.03064551255105
 30
0.0
  0
VERTEX
  5
36F
330
367
100
AcDbEntity
  8
tagli esterni
100
AcDbVertex
100
AcDb2dVertex
 10
-87.56655750456302
 20
80.03064551255105
 30
0.0
  0
VERTEX
  5
370
330
367
100
AcDbEntity
  8
tagli esterni
100
AcDbVertex
100
AcDb2dVertex
 10
-87.56655750456302
 20
85.03064551255105
 30
0.0
  0
VERTEX
  5
371
330
367
100
AcDbEntity
  8
tagli esterni
100
AcDbVertex
100
AcDb2dVertex
 10
-102.916557504563
 20
85.03064551255105
 30
0.0
  0
VERTEX
  5
372
330
367
100
AcDbEntity
  8
tagli esterni
100
AcDbVertex
100
AcDb2dVertex
 10
-102.916557504563
 20
80.03064551255105
 30
0.0
  0
VERTEX
  5
373
330
367
100
AcDbEntity
  8
tagli esterni
100
AcDbVertex
100
AcDb2dVertex
 10
-105.366557504563
 20
80.03064551255105
 30
0.0
  0
SEQEND
  5
374
330
367
100
AcDbEntity
  8
tagli esterni
  0
POLYLINE
  5
375
330
1F
100
AcDbEntity
  8
tagli esterni
100
AcDb2dPolyline
 66
     1
 10
0.0
 20
0.0
 30
0.0
 70
     1
  0
VERTEX
  5
376
330
375
100
AcDbEntity
  8
tagli esterni
100
AcDbVertex
100
AcDb2dVertex
 10
-149.3928464688432
 20
-0.6205197618953022
 30
0.0
  0
VERTEX
  5
377
330
375
100
AcDbEntity
  8
tagli esterni
100
AcDbVertex
100
AcDb2dVertex
 10
-149.3928464688432
 20
4.379480238104698
 30
0.0
  0
VERTEX
  5
378
330
375
100
AcDbEntity
  8
tagli esterni
100
AcDbVertex
100
AcDb2dVertex
 10
-153.3928464688432
 20
4.379480238104698
 30
0.0
  0
VERTEX
  5
379
330
375
100
AcDbEntity
  8
tagli esterni
100
AcDbVertex
100
AcDb2dVertex
 10
-153.3928464688432
 20
9.379480238104698
 30
0.0
  0
VERTEX
  5
37A
330
375
100
AcDbEntity
  8
tagli esterni
100
AcDbVertex
100
AcDb2dVertex
 10
-149.3928464688432
 20
9.379480238104698
 30
0.0
  0
VERTEX
  5
37B
330
375
100
AcDbEntity
  8
tagli esterni
100
AcDbVertex
100
AcDb2dVertex
 10
-149.3928464688432
 20
19.3794802381047
 30
0.0
  0
VERTEX
  5
37C
330
375
100
AcDbEntity
  8
tagli esterni
100
AcDbVertex
100
AcDb2dVertex
 10
-153.3928464688432
 20
19.3794802381047
 30
0.0
  0
VERTEX
  5
37D
330
375
100
AcDbEntity
  8
tagli esterni
100
AcDbVertex
100
AcDb2dVertex
 10
-153.3928464688432
 20
24.3794802381047
 30
0.0
  0
VERTEX
  5
37E
330
375
100
AcDbEntity
  8
tagli esterni
100
AcDbVertex
100
AcDb2dVertex
 10
-149.3928464688432
 20
24.3794802381047
 30
0.0
  0
VERTEX
  5
37F
330
375
100
AcDbEntity
  8
tagli esterni
100
AcDbVertex
100
AcDb2dVertex
 10
-149.3928464688432
 20
29.3794802381047
 30
0.0
  0
VERTEX
  5
380
330
375
100
AcDbEntity
  8
tagli esterni
100
AcDbVertex
100
AcDb2dVertex
 10
-119.3928464688432
 20
29.37948023810473
 30
0.0
  0
VERTEX
  5
381
330
375
100
AcDbEntity
  8
tagli esterni
100
AcDbVertex
100
AcDb2dVertex
 10
-119.3928464688432
 20
24.3794802381047
 30
0.0
  0
VERTEX
  5
382
330
375
100
AcDbEntity
  8
tagli esterni
100
AcDbVertex
100
AcDb2dVertex
 10
-115.3928464688432
 20
24.3794802381047
 30
0.0
  0
VERTEX
  5
383
330
375
100
AcDbEntity
  8
tagli esterni
100
AcDbVertex
100
AcDb2dVertex
 10
-115.3928464688432
 20
19.3794802381047
 30
0.0
  0
VERTEX
  5
384
330
375
100
AcDbEntity
  8
tagli esterni
100
AcDbVertex
100
AcDb2dVertex
 10
-119.3928464688432
 20
19.3794802381047
 30
0.0
  0
VERTEX
  5
385
330
375
100
AcDbEntity
  8
tagli esterni
100
AcDbVertex
100
AcDb2dVertex
 10
-119.3928464688432
 20
9.379480238104698
 30
0.0
  0
VERTEX
  5
386
330
375
100
AcDbEntity
  8
tagli esterni
100
AcDbVertex
100
AcDb2dVertex
 10
-115.3928464688432
 20
9.379480238104698
 30
0.0
  0
VERTEX
  5
387
330
375
100
AcDbEntity
  8
tagli esterni
100
AcDbVertex
100
AcDb2dVertex
 10
-115.3928464688432
 20
4.379480238104698
 30
0.0
  0
VERTEX
  5
388
330
375
100
AcDbEntity
  8
tagli esterni
100
AcDbVertex
100
AcDb2dVertex
 10
-119.3928464688432
 20
4.379480238104698
 30
0.0
  0
VERTEX
  5
389
330
375
100
AcDbEntity
  8
tagli esterni
100
AcDbVertex
100
AcDb2dVertex
 10
-119.3928464688432
 20
-0.6205197618953022
 30
0.0
  0
SEQEND
  5
38A
330
375
100
AcDbEntity
  8
tagli esterni
  0
POLYLINE
  5
38B
330
1F
100
AcDbEntity
  8
tagli esterni
100
AcDb2dPolyline
 66
     1
 10
0.0
 20
0.0
 30
0.0
 70
     1
  0
VERTEX
  5
38C
330
38B
100
AcDbEntity
  8
tagli esterni
100
AcDbVertex
100
AcDb2dVertex
 10
-148.5132747043029
 20
31.72290378816963
 30
0.0
  0
VERTEX
  5
38D
330
38B
100
AcDbEntity
  8
tagli esterni
100
AcDbVertex
100
AcDb2dVertex
 10
-148.5132747043029
 20
36.72290378816963
 30
0.0
  0
VERTEX
  5
38E
330
38B
100
AcDbEntity
  8
tagli esterni
100
AcDbVertex
100
AcDb2dVertex
 10
-152.5132747043029
 20
36.72290378816963
 30
0.0
  0
VERTEX
  5
38F
330
38B
100
AcDbEntity
  8
tagli esterni
100
AcDbVertex
100
AcDb2dVertex
 10
-152.5132747043029
 20
41.72290378816962
 30
0.0
  0
VERTEX
  5
390
330
38B
100
AcDbEntity
  8
tagli esterni
100
AcDbVertex
100
AcDb2dVertex
 10
-148.5132747043029
 20
41.72290378816962
 30
0.0
  0
VERTEX
  5
391
330
38B
100
AcDbEntity
  8
tagli esterni
100
AcDbVertex
100
AcDb2dVertex
 10
-148.5132747043029
 20
51.72290378816962
 30
0.0
  0
VERTEX
  5
392
330
38B
100
AcDbEntity
  8
tagli esterni
100
AcDbVertex
100
AcDb2dVertex
 10
-152.5132747043029
 20
51.72290378816962
 30
0.0
  0
VERTEX
  5
393
330
38B
100
AcDbEntity
  8
tagli esterni
100
AcDbVertex
100
AcDb2dVertex
 10
-152.5132747043029
 20
56.72290378816962
 30
0.0
  0
VERTEX
  5
394
330
38B
100
AcDbEntity
  8
tagli esterni
100
AcDbVertex
100
AcDb2dVertex
 10
-148.5132747043029
 20
56.72290378816962
 30
0.0
  0
VERTEX
  5
395
330
38B
100
AcDbEntity
  8
tagli esterni
100
AcDbVertex
100
AcDb2dVertex
 10
-148.5132747043029
 20
61.72290378816962
 30
0.0
  0
VERTEX
  5
396
330
38B
100
AcDbEntity
  8
tagli esterni
100
AcDbVertex
100
AcDb2dVertex
 10
-118.513274704303
 20
61.72290378816965
 30
0.0
  0
VERTEX
  5
397
330
38B
100
AcDbEntity
  8
tagli esterni
100
AcDbVertex
100
AcDb2dVertex
 10
-118.513274704303
 20
56.72290378816962
 30
0.0
  0
VERTEX
  5
398
330
38B
100
AcDbEntity
  8
tagli esterni
100
AcDbVertex
100
AcDb2dVertex
 10
-114.513274704303
 20
56.72290378816962
 30
0.0
  0
VERTEX
  5
399
330
38B
100
AcDbEntity
  8
tagli esterni
100
AcDbVertex
100
AcDb2dVertex
 10
-114.513274704303
 20
51.72290378816962
 30
0.0
  0
VERTEX
  5
39A
330
38B
100
AcDbEntity
  8
tagli esterni
100
AcDbVertex
100
AcDb2dVertex
 10
-118.513274704303
 20
51.72290378816962
 30
0.0
  0
VERTEX
  5
39B
330
38B
100
AcDbEntity
  8
tagli esterni
100
AcDbVertex
100
AcDb2dVertex
 10
-118.513274704303
 20
41.72290378816962
 30
0.0
  0
VERTEX
  5
39C
330
38B
100
AcDbEntity
  8
tagli esterni
100
AcDbVertex
100
AcDb2dVertex
 10
-114.513274704303
 20
41.72290378816962
 30
0.0
  0
VERTEX
  5
39D
330
38B
100
AcDbEntity
  8
tagli esterni
100
AcDbVertex
100
AcDb2dVertex
 10
-114.513274704303
 20
36.72290378816963
 30
0.0
  0
VERTEX
  5
39E
330
38B
100
AcDbEntity
  8
tagli esterni
100
AcDbVertex
100
AcDb2dVertex
 10
-118.513274704303
 20
36.72290378816963
 30
0.0
  0
VERTEX
  5
39F
330
38B
100
AcDbEntity
  8
tagli esterni
100
AcDbVertex
100
AcDb2dVertex
 10
-118.513274704303
 20
31.72290378816963
 30
0.0
  0
SEQEND
  5
3A0
330
38B
100
AcDbEntity
  8
tagli esterni
  0
POLYLINE
  5
3A1
330
1F
100
AcDbEntity
  8
tagli interni
100
AcDb2dPolyline
 66
     1
 10
0.0
 20
0.0
 30
0.0
 70
     1
  0
VERTEX
  5
3A2
330
3A1
100
AcDbEntity
  8
tagli interni
100
AcDbVertex
100
AcDb2dVertex
 10
-180.3408039074377
 20
-15.50849775262113
 30
0.0
  0
VERTEX
  5
3A3
330
3A1
100
AcDbEntity
  8
tagli interni
100
AcDbVertex
100
AcDb2dVertex
 10
-180.3408039074377
 20
-13.05849775262113
 30
0.0
  0
VERTEX
  5
3A4
330
3A1
100
AcDbEntity
  8
tagli interni
100
AcDbVertex
100
AcDb2dVertex
 10
-166.8555651643666
 20
-13.05849775262111
 30
0.0
  0
VERTEX
  5
3A5
330
3A1
100
AcDbEntity
  8
tagli interni
100
AcDbVertex
100
AcDb2dVertex
 10
-166.8555651643666
 20
-15.50849775262113
 30
0.0
  0
SEQEND
  5
3A6
330
3A1
100
AcDbEntity
  8
tagli interni
  0
POLYLINE
  5
3A7
330
1F
100
AcDbEntity
  8
tagli interni
100
AcDb2dPolyline
 66
     1
 10
0.0
 20
0.0
 30
0.0
 70
     1
  0
VERTEX
  5
3A8
330
3A7
100
AcDbEntity
  8
tagli interni
100
AcDbVertex
100
AcDb2dVertex
 10
-178.5981845359021
 20
-40.5859561878129
 30
0.0
  0
VERTEX
  5
3A9
330
3A7
100
AcDbEntity
  8
tagli interni
100
AcDbVertex
100
AcDb2dVertex
 10
-178.5981845359021
 20
-38.18595618781289
 30
0.0
  0
VERTEX
  5
3AA
330
3A7
100
AcDbEntity
  8
tagli interni
100
AcDbVertex
100
AcDb2dVertex
 10
-183.5981845359021
 20
-38.18595618781289
 30
0.0
  0
VERTEX
  5
3AB
330
3A7
100
AcDbEntity
  8
tagli interni
100
AcDbVertex
100
AcDb2dVertex
 10
-183.5981845359021
 20
-40.5859561878129
 30
0.0
  0
SEQEND
  5
3AC
330
3A7
100
AcDbEntity
  8
tagli interni
  0
POLYLINE
  5
3AD
330
1F
100
AcDbEntity
  8
tagli interni
100
AcDb2dPolyline
 66
     1
 10
0.0
 20
0.0
 30
0.0
 70
     1
  0
VERTEX
  5
3AE
330
3AD
100
AcDbEntity
  8
tagli interni
100
AcDbVertex
100
AcDb2dVertex
 10
-163.5981845359022
 20
-40.5859561878129
 30
0.0
  0
VERTEX
  5
3AF
330
3AD
100
AcDbEntity
  8
tagli interni
100
AcDbVertex
100
AcDb2dVertex
 10
-163.5981845359022
 20
-38.18595618781289
 30
0.0
  0
VERTEX
  5
3B0
330
3AD
100
AcDbEntity
  8
tagli interni
100
AcDbVertex
100
AcDb2dVertex
 10
-168.5981845359022
 20
-38.18595618781289
 30
0.0
  0
VERTEX
  5
3B1
330
3AD
100
AcDbEntity
  8
tagli interni
100
AcDbVertex
100
AcDb2dVertex
 10
-168.5981845359022
 20
-40.5859561878129
 30
0.0
  0
SEQEND
  5
3B2
330
3AD
100
AcDbEntity
  8
tagli interni
  0
POLYLINE
  5
3B3
330
1F
100
AcDbEntity
  8
tagli interni
100
AcDb2dPolyline
 66
     1
 10
0.0
 20
0.0
 30
0.0
 70
     1
  0
VERTEX
  5
3B4
330
3B3
100
AcDbEntity
  8
tagli interni
100
AcDbVertex
100
AcDb2dVertex
 10
-163.5981845359022
 20
-8.185956187812891
 30
0.0
  0
VERTEX
  5
3B5
330
3B3
100
AcDbEntity
  8
tagli interni
100
AcDbVertex
100
AcDb2dVertex
 10
-163.5981845359022
 20
-5.785956187812886
 30
0.0
  0
VERTEX
  5
3B6
330
3B3
100
AcDbEntity
  8
tagli interni
100
AcDbVertex
100
AcDb2dVertex
 10
-168.5981845359022
 20
-5.785956187812886
 30
0.0
  0
VERTEX
  5
3B7
330
3B3
100
AcDbEntity
  8
tagli interni
100
AcDbVertex
100
AcDb2dVertex
 10
-168.5981845359022
 20
-8.185956187812891
 30
0.0
  0
SEQEND
  5
3B8
330
3B3
100
AcDbEntity
  8
tagli interni
  0
POLYLINE
  5
3B9
330
1F
100
AcDbEntity
  8
tagli interni
100
AcDb2dPolyline
 66
     1
 10
0.0
 20
0.0
 30
0.0
 70
     1
  0
VERTEX
  5
3BA
330
3B9
100
AcDbEntity
  8
tagli interni
100
AcDbVertex
100
AcDb2dVertex
 10
-178.5981845359021
 20
-8.185956187812891
 30
0.0
  0
VERTEX
  5
3BB
330
3B9
100
AcDbEntity
  8
tagli interni
100
AcDbVertex
100
AcDb2dVertex
 10
-178.5981845359021
 20
-5.785956187812886
 30
0.0
  0
VERTEX
  5
3BC
330
3B9
100
AcDbEntity
  8
tagli interni
100
AcDbVertex
100
AcDb2dVertex
 10
-183.5981845359021
 20
-5.785956187812886
 30
0.0
  0
VERTEX
  5
3BD
330
3B9
100
AcDbEntity
  8
tagli interni
100
AcDbVertex
100
AcDb2dVertex
 10
-183.5981845359021
 20
-8.185956187812891
 30
0.0
  0
SEQEND
  5
3BE
330
3B9
100
AcDbEntity
  8
tagli interni
  0
POLYLINE
  5
3BF
330
1F
100
AcDbEntity
  8
tagli interni
100
AcDb2dPolyline
 66
     1
 10
0.0
 20
0.0
 30
0.0
 70
     1
  0
VERTEX
  5
3C0
330
3BF
100
AcDbEntity
  8
tagli interni
100
AcDbVertex
100
AcDb2dVertex
 10
-158.5981845359021
 20
-18.18595618781289
 30
0.0
  0
VERTEX
  5
3C1
330
3BF
100
AcDbEntity
  8
tagli interni
100
AcDbVertex
100
AcDb2dVertex
 10
-156.1981845359022
 20
-18.18595618781289
 30
0.0
  0
VERTEX
  5
3C2
330
3BF
100
AcDbEntity
  8
tagli interni
100
AcDbVertex
100
AcDb2dVertex
 10
-156.1981845359022
 20
-13.18595618781289
 30
0.0
  0
VERTEX
  5
3C3
330
3BF
100
AcDbEntity
  8
tagli interni
100
AcDbVertex
100
AcDb2dVertex
 10
-158.5981845359021
 20
-13.18595618781289
 30
0.0
  0
SEQEND
  5
3C4
330
3BF
100
AcDbEntity
  8
tagli interni
  0
POLYLINE
  5
3C5
330
1F
100
AcDbEntity
  8
tagli esterni
100
AcDb2dPolyline
 66
     1
 10
0.0
 20
0.0
 30
0.0
 70
     1
  0
VERTEX
  5
3C6
330
3C5
100
AcDbEntity
  8
tagli esterni
100
AcDbVertex
100
AcDb2dVertex
 10
-194.5981845359021
 20
-44.18595618781289
 30
0.0
  0
VERTEX
  5
3C7
330
3C5
100
AcDbEntity
  8
tagli esterni
100
AcDbVertex
100
AcDb2dVertex
 10
-152.5981845359021
 20
-44.18595618781289
 30
0.0
  0
VERTEX
  5
3C8
330
3C5
100
AcDbEntity
  8
tagli esterni
100
AcDbVertex
100
AcDb2dVertex
 10
-152.5981845359021
 20
-2.185956187812891
 30
0.0
  0
VERTEX
  5
3C9
330
3C5
100
AcDbEntity
  8
tagli esterni
100
AcDbVertex
100
AcDb2dVertex
 10
-194.5981845359021
 20
-2.185956187812891
 30
0.0
  0
SEQEND
  5
3CA
330
3C5
100
AcDbEntity
  8
tagli esterni
  0
POLYLINE
  5
3CB
330
1F
100
AcDbEntity
  8
tagli interni
100
AcDb2dPolyline
 66
     1
 10
0.0
 20
0.0
 30
0.0
 70
     1
  0
VERTEX
  5
3CC
330
3CB
100
AcDbEntity
  8
tagli interni
100
AcDbVertex
100
AcDb2dVertex
 10
-158.5981845359021
 20
-33.18595618781289
 30
0.0
  0
VERTEX
  5
3CD
330
3CB
100
AcDbEntity
  8
tagli interni
100
AcDbVertex
100
AcDb2dVertex
 10
-156.1981845359022
 20
-33.18595618781289
 30
0.0
  0
VERTEX
  5
3CE
330
3CB
100
AcDbEntity
  8
tagli interni
100
AcDbVertex
100
AcDb2dVertex
 10
-156.1981845359022
 20
-28.18595618781289
 30
0.0
  0
VERTEX
  5
3CF
330
3CB
100
AcDbEntity
  8
tagli interni
100
AcDbVertex
100
AcDb2dVertex
 10
-158.5981845359021
 20
-28.18595618781289
 30
0.0
  0
SEQEND
  5
3D0
330
3CB
100
AcDbEntity
  8
tagli interni
  0
POLYLINE
  5
3D1
330
1F
100
AcDbEntity
  8
tagli interni
100
AcDb2dPolyline
 66
     1
 10
0.0
 20
0.0
 30
0.0
 70
     1
  0
VERTEX
  5
3D2
330
3D1
100
AcDbEntity
  8
tagli interni
100
AcDbVertex
100
AcDb2dVertex
 10
-190.9981845359021
 20
-33.18595618781289
 30
0.0
  0
VERTEX
  5
3D3
330
3D1
100
AcDbEntity
  8
tagli interni
100
AcDbVertex
100
AcDb2dVertex
 10
-188.5981845359021
 20
-33.18595618781289
 30
0.0
  0
VERTEX
  5
3D4
330
3D1
100
AcDbEntity
  8
tagli interni
100
AcDbVertex
100
AcDb2dVertex
 10
-188.5981845359021
 20
-28.18595618781289
 30
0.0
  0
VERTEX
  5
3D5
330
3D1
100
AcDbEntity
  8
tagli interni
100
AcDbVertex
100
AcDb2dVertex
 10
-190.9981845359021
 20
-28.18595618781289
 30
0.0
  0
SEQEND
  5
3D6
330
3D1
100
AcDbEntity
  8
tagli interni
  0
POLYLINE
  5
3D7
330
1F
100
AcDbEntity
  8
tagli interni
100
AcDb2dPolyline
 66
     1
 10
0.0
 20
0.0
 30
0.0
 70
     1
  0
VERTEX
  5
3D8
330
3D7
100
AcDbEntity
  8
tagli interni
100
AcDbVertex
100
AcDb2dVertex
 10
-190.9981845359021
 20
-18.18595618781289
 30
0.0
  0
VERTEX
  5
3D9
330
3D7
100
AcDbEntity
  8
tagli interni
100
AcDbVertex
100
AcDb2dVertex
 10
-188.5981845359021
 20
-18.18595618781289
 30
0.0
  0
VERTEX
  5
3DA
330
3D7
100
AcDbEntity
  8
tagli interni
100
AcDbVertex
100
AcDb2dVertex
 10
-188.5981845359021
 20
-13.18595618781289
 30
0.0
  0
VERTEX
  5
3DB
330
3D7
100
AcDbEntity
  8
tagli interni
100
AcDbVertex
100
AcDb2dVertex
 10
-190.9981845359021
 20
-13.18595618781289
 30
0.0
  0
SEQEND
  5
3DC
330
3D7
100
AcDbEntity
  8
tagli interni
  0
POLYLINE
  5
3DD
330
1F
100
AcDbEntity
  8
tagli interni
100
AcDb2dPolyline
 66
     1
 10
0.0
 20
0.0
 30
0.0
 70
     1
  0
VERTEX
  5
3DE
330
3DD
100
AcDbEntity
  8
tagli interni
100
AcDbVertex
100
AcDb2dVertex
 10
-180.3408039074377
 20
-30.86341462300466
 30
0.0
  0
VERTEX
  5
3DF
330
3DD
100
AcDbEntity
  8
tagli interni
100
AcDbVertex
100
AcDb2dVertex
 10
-180.3408039074377
 20
-33.31341462300465
 30
0.0
  0
VERTEX
  5
3E0
330
3DD
100
AcDbEntity
  8
tagli interni
100
AcDbVertex
100
AcDb2dVertex
 10
-166.8555651643666
 20
-33.31341462300468
 30
0.0
  0
VERTEX
  5
3E1
330
3DD
100
AcDbEntity
  8
tagli interni
100
AcDbVertex
100
AcDb2dVertex
 10
-166.8555651643666
 20
-30.86341462300466
 30
0.0
  0
SEQEND
  5
3E2
330
3DD
100
AcDbEntity
  8
tagli interni
  0
POLYLINE
  5
3E3
330
1F
100
AcDbEntity
  8
tagli esterni
100
AcDb2dPolyline
 66
     1
 10
0.0
 20
0.0
 30
0.0
  0
VERTEX
  5
3E4
330
3E3
100
AcDbEntity
  8
tagli esterni
100
AcDbVertex
100
AcDb2dVertex
 10
-77.46611933446552
 20
0.3862160228683962
 30
0.0
  0
VERTEX
  5
3E5
330
3E3
100
AcDbEntity
  8
tagli esterni
100
AcDbVertex
100
AcDb2dVertex
 10
-107.32629083698
 20
0.3862160228683962
 30
0.0
  0
VERTEX
  5
3E6
330
3E3
100
AcDbEntity
  8
tagli esterni
100
AcDbVertex
100
AcDb2dVertex
 10
-104.8407472852235
 20
5.978689014320636
 30
0.0
  0
VERTEX
  5
3E7
330
3E3
100
AcDbEntity
  8
tagli esterni
100
AcDbVertex
100
AcDb2dVertex
 10
-96.99977662320555
 20
5.978689014320636
 30
0.0
  0
VERTEX
  5
3E8
330
3E3
100
AcDbEntity
  8
tagli esterni
100
AcDbVertex
100
AcDb2dVertex
 10
-96.99977662320555
 20
8.428689014320625
 30
0.0
  0
VERTEX
  5
3E9
330
3E3
100
AcDbEntity
  8
tagli esterni
100
AcDbVertex
100
AcDb2dVertex
 10
-103.7518583963346
 20
8.428689014320625
 30
0.0
  0
VERTEX
  5
3EA
330
3E3
100
AcDbEntity
  8
tagli esterni
100
AcDbVertex
100
AcDb2dVertex
 10
-93.84105209390897
 20
30.7280031947783
 30
0.0
  0
VERTEX
  5
3EB
330
3E3
100
AcDbEntity
  8
tagli esterni
100
AcDbVertex
100
AcDb2dVertex
 10
-112.142447530934
 20
22.05892114566116
 30
0.0
  0
VERTEX
  5
3EC
330
3E3
100
AcDbEntity
  8
tagli esterni
100
AcDbVertex
100
AcDb2dVertex
 10
-116.4769885554926
 20
32.65446587235987
 30
0.0
  0
VERTEX
  5
3ED
330
3E3
100
AcDbEntity
  8
tagli esterni
100
AcDbVertex
100
AcDb2dVertex
 10
-90.9513580775366
 20
44.21324193784935
 30
0.0
  0
VERTEX
  5
3EE
330
3E3
100
AcDbEntity
  8
tagli esterni
100
AcDbVertex
100
AcDb2dVertex
 10
-88.78408756525731
 20
44.21324193784935
 30
0.0
  0
VERTEX
  5
3EF
330
3E3
100
AcDbEntity
  8
tagli esterni
100
AcDbVertex
100
AcDb2dVertex
 10
-88.78408756525731
 20
57.69848068092042
 30
0.0
  0
VERTEX
  5
3F0
330
3E3
100
AcDbEntity
  8
tagli esterni
100
AcDbVertex
100
AcDb2dVertex
 10
-75.29884882218626
 20
57.69848068092042
 30
0.0
  0
VERTEX
  5
3F1
330
3E3
100
AcDbEntity
  8
tagli esterni
100
AcDbVertex
100
AcDb2dVertex
 10
-75.29884882218624
 20
44.21324193784935
 30
0.0
  0
VERTEX
  5
3F2
330
3E3
100
AcDbEntity
  8
tagli esterni
100
AcDbVertex
100
AcDb2dVertex
 10
-73.13157830990697
 20
44.21324193784935
 30
0.0
  0
VERTEX
  5
3F3
330
3E3
100
AcDbEntity
  8
tagli esterni
100
AcDbVertex
100
AcDb2dVertex
 10
-47.60594783195102
 20
32.65446587235987
 30
0.0
  0
VERTEX
  5
3F4
330
3E3
100
AcDbEntity
  8
tagli esterni
100
AcDbVertex
100
AcDb2dVertex
 10
-51.94048885650957
 20
22.05892114566116
 30
0.0
  0
VERTEX
  5
3F5
330
3E3
100
AcDbEntity
  8
tagli esterni
100
AcDbVertex
100
AcDb2dVertex
 10
-70.2418842935346
 20
30.7280031947783
 30
0.0
  0
VERTEX
  5
3F6
330
3E3
100
AcDbEntity
  8
tagli esterni
100
AcDbVertex
100
AcDb2dVertex
 10
-60.33107799110897
 20
8.428689014320625
 30
0.0
  0
VERTEX
  5
3F7
330
3E3
100
AcDbEntity
  8
tagli esterni
100
AcDbVertex
100
AcDb2dVertex
 10
-67.08315976423802
 20
8.428689014320625
 30
0.0
  0
VERTEX
  5
3F8
330
3E3
100
AcDbEntity
  8
tagli esterni
100
AcDbVertex
100
AcDb2dVertex
 10
-67.08315976423802
 20
5.978689014320636
 30
0.0
  0
VERTEX
  5
3F9
330
3E3
100
AcDbEntity
  8
tagli esterni
100
AcDbVertex
100
AcDb2dVertex
 10
-59.24218910222009
 20
5.978689014320636
 30
0.0
  0
VERTEX
  5
3FA
330
3E3
100
AcDbEntity
  8
tagli esterni
100
AcDbVertex
100
AcDb2dVertex
 10
-56.75664555046354
 20
0.3862160228683962
 30
0.0
  0
VERTEX
  5
3FB
330
3E3
100
AcDbEntity
  8
tagli esterni
100
AcDbVertex
100
AcDb2dVertex
 10
-86.61681705297805
 20
0.3862160228683962
 30
0.0
  0
SEQEND
  5
3FC
330
3E3
100
AcDbEntity
  8
tagli esterni
  0
ENDSEC
  0
SECTION
  2
OBJECTS
  0
DICTIONARY
  5
C
330
0
100
AcDbDictionary
281
     1
  3
ACAD_DETAILVIEWSTYLE
350
442
  3
ACAD_GROUP
350
D
  3
ACAD_LAYOUT
350
1A
  3
ACAD_MATERIAL
350
43
  3
ACAD_MLEADERSTYLE
350
6B
  3
ACAD_MLINESTYLE
350
17
  3
ACAD_PLOTSETTINGS
350
19
  3
ACAD_PLOTSTYLENAME
350
E
  3
ACAD_SCALELIST
350
47
  3
ACAD_SECTIONVIEWSTYLE
350
443
  3
ACAD_TABLESTYLE
350
69
  3
ACAD_VISUALSTYLE
350
2A
  3
AcDbVariableDictionary
350
3FF
  3
ACDB_RECOMPOSE_DATA
350
43F
  0
DICTIONARY
  5
3FD
330
8
100
AcDbDictionary
280
     1
281
     1
  3
ACAD_XREC_ROUNDTRIP
360
3FE
  0
DICTIONARY
  5
442
102
{ACAD_REACTORS
330
C
102
}
330
C
100
AcDbDictionary
281
     1
  0
DICTIONARY
  5
D
102
{ACAD_REACTORS
330
C
102
}
330
C
100
AcDbDictionary
281
     1
  0
DICTIONARY
  5
1A
102
{ACAD_REACTORS
330
C
102
}
330
C
100
AcDbDictionary
281
     1
  3
Layout1
350
1E
  3
Layout2
350
26
  3
Model
350
22
  0
DICTIONARY
  5
43
102
{ACAD_REACTORS
330
C
102
}
330
C
100
AcDbDictionary
281
     1
  3
ByBlock
350
45
  3
ByLayer
350
44
  3
Global
350
46
  0
DICTIONARY
  5
6B
102
{ACAD_REACTORS
330
C
102
}
330
C
100
AcDbDictionary
281
     1
  3
Standard
350
6C
  0
DICTIONARY
  5
17
102
{ACAD_REACTORS
330
C
102
}
330
C
100
AcDbDictionary
281
     1
  3
Standard
350
18
  0
DICTIONARY
  5
19
102
{ACAD_REACTORS
330
C
102
}
330
C
100
AcDbDictionary
281
     1
  0
ACDBDICTIONARYWDFLT
  5
E
102
{ACAD_REACTORS
330
C
102
}
330
C
100
AcDbDictionary
281
     1
  3
Normal
350
F
100
AcDbDictionaryWithDefault
340
F
  0
DICTIONARY
  5
47
102
{ACAD_REACTORS
330
C
102
}
330
C
100
AcDbDictionary
281
     1
  3
A0
350
48
  3
A1
350
49
  3
A2
350
4A
  3
A3
350
4B
  3
A4
350
4C
  3
A5
350
4D
  3
A6
350
4E
  3
A7
350
4F
  3
A8
350
50
  3
A9
350
51
  3
B0
350
52
  3
B1
350
53
  3
B2
350
54
  3
B3
350
55
  3
B4
350
56
  3
B5
350
57
  3
B6
350
58
  3
B7
350
59
  3
B8
350
5A
  3
B9
350
5B
  3
C0
350
5C
  3
C1
350
5D
  3
C2
350
5E
  3
C3
350
5F
  3
C4
350
60
  3
C5
350
61
  3
C6
350
62
  3
C7
350
63
  3
C8
350
64
  3
C9
350
65
  3
D0
350
66
  3
D1
350
67
  3
D2
350
68
  0
DICTIONARY
  5
443
102
{ACAD_REACTORS
330
C
102
}
330
C
100
AcDbDictionary
281
     1
  0
DICTIONARY
  5
69
102
{ACAD_REACTORS
330
C
102
}
330
C
100
AcDbDictionary
281
     1
  3
Standard
350
6A
  0
DICTIONARY
  5
2A
102
{ACAD_REACTORS
330
C
102
}
330
C
100
AcDbDictionary
281
     1
  3
2dWireframe
350
2F
  3
Basic
350
32
  3
Brighten
350
36
  3
ColorChange
350
3A
  3
Conceptual
350
34
  3
Dim
350
35
  3
EdgeColorOff
350
3D
  3
Facepattern
350
39
  3
Flat
350
2B
  3
FlatWithEdges
350
2C
  3
Gouraud
350
2D
  3
GouraudWithEdges
350
2E
  3
Hidden
350
31
  3
JitterOff
350
3B
  3
Linepattern
350
38
  3
OverhangOff
350
3C
  3
Realistic
350
33
  3
Shaded
350
42
  3
Shaded with edges
350
41
  3
Shades of Gray
350
3E
  3
Sketchy
350
3F
  3
Thicken
350
37
  3
Wireframe
350
30
  3
X-Ray
350
40
  0
DICTIONARY
  5
3FF
102
{ACAD_REACTORS
330
C
102
}
330
C
100
AcDbDictionary
281
     1
  3
CANNOSCALE
350
400
  3
CMLEADERSTYLE
350
441
  3
CTABLESTYLE
350
440
  3
MSLTSCALE
350
401
  3
XCLIPFRAME
350
402
  0
XRECORD
  5
43F
102
{ACAD_REACTORS
330
C
102
}
330
C
100
AcDbXrecord
280
     1
 90
        1
330
6A
  0
XRECORD
  5
3FE
102
{ACAD_REACTORS
330
3FD
102
}
330
3FD
100
AcDbXrecord
280
     1
102
VTR_0.000_0.000_1.000_1.000_GRIDDISPLAY
 70
     3
102
VTR_0.000_0.000_1.000_1.000_GRIDMAJOR
 70
     5
102
VTR_0.000_0.000_1.000_1.000_DEFAULTLIGHTING
280
     1
102
VTR_0.000_0.000_1.000_1.000_DEFAULTLIGHTINGTYPE
 70
     1
102
VTR_0.000_0.000_1.000_1.000_BRIGHTNESS
141
0.0
102
VTR_0.000_0.000_1.000_1.000_CONTRAST
142
0.0
  0
LAYOUT
  5
1E
102
{ACAD_REACTORS
330
1A
102
}
330
1A
100
AcDbPlotSettings
  1

  2
none_device
  4

  6

 40
0.0
 41
0.0
 42
0.0
 43
0.0
 44
0.0
 45
0.0
 46
0.0
 47
0.0
 48
0.0
 49
0.0
140
0.0
141
0.0
142
1.0
143
1.0
 70
   688
 72
     0
 73
     0
 74
     5
  7

 75
    16
 76
     0
 77
     2
 78
   300
147
1.0
148
0.0
149
0.0
100
AcDbLayout
  1
Layout1
 70
     1
 71
     1
 10
0.0
 20
0.0
 11
12.0
 21
9.0
 12
0.0
 22
0.0
 32
0.0
 14
1.000000000000000E+20
 24
1.000000000000000E+20
 34
1.000000000000000E+20
 15
-1.000000000000000E+20
 25
-1.000000000000000E+20
 35
-1.000000000000000E+20
146
0.0
 13
0.0
 23
0.0
 33
0.0
 16
1.0
 26
0.0
 36
0.0
 17
0.0
 27
1.0
 37
0.0
 76
     0
330
1B
  0
LAYOUT
  5
26
102
{ACAD_REACTORS
330
1A
102
}
330
1A
100
AcDbPlotSettings
  1

  2
none_device
  4

  6

 40
0.0
 41
0.0
 42
0.0
 43
0.0
 44
0.0
 45
0.0
 46
0.0
 47
0.0
 48
0.0
 49
0.0
140
0.0
141
0.0
142
1.0
143
1.0
 70
   688
 72
     0
 73
     0
 74
     5
  7

 75
    16
 76
     0
 77
     2
 78
   300
147
1.0
148
0.0
149
0.0
100
AcDbLayout
  1
Layout2
 70
     1
 71
     2
 10
0.0
 20
0.0
 11
0.0
 21
0.0
 12
0.0
 22
0.0
 32
0.0
 14
0.0
 24
0.0
 34
0.0
 15
0.0
 25
0.0
 35
0.0
146
0.0
 13
0.0
 23
0.0
 33
0.0
 16
1.0
 26
0.0
 36
0.0
 17
0.0
 27
1.0
 37
0.0
 76
     0
330
23
  0
LAYOUT
  5
22
102
{ACAD_REACTORS
330
1A
102
}
330
1A
100
AcDbPlotSettings
  1

  2
none_device
  4
Letter_(8.50_x_11.00_Inches)
  6

 40
6.35
 41
6.35
 42
6.35000508
 43
6.35000508
 44
215.9
 45
279.4
 46
0.0
 47
0.0
 48
0.0
 49
0.0
140
0.0
141
0.0
142
1.0
143
1.0
 70
  1712
 72
     0
 73
     0
 74
     0
  7

 75
     0
 76
     0
 77
     2
 78
   300
147
1.0
148
0.0
149
0.0
100
AcDbLayout
  1
Model
 70
     1
 71
     0
 10
0.0
 20
0.0
 11
12.0
 21
9.0
 12
0.0
 22
0.0
 32
0.0
 14
-194.8556721568058
 24
-44.18595618781291
 34
0.0
 15
110.9863996894682
 25
98.30280532102941
 35
0.0
146
0.0
 13
0.0
 23
0.0
 33
0.0
 16
1.0
 26
0.0
 36
0.0
 17
0.0
 27
1.0
 37
0.0
 76
     0
330
1F
331
29
  0
MATERIAL
  5
45
102
{ACAD_REACTORS
330
43
102
}
102
{ACAD_XDICTIONARY
360
435
102
}
330
43
100
AcDbMaterial
  1
ByBlock
  0
MATERIAL
  5
44
102
{ACAD_REACTORS
330
43
102
}
102
{ACAD_XDICTIONARY
360
433
102
}
330
43
100
AcDbMaterial
  1
ByLayer
  0
MATERIAL
  5
46
102
{ACAD_REACTORS
330
43
102
}
102
{ACAD_XDICTIONARY
360
437
102
}
330
43
100
AcDbMaterial
  1
Global
  0
MLEADERSTYLE
  5
6C
102
{ACAD_REACTORS
330
6B
102
}
102
{ACAD_XDICTIONARY
360
43D
102
}
330
6B
100
AcDbMLeaderStyle
170
     2
171
     1
172
     0
 90
        2
 40
0.0
 41
0.0
173
     1
 91
-1056964608
340
14
 92
       -2
290
     1
 42
0.09
291
     1
 43
0.36
  3
Standard
341
0
 44
0.18
300

342
11
174
     1
178
     6
175
     1
176
     0
 93
-1056964608
 45
0.18
292
     0
297
     0
 46
0.18
343
0
 94
-1056964608
 47
1.0
 49
1.0
140
1.0
293
     1
141
0.0
294
     1
177
     0
142
1.0
295
     0
296
     0
143
0.125
1001
ACAD_MLEADERVER
1070
     2
  0
MLINESTYLE
  5
18
102
{ACAD_REACTORS
330
17
102
}
330
17
100
AcDbMlineStyle
  2
Standard
 70
     0
  3

 62
   256
 51
90.0
 52
90.0
 71
     2
 49
0.5
 62
   256
  6
BYLAYER
 49
-0.5
 62
   256
  6
BYLAYER
  0
ACDBPLACEHOLDER
  5
F
102
{ACAD_REACTORS
330
E
102
}
330
E
  0
SCALE
  5
48
102
{ACAD_REACTORS
330
47
102
}
330
47
100
AcDbScale
 70
     0
300
1:1
140
1.0
141
1.0
290
     1
  0
SCALE
  5
49
102
{ACAD_REACTORS
330
47
102
}
330
47
100
AcDbScale
 70
     0
300
1:2
140
1.0
141
2.0
290
     0
  0
SCALE
  5
4A
102
{ACAD_REACTORS
330
47
102
}
330
47
100
AcDbScale
 70
     0
300
1:4
140
1.0
141
4.0
290
     0
  0
SCALE
  5
4B
102
{ACAD_REACTORS
330
47
102
}
330
47
100
AcDbScale
 70
     0
300
1:5
140
1.0
141
5.0
290
     0
  0
SCALE
  5
4C
102
{ACAD_REACTORS
330
47
102
}
330
47
100
AcDbScale
 70
     0
300
1:8
140
1.0
141
8.0
290
     0
  0
SCALE
  5
4D
102
{ACAD_REACTORS
330
47
102
}
330
47
100
AcDbScale
 70
     0
300
1:10
140
1.0
141
10.0
290
     0
  0
SCALE
  5
4E
102
{ACAD_REACTORS
330
47
102
}
330
47
100
AcDbScale
 70
     0
300
1:16
140
1.0
141
16.0
290
     0
  0
SCALE
  5
4F
102
{ACAD_REACTORS
330
47
102
}
330
47
100
AcDbScale
 70
     0
300
1:20
140
1.0
141
20.0
290
     0
  0
SCALE
  5
50
102
{ACAD_REACTORS
330
47
102
}
330
47
100
AcDbScale
 70
     0
300
1:30
140
1.0
141
30.0
290
     0
  0
SCALE
  5
51
102
{ACAD_REACTORS
330
47
102
}
330
47
100
AcDbScale
 70
     0
300
1:40
140
1.0
141
40.0
290
     0
  0
SCALE
  5
52
102
{ACAD_REACTORS
330
47
102
}
330
47
100
AcDbScale
 70
     0
300
1:50
140
1.0
141
50.0
290
     0
  0
SCALE
  5
53
102
{ACAD_REACTORS
330
47
102
}
330
47
100
AcDbScale
 70
     0
300
1:100
140
1.0
141
100.0
290
     0
  0
SCALE
  5
54
102
{ACAD_REACTORS
330
47
102
}
330
47
100
AcDbScale
 70
     0
300
2:1
140
2.0
141
1.0
290
     0
  0
SCALE
  5
55
102
{ACAD_REACTORS
330
47
102
}
330
47
100
AcDbScale
 70
     0
300
4:1
140
4.0
141
1.0
290
     0
  0
SCALE
  5
56
102
{ACAD_REACTORS
330
47
102
}
330
47
100
AcDbScale
 70
     0
300
8:1
140
8.0
141
1.0
290
     0
  0
SCALE
  5
57
102
{ACAD_REACTORS
330
47
102
}
330
47
100
AcDbScale
 70
     0
300
10:1
140
10.0
141
1.0
290
     0
  0
SCALE
  5
58
102
{ACAD_REACTORS
330
47
102
}
330
47
100
AcDbScale
 70
     0
300
100:1
140
100.0
141
1.0
290
     0
  0
SCALE
  5
59
102
{ACAD_REACTORS
330
47
102
}
330
47
100
AcDbScale
 70
     0
300
1/128" = 1'-0"
140
0.0078125
141
12.0
290
     0
  0
SCALE
  5
5A
102
{ACAD_REACTORS
330
47
102
}
330
47
100
AcDbScale
 70
     0
300
1/64" = 1'-0"
140
0.015625
141
12.0
290
     0
  0
SCALE
  5
5B
102
{ACAD_REACTORS
330
47
102
}
330
47
100
AcDbScale
 70
     0
300
1/32" = 1'-0"
140
0.03125
141
12.0
290
     0
  0
SCALE
  5
5C
102
{ACAD_REACTORS
330
47
102
}
330
47
100
AcDbScale
 70
     0
300
1/16" = 1'-0"
140
0.0625
141
12.0
290
     0
  0
SCALE
  5
5D
102
{ACAD_REACTORS
330
47
102
}
330
47
100
AcDbScale
 70
     0
300
3/32" = 1'-0"
140
0.09375
141
12.0
290
     0
  0
SCALE
  5
5E
102
{ACAD_REACTORS
330
47
102
}
330
47
100
AcDbScale
 70
     0
300
1/8" = 1'-0"
140
0.125
141
12.0
290
     0
  0
SCALE
  5
5F
102
{ACAD_REACTORS
330
47
102
}
330
47
100
AcDbScale
 70
     0
300
3/16" = 1'-0"
140
0.1875
141
12.0
290
     0
  0
SCALE
  5
60
102
{ACAD_REACTORS
330
47
102
}
330
47
100
AcDbScale
 70
     0
300
1/4" = 1'-0"
140
0.25
141
12.0
290
     0
  0
SCALE
  5
61
102
{ACAD_REACTORS
330
47
102
}
330
47
100
AcDbScale
 70
     0
300
3/8" = 1'-0"
140
0.375
141
12.0
290
     0
  0
SCALE
  5
62
102
{ACAD_REACTORS
330
47
102
}
330
47
100
AcDbScale
 70
     0
300
1/2" = 1'-0"
140
0.5
141
12.0
290
     0
  0
SCALE
  5
63
102
{ACAD_REACTORS
330
47
102
}
330
47
100
AcDbScale
 70
     0
300
3/4" = 1'-0"
140
0.75
141
12.0
290
     0
  0
SCALE
  5
64
102
{ACAD_REACTORS
330
47
102
}
330
47
100
AcDbScale
 70
     0
300
1" = 1'-0"
140
1.0
141
12.0
290
     0
  0
SCALE
  5
65
102
{ACAD_REACTORS
330
47
102
}
330
47
100
AcDbScale
 70
     0
300
1-1/2" = 1'-0"
140
1.5
141
12.0
290
     0
  0
SCALE
  5
66
102
{ACAD_REACTORS
330
47
102
}
330
47
100
AcDbScale
 70
     0
300
3" = 1'-0"
140
3.0
141
12.0
290
     0
  0
SCALE
  5
67
102
{ACAD_REACTORS
330
47
102
}
330
47
100
AcDbScale
 70
     0
300
6" = 1'-0"
140
6.0
141
12.0
290
     0
  0
SCALE
  5
68
102
{ACAD_REACTORS
330
47
102
}
330
47
100
AcDbScale
 70
     0
300
1'-0" = 1'-0"
140
12.0
141
12.0
290
     0
  0
TABLESTYLE
  5
6A
102
{ACAD_REACTORS
330
69
102
}
102
{ACAD_XDICTIONARY
360
439
102
}
330
69
100
AcDbTableStyle
  3
Standard
 70
     0
 71
     0
 40
0.06
 41
0.06
280
     0
281
     0
  7
Standard
140
0.18
170
     2
 62
     0
 63
   257
283
     0
274
    -2
284
     1
 64
     0
275
    -2
285
     1
 65
     0
276
    -2
286
     1
 66
     0
277
    -2
287
     1
 67
     0
278
    -2
288
     1
 68
     0
279
    -2
289
     1
 69
     0
  7
Standard
140
0.25
170
     5
 62
     0
 63
   257
283
     0
274
    -2
284
     1
 64
     0
275
    -2
285
     1
 65
     0
276
    -2
286
     1
 66
     0
277
    -2
287
     1
 67
     0
278
    -2
288
     1
 68
     0
279
    -2
289
     1
 69
     0
  7
Standard
140
0.18
170
     5
 62
     0
 63
   257
283
     0
274
    -2
284
     1
 64
     0
275
    -2
285
     1
 65
     0
276
    -2
286
     1
 66
     0
277
    -2
287
     1
 67
     0
278
    -2
288
     1
 68
     0
279
    -2
289
     1
 69
     0
  0
VISUALSTYLE
  5
2F
102
{ACAD_REACTORS
330
2A
102
}
102
{ACAD_XDICTIONARY
360
40B
102
}
330
2A
100
AcDbVisualStyle
  2
2dWireframe
 70
     4
 71
     0
 72
     2
 73
     0
 90
        0
 40
0.6
 41
30.0
 62
     5
 63
     7
421
 16777215
 74
     1
 91
        4
 64
     7
 65
   257
 75
     1
175
     1
 42
1.0
 92
        0
 66
   257
 43
1.0
 76
     1
 77
     6
 78
     2
 67
     7
 79
     5
170
     0
171
     0
290
     0
174
     0
 93
        1
 44
0.0
173
     0
291
     0
 45
0.0
1001
ACAD
1000
AcDbSavedByObjectVersion
1070
     0
  0
VISUALSTYLE
  5
32
102
{ACAD_REACTORS
330
2A
102
}
102
{ACAD_XDICTIONARY
360
411
102
}
330
2A
100
AcDbVisualStyle
  2
Basic
 70
     7
 71
     1
 72
     0
 73
     1
 90
        0
 40
0.6
 41
30.0
 62
     5
 63
     7
421
 16777215
 74
     0
 91
        4
 64
     7
 65
   257
 75
     1
175
     1
 42
1.0
 92
        8
 66
     7
 43
1.0
 76
     1
 77
     6
 78
     2
 67
     7
 79
     5
170
     0
171
     0
290
     0
174
     0
 93
        1
 44
0.0
173
     0
291
     1
 45
0.0
1001
ACAD
1000
AcDbSavedByObjectVersion
1070
     0
  0
VISUALSTYLE
  5
36
102
{ACAD_REACTORS
330
2A
102
}
102
{ACAD_XDICTIONARY
360
419
102
}
330
2A
100
AcDbVisualStyle
  2
Brighten
 70
    12
 71
     2
 72
     2
 73
     0
 90
        0
 40
0.6
 41
30.0
 62
     5
 63
     7
421
 16777215
 74
     1
 91
        4
 64
     7
 65
   257
 75
     1
175
     1
 42
1.0
 92
        8
 66
     7
 43
1.0
 76
     1
 77
     6
 78
     2
 67
     7
 79
     5
170
     0
171
     0
290
     0
174
     0
 93
        1
 44
50.0
173
     0
291
     1
 45
0.0
1001
ACAD
1000
AcDbSavedByObjectVersion
1070
     0
  0
VISUALSTYLE
  5
3A
102
{ACAD_REACTORS
330
2A
102
}
102
{ACAD_XDICTIONARY
360
421
102
}
330
2A
100
AcDbVisualStyle
  2
ColorChange
 70
    16
 71
     2
 72
     2
 73
     3
 90
        0
 40
0.6
 41
30.0
 62
     5
 63
     8
421
  8421504
 74
     1
 91
        4
 64
     7
 65
   257
 75
     1
175
     1
 42
1.0
 92
        8
 66
     8
424
  8421504
 43
1.0
 76
     1
 77
     6
 78
     2
 67
     7
 79
     5
170
     0
171
     0
290
     0
174
     0
 93
        1
 44
0.0
173
     0
291
     1
 45
0.0
1001
ACAD
1000
AcDbSavedByObjectVersion
1070
     0
  0
VISUALSTYLE
  5
34
102
{ACAD_REACTORS
330
2A
102
}
102
{ACAD_XDICTIONARY
360
415
102
}
330
2A
100
AcDbVisualStyle
  2
Conceptual
 70
     9
 71
     3
 72
     2
 73
     0
 90
        0
 40
0.6
 41
30.0
 62
     5
 63
     7
421
 16777215
 74
     2
 91
        2
 64
     7
 65
   257
 75
     1
175
     1
 42
179.0
 92
        8
 66
     7
 43
1.0
 76
     1
 77
     6
 78
     2
 67
     7
 79
     3
170
     0
171
     0
290
     0
174
     0
 93
        1
 44
0.0
173
     0
291
     0
 45
0.0
1001
ACAD
1000
AcDbSavedByObjectVersion
1070
     0
  0
VISUALSTYLE
  5
35
102
{ACAD_REACTORS
330
2A
102
}
102
{ACAD_XDICTIONARY
360
417
102
}
330
2A
100
AcDbVisualStyle
  2
Dim
 70
    11
 71
     2
 72
     2
 73
     0
 90
        0
 40
0.6
 41
30.0
 62
     5
 63
     7
421
 16777215
 74
     1
 91
        4
 64
     7
 65
   257
 75
     1
175
     1
 42
1.0
 92
        8
 66
     7
 43
1.0
 76
     1
 77
     6
 78
     2
 67
     7
 79
     5
170
     0
171
     0
290
     0
174
     0
 93
        1
 44
-50.0
173
     0
291
     1
 45
0.0
1001
ACAD
1000
AcDbSavedByObjectVersion
1070
     0
  0
VISUALSTYLE
  5
3D
102
{ACAD_REACTORS
330
2A
102
}
102
{ACAD_XDICTIONARY
360
427
102
}
330
2A
100
AcDbVisualStyle
  2
EdgeColorOff
 70
    22
 71
     2
 72
     2
 73
     0
 90
        0
 40
0.6
 41
30.0
 62
     5
 63
     7
421
 16777215
 74
     1
 91
        4
 64
     7
 65
   257
 75
     1
175
     1
 42
1.0
 92
        8
 66
     7
 43
1.0
 76
     1
 77
     6
 78
     2
 67
     7
 79
     5
170
     0
171
     0
290
     0
174
     0
 93
        1
 44
0.0
173
     0
291
     1
 45
0.0
1001
ACAD
1000
AcDbSavedByObjectVersion
1070
     0
  0
VISUALSTYLE
  5
39
102
{ACAD_REACTORS
330
2A
102
}
102
{ACAD_XDICTIONARY
360
41F
102
}
330
2A
100
AcDbVisualStyle
  2
Facepattern
 70
    15
 71
     2
 72
     2
 73
     0
 90
        0
 40
0.6
 41
30.0
 62
     5
 63
     7
421
 16777215
 74
     1
 91
        4
 64
     7
 65
   257
 75
     1
175
     1
 42
1.0
 92
        8
 66
     7
 43
1.0
 76
     1
 77
     6
 78
     2
 67
     7
 79
     5
170
     0
171
     0
290
     0
174
     0
 93
        1
 44
0.0
173
     0
291
     1
 45
0.0
1001
ACAD
1000
AcDbSavedByObjectVersion
1070
     0
  0
VISUALSTYLE
  5
2B
102
{ACAD_REACTORS
330
2A
102
}
102
{ACAD_XDICTIONARY
360
403
102
}
330
2A
100
AcDbVisualStyle
  2
Flat
 70
     0
 71
     2
 72
     1
 73
     1
 90
        2
 40
0.6
 41
30.0
 62
     5
 63
     7
421
 16777215
 74
     0
 91
        0
 64
     7
 65
   257
 75
     1
175
     1
 42
1.0
 92
        8
 66
     7
 43
1.0
 76
     1
 77
     6
 78
     2
 67
     7
 79
     5
170
     0
171
     0
290
     0
174
     0
 93
       13
 44
0.0
173
     0
291
     1
 45
0.0
1001
ACAD
1000
AcDbSavedByObjectVersion
1070
     0
  0
VISUALSTYLE
  5
2C
102
{ACAD_REACTORS
330
2A
102
}
102
{ACAD_XDICTIONARY
360
405
102
}
330
2A
100
AcDbVisualStyle
  2
FlatWithEdges
 70
     1
 71
     2
 72
     1
 73
     1
 90
        2
 40
0.6
 41
30.0
 62
     5
 63
     7
421
 16777215
 74
     1
 91
        0
 64
     7
 65
   257
 75
     1
175
     1
 42
1.0
 92
        0
 66
   257
 43
1.0
 76
     1
 77
     6
 78
     2
 67
     7
 79
     5
170
     0
171
     0
290
     0
174
     0
 93
       13
 44
0.0
173
     0
291
     1
 45
0.0
1001
ACAD
1000
AcDbSavedByObjectVersion
1070
     0
  0
VISUALSTYLE
  5
2D
102
{ACAD_REACTORS
330
2A
102
}
102
{ACAD_XDICTIONARY
360
407
102
}
330
2A
100
AcDbVisualStyle
  2
Gouraud
 70
     2
 71
     2
 72
     2
 73
     1
 90
        2
 40
0.6
 41
30.0
 62
     5
 63
     7
421
 16777215
 74
     0
 91
        0
 64
     7
 65
   257
 75
     1
175
     1
 42
1.0
 92
        0
 66
     7
 43
1.0
 76
     1
 77
     6
 78
     2
 67
     7
 79
     5
170
     0
171
     0
290
     0
174
     0
 93
       13
 44
0.0
173
     0
291
     1
 45
0.0
1001
ACAD
1000
AcDbSavedByObjectVersion
1070
     0
  0
VISUALSTYLE
  5
2E
102
{ACAD_REACTORS
330
2A
102
}
102
{ACAD_XDICTIONARY
360
409
102
}
330
2A
100
AcDbVisualStyle
  2
GouraudWithEdges
 70
     3
 71
     2
 72
     2
 73
     1
 90
        2
 40
0.6
 41
30.0
 62
     5
 63
     7
421
 16777215
 74
     1
 91
        0
 64
     7
 65
   257
 75
     1
175
     1
 42
1.0
 92
        0
 66
   257
 43
1.0
 76
     1
 77
     6
 78
     2
 67
     7
 79
     5
170
     0
171
     0
290
     0
174
     0
 93
       13
 44
0.0
173
     0
291
     1
 45
0.0
1001
ACAD
1000
AcDbSavedByObjectVersion
1070
     0
  0
VISUALSTYLE
  5
31
102
{ACAD_REACTORS
330
2A
102
}
102
{ACAD_XDICTIONARY
360
40F
102
}
330
2A
100
AcDbVisualStyle
  2
Hidden
 70
     6
 71
     1
 72
     2
 73
     2
 90
        0
 40
0.6
 41
30.0
 62
     5
 63
     7
421
 16777215
 74
     2
 91
        2
 64
     7
 65
   257
 75
     2
175
     1
 42
40.0
 92
        0
 66
   257
 43
1.0
 76
     1
 77
     6
 78
     2
 67
     7
 79
     3
170
     0
171
     0
290
     0
174
     0
 93
        1
 44
0.0
173
     0
291
     0
 45
0.0
1001
ACAD
1000
AcDbSavedByObjectVersion
1070
     0
  0
VISUALSTYLE
  5
3B
102
{ACAD_REACTORS
330
2A
102
}
102
{ACAD_XDICTIONARY
360
423
102
}
330
2A
100
AcDbVisualStyle
  2
JitterOff
 70
    20
 71
     2
 72
     2
 73
     0
 90
        0
 40
0.6
 41
30.0
 62
     5
 63
     7
421
 16777215
 74
     1
 91
        4
 64
     7
 65
   257
 75
     1
175
     1
 42
1.0
 92
       10
 66
     7
 43
1.0
 76
     1
 77
     6
 78
     2
 67
     7
 79
     5
170
     0
171
     0
290
     0
174
     0
 93
        1
 44
0.0
173
     0
291
     1
 45
0.0
1001
ACAD
1000
AcDbSavedByObjectVersion
1070
     0
  0
VISUALSTYLE
  5
38
102
{ACAD_REACTORS
330
2A
102
}
102
{ACAD_XDICTIONARY
360
41D
102
}
330
2A
100
AcDbVisualStyle
  2
Linepattern
 70
    14
 71
     2
 72
     2
 73
     0
 90
        0
 40
0.6
 41
30.0
 62
     5
 63
     7
421
 16777215
 74
     1
 91
        4
 64
     7
 65
   257
 75
     7
175
     7
 42
1.0
 92
        8
 66
     7
 43
1.0
 76
     1
 77
     6
 78
     2
 67
     7
 79
     5
170
     0
171
     0
290
     0
174
     0
 93
        1
 44
0.0
173
     0
291
     1
 45
0.0
1001
ACAD
1000
AcDbSavedByObjectVersion
1070
     0
  0
VISUALSTYLE
  5
3C
102
{ACAD_REACTORS
330
2A
102
}
102
{ACAD_XDICTIONARY
360
425
102
}
330
2A
100
AcDbVisualStyle
  2
OverhangOff
 70
    21
 71
     2
 72
     2
 73
     0
 90
        0
 40
0.6
 41
30.0
 62
     5
 63
     7
421
 16777215
 74
     1
 91
        4
 64
     7
 65
   257
 75
     1
175
     1
 42
1.0
 92
        9
 66
     7
 43
1.0
 76
     1
 77
     6
 78
     2
 67
     7
 79
     5
170
     0
171
     0
290
     0
174
     0
 93
        1
 44
0.0
173
     0
291
     1
 45
0.0
1001
ACAD
1000
AcDbSavedByObjectVersion
1070
     0
  0
VISUALSTYLE
  5
33
102
{ACAD_REACTORS
330
2A
102
}
102
{ACAD_XDICTIONARY
360
413
102
}
330
2A
100
AcDbVisualStyle
  2
Realistic
 70
     8
 71
     2
 72
     3
 73
     0
 90
        2
 40
0.6
 41
30.0
 62
     5
 63
     7
421
 16777215
 74
     0
 91
        0
 64
     7
 65
   257
 75
     1
175
     1
 42
1.0
 92
        8
 66
   257
 43
1.0
 76
     1
 77
     6
 78
     2
 67
     7
 79
     3
170
     0
171
     0
290
     0
174
     0
 93
       13
 44
0.0
173
     0
291
     0
 45
0.0
1001
ACAD
1000
AcDbSavedByObjectVersion
1070
     0
  0
VISUALSTYLE
  5
42
102
{ACAD_REACTORS
330
2A
102
}
102
{ACAD_XDICTIONARY
360
431
102
}
330
2A
100
AcDbVisualStyle
  2
Shaded
 70
    27
 71
     2
 72
     2
 73
     1
 90
        2
 40
0.6
 41
30.0
 62
     5
 63
     7
421
 16777215
 74
     0
 91
        4
 64
     7
 65
   257
 75
     1
175
     1
 42
1.0
 92
        8
 66
   257
 43
1.0
 76
     1
 77
     6
 78
     2
 67
     8
425
  7895160
 79
     3
170
     0
171
     0
290
     0
174
     0
 93
        5
 44
0.0
173
     0
291
     0
 45
0.0
1001
ACAD
1000
AcDbSavedByObjectVersion
1070
     0
  0
VISUALSTYLE
  5
41
102
{ACAD_REACTORS
330
2A
102
}
102
{ACAD_XDICTIONARY
360
42F
102
}
330
2A
100
AcDbVisualStyle
  2
Shaded with edges
 70
    26
 71
     2
 72
     2
 73
     1
 90
        2
 40
0.6
 41
30.0
 62
     5
 63
     7
421
 16777215
 74
     1
 91
       10
 64
     7
 65
   257
 75
     2
175
     1
 42
1.0
 92
        8
 66
   257
 43
1.0
 76
     1
 77
     6
 78
     2
 67
     7
 79
     3
170
     0
171
     0
290
     0
174
     0
 93
        5
 44
0.0
173
     0
291
     0
 45
0.0
1001
ACAD
1000
AcDbSavedByObjectVersion
1070
     0
  0
VISUALSTYLE
  5
3E
102
{ACAD_REACTORS
330
2A
102
}
102
{ACAD_XDICTIONARY
360
429
102
}
330
2A
100
AcDbVisualStyle
  2
Shades of Gray
 70
    23
 71
     2
 72
     2
 73
     3
 90
        0
 40
0.6
 41
30.0
 62
     5
 63
     7
421
 16777215
 74
     2
 91
        2
 64
     7
 65
     7
 75
     1
175
     1
 42
40.0
 92
        8
 66
     7
 43
1.0
 76
     1
 77
     6
 78
     2
 67
     7
 79
     3
170
     0
171
     0
290
     0
174
     0
 93
        1
 44
0.0
173
     0
291
     0
 45
0.0
1001
ACAD
1000
AcDbSavedByObjectVersion
1070
     0
  0
VISUALSTYLE
  5
3F
102
{ACAD_REACTORS
330
2A
102
}
102
{ACAD_XDICTIONARY
360
42B
102
}
330
2A
100
AcDbVisualStyle
  2
Sketchy
 70
    24
 71
     1
 72
     2
 73
     2
 90
        0
 40
0.6
 41
30.0
 62
     5
 63
     7
421
 16777215
 74
     2
 91
        2
 64
     7
 65
     7
 75
     1
175
     1
 42
40.0
 92
       11
 66
     7
 43
1.0
 76
     1
 77
     6
 78
     2
 67
     7
 79
     6
170
     0
171
     0
290
     0
174
     0
 93
        1
 44
0.0
173
     0
291
     0
 45
0.0
1001
ACAD
1000
AcDbSavedByObjectVersion
1070
     0
  0
VISUALSTYLE
  5
37
102
{ACAD_REACTORS
330
2A
102
}
102
{ACAD_XDICTIONARY
360
41B
102
}
330
2A
100
AcDbVisualStyle
  2
Thicken
 70
    13
 71
     2
 72
     2
 73
     0
 90
        0
 40
0.6
 41
30.0
 62
     5
 63
     7
421
 16777215
 74
     1
 91
        4
 64
     7
 65
   257
 75
     1
175
     1
 42
1.0
 92
       12
 66
     7
 43
1.0
 76
     1
 77
     6
 78
     2
 67
     7
 79
     5
170
     0
171
     0
290
     0
174
     0
 93
        1
 44
0.0
173
     0
291
     1
 45
0.0
1001
ACAD
1000
AcDbSavedByObjectVersion
1070
     0
  0
VISUALSTYLE
  5
30
102
{ACAD_REACTORS
330
2A
102
}
102
{ACAD_XDICTIONARY
360
40D
102
}
330
2A
100
AcDbVisualStyle
  2
Wireframe
 70
     5
 71
     0
 72
     2
 73
     0
 90
        0
 40
0.6
 41
30.0
 62
     5
 63
     7
421
 16777215
 74
     1
 91
        4
 64
     7
 65
   257
 75
     1
175
     1
 42
1.0
 92
        0
 66
   257
 43
1.0
 76
     1
 77
     6
 78
     2
 67
     7
 79
     3
170
     0
171
     0
290
     0
174
     0
 93
        1
 44
0.0
173
     0
291
     0
 45
0.0
1001
ACAD
1000
AcDbSavedByObjectVersion
1070
     0
  0
VISUALSTYLE
  5
40
102
{ACAD_REACTORS
330
2A
102
}
102
{ACAD_XDICTIONARY
360
42D
102
}
330
2A
100
AcDbVisualStyle
  2
X-Ray
 70
    25
 71
     2
 72
     2
 73
     1
 90
        1
 40
0.5
 41
30.0
 62
     5
 63
     7
421
 16777215
 74
     1
 91
        0
 64
     7
 65
   257
 75
     1
175
     1
 42
1.0
 92
        8
 66
     7
 43
1.0
 76
     1
 77
     6
 78
     2
 67
     7
 79
     3
170
     0
171
     0
290
     0
174
     0
 93
       13
 44
0.0
173
     0
291
     0
 45
0.0
1001
ACAD
1000
AcDbSavedByObjectVersion
1070
     0
  0
DICTIONARYVAR
  5
400
102
{ACAD_REACTORS
330
3FF
102
}
330
3FF
100
DictionaryVariables
280
     0
  1
1:1
  0
DICTIONARYVAR
  5
441
102
{ACAD_REACTORS
330
3FF
102
}
330
3FF
100
DictionaryVariables
280
     0
  1
Standard
  0
DICTIONARYVAR
  5
440
102
{ACAD_REACTORS
330
3FF
102
}
330
3FF
100
DictionaryVariables
280
     0
  1
Standard
  0
DICTIONARYVAR
  5
401
102
{ACAD_REACTORS
330
3FF
102
}
330
3FF
100
DictionaryVariables
280
     0
  1
1
  0
DICTIONARYVAR
  5
402
102
{ACAD_REACTORS
330
3FF
102
}
330
3FF
100
DictionaryVariables
280
     0
  1
2
  0
DICTIONARY
  5
435
330
45
100
AcDbDictionary
280
     1
281
     1
  3
ACAD_XREC_ROUNDTRIP
360
436
  0
DICTIONARY
  5
433
330
44
100
AcDbDictionary
280
     1
281
     1
  3
ACAD_XREC_ROUNDTRIP
360
434
  0
DICTIONARY
  5
437
330
46
100
AcDbDictionary
280
     1
281
     1
  3
ACAD_XREC_ROUNDTRIP
360
438
  0
DICTIONARY
  5
43D
330
6C
100
AcDbDictionary
280
     1
281
     1
  3
ACAD_XREC_ROUNDTRIP
360
43E
  0
DICTIONARY
  5
439
330
6A
100
AcDbDictionary
280
     1
281
     1
  3
ACAD_ROUNDTRIP_2008_TABLESTYLE_CELLSTYLEMAP
360
43B
  3
ACAD_XREC_ROUNDTRIP
360
43A
  0
DICTIONARY
  5
40B
330
2F
100
AcDbDictionary
280
     1
281
     1
  3
ACAD_XREC_ROUNDTRIP
360
40C
  0
DICTIONARY
  5
411
330
32
100
AcDbDictionary
280
     1
281
     1
  3
ACAD_XREC_ROUNDTRIP
360
412
  0
DICTIONARY
  5
419
330
36
100
AcDbDictionary
280
     1
281
     1
  3
ACAD_XREC_ROUNDTRIP
360
41A
  0
DICTIONARY
  5
421
330
3A
100
AcDbDictionary
280
     1
281
     1
  3
ACAD_XREC_ROUNDTRIP
360
422
  0
DICTIONARY
  5
415
330
34
100
AcDbDictionary
280
     1
281
     1
  3
ACAD_XREC_ROUNDTRIP
360
416
  0
DICTIONARY
  5
417
330
35
100
AcDbDictionary
280
     1
281
     1
  3
ACAD_XREC_ROUNDTRIP
360
418
  0
DICTIONARY
  5
427
330
3D
100
AcDbDictionary
280
     1
281
     1
  3
ACAD_XREC_ROUNDTRIP
360
428
  0
DICTIONARY
  5
41F
330
39
100
AcDbDictionary
280
     1
281
     1
  3
ACAD_XREC_ROUNDTRIP
360
420
  0
DICTIONARY
  5
403
330
2B
100
AcDbDictionary
280
     1
281
     1
  3
ACAD_XREC_ROUNDTRIP
360
404
  0
DICTIONARY
  5
405
330
2C
100
AcDbDictionary
280
     1
281
     1
  3
ACAD_XREC_ROUNDTRIP
360
406
  0
DICTIONARY
  5
407
330
2D
100
AcDbDictionary
280
     1
281
     1
  3
ACAD_XREC_ROUNDTRIP
360
408
  0
DICTIONARY
  5
409
330
2E
100
AcDbDictionary
280
     1
281
     1
  3
ACAD_XREC_ROUNDTRIP
360
40A
  0
DICTIONARY
  5
40F
330
31
100
AcDbDictionary
280
     1
281
     1
  3
ACAD_XREC_ROUNDTRIP
360
410
  0
DICTIONARY
  5
423
330
3B
100
AcDbDictionary
280
     1
281
     1
  3
ACAD_XREC_ROUNDTRIP
360
424
  0
DICTIONARY
  5
41D
330
38
100
AcDbDictionary
280
     1
281
     1
  3
ACAD_XREC_ROUNDTRIP
360
41E
  0
DICTIONARY
  5
425
330
3C
100
AcDbDictionary
280
     1
281
     1
  3
ACAD_XREC_ROUNDTRIP
360
426
  0
DICTIONARY
  5
413
330
33
100
AcDbDictionary
280
     1
281
     1
  3
ACAD_XREC_ROUNDTRIP
360
414
  0
DICTIONARY
  5
431
330
42
100
AcDbDictionary
280
     1
281
     1
  3
ACAD_XREC_ROUNDTRIP
360
432
  0
DICTIONARY
  5
42F
330
41
100
AcDbDictionary
280
     1
281
     1
  3
ACAD_XREC_ROUNDTRIP
360
430
  0
DICTIONARY
  5
429
330
3E
100
AcDbDictionary
280
     1
281
     1
  3
ACAD_XREC_ROUNDTRIP
360
42A
  0
DICTIONARY
  5
42B
330
3F
100
AcDbDictionary
280
     1
281
     1
  3
ACAD_XREC_ROUNDTRIP
360
42C
  0
DICTIONARY
  5
41B
330
37
100
AcDbDictionary
280
     1
281
     1
  3
ACAD_XREC_ROUNDTRIP
360
41C
  0
DICTIONARY
  5
40D
330
30
100
AcDbDictionary
280
     1
281
     1
  3
ACAD_XREC_ROUNDTRIP
360
40E
  0
DICTIONARY
  5
42D
330
40
100
AcDbDictionary
280
     1
281
     1
  3
ACAD_XREC_ROUNDTRIP
360
42E
  0
XRECORD
  5
436
102
{ACAD_REACTORS
330
435
102
}
330
435
100
AcDbXrecord
280
     1
102
MATERIAL
148
0.0
149
0.0
149
0.0
 93
        0
 94
      127
282
     0
 72
     1
 77
     1
171
     1
175
     1
179
     1
273
     0
  0
XRECORD
  5
434
102
{ACAD_REACTORS
330
433
102
}
330
433
100
AcDbXrecord
280
     1
102
MATERIAL
148
0.0
149
0.0
149
0.0
 93
        0
 94
      127
282
     0
 72
     1
 77
     1
171
     1
175
     1
179
     1
273
     0
  0
XRECORD
  5
438
102
{ACAD_REACTORS
330
437
102
}
330
437
100
AcDbXrecord
280
     1
102
MATERIAL
148
0.0
149
0.0
149
0.0
 93
        0
 94
      127
282
     0
 72
     1
 77
     1
171
     1
175
     1
179
     1
273
     0
  0
XRECORD
  5
43E
102
{ACAD_REACTORS
330
43D
102
}
330
43D
100
AcDbXrecord
280
     1
102
ACAD_ROUNDTRIP_2010_MLEADER_STYLE
  0
CELLSTYLEMAP
  5
43B
102
{ACAD_REACTORS
330
439
102
}
330
439
100
AcDbCellStyleMap
 90
        3
300
CELLSTYLE
  1
TABLEFORMAT_BEGIN
 90
        5
170
     1
 91
        0
 92
    32768
 62
   257
 93
        1
300
CONTENTFORMAT
  1
CONTENTFORMAT_BEGIN
 90
        0
 91
        0
 92
        4
 93
        0
300

 40
0.0
140
1.0
 94
        5
 62
     0
340
11
144
0.25
309
CONTENTFORMAT_END
171
     1
301
MARGIN
  1
CELLMARGIN_BEGIN
 40
0.06
 40
0.06
 40
0.06
 40
0.06
 40
0.06
 40
0.06
309
CELLMARGIN_END
 94
        6
 95
        1
302
GRIDFORMAT
  1
GRIDFORMAT_BEGIN
 90
        0
 91
        1
 62
     0
 92
       -2
340
14
 93
        0
 40
0.045
309
GRIDFORMAT_END
 95
        2
302
GRIDFORMAT
  1
GRIDFORMAT_BEGIN
 90
        0
 91
        1
 62
     0
 92
       -2
340
14
 93
        0
 40
0.045
309
GRIDFORMAT_END
 95
        4
302
GRIDFORMAT
  1
GRIDFORMAT_BEGIN
 90
        0
 91
        1
 62
     0
 92
       -2
340
14
 93
        0
 40
0.045
309
GRIDFORMAT_END
 95
        8
302
GRIDFORMAT
  1
GRIDFORMAT_BEGIN
 90
        0
 91
        1
 62
     0
 92
       -2
340
14
 93
        0
 40
0.045
309
GRIDFORMAT_END
 95
       16
302
GRIDFORMAT
  1
GRIDFORMAT_BEGIN
 90
        0
 91
        1
 62
     0
 92
       -2
340
14
 93
        0
 40
0.045
309
GRIDFORMAT_END
 95
       32
302
GRIDFORMAT
  1
GRIDFORMAT_BEGIN
 90
        0
 91
        1
 62
     0
 92
       -2
340
14
 93
        0
 40
0.045
309
GRIDFORMAT_END
309
TABLEFORMAT_END
  1
CELLSTYLE_BEGIN
 90
        1
 91
        1
300
_TITLE
309
CELLSTYLE_END
300
CELLSTYLE
  1
TABLEFORMAT_BEGIN
 90
        5
170
     1
 91
        0
 92
        0
 62
   257
 93
        1
300
CONTENTFORMAT
  1
CONTENTFORMAT_BEGIN
 90
        0
 91
        0
 92
        4
 93
        0
300

 40
0.0
140
1.0
 94
        5
 62
     0
340
11
144
0.18
309
CONTENTFORMAT_END
171
     1
301
MARGIN
  1
CELLMARGIN_BEGIN
 40
0.06
 40
0.06
 40
0.06
 40
0.06
 40
0.06
 40
0.06
309
CELLMARGIN_END
 94
        6
 95
        1
302
GRIDFORMAT
  1
GRIDFORMAT_BEGIN
 90
        0
 91
        1
 62
     0
 92
       -2
340
14
 93
        0
 40
0.045
309
GRIDFORMAT_END
 95
        2
302
GRIDFORMAT
  1
GRIDFORMAT_BEGIN
 90
        0
 91
        1
 62
     0
 92
       -2
340
14
 93
        0
 40
0.045
309
GRIDFORMAT_END
 95
        4
302
GRIDFORMAT
  1
GRIDFORMAT_BEGIN
 90
        0
 91
        1
 62
     0
 92
       -2
340
14
 93
        0
 40
0.045
309
GRIDFORMAT_END
 95
        8
302
GRIDFORMAT
  1
GRIDFORMAT_BEGIN
 90
        0
 91
        1
 62
     0
 92
       -2
340
14
 93
        0
 40
0.045
309
GRIDFORMAT_END
 95
       16
302
GRIDFORMAT
  1
GRIDFORMAT_BEGIN
 90
        0
 91
        1
 62
     0
 92
       -2
340
14
 93
        0
 40
0.045
309
GRIDFORMAT_END
 95
       32
302
GRIDFORMAT
  1
GRIDFORMAT_BEGIN
 90
        0
 91
        1
 62
     0
 92
       -2
340
14
 93
        0
 40
0.045
309
GRIDFORMAT_END
309
TABLEFORMAT_END
  1
CELLSTYLE_BEGIN
 90
        2
 91
        1
300
_HEADER
309
CELLSTYLE_END
300
CELLSTYLE
  1
TABLEFORMAT_BEGIN
 90
        5
170
     1
 91
        0
 92
        0
 62
   257
 93
        1
300
CONTENTFORMAT
  1
CONTENTFORMAT_BEGIN
 90
        0
 91
        0
 92
        4
 93
        0
300

 40
0.0
140
1.0
 94
        2
 62
     0
340
11
144
0.18
309
CONTENTFORMAT_END
171
     1
301
MARGIN
  1
CELLMARGIN_BEGIN
 40
0.06
 40
0.06
 40
0.06
 40
0.06
 40
0.06
 40
0.06
309
CELLMARGIN_END
 94
        6
 95
        1
302
GRIDFORMAT
  1
GRIDFORMAT_BEGIN
 90
        0
 91
        1
 62
     0
 92
       -2
340
14
 93
        0
 40
0.045
309
GRIDFORMAT_END
 95
        2
302
GRIDFORMAT
  1
GRIDFORMAT_BEGIN
 90
        0
 91
        1
 62
     0
 92
       -2
340
14
 93
        0
 40
0.045
309
GRIDFORMAT_END
 95
        4
302
GRIDFORMAT
  1
GRIDFORMAT_BEGIN
 90
        0
 91
        1
 62
     0
 92
       -2
340
14
 93
        0
 40
0.045
309
GRIDFORMAT_END
 95
        8
302
GRIDFORMAT
  1
GRIDFORMAT_BEGIN
 90
        0
 91
        1
 62
     0
 92
       -2
340
14
 93
        0
 40
0.045
309
GRIDFORMAT_END
 95
       16
302
GRIDFORMAT
  1
GRIDFORMAT_BEGIN
 90
        0
 91
        1
 62
     0
 92
       -2
340
14
 93
        0
 40
0.045
309
GRIDFORMAT_END
 95
       32
302
GRIDFORMAT
  1
GRIDFORMAT_BEGIN
 90
        0
 91
        1
 62
     0
 92
       -2
340
14
 93
        0
 40
0.045
309
GRIDFORMAT_END
309
TABLEFORMAT_END
  1
CELLSTYLE_BEGIN
 90
        3
 91
        2
300
_DATA
309
CELLSTYLE_END
  0
XRECORD
  5
43A
102
{ACAD_REACTORS
330
439
102
}
330
439
100
AcDbXrecord
280
     1
102
ACAD_ROUNDTRIP_PRE2007_TABLESTYLE
 90
        4
 91
        0
  1

 92
        4
 93
        0
  2

 94
        4
 95
        0
  3

  0
XRECORD
  5
40C
102
{ACAD_REACTORS
330
40B
102
}
330
40B
100
AcDbXrecord
280
     1
102
RTVSPropertyOp0
 70
     1
102
RTVSPropertyOp1
 70
     1
102
RTVSPropertyOp2
 70
     1
102
RTVSPropertyOp3
 70
     1
102
RTVSPropertyOp4
 70
     1
102
RTVSPropertyOp5
 70
     1
102
RTVSPropertyOp6
 70
     1
102
RTVSPropertyOp7
 70
     1
102
RTVSPropertyOp8
 70
     1
102
RTVSPropertyOp9
 70
     1
102
RTVSPropertyOp10
 70
     1
102
RTVSPropertyOp11
 70
     1
102
RTVSPropertyOp12
 70
     1
102
RTVSPropertyOp13
 70
     1
102
RTVSPropertyOp14
 70
     1
102
RTVSPropertyOp15
 70
     1
102
RTVSPropertyOp16
 70
     1
102
RTVSPropertyOp17
 70
     1
102
RTVSPropertyOp18
 70
     1
102
RTVSPropertyOp19
 70
     1
102
RTVSPropertyOp20
 70
     1
102
RTVSPropertyOp21
 70
     1
102
RTVSPropertyOp22
 70
     1
102
RTVSPropertyOp23
 70
     1
102
RTVSPropertyOp24
 70
     1
102
RTVSPropertyOp25
 70
     1
102
RTVSPropertyOp26
 70
     1
102
RTVSPropertyOp27
 70
     1
102
RTVSPropertyOp28
 70
     1
102
RTVSPropertyOp29
 70
     1
102
RTVSPropertyOp30
 70
     1
102
RTVSPropertyOp31
 70
     1
102
RTVSPropertyOp32
 70
     1
102
RTVSPropertyOp33
 70
     1
102
RTVSPropertyOp34
 70
     1
102
RTVSPropertyOp35
 70
     1
102
RTVSPropertyOp36
 70
     1
102
RTVSPropertyOp37
 70
     1
102
RTVSPropertyOp38
 70
     1
102
RTVSPropertyOp39
 70
     1
102
RTVSPropertyOp40
 70
     1
102
RTVSPropertyOp41
 70
     1
102
RTVSPropertyOp42
 70
     1
102
RTVSPropertyOp43
 70
     1
102
RTVSPropertyOp44
 70
     1
102
RTVSPropertyOp45
 70
     1
102
RTVSPropertyOp46
 70
     1
102
RTVSPropertyOp47
 70
     1
102
RTVSPropertyOp48
 70
     1
102
RTVSPropertyOp49
 70
     1
102
RTVSPropertyOp50
 70
     1
102
RTVSPropertyOp51
 70
     0
102
RTVSPropertyOp52
 70
     0
102
RTVSPropertyOp53
 70
     1
102
RTVSPropertyOp54
 70
     1
102
RTVSPropertyOp55
 70
     1
102
RTVSPropertyOp56
 70
     1
102
RTVSPropertyOp57
 70
     1
102
RTVSPost2010Prop28
280
     1
102
RTVSPost2010PropOp28
 70
     1
102
RTVSPost2010Prop29
280
     1
102
RTVSPost2010PropOp29
 70
     1
102
RTVSPost2010Prop30
280
     0
102
RTVSPost2010PropOp30
 70
     1
102
RTVSPost2010Prop31
280
     0
102
RTVSPost2010PropOp31
 70
     1
102
RTVSPost2010Prop32
280
     0
102
RTVSPost2010PropOp32
 70
     1
102
RTVSPost2010Prop33
280
     0
102
RTVSPost2010PropOp33
 70
     1
102
RTVSPost2010Prop34
280
     0
102
RTVSPost2010PropOp34
 70
     1
102
RTVSPost2010Prop35
280
     0
102
RTVSPost2010PropOp35
 70
     1
102
RTVSPost2010Prop36
280
     0
102
RTVSPost2010PropOp36
 70
     1
102
RTVSPost2010Prop37
 90
       50
102
RTVSPost2010PropOp37
 70
     1
102
RTVSPost2010Prop38
140
0.0
102
RTVSPost2010PropOp38
 70
     1
102
RTVSPost2010Prop39
140
1.0
102
RTVSPost2010PropOp39
 70
     1
102
RTVSPost2010Prop40
 90
        0
102
RTVSPost2010PropOp40
 70
     1
102
RTVSPost2010Prop41ColorIndex
 90
      178
102
RTVSPost2010Prop41ColorRGB
 90
        0
102
RTVSPost2010PropOp41
 70
     1
102
RTVSPost2010Prop42
 90
       50
102
RTVSPost2010PropOp42
 70
     1
102
RTVSPost2010Prop43
 90
        3
102
RTVSPost2010PropOp43
 70
     1
102
RTVSPost2010Prop44ColorIndex
 90
        5
102
RTVSPost2010Prop44ColorRGB
 90
      255
102
RTVSPost2010PropOp44
 70
     1
102
RTVSPost2010Prop45
280
     0
102
RTVSPost2010PropOp45
 70
     1
102
RTVSPost2010Prop46
 90
       50
102
RTVSPost2010PropOp46
 70
     1
102
RTVSPost2010Prop47
 90
       50
102
RTVSPost2010PropOp47
 70
     1
102
RTVSPost2010Prop48
 90
       50
102
RTVSPost2010PropOp48
 70
     1
102
RTVSPost2010Prop49
280
     0
102
RTVSPost2010PropOp49
 70
     1
102
RTVSPost2010Prop50
 90
       50
102
RTVSPost2010PropOp50
 70
     1
102
RTVSPost2010Prop51ColorIndex
 90
      256
102
RTVSPost2010Prop51ColorRGB
 90
-16777216
102
RTVSPost2010PropOp51
 70
     0
102
RTVSPost2010Prop52
140
1.0
102
RTVSPost2010PropOp52
 70
     0
102
RTVSPost2010Prop53
 90
        2
102
RTVSPost2010PropOp53
 70
     1
102
RTVSPost2010Prop54
  1
strokes_ogs.tif
102
RTVSPost2010PropOp54
 70
     1
102
RTVSPost2010Prop55
280
     0
102
RTVSPost2010PropOp55
 70
     1
102
RTVSPost2010Prop56
140
1.0
102
RTVSPost2010PropOp56
 70
     1
102
RTVSPost2010Prop57
140
1.0
102
RTVSPost2010PropOp57
 70
     1
  0
XRECORD
  5
412
102
{ACAD_REACTORS
330
411
102
}
330
411
100
AcDbXrecord
280
     1
102
RTVSPropertyOp0
 70
     1
102
RTVSPropertyOp1
 70
     1
102
RTVSPropertyOp2
 70
     1
102
RTVSPropertyOp3
 70
     1
102
RTVSPropertyOp4
 70
     1
102
RTVSPropertyOp5
 70
     1
102
RTVSPropertyOp6
 70
     1
102
RTVSPropertyOp7
 70
     1
102
RTVSPropertyOp8
 70
     1
102
RTVSPropertyOp9
 70
     1
102
RTVSPropertyOp10
 70
     1
102
RTVSPropertyOp11
 70
     1
102
RTVSPropertyOp12
 70
     1
102
RTVSPropertyOp13
 70
     1
102
RTVSPropertyOp14
 70
     1
102
RTVSPropertyOp15
 70
     1
102
RTVSPropertyOp16
 70
     1
102
RTVSPropertyOp17
 70
     1
102
RTVSPropertyOp18
 70
     1
102
RTVSPropertyOp19
 70
     1
102
RTVSPropertyOp20
 70
     1
102
RTVSPropertyOp21
 70
     1
102
RTVSPropertyOp22
 70
     1
102
RTVSPropertyOp23
 70
     1
102
RTVSPropertyOp24
 70
     1
102
RTVSPropertyOp25
 70
     1
102
RTVSPropertyOp26
 70
     1
102
RTVSPropertyOp27
 70
     1
102
RTVSPropertyOp28
 70
     1
102
RTVSPropertyOp29
 70
     1
102
RTVSPropertyOp30
 70
     1
102
RTVSPropertyOp31
 70
     1
102
RTVSPropertyOp32
 70
     1
102
RTVSPropertyOp33
 70
     1
102
RTVSPropertyOp34
 70
     1
102
RTVSPropertyOp35
 70
     1
102
RTVSPropertyOp36
 70
     1
102
RTVSPropertyOp37
 70
     1
102
RTVSPropertyOp38
 70
     1
102
RTVSPropertyOp39
 70
     1
102
RTVSPropertyOp40
 70
     1
102
RTVSPropertyOp41
 70
     1
102
RTVSPropertyOp42
 70
     1
102
RTVSPropertyOp43
 70
     1
102
RTVSPropertyOp44
 70
     1
102
RTVSPropertyOp45
 70
     1
102
RTVSPropertyOp46
 70
     1
102
RTVSPropertyOp47
 70
     1
102
RTVSPropertyOp48
 70
     1
102
RTVSPropertyOp49
 70
     1
102
RTVSPropertyOp50
 70
     1
102
RTVSPropertyOp51
 70
     0
102
RTVSPropertyOp52
 70
     0
102
RTVSPropertyOp53
 70
     1
102
RTVSPropertyOp54
 70
     1
102
RTVSPropertyOp55
 70
     1
102
RTVSPropertyOp56
 70
     1
102
RTVSPropertyOp57
 70
     1
102
RTVSPost2010Prop28
280
     0
102
RTVSPost2010PropOp28
 70
     1
102
RTVSPost2010Prop29
280
     1
102
RTVSPost2010PropOp29
 70
     1
102
RTVSPost2010Prop30
280
     1
102
RTVSPost2010PropOp30
 70
     1
102
RTVSPost2010Prop31
280
     0
102
RTVSPost2010PropOp31
 70
     1
102
RTVSPost2010Prop32
280
     0
102
RTVSPost2010PropOp32
 70
     1
102
RTVSPost2010Prop33
280
     0
102
RTVSPost2010PropOp33
 70
     1
102
RTVSPost2010Prop34
280
     0
102
RTVSPost2010PropOp34
 70
     1
102
RTVSPost2010Prop35
280
     0
102
RTVSPost2010PropOp35
 70
     1
102
RTVSPost2010Prop36
280
     0
102
RTVSPost2010PropOp36
 70
     1
102
RTVSPost2010Prop37
 90
       50
102
RTVSPost2010PropOp37
 70
     1
102
RTVSPost2010Prop38
140
0.0
102
RTVSPost2010PropOp38
 70
     1
102
RTVSPost2010Prop39
140
1.0
102
RTVSPost2010PropOp39
 70
     1
102
RTVSPost2010Prop40
 90
        0
102
RTVSPost2010PropOp40
 70
     1
102
RTVSPost2010Prop41ColorIndex
 90
      178
102
RTVSPost2010Prop41ColorRGB
 90
        0
102
RTVSPost2010PropOp41
 70
     1
102
RTVSPost2010Prop42
 90
       50
102
RTVSPost2010PropOp42
 70
     1
102
RTVSPost2010Prop43
 90
        3
102
RTVSPost2010PropOp43
 70
     1
102
RTVSPost2010Prop44ColorIndex
 90
        5
102
RTVSPost2010Prop44ColorRGB
 90
      255
102
RTVSPost2010PropOp44
 70
     1
102
RTVSPost2010Prop45
280
     0
102
RTVSPost2010PropOp45
 70
     1
102
RTVSPost2010Prop46
 90
       50
102
RTVSPost2010PropOp46
 70
     1
102
RTVSPost2010Prop47
 90
       50
102
RTVSPost2010PropOp47
 70
     1
102
RTVSPost2010Prop48
 90
       50
102
RTVSPost2010PropOp48
 70
     1
102
RTVSPost2010Prop49
280
     0
102
RTVSPost2010PropOp49
 70
     1
102
RTVSPost2010Prop50
 90
       50
102
RTVSPost2010PropOp50
 70
     1
102
RTVSPost2010Prop51ColorIndex
 90
      256
102
RTVSPost2010Prop51ColorRGB
 90
-16777216
102
RTVSPost2010PropOp51
 70
     0
102
RTVSPost2010Prop52
140
1.0
102
RTVSPost2010PropOp52
 70
     0
102
RTVSPost2010Prop53
 90
        2
102
RTVSPost2010PropOp53
 70
     1
102
RTVSPost2010Prop54
  1
strokes_ogs.tif
102
RTVSPost2010PropOp54
 70
     1
102
RTVSPost2010Prop55
280
     0
102
RTVSPost2010PropOp55
 70
     1
102
RTVSPost2010Prop56
140
1.0
102
RTVSPost2010PropOp56
 70
     1
102
RTVSPost2010Prop57
140
1.0
102
RTVSPost2010PropOp57
 70
     1
  0
XRECORD
  5
41A
102
{ACAD_REACTORS
330
419
102
}
330
419
100
AcDbXrecord
280
     1
102
RTVSPropertyOp0
 70
     1
102
RTVSPropertyOp1
 70
     1
102
RTVSPropertyOp2
 70
     1
102
RTVSPropertyOp3
 70
     1
102
RTVSPropertyOp4
 70
     1
102
RTVSPropertyOp5
 70
     1
102
RTVSPropertyOp6
 70
     1
102
RTVSPropertyOp7
 70
     1
102
RTVSPropertyOp8
 70
     1
102
RTVSPropertyOp9
 70
     1
102
RTVSPropertyOp10
 70
     1
102
RTVSPropertyOp11
 70
     1
102
RTVSPropertyOp12
 70
     1
102
RTVSPropertyOp13
 70
     1
102
RTVSPropertyOp14
 70
     1
102
RTVSPropertyOp15
 70
     1
102
RTVSPropertyOp16
 70
     1
102
RTVSPropertyOp17
 70
     1
102
RTVSPropertyOp18
 70
     1
102
RTVSPropertyOp19
 70
     1
102
RTVSPropertyOp20
 70
     1
102
RTVSPropertyOp21
 70
     1
102
RTVSPropertyOp22
 70
     1
102
RTVSPropertyOp23
 70
     1
102
RTVSPropertyOp24
 70
     1
102
RTVSPropertyOp25
 70
     1
102
RTVSPropertyOp26
 70
     1
102
RTVSPropertyOp27
 70
     1
102
RTVSPropertyOp28
 70
     1
102
RTVSPropertyOp29
 70
     1
102
RTVSPropertyOp30
 70
     1
102
RTVSPropertyOp31
 70
     1
102
RTVSPropertyOp32
 70
     1
102
RTVSPropertyOp33
 70
     1
102
RTVSPropertyOp34
 70
     1
102
RTVSPropertyOp35
 70
     1
102
RTVSPropertyOp36
 70
     1
102
RTVSPropertyOp37
 70
     1
102
RTVSPropertyOp38
 70
     1
102
RTVSPropertyOp39
 70
     1
102
RTVSPropertyOp40
 70
     1
102
RTVSPropertyOp41
 70
     1
102
RTVSPropertyOp42
 70
     1
102
RTVSPropertyOp43
 70
     1
102
RTVSPropertyOp44
 70
     1
102
RTVSPropertyOp45
 70
     1
102
RTVSPropertyOp46
 70
     1
102
RTVSPropertyOp47
 70
     1
102
RTVSPropertyOp48
 70
     1
102
RTVSPropertyOp49
 70
     1
102
RTVSPropertyOp50
 70
     1
102
RTVSPropertyOp51
 70
     0
102
RTVSPropertyOp52
 70
     0
102
RTVSPropertyOp53
 70
     1
102
RTVSPropertyOp54
 70
     1
102
RTVSPropertyOp55
 70
     1
102
RTVSPropertyOp56
 70
     1
102
RTVSPropertyOp57
 70
     1
102
RTVSPost2010Prop28
280
     0
102
RTVSPost2010PropOp28
 70
     1
102
RTVSPost2010Prop29
280
     1
102
RTVSPost2010PropOp29
 70
     1
102
RTVSPost2010Prop30
280
     1
102
RTVSPost2010PropOp30
 70
     1
102
RTVSPost2010Prop31
280
     0
102
RTVSPost2010PropOp31
 70
     1
102
RTVSPost2010Prop32
280
     0
102
RTVSPost2010PropOp32
 70
     1
102
RTVSPost2010Prop33
280
     0
102
RTVSPost2010PropOp33
 70
     1
102
RTVSPost2010Prop34
280
     0
102
RTVSPost2010PropOp34
 70
     1
102
RTVSPost2010Prop35
280
     0
102
RTVSPost2010PropOp35
 70
     1
102
RTVSPost2010Prop36
280
     0
102
RTVSPost2010PropOp36
 70
     1
102
RTVSPost2010Prop37
 90
       50
102
RTVSPost2010PropOp37
 70
     1
102
RTVSPost2010Prop38
140
0.0
102
RTVSPost2010PropOp38
 70
     1
102
RTVSPost2010Prop39
140
1.0
102
RTVSPost2010PropOp39
 70
     1
102
RTVSPost2010Prop40
 90
        0
102
RTVSPost2010PropOp40
 70
     1
102
RTVSPost2010Prop41ColorIndex
 90
      178
102
RTVSPost2010Prop41ColorRGB
 90
        0
102
RTVSPost2010PropOp41
 70
     1
102
RTVSPost2010Prop42
 90
       50
102
RTVSPost2010PropOp42
 70
     1
102
RTVSPost2010Prop43
 90
        3
102
RTVSPost2010PropOp43
 70
     1
102
RTVSPost2010Prop44ColorIndex
 90
        5
102
RTVSPost2010Prop44ColorRGB
 90
      255
102
RTVSPost2010PropOp44
 70
     1
102
RTVSPost2010Prop45
280
     0
102
RTVSPost2010PropOp45
 70
     1
102
RTVSPost2010Prop46
 90
       50
102
RTVSPost2010PropOp46
 70
     1
102
RTVSPost2010Prop47
 90
       50
102
RTVSPost2010PropOp47
 70
     1
102
RTVSPost2010Prop48
 90
       50
102
RTVSPost2010PropOp48
 70
     1
102
RTVSPost2010Prop49
280
     0
102
RTVSPost2010PropOp49
 70
     1
102
RTVSPost2010Prop50
 90
       50
102
RTVSPost2010PropOp50
 70
     1
102
RTVSPost2010Prop51ColorIndex
 90
      256
102
RTVSPost2010Prop51ColorRGB
 90
-16777216
102
RTVSPost2010PropOp51
 70
     0
102
RTVSPost2010Prop52
140
1.0
102
RTVSPost2010PropOp52
 70
     0
102
RTVSPost2010Prop53
 90
        2
102
RTVSPost2010PropOp53
 70
     1
102
RTVSPost2010Prop54
  1
strokes_ogs.tif
102
RTVSPost2010PropOp54
 70
     1
102
RTVSPost2010Prop55
280
     0
102
RTVSPost2010PropOp55
 70
     1
102
RTVSPost2010Prop56
140
1.0
102
RTVSPost2010PropOp56
 70
     1
102
RTVSPost2010Prop57
140
1.0
102
RTVSPost2010PropOp57
 70
     1
  0
XRECORD
  5
422
102
{ACAD_REACTORS
330
421
102
}
330
421
100
AcDbXrecord
280
     1
102
RTVSPropertyOp0
 70
     1
102
RTVSPropertyOp1
 70
     1
102
RTVSPropertyOp2
 70
     1
102
RTVSPropertyOp3
 70
     1
102
RTVSPropertyOp4
 70
     1
102
RTVSPropertyOp5
 70
     1
102
RTVSPropertyOp6
 70
     1
102
RTVSPropertyOp7
 70
     1
102
RTVSPropertyOp8
 70
     1
102
RTVSPropertyOp9
 70
     1
102
RTVSPropertyOp10
 70
     1
102
RTVSPropertyOp11
 70
     1
102
RTVSPropertyOp12
 70
     1
102
RTVSPropertyOp13
 70
     1
102
RTVSPropertyOp14
 70
     1
102
RTVSPropertyOp15
 70
     1
102
RTVSPropertyOp16
 70
     1
102
RTVSPropertyOp17
 70
     1
102
RTVSPropertyOp18
 70
     1
102
RTVSPropertyOp19
 70
     1
102
RTVSPropertyOp20
 70
     1
102
RTVSPropertyOp21
 70
     1
102
RTVSPropertyOp22
 70
     1
102
RTVSPropertyOp23
 70
     1
102
RTVSPropertyOp24
 70
     1
102
RTVSPropertyOp25
 70
     1
102
RTVSPropertyOp26
 70
     1
102
RTVSPropertyOp27
 70
     1
102
RTVSPropertyOp28
 70
     1
102
RTVSPropertyOp29
 70
     1
102
RTVSPropertyOp30
 70
     1
102
RTVSPropertyOp31
 70
     1
102
RTVSPropertyOp32
 70
     1
102
RTVSPropertyOp33
 70
     1
102
RTVSPropertyOp34
 70
     1
102
RTVSPropertyOp35
 70
     1
102
RTVSPropertyOp36
 70
     1
102
RTVSPropertyOp37
 70
     1
102
RTVSPropertyOp38
 70
     1
102
RTVSPropertyOp39
 70
     1
102
RTVSPropertyOp40
 70
     1
102
RTVSPropertyOp41
 70
     1
102
RTVSPropertyOp42
 70
     1
102
RTVSPropertyOp43
 70
     1
102
RTVSPropertyOp44
 70
     1
102
RTVSPropertyOp45
 70
     1
102
RTVSPropertyOp46
 70
     1
102
RTVSPropertyOp47
 70
     1
102
RTVSPropertyOp48
 70
     1
102
RTVSPropertyOp49
 70
     1
102
RTVSPropertyOp50
 70
     1
102
RTVSPropertyOp51
 70
     0
102
RTVSPropertyOp52
 70
     0
102
RTVSPropertyOp53
 70
     1
102
RTVSPropertyOp54
 70
     1
102
RTVSPropertyOp55
 70
     1
102
RTVSPropertyOp56
 70
     1
102
RTVSPropertyOp57
 70
     1
102
RTVSPost2010Prop28
280
     0
102
RTVSPost2010PropOp28
 70
     1
102
RTVSPost2010Prop29
280
     1
102
RTVSPost2010PropOp29
 70
     1
102
RTVSPost2010Prop30
280
     1
102
RTVSPost2010PropOp30
 70
     1
102
RTVSPost2010Prop31
280
     0
102
RTVSPost2010PropOp31
 70
     1
102
RTVSPost2010Prop32
280
     0
102
RTVSPost2010PropOp32
 70
     1
102
RTVSPost2010Prop33
280
     0
102
RTVSPost2010PropOp33
 70
     1
102
RTVSPost2010Prop34
280
     0
102
RTVSPost2010PropOp34
 70
     1
102
RTVSPost2010Prop35
280
     0
102
RTVSPost2010PropOp35
 70
     1
102
RTVSPost2010Prop36
280
     0
102
RTVSPost2010PropOp36
 70
     1
102
RTVSPost2010Prop37
 90
       50
102
RTVSPost2010PropOp37
 70
     1
102
RTVSPost2010Prop38
140
0.0
102
RTVSPost2010PropOp38
 70
     1
102
RTVSPost2010Prop39
140
1.0
102
RTVSPost2010PropOp39
 70
     1
102
RTVSPost2010Prop40
 90
        0
102
RTVSPost2010PropOp40
 70
     1
102
RTVSPost2010Prop41ColorIndex
 90
      178
102
RTVSPost2010Prop41ColorRGB
 90
        0
102
RTVSPost2010PropOp41
 70
     1
102
RTVSPost2010Prop42
 90
       50
102
RTVSPost2010PropOp42
 70
     1
102
RTVSPost2010Prop43
 90
        3
102
RTVSPost2010PropOp43
 70
     1
102
RTVSPost2010Prop44ColorIndex
 90
        5
102
RTVSPost2010Prop44ColorRGB
 90
      255
102
RTVSPost2010PropOp44
 70
     1
102
RTVSPost2010Prop45
280
     0
102
RTVSPost2010PropOp45
 70
     1
102
RTVSPost2010Prop46
 90
       50
102
RTVSPost2010PropOp46
 70
     1
102
RTVSPost2010Prop47
 90
       50
102
RTVSPost2010PropOp47
 70
     1
102
RTVSPost2010Prop48
 90
       50
102
RTVSPost2010PropOp48
 70
     1
102
RTVSPost2010Prop49
280
     0
102
RTVSPost2010PropOp49
 70
     1
102
RTVSPost2010Prop50
 90
       50
102
RTVSPost2010PropOp50
 70
     1
102
RTVSPost2010Prop51ColorIndex
 90
      256
102
RTVSPost2010Prop51ColorRGB
 90
-16777216
102
RTVSPost2010PropOp51
 70
     0
102
RTVSPost2010Prop52
140
1.0
102
RTVSPost2010PropOp52
 70
     0
102
RTVSPost2010Prop53
 90
        2
102
RTVSPost2010PropOp53
 70
     1
102
RTVSPost2010Prop54
  1
strokes_ogs.tif
102
RTVSPost2010PropOp54
 70
     1
102
RTVSPost2010Prop55
280
     0
102
RTVSPost2010PropOp55
 70
     1
102
RTVSPost2010Prop56
140
1.0
102
RTVSPost2010PropOp56
 70
     1
102
RTVSPost2010Prop57
140
1.0
102
RTVSPost2010PropOp57
 70
     1
  0
XRECORD
  5
416
102
{ACAD_REACTORS
330
415
102
}
330
415
100
AcDbXrecord
280
     1
102
RTVSPropertyOp0
 70
     1
102
RTVSPropertyOp1
 70
     1
102
RTVSPropertyOp2
 70
     1
102
RTVSPropertyOp3
 70
     1
102
RTVSPropertyOp4
 70
     1
102
RTVSPropertyOp5
 70
     1
102
RTVSPropertyOp6
 70
     1
102
RTVSPropertyOp7
 70
     1
102
RTVSPropertyOp8
 70
     1
102
RTVSPropertyOp9
 70
     1
102
RTVSPropertyOp10
 70
     1
102
RTVSPropertyOp11
 70
     1
102
RTVSPropertyOp12
 70
     1
102
RTVSPropertyOp13
 70
     1
102
RTVSPropertyOp14
 70
     1
102
RTVSPropertyOp15
 70
     1
102
RTVSPropertyOp16
 70
     1
102
RTVSPropertyOp17
 70
     1
102
RTVSPropertyOp18
 70
     1
102
RTVSPropertyOp19
 70
     1
102
RTVSPropertyOp20
 70
     1
102
RTVSPropertyOp21
 70
     1
102
RTVSPropertyOp22
 70
     1
102
RTVSPropertyOp23
 70
     1
102
RTVSPropertyOp24
 70
     1
102
RTVSPropertyOp25
 70
     1
102
RTVSPropertyOp26
 70
     1
102
RTVSPropertyOp27
 70
     1
102
RTVSPropertyOp28
 70
     1
102
RTVSPropertyOp29
 70
     1
102
RTVSPropertyOp30
 70
     1
102
RTVSPropertyOp31
 70
     1
102
RTVSPropertyOp32
 70
     1
102
RTVSPropertyOp33
 70
     1
102
RTVSPropertyOp34
 70
     1
102
RTVSPropertyOp35
 70
     1
102
RTVSPropertyOp36
 70
     1
102
RTVSPropertyOp37
 70
     1
102
RTVSPropertyOp38
 70
     1
102
RTVSPropertyOp39
 70
     1
102
RTVSPropertyOp40
 70
     1
102
RTVSPropertyOp41
 70
     1
102
RTVSPropertyOp42
 70
     1
102
RTVSPropertyOp43
 70
     1
102
RTVSPropertyOp44
 70
     1
102
RTVSPropertyOp45
 70
     1
102
RTVSPropertyOp46
 70
     1
102
RTVSPropertyOp47
 70
     1
102
RTVSPropertyOp48
 70
     1
102
RTVSPropertyOp49
 70
     1
102
RTVSPropertyOp50
 70
     1
102
RTVSPropertyOp51
 70
     0
102
RTVSPropertyOp52
 70
     0
102
RTVSPropertyOp53
 70
     1
102
RTVSPropertyOp54
 70
     1
102
RTVSPropertyOp55
 70
     1
102
RTVSPropertyOp56
 70
     1
102
RTVSPropertyOp57
 70
     1
102
RTVSPost2010Prop28
280
     0
102
RTVSPost2010PropOp28
 70
     1
102
RTVSPost2010Prop29
280
     1
102
RTVSPost2010PropOp29
 70
     1
102
RTVSPost2010Prop30
280
     1
102
RTVSPost2010PropOp30
 70
     1
102
RTVSPost2010Prop31
280
     0
102
RTVSPost2010PropOp31
 70
     1
102
RTVSPost2010Prop32
280
     0
102
RTVSPost2010PropOp32
 70
     1
102
RTVSPost2010Prop33
280
     0
102
RTVSPost2010PropOp33
 70
     1
102
RTVSPost2010Prop34
280
     0
102
RTVSPost2010PropOp34
 70
     1
102
RTVSPost2010Prop35
280
     0
102
RTVSPost2010PropOp35
 70
     1
102
RTVSPost2010Prop36
280
     0
102
RTVSPost2010PropOp36
 70
     1
102
RTVSPost2010Prop37
 90
       50
102
RTVSPost2010PropOp37
 70
     1
102
RTVSPost2010Prop38
140
0.0
102
RTVSPost2010PropOp38
 70
     1
102
RTVSPost2010Prop39
140
1.0
102
RTVSPost2010PropOp39
 70
     1
102
RTVSPost2010Prop40
 90
        0
102
RTVSPost2010PropOp40
 70
     1
102
RTVSPost2010Prop41ColorIndex
 90
      178
102
RTVSPost2010Prop41ColorRGB
 90
        0
102
RTVSPost2010PropOp41
 70
     1
102
RTVSPost2010Prop42
 90
       50
102
RTVSPost2010PropOp42
 70
     1
102
RTVSPost2010Prop43
 90
        3
102
RTVSPost2010PropOp43
 70
     1
102
RTVSPost2010Prop44ColorIndex
 90
        5
102
RTVSPost2010Prop44ColorRGB
 90
      255
102
RTVSPost2010PropOp44
 70
     1
102
RTVSPost2010Prop45
280
     0
102
RTVSPost2010PropOp45
 70
     1
102
RTVSPost2010Prop46
 90
       50
102
RTVSPost2010PropOp46
 70
     1
102
RTVSPost2010Prop47
 90
       50
102
RTVSPost2010PropOp47
 70
     1
102
RTVSPost2010Prop48
 90
       50
102
RTVSPost2010PropOp48
 70
     1
102
RTVSPost2010Prop49
280
     0
102
RTVSPost2010PropOp49
 70
     1
102
RTVSPost2010Prop50
 90
       50
102
RTVSPost2010PropOp50
 70
     1
102
RTVSPost2010Prop51ColorIndex
 90
      256
102
RTVSPost2010Prop51ColorRGB
 90
-16777216
102
RTVSPost2010PropOp51
 70
     0
102
RTVSPost2010Prop52
140
1.0
102
RTVSPost2010PropOp52
 70
     0
102
RTVSPost2010Prop53
 90
        2
102
RTVSPost2010PropOp53
 70
     1
102
RTVSPost2010Prop54
  1
strokes_ogs.tif
102
RTVSPost2010PropOp54
 70
     1
102
RTVSPost2010Prop55
280
     0
102
RTVSPost2010PropOp55
 70
     1
102
RTVSPost2010Prop56
140
1.0
102
RTVSPost2010PropOp56
 70
     1
102
RTVSPost2010Prop57
140
1.0
102
RTVSPost2010PropOp57
 70
     1
  0
XRECORD
  5
418
102
{ACAD_REACTORS
330
417
102
}
330
417
100
AcDbXrecord
280
     1
102
RTVSPropertyOp0
 70
     1
102
RTVSPropertyOp1
 70
     1
102
RTVSPropertyOp2
 70
     1
102
RTVSPropertyOp3
 70
     1
102
RTVSPropertyOp4
 70
     1
102
RTVSPropertyOp5
 70
     1
102
RTVSPropertyOp6
 70
     1
102
RTVSPropertyOp7
 70
     1
102
RTVSPropertyOp8
 70
     1
102
RTVSPropertyOp9
 70
     1
102
RTVSPropertyOp10
 70
     1
102
RTVSPropertyOp11
 70
     1
102
RTVSPropertyOp12
 70
     1
102
RTVSPropertyOp13
 70
     1
102
RTVSPropertyOp14
 70
     1
102
RTVSPropertyOp15
 70
     1
102
RTVSPropertyOp16
 70
     1
102
RTVSPropertyOp17
 70
     1
102
RTVSPropertyOp18
 70
     1
102
RTVSPropertyOp19
 70
     1
102
RTVSPropertyOp20
 70
     1
102
RTVSPropertyOp21
 70
     1
102
RTVSPropertyOp22
 70
     1
102
RTVSPropertyOp23
 70
     1
102
RTVSPropertyOp24
 70
     1
102
RTVSPropertyOp25
 70
     1
102
RTVSPropertyOp26
 70
     1
102
RTVSPropertyOp27
 70
     1
102
RTVSPropertyOp28
 70
     1
102
RTVSPropertyOp29
 70
     1
102
RTVSPropertyOp30
 70
     1
102
RTVSPropertyOp31
 70
     1
102
RTVSPropertyOp32
 70
     1
102
RTVSPropertyOp33
 70
     1
102
RTVSPropertyOp34
 70
     1
102
RTVSPropertyOp35
 70
     1
102
RTVSPropertyOp36
 70
     1
102
RTVSPropertyOp37
 70
     1
102
RTVSPropertyOp38
 70
     1
102
RTVSPropertyOp39
 70
     1
102
RTVSPropertyOp40
 70
     1
102
RTVSPropertyOp41
 70
     1
102
RTVSPropertyOp42
 70
     1
102
RTVSPropertyOp43
 70
     1
102
RTVSPropertyOp44
 70
     1
102
RTVSPropertyOp45
 70
     1
102
RTVSPropertyOp46
 70
     1
102
RTVSPropertyOp47
 70
     1
102
RTVSPropertyOp48
 70
     1
102
RTVSPropertyOp49
 70
     1
102
RTVSPropertyOp50
 70
     1
102
RTVSPropertyOp51
 70
     0
102
RTVSPropertyOp52
 70
     0
102
RTVSPropertyOp53
 70
     1
102
RTVSPropertyOp54
 70
     1
102
RTVSPropertyOp55
 70
     1
102
RTVSPropertyOp56
 70
     1
102
RTVSPropertyOp57
 70
     1
102
RTVSPost2010Prop28
280
     0
102
RTVSPost2010PropOp28
 70
     1
102
RTVSPost2010Prop29
280
     1
102
RTVSPost2010PropOp29
 70
     1
102
RTVSPost2010Prop30
280
     1
102
RTVSPost2010PropOp30
 70
     1
102
RTVSPost2010Prop31
280
     0
102
RTVSPost2010PropOp31
 70
     1
102
RTVSPost2010Prop32
280
     0
102
RTVSPost2010PropOp32
 70
     1
102
RTVSPost2010Prop33
280
     0
102
RTVSPost2010PropOp33
 70
     1
102
RTVSPost2010Prop34
280
     0
102
RTVSPost2010PropOp34
 70
     1
102
RTVSPost2010Prop35
280
     0
102
RTVSPost2010PropOp35
 70
     1
102
RTVSPost2010Prop36
280
     0
102
RTVSPost2010PropOp36
 70
     1
102
RTVSPost2010Prop37
 90
       50
102
RTVSPost2010PropOp37
 70
     1
102
RTVSPost2010Prop38
140
0.0
102
RTVSPost2010PropOp38
 70
     1
102
RTVSPost2010Prop39
140
1.0
102
RTVSPost2010PropOp39
 70
     1
102
RTVSPost2010Prop40
 90
        0
102
RTVSPost2010PropOp40
 70
     1
102
RTVSPost2010Prop41ColorIndex
 90
      178
102
RTVSPost2010Prop41ColorRGB
 90
        0
102
RTVSPost2010PropOp41
 70
     1
102
RTVSPost2010Prop42
 90
       50
102
RTVSPost2010PropOp42
 70
     1
102
RTVSPost2010Prop43
 90
        3
102
RTVSPost2010PropOp43
 70
     1
102
RTVSPost2010Prop44ColorIndex
 90
        5
102
RTVSPost2010Prop44ColorRGB
 90
      255
102
RTVSPost2010PropOp44
 70
     1
102
RTVSPost2010Prop45
280
     0
102
RTVSPost2010PropOp45
 70
     1
102
RTVSPost2010Prop46
 90
       50
102
RTVSPost2010PropOp46
 70
     1
102
RTVSPost2010Prop47
 90
       50
102
RTVSPost2010PropOp47
 70
     1
102
RTVSPost2010Prop48
 90
       50
102
RTVSPost2010PropOp48
 70
     1
102
RTVSPost2010Prop49
280
     0
102
RTVSPost2010PropOp49
 70
     1
102
RTVSPost2010Prop50
 90
       50
102
RTVSPost2010PropOp50
 70
     1
102
RTVSPost2010Prop51ColorIndex
 90
      256
102
RTVSPost2010Prop51ColorRGB
 90
-16777216
102
RTVSPost2010PropOp51
 70
     0
102
RTVSPost2010Prop52
140
1.0
102
RTVSPost2010PropOp52
 70
     0
102
RTVSPost2010Prop53
 90
        2
102
RTVSPost2010PropOp53
 70
     1
102
RTVSPost2010Prop54
  1
strokes_ogs.tif
102
RTVSPost2010PropOp54
 70
     1
102
RTVSPost2010Prop55
280
     0
102
RTVSPost2010PropOp55
 70
     1
102
RTVSPost2010Prop56
140
1.0
102
RTVSPost2010PropOp56
 70
     1
102
RTVSPost2010Prop57
140
1.0
102
RTVSPost2010PropOp57
 70
     1
  0
XRECORD
  5
428
102
{ACAD_REACTORS
330
427
102
}
330
427
100
AcDbXrecord
280
     1
102
RTVSPropertyOp0
 70
     0
102
RTVSPropertyOp1
 70
     0
102
RTVSPropertyOp2
 70
     0
102
RTVSPropertyOp3
 70
     0
102
RTVSPropertyOp4
 70
     0
102
RTVSPropertyOp5
 70
     0
102
RTVSPropertyOp6
 70
     0
102
RTVSPropertyOp7
 70
     0
102
RTVSPropertyOp8
 70
     0
102
RTVSPropertyOp9
 70
     0
102
RTVSPropertyOp10
 70
     0
102
RTVSPropertyOp11
 70
     0
102
RTVSPropertyOp12
 70
     0
102
RTVSPropertyOp13
 70
     0
102
RTVSPropertyOp14
 70
     2
102
RTVSPropertyOp15
 70
     0
102
RTVSPropertyOp16
 70
     0
102
RTVSPropertyOp17
 70
     0
102
RTVSPropertyOp18
 70
     0
102
RTVSPropertyOp19
 70
     0
102
RTVSPropertyOp20
 70
     0
102
RTVSPropertyOp21
 70
     0
102
RTVSPropertyOp22
 70
     0
102
RTVSPropertyOp23
 70
     0
102
RTVSPropertyOp24
 70
     0
102
RTVSPropertyOp25
 70
     0
102
RTVSPropertyOp26
 70
     0
102
RTVSPropertyOp27
 70
     0
102
RTVSPropertyOp28
 70
     0
102
RTVSPropertyOp29
 70
     0
102
RTVSPropertyOp30
 70
     0
102
RTVSPropertyOp31
 70
     0
102
RTVSPropertyOp32
 70
     0
102
RTVSPropertyOp33
 70
     0
102
RTVSPropertyOp34
 70
     0
102
RTVSPropertyOp35
 70
     0
102
RTVSPropertyOp36
 70
     0
102
RTVSPropertyOp37
 70
     0
102
RTVSPropertyOp38
 70
     0
102
RTVSPropertyOp39
 70
     0
102
RTVSPropertyOp40
 70
     0
102
RTVSPropertyOp41
 70
     0
102
RTVSPropertyOp42
 70
     0
102
RTVSPropertyOp43
 70
     0
102
RTVSPropertyOp44
 70
     0
102
RTVSPropertyOp45
 70
     0
102
RTVSPropertyOp46
 70
     0
102
RTVSPropertyOp47
 70
     0
102
RTVSPropertyOp48
 70
     0
102
RTVSPropertyOp49
 70
     0
102
RTVSPropertyOp50
 70
     0
102
RTVSPropertyOp51
 70
     0
102
RTVSPropertyOp52
 70
     0
102
RTVSPropertyOp53
 70
     0
102
RTVSPropertyOp54
 70
     0
102
RTVSPropertyOp55
 70
     0
102
RTVSPropertyOp56
 70
     0
102
RTVSPropertyOp57
 70
     0
102
RTVSPost2010Prop28
280
     0
102
RTVSPost2010PropOp28
 70
     0
102
RTVSPost2010Prop29
280
     1
102
RTVSPost2010PropOp29
 70
     0
102
RTVSPost2010Prop30
280
     1
102
RTVSPost2010PropOp30
 70
     0
102
RTVSPost2010Prop31
280
     0
102
RTVSPost2010PropOp31
 70
     0
102
RTVSPost2010Prop32
280
     0
102
RTVSPost2010PropOp32
 70
     0
102
RTVSPost2010Prop33
280
     0
102
RTVSPost2010PropOp33
 70
     0
102
RTVSPost2010Prop34
280
     0
102
RTVSPost2010PropOp34
 70
     0
102
RTVSPost2010Prop35
280
     0
102
RTVSPost2010PropOp35
 70
     0
102
RTVSPost2010Prop36
280
     0
102
RTVSPost2010PropOp36
 70
     0
102
RTVSPost2010Prop37
 90
       50
102
RTVSPost2010PropOp37
 70
     0
102
RTVSPost2010Prop38
140
0.0
102
RTVSPost2010PropOp38
 70
     0
102
RTVSPost2010Prop39
140
1.0
102
RTVSPost2010PropOp39
 70
     0
102
RTVSPost2010Prop40
 90
        0
102
RTVSPost2010PropOp40
 70
     0
102
RTVSPost2010Prop41ColorIndex
 90
      178
102
RTVSPost2010Prop41ColorRGB
 90
        0
102
RTVSPost2010PropOp41
 70
     0
102
RTVSPost2010Prop42
 90
       50
102
RTVSPost2010PropOp42
 70
     0
102
RTVSPost2010Prop43
 90
        3
102
RTVSPost2010PropOp43
 70
     0
102
RTVSPost2010Prop44ColorIndex
 90
        5
102
RTVSPost2010Prop44ColorRGB
 90
      255
102
RTVSPost2010PropOp44
 70
     0
102
RTVSPost2010Prop45
280
     0
102
RTVSPost2010PropOp45
 70
     0
102
RTVSPost2010Prop46
 90
       50
102
RTVSPost2010PropOp46
 70
     0
102
RTVSPost2010Prop47
 90
       50
102
RTVSPost2010PropOp47
 70
     0
102
RTVSPost2010Prop48
 90
       50
102
RTVSPost2010PropOp48
 70
     0
102
RTVSPost2010Prop49
280
     0
102
RTVSPost2010PropOp49
 70
     0
102
RTVSPost2010Prop50
 90
       50
102
RTVSPost2010PropOp50
 70
     0
102
RTVSPost2010Prop51ColorIndex
 90
      256
102
RTVSPost2010Prop51ColorRGB
 90
-16777216
102
RTVSPost2010PropOp51
 70
     0
102
RTVSPost2010Prop52
140
1.0
102
RTVSPost2010PropOp52
 70
     0
102
RTVSPost2010Prop53
 90
        2
102
RTVSPost2010PropOp53
 70
     0
102
RTVSPost2010Prop54
  1
strokes_ogs.tif
102
RTVSPost2010PropOp54
 70
     0
102
RTVSPost2010Prop55
280
     0
102
RTVSPost2010PropOp55
 70
     0
102
RTVSPost2010Prop56
140
1.0
102
RTVSPost2010PropOp56
 70
     0
102
RTVSPost2010Prop57
140
1.0
102
RTVSPost2010PropOp57
 70
     0
  0
XRECORD
  5
420
102
{ACAD_REACTORS
330
41F
102
}
330
41F
100
AcDbXrecord
280
     1
102
RTVSPropertyOp0
 70
     1
102
RTVSPropertyOp1
 70
     1
102
RTVSPropertyOp2
 70
     1
102
RTVSPropertyOp3
 70
     1
102
RTVSPropertyOp4
 70
     1
102
RTVSPropertyOp5
 70
     1
102
RTVSPropertyOp6
 70
     1
102
RTVSPropertyOp7
 70
     1
102
RTVSPropertyOp8
 70
     1
102
RTVSPropertyOp9
 70
     1
102
RTVSPropertyOp10
 70
     1
102
RTVSPropertyOp11
 70
     1
102
RTVSPropertyOp12
 70
     1
102
RTVSPropertyOp13
 70
     1
102
RTVSPropertyOp14
 70
     1
102
RTVSPropertyOp15
 70
     1
102
RTVSPropertyOp16
 70
     1
102
RTVSPropertyOp17
 70
     1
102
RTVSPropertyOp18
 70
     1
102
RTVSPropertyOp19
 70
     1
102
RTVSPropertyOp20
 70
     1
102
RTVSPropertyOp21
 70
     1
102
RTVSPropertyOp22
 70
     1
102
RTVSPropertyOp23
 70
     1
102
RTVSPropertyOp24
 70
     1
102
RTVSPropertyOp25
 70
     1
102
RTVSPropertyOp26
 70
     1
102
RTVSPropertyOp27
 70
     1
102
RTVSPropertyOp28
 70
     1
102
RTVSPropertyOp29
 70
     1
102
RTVSPropertyOp30
 70
     1
102
RTVSPropertyOp31
 70
     1
102
RTVSPropertyOp32
 70
     1
102
RTVSPropertyOp33
 70
     1
102
RTVSPropertyOp34
 70
     1
102
RTVSPropertyOp35
 70
     1
102
RTVSPropertyOp36
 70
     1
102
RTVSPropertyOp37
 70
     1
102
RTVSPropertyOp38
 70
     1
102
RTVSPropertyOp39
 70
     1
102
RTVSPropertyOp40
 70
     1
102
RTVSPropertyOp41
 70
     1
102
RTVSPropertyOp42
 70
     1
102
RTVSPropertyOp43
 70
     1
102
RTVSPropertyOp44
 70
     1
102
RTVSPropertyOp45
 70
     1
102
RTVSPropertyOp46
 70
     1
102
RTVSPropertyOp47
 70
     1
102
RTVSPropertyOp48
 70
     1
102
RTVSPropertyOp49
 70
     1
102
RTVSPropertyOp50
 70
     1
102
RTVSPropertyOp51
 70
     0
102
RTVSPropertyOp52
 70
     0
102
RTVSPropertyOp53
 70
     1
102
RTVSPropertyOp54
 70
     1
102
RTVSPropertyOp55
 70
     1
102
RTVSPropertyOp56
 70
     1
102
RTVSPropertyOp57
 70
     1
102
RTVSPost2010Prop28
280
     0
102
RTVSPost2010PropOp28
 70
     1
102
RTVSPost2010Prop29
280
     1
102
RTVSPost2010PropOp29
 70
     1
102
RTVSPost2010Prop30
280
     1
102
RTVSPost2010PropOp30
 70
     1
102
RTVSPost2010Prop31
280
     0
102
RTVSPost2010PropOp31
 70
     1
102
RTVSPost2010Prop32
280
     0
102
RTVSPost2010PropOp32
 70
     1
102
RTVSPost2010Prop33
280
     0
102
RTVSPost2010PropOp33
 70
     1
102
RTVSPost2010Prop34
280
     0
102
RTVSPost2010PropOp34
 70
     1
102
RTVSPost2010Prop35
280
     0
102
RTVSPost2010PropOp35
 70
     1
102
RTVSPost2010Prop36
280
     0
102
RTVSPost2010PropOp36
 70
     1
102
RTVSPost2010Prop37
 90
       50
102
RTVSPost2010PropOp37
 70
     1
102
RTVSPost2010Prop38
140
0.0
102
RTVSPost2010PropOp38
 70
     1
102
RTVSPost2010Prop39
140
1.0
102
RTVSPost2010PropOp39
 70
     1
102
RTVSPost2010Prop40
 90
        0
102
RTVSPost2010PropOp40
 70
     1
102
RTVSPost2010Prop41ColorIndex
 90
      178
102
RTVSPost2010Prop41ColorRGB
 90
        0
102
RTVSPost2010PropOp41
 70
     1
102
RTVSPost2010Prop42
 90
       50
102
RTVSPost2010PropOp42
 70
     1
102
RTVSPost2010Prop43
 90
        3
102
RTVSPost2010PropOp43
 70
     1
102
RTVSPost2010Prop44ColorIndex
 90
        5
102
RTVSPost2010Prop44ColorRGB
 90
      255
102
RTVSPost2010PropOp44
 70
     1
102
RTVSPost2010Prop45
280
     0
102
RTVSPost2010PropOp45
 70
     1
102
RTVSPost2010Prop46
 90
       50
102
RTVSPost2010PropOp46
 70
     1
102
RTVSPost2010Prop47
 90
       50
102
RTVSPost2010PropOp47
 70
     1
102
RTVSPost2010Prop48
 90
       50
102
RTVSPost2010PropOp48
 70
     1
102
RTVSPost2010Prop49
280
     0
102
RTVSPost2010PropOp49
 70
     1
102
RTVSPost2010Prop50
 90
       50
102
RTVSPost2010PropOp50
 70
     1
102
RTVSPost2010Prop51ColorIndex
 90
      256
102
RTVSPost2010Prop51ColorRGB
 90
-16777216
102
RTVSPost2010PropOp51
 70
     0
102
RTVSPost2010Prop52
140
1.0
102
RTVSPost2010PropOp52
 70
     0
102
RTVSPost2010Prop53
 90
        2
102
RTVSPost2010PropOp53
 70
     1
102
RTVSPost2010Prop54
  1
strokes_ogs.tif
102
RTVSPost2010PropOp54
 70
     1
102
RTVSPost2010Prop55
280
     0
102
RTVSPost2010PropOp55
 70
     1
102
RTVSPost2010Prop56
140
1.0
102
RTVSPost2010PropOp56
 70
     1
102
RTVSPost2010Prop57
140
1.0
102
RTVSPost2010PropOp57
 70
     1
  0
XRECORD
  5
404
102
{ACAD_REACTORS
330
403
102
}
330
403
100
AcDbXrecord
280
     1
102
RTVSPropertyOp0
 70
     1
102
RTVSPropertyOp1
 70
     1
102
RTVSPropertyOp2
 70
     1
102
RTVSPropertyOp3
 70
     1
102
RTVSPropertyOp4
 70
     1
102
RTVSPropertyOp5
 70
     1
102
RTVSPropertyOp6
 70
     1
102
RTVSPropertyOp7
 70
     1
102
RTVSPropertyOp8
 70
     1
102
RTVSPropertyOp9
 70
     1
102
RTVSPropertyOp10
 70
     1
102
RTVSPropertyOp11
 70
     1
102
RTVSPropertyOp12
 70
     1
102
RTVSPropertyOp13
 70
     1
102
RTVSPropertyOp14
 70
     1
102
RTVSPropertyOp15
 70
     1
102
RTVSPropertyOp16
 70
     1
102
RTVSPropertyOp17
 70
     1
102
RTVSPropertyOp18
 70
     1
102
RTVSPropertyOp19
 70
     1
102
RTVSPropertyOp20
 70
     1
102
RTVSPropertyOp21
 70
     1
102
RTVSPropertyOp22
 70
     1
102
RTVSPropertyOp23
 70
     1
102
RTVSPropertyOp24
 70
     1
102
RTVSPropertyOp25
 70
     1
102
RTVSPropertyOp26
 70
     1
102
RTVSPropertyOp27
 70
     1
102
RTVSPropertyOp28
 70
     1
102
RTVSPropertyOp29
 70
     1
102
RTVSPropertyOp30
 70
     1
102
RTVSPropertyOp31
 70
     1
102
RTVSPropertyOp32
 70
     1
102
RTVSPropertyOp33
 70
     1
102
RTVSPropertyOp34
 70
     1
102
RTVSPropertyOp35
 70
     1
102
RTVSPropertyOp36
 70
     1
102
RTVSPropertyOp37
 70
     1
102
RTVSPropertyOp38
 70
     1
102
RTVSPropertyOp39
 70
     1
102
RTVSPropertyOp40
 70
     1
102
RTVSPropertyOp41
 70
     1
102
RTVSPropertyOp42
 70
     1
102
RTVSPropertyOp43
 70
     1
102
RTVSPropertyOp44
 70
     1
102
RTVSPropertyOp45
 70
     1
102
RTVSPropertyOp46
 70
     1
102
RTVSPropertyOp47
 70
     1
102
RTVSPropertyOp48
 70
     1
102
RTVSPropertyOp49
 70
     1
102
RTVSPropertyOp50
 70
     1
102
RTVSPropertyOp51
 70
     0
102
RTVSPropertyOp52
 70
     0
102
RTVSPropertyOp53
 70
     1
102
RTVSPropertyOp54
 70
     1
102
RTVSPropertyOp55
 70
     1
102
RTVSPropertyOp56
 70
     1
102
RTVSPropertyOp57
 70
     1
102
RTVSPost2010Prop28
280
     0
102
RTVSPost2010PropOp28
 70
     1
102
RTVSPost2010Prop29
280
     1
102
RTVSPost2010PropOp29
 70
     1
102
RTVSPost2010Prop30
280
     1
102
RTVSPost2010PropOp30
 70
     1
102
RTVSPost2010Prop31
280
     0
102
RTVSPost2010PropOp31
 70
     1
102
RTVSPost2010Prop32
280
     0
102
RTVSPost2010PropOp32
 70
     1
102
RTVSPost2010Prop33
280
     0
102
RTVSPost2010PropOp33
 70
     1
102
RTVSPost2010Prop34
280
     0
102
RTVSPost2010PropOp34
 70
     1
102
RTVSPost2010Prop35
280
     0
102
RTVSPost2010PropOp35
 70
     1
102
RTVSPost2010Prop36
280
     0
102
RTVSPost2010PropOp36
 70
     1
102
RTVSPost2010Prop37
 90
       50
102
RTVSPost2010PropOp37
 70
     1
102
RTVSPost2010Prop38
140
0.0
102
RTVSPost2010PropOp38
 70
     1
102
RTVSPost2010Prop39
140
1.0
102
RTVSPost2010PropOp39
 70
     1
102
RTVSPost2010Prop40
 90
        0
102
RTVSPost2010PropOp40
 70
     1
102
RTVSPost2010Prop41ColorIndex
 90
      178
102
RTVSPost2010Prop41ColorRGB
 90
        0
102
RTVSPost2010PropOp41
 70
     1
102
RTVSPost2010Prop42
 90
       50
102
RTVSPost2010PropOp42
 70
     1
102
RTVSPost2010Prop43
 90
        3
102
RTVSPost2010PropOp43
 70
     1
102
RTVSPost2010Prop44ColorIndex
 90
        5
102
RTVSPost2010Prop44ColorRGB
 90
      255
102
RTVSPost2010PropOp44
 70
     1
102
RTVSPost2010Prop45
280
     0
102
RTVSPost2010PropOp45
 70
     1
102
RTVSPost2010Prop46
 90
       50
102
RTVSPost2010PropOp46
 70
     1
102
RTVSPost2010Prop47
 90
       50
102
RTVSPost2010PropOp47
 70
     1
102
RTVSPost2010Prop48
 90
       50
102
RTVSPost2010PropOp48
 70
     1
102
RTVSPost2010Prop49
280
     0
102
RTVSPost2010PropOp49
 70
     1
102
RTVSPost2010Prop50
 90
       50
102
RTVSPost2010PropOp50
 70
     1
102
RTVSPost2010Prop51ColorIndex
 90
      256
102
RTVSPost2010Prop51ColorRGB
 90
-16777216
102
RTVSPost2010PropOp51
 70
     0
102
RTVSPost2010Prop52
140
1.0
102
RTVSPost2010PropOp52
 70
     0
102
RTVSPost2010Prop53
 90
        2
102
RTVSPost2010PropOp53
 70
     1
102
RTVSPost2010Prop54
  1
strokes_ogs.tif
102
RTVSPost2010PropOp54
 70
     1
102
RTVSPost2010Prop55
280
     0
102
RTVSPost2010PropOp55
 70
     1
102
RTVSPost2010Prop56
140
1.0
102
RTVSPost2010PropOp56
 70
     1
102
RTVSPost2010Prop57
140
1.0
102
RTVSPost2010PropOp57
 70
     1
  0
XRECORD
  5
406
102
{ACAD_REACTORS
330
405
102
}
330
405
100
AcDbXrecord
280
     1
102
RTVSPropertyOp0
 70
     1
102
RTVSPropertyOp1
 70
     1
102
RTVSPropertyOp2
 70
     1
102
RTVSPropertyOp3
 70
     1
102
RTVSPropertyOp4
 70
     1
102
RTVSPropertyOp5
 70
     1
102
RTVSPropertyOp6
 70
     1
102
RTVSPropertyOp7
 70
     1
102
RTVSPropertyOp8
 70
     1
102
RTVSPropertyOp9
 70
     1
102
RTVSPropertyOp10
 70
     1
102
RTVSPropertyOp11
 70
     1
102
RTVSPropertyOp12
 70
     1
102
RTVSPropertyOp13
 70
     1
102
RTVSPropertyOp14
 70
     1
102
RTVSPropertyOp15
 70
     1
102
RTVSPropertyOp16
 70
     1
102
RTVSPropertyOp17
 70
     1
102
RTVSPropertyOp18
 70
     1
102
RTVSPropertyOp19
 70
     1
102
RTVSPropertyOp20
 70
     1
102
RTVSPropertyOp21
 70
     1
102
RTVSPropertyOp22
 70
     1
102
RTVSPropertyOp23
 70
     1
102
RTVSPropertyOp24
 70
     1
102
RTVSPropertyOp25
 70
     1
102
RTVSPropertyOp26
 70
     1
102
RTVSPropertyOp27
 70
     1
102
RTVSPropertyOp28
 70
     1
102
RTVSPropertyOp29
 70
     1
102
RTVSPropertyOp30
 70
     1
102
RTVSPropertyOp31
 70
     1
102
RTVSPropertyOp32
 70
     1
102
RTVSPropertyOp33
 70
     1
102
RTVSPropertyOp34
 70
     1
102
RTVSPropertyOp35
 70
     1
102
RTVSPropertyOp36
 70
     1
102
RTVSPropertyOp37
 70
     1
102
RTVSPropertyOp38
 70
     1
102
RTVSPropertyOp39
 70
     1
102
RTVSPropertyOp40
 70
     1
102
RTVSPropertyOp41
 70
     1
102
RTVSPropertyOp42
 70
     1
102
RTVSPropertyOp43
 70
     1
102
RTVSPropertyOp44
 70
     1
102
RTVSPropertyOp45
 70
     1
102
RTVSPropertyOp46
 70
     1
102
RTVSPropertyOp47
 70
     1
102
RTVSPropertyOp48
 70
     1
102
RTVSPropertyOp49
 70
     1
102
RTVSPropertyOp50
 70
     1
102
RTVSPropertyOp51
 70
     0
102
RTVSPropertyOp52
 70
     0
102
RTVSPropertyOp53
 70
     1
102
RTVSPropertyOp54
 70
     1
102
RTVSPropertyOp55
 70
     1
102
RTVSPropertyOp56
 70
     1
102
RTVSPropertyOp57
 70
     1
102
RTVSPost2010Prop28
280
     0
102
RTVSPost2010PropOp28
 70
     1
102
RTVSPost2010Prop29
280
     1
102
RTVSPost2010PropOp29
 70
     1
102
RTVSPost2010Prop30
280
     1
102
RTVSPost2010PropOp30
 70
     1
102
RTVSPost2010Prop31
280
     0
102
RTVSPost2010PropOp31
 70
     1
102
RTVSPost2010Prop32
280
     0
102
RTVSPost2010PropOp32
 70
     1
102
RTVSPost2010Prop33
280
     0
102
RTVSPost2010PropOp33
 70
     1
102
RTVSPost2010Prop34
280
     0
102
RTVSPost2010PropOp34
 70
     1
102
RTVSPost2010Prop35
280
     0
102
RTVSPost2010PropOp35
 70
     1
102
RTVSPost2010Prop36
280
     0
102
RTVSPost2010PropOp36
 70
     1
102
RTVSPost2010Prop37
 90
       50
102
RTVSPost2010PropOp37
 70
     1
102
RTVSPost2010Prop38
140
0.0
102
RTVSPost2010PropOp38
 70
     1
102
RTVSPost2010Prop39
140
1.0
102
RTVSPost2010PropOp39
 70
     1
102
RTVSPost2010Prop40
 90
        0
102
RTVSPost2010PropOp40
 70
     1
102
RTVSPost2010Prop41ColorIndex
 90
      178
102
RTVSPost2010Prop41ColorRGB
 90
        0
102
RTVSPost2010PropOp41
 70
     1
102
RTVSPost2010Prop42
 90
       50
102
RTVSPost2010PropOp42
 70
     1
102
RTVSPost2010Prop43
 90
        3
102
RTVSPost2010PropOp43
 70
     1
102
RTVSPost2010Prop44ColorIndex
 90
        5
102
RTVSPost2010Prop44ColorRGB
 90
      255
102
RTVSPost2010PropOp44
 70
     1
102
RTVSPost2010Prop45
280
     0
102
RTVSPost2010PropOp45
 70
     1
102
RTVSPost2010Prop46
 90
       50
102
RTVSPost2010PropOp46
 70
     1
102
RTVSPost2010Prop47
 90
       50
102
RTVSPost2010PropOp47
 70
     1
102
RTVSPost2010Prop48
 90
       50
102
RTVSPost2010PropOp48
 70
     1
102
RTVSPost2010Prop49
280
     0
102
RTVSPost2010PropOp49
 70
     1
102
RTVSPost2010Prop50
 90
       50
102
RTVSPost2010PropOp50
 70
     1
102
RTVSPost2010Prop51ColorIndex
 90
      256
102
RTVSPost2010Prop51ColorRGB
 90
-16777216
102
RTVSPost2010PropOp51
 70
     0
102
RTVSPost2010Prop52
140
1.0
102
RTVSPost2010PropOp52
 70
     0
102
RTVSPost2010Prop53
 90
        2
102
RTVSPost2010PropOp53
 70
     1
102
RTVSPost2010Prop54
  1
strokes_ogs.tif
102
RTVSPost2010PropOp54
 70
     1
102
RTVSPost2010Prop55
280
     0
102
RTVSPost2010PropOp55
 70
     1
102
RTVSPost2010Prop56
140
1.0
102
RTVSPost2010PropOp56
 70
     1
102
RTVSPost2010Prop57
140
1.0
102
RTVSPost2010PropOp57
 70
     1
  0
XRECORD
  5
408
102
{ACAD_REACTORS
330
407
102
}
330
407
100
AcDbXrecord
280
     1
102
RTVSPropertyOp0
 70
     1
102
RTVSPropertyOp1
 70
     1
102
RTVSPropertyOp2
 70
     1
102
RTVSPropertyOp3
 70
     1
102
RTVSPropertyOp4
 70
     1
102
RTVSPropertyOp5
 70
     1
102
RTVSPropertyOp6
 70
     1
102
RTVSPropertyOp7
 70
     1
102
RTVSPropertyOp8
 70
     1
102
RTVSPropertyOp9
 70
     1
102
RTVSPropertyOp10
 70
     1
102
RTVSPropertyOp11
 70
     1
102
RTVSPropertyOp12
 70
     1
102
RTVSPropertyOp13
 70
     1
102
RTVSPropertyOp14
 70
     1
102
RTVSPropertyOp15
 70
     1
102
RTVSPropertyOp16
 70
     1
102
RTVSPropertyOp17
 70
     1
102
RTVSPropertyOp18
 70
     1
102
RTVSPropertyOp19
 70
     1
102
RTVSPropertyOp20
 70
     1
102
RTVSPropertyOp21
 70
     1
102
RTVSPropertyOp22
 70
     1
102
RTVSPropertyOp23
 70
     1
102
RTVSPropertyOp24
 70
     1
102
RTVSPropertyOp25
 70
     1
102
RTVSPropertyOp26
 70
     1
102
RTVSPropertyOp27
 70
     1
102
RTVSPropertyOp28
 70
     1
102
RTVSPropertyOp29
 70
     1
102
RTVSPropertyOp30
 70
     1
102
RTVSPropertyOp31
 70
     1
102
RTVSPropertyOp32
 70
     1
102
RTVSPropertyOp33
 70
     1
102
RTVSPropertyOp34
 70
     1
102
RTVSPropertyOp35
 70
     1
102
RTVSPropertyOp36
 70
     1
102
RTVSPropertyOp37
 70
     1
102
RTVSPropertyOp38
 70
     1
102
RTVSPropertyOp39
 70
     1
102
RTVSPropertyOp40
 70
     1
102
RTVSPropertyOp41
 70
     1
102
RTVSPropertyOp42
 70
     1
102
RTVSPropertyOp43
 70
     1
102
RTVSPropertyOp44
 70
     1
102
RTVSPropertyOp45
 70
     1
102
RTVSPropertyOp46
 70
     1
102
RTVSPropertyOp47
 70
     1
102
RTVSPropertyOp48
 70
     1
102
RTVSPropertyOp49
 70
     1
102
RTVSPropertyOp50
 70
     1
102
RTVSPropertyOp51
 70
     0
102
RTVSPropertyOp52
 70
     0
102
RTVSPropertyOp53
 70
     1
102
RTVSPropertyOp54
 70
     1
102
RTVSPropertyOp55
 70
     1
102
RTVSPropertyOp56
 70
     1
102
RTVSPropertyOp57
 70
     1
102
RTVSPost2010Prop28
280
     0
102
RTVSPost2010PropOp28
 70
     1
102
RTVSPost2010Prop29
280
     1
102
RTVSPost2010PropOp29
 70
     1
102
RTVSPost2010Prop30
280
     1
102
RTVSPost2010PropOp30
 70
     1
102
RTVSPost2010Prop31
280
     0
102
RTVSPost2010PropOp31
 70
     1
102
RTVSPost2010Prop32
280
     0
102
RTVSPost2010PropOp32
 70
     1
102
RTVSPost2010Prop33
280
     0
102
RTVSPost2010PropOp33
 70
     1
102
RTVSPost2010Prop34
280
     0
102
RTVSPost2010PropOp34
 70
     1
102
RTVSPost2010Prop35
280
     0
102
RTVSPost2010PropOp35
 70
     1
102
RTVSPost2010Prop36
280
     0
102
RTVSPost2010PropOp36
 70
     1
102
RTVSPost2010Prop37
 90
       50
102
RTVSPost2010PropOp37
 70
     1
102
RTVSPost2010Prop38
140
0.0
102
RTVSPost2010PropOp38
 70
     1
102
RTVSPost2010Prop39
140
1.0
102
RTVSPost2010PropOp39
 70
     1
102
RTVSPost2010Prop40
 90
        0
102
RTVSPost2010PropOp40
 70
     1
102
RTVSPost2010Prop41ColorIndex
 90
      178
102
RTVSPost2010Prop41ColorRGB
 90
        0
102
RTVSPost2010PropOp41
 70
     1
102
RTVSPost2010Prop42
 90
       50
102
RTVSPost2010PropOp42
 70
     1
102
RTVSPost2010Prop43
 90
        3
102
RTVSPost2010PropOp43
 70
     1
102
RTVSPost2010Prop44ColorIndex
 90
        5
102
RTVSPost2010Prop44ColorRGB
 90
      255
102
RTVSPost2010PropOp44
 70
     1
102
RTVSPost2010Prop45
280
     0
102
RTVSPost2010PropOp45
 70
     1
102
RTVSPost2010Prop46
 90
       50
102
RTVSPost2010PropOp46
 70
     1
102
RTVSPost2010Prop47
 90
       50
102
RTVSPost2010PropOp47
 70
     1
102
RTVSPost2010Prop48
 90
       50
102
RTVSPost2010PropOp48
 70
     1
102
RTVSPost2010Prop49
280
     0
102
RTVSPost2010PropOp49
 70
     1
102
RTVSPost2010Prop50
 90
       50
102
RTVSPost2010PropOp50
 70
     1
102
RTVSPost2010Prop51ColorIndex
 90
      256
102
RTVSPost2010Prop51ColorRGB
 90
-16777216
102
RTVSPost2010PropOp51
 70
     0
102
RTVSPost2010Prop52
140
1.0
102
RTVSPost2010PropOp52
 70
     0
102
RTVSPost2010Prop53
 90
        2
102
RTVSPost2010PropOp53
 70
     1
102
RTVSPost2010Prop54
  1
strokes_ogs.tif
102
RTVSPost2010PropOp54
 70
     1
102
RTVSPost2010Prop55
280
     0
102
RTVSPost2010PropOp55
 70
     1
102
RTVSPost2010Prop56
140
1.0
102
RTVSPost2010PropOp56
 70
     1
102
RTVSPost2010Prop57
140
1.0
102
RTVSPost2010PropOp57
 70
     1
  0
XRECORD
  5
40A
102
{ACAD_REACTORS
330
409
102
}
330
409
100
AcDbXrecord
280
     1
102
RTVSPropertyOp0
 70
     1
102
RTVSPropertyOp1
 70
     1
102
RTVSPropertyOp2
 70
     1
102
RTVSPropertyOp3
 70
     1
102
RTVSPropertyOp4
 70
     1
102
RTVSPropertyOp5
 70
     1
102
RTVSPropertyOp6
 70
     1
102
RTVSPropertyOp7
 70
     1
102
RTVSPropertyOp8
 70
     1
102
RTVSPropertyOp9
 70
     1
102
RTVSPropertyOp10
 70
     1
102
RTVSPropertyOp11
 70
     1
102
RTVSPropertyOp12
 70
     1
102
RTVSPropertyOp13
 70
     1
102
RTVSPropertyOp14
 70
     1
102
RTVSPropertyOp15
 70
     1
102
RTVSPropertyOp16
 70
     1
102
RTVSPropertyOp17
 70
     1
102
RTVSPropertyOp18
 70
     1
102
RTVSPropertyOp19
 70
     1
102
RTVSPropertyOp20
 70
     1
102
RTVSPropertyOp21
 70
     1
102
RTVSPropertyOp22
 70
     1
102
RTVSPropertyOp23
 70
     1
102
RTVSPropertyOp24
 70
     1
102
RTVSPropertyOp25
 70
     1
102
RTVSPropertyOp26
 70
     1
102
RTVSPropertyOp27
 70
     1
102
RTVSPropertyOp28
 70
     1
102
RTVSPropertyOp29
 70
     1
102
RTVSPropertyOp30
 70
     1
102
RTVSPropertyOp31
 70
     1
102
RTVSPropertyOp32
 70
     1
102
RTVSPropertyOp33
 70
     1
102
RTVSPropertyOp34
 70
     1
102
RTVSPropertyOp35
 70
     1
102
RTVSPropertyOp36
 70
     1
102
RTVSPropertyOp37
 70
     1
102
RTVSPropertyOp38
 70
     1
102
RTVSPropertyOp39
 70
     1
102
RTVSPropertyOp40
 70
     1
102
RTVSPropertyOp41
 70
     1
102
RTVSPropertyOp42
 70
     1
102
RTVSPropertyOp43
 70
     1
102
RTVSPropertyOp44
 70
     1
102
RTVSPropertyOp45
 70
     1
102
RTVSPropertyOp46
 70
     1
102
RTVSPropertyOp47
 70
     1
102
RTVSPropertyOp48
 70
     1
102
RTVSPropertyOp49
 70
     1
102
RTVSPropertyOp50
 70
     1
102
RTVSPropertyOp51
 70
     0
102
RTVSPropertyOp52
 70
     0
102
RTVSPropertyOp53
 70
     1
102
RTVSPropertyOp54
 70
     1
102
RTVSPropertyOp55
 70
     1
102
RTVSPropertyOp56
 70
     1
102
RTVSPropertyOp57
 70
     1
102
RTVSPost2010Prop28
280
     0
102
RTVSPost2010PropOp28
 70
     1
102
RTVSPost2010Prop29
280
     1
102
RTVSPost2010PropOp29
 70
     1
102
RTVSPost2010Prop30
280
     1
102
RTVSPost2010PropOp30
 70
     1
102
RTVSPost2010Prop31
280
     0
102
RTVSPost2010PropOp31
 70
     1
102
RTVSPost2010Prop32
280
     0
102
RTVSPost2010PropOp32
 70
     1
102
RTVSPost2010Prop33
280
     0
102
RTVSPost2010PropOp33
 70
     1
102
RTVSPost2010Prop34
280
     0
102
RTVSPost2010PropOp34
 70
     1
102
RTVSPost2010Prop35
280
     0
102
RTVSPost2010PropOp35
 70
     1
102
RTVSPost2010Prop36
280
     0
102
RTVSPost2010PropOp36
 70
     1
102
RTVSPost2010Prop37
 90
       50
102
RTVSPost2010PropOp37
 70
     1
102
RTVSPost2010Prop38
140
0.0
102
RTVSPost2010PropOp38
 70
     1
102
RTVSPost2010Prop39
140
1.0
102
RTVSPost2010PropOp39
 70
     1
102
RTVSPost2010Prop40
 90
        0
102
RTVSPost2010PropOp40
 70
     1
102
RTVSPost2010Prop41ColorIndex
 90
      178
102
RTVSPost2010Prop41ColorRGB
 90
        0
102
RTVSPost2010PropOp41
 70
     1
102
RTVSPost2010Prop42
 90
       50
102
RTVSPost2010PropOp42
 70
     1
102
RTVSPost2010Prop43
 90
        3
102
RTVSPost2010PropOp43
 70
     1
102
RTVSPost2010Prop44ColorIndex
 90
        5
102
RTVSPost2010Prop44ColorRGB
 90
      255
102
RTVSPost2010PropOp44
 70
     1
102
RTVSPost2010Prop45
280
     0
102
RTVSPost2010PropOp45
 70
     1
102
RTVSPost2010Prop46
 90
       50
102
RTVSPost2010PropOp46
 70
     1
102
RTVSPost2010Prop47
 90
       50
102
RTVSPost2010PropOp47
 70
     1
102
RTVSPost2010Prop48
 90
       50
102
RTVSPost2010PropOp48
 70
     1
102
RTVSPost2010Prop49
280
     0
102
RTVSPost2010PropOp49
 70
     1
102
RTVSPost2010Prop50
 90
       50
102
RTVSPost2010PropOp50
 70
     1
102
RTVSPost2010Prop51ColorIndex
 90
      256
102
RTVSPost2010Prop51ColorRGB
 90
-16777216
102
RTVSPost2010PropOp51
 70
     0
102
RTVSPost2010Prop52
140
1.0
102
RTVSPost2010PropOp52
 70
     0
102
RTVSPost2010Prop53
 90
        2
102
RTVSPost2010PropOp53
 70
     1
102
RTVSPost2010Prop54
  1
strokes_ogs.tif
102
RTVSPost2010PropOp54
 70
     1
102
RTVSPost2010Prop55
280
     0
102
RTVSPost2010PropOp55
 70
     1
102
RTVSPost2010Prop56
140
1.0
102
RTVSPost2010PropOp56
 70
     1
102
RTVSPost2010Prop57
140
1.0
102
RTVSPost2010PropOp57
 70
     1
  0
XRECORD
  5
410
102
{ACAD_REACTORS
330
40F
102
}
330
40F
100
AcDbXrecord
280
     1
102
RTVSPropertyOp0
 70
     1
102
RTVSPropertyOp1
 70
     1
102
RTVSPropertyOp2
 70
     1
102
RTVSPropertyOp3
 70
     1
102
RTVSPropertyOp4
 70
     1
102
RTVSPropertyOp5
 70
     1
102
RTVSPropertyOp6
 70
     1
102
RTVSPropertyOp7
 70
     1
102
RTVSPropertyOp8
 70
     1
102
RTVSPropertyOp9
 70
     1
102
RTVSPropertyOp10
 70
     1
102
RTVSPropertyOp11
 70
     1
102
RTVSPropertyOp12
 70
     1
102
RTVSPropertyOp13
 70
     1
102
RTVSPropertyOp14
 70
     1
102
RTVSPropertyOp15
 70
     1
102
RTVSPropertyOp16
 70
     1
102
RTVSPropertyOp17
 70
     1
102
RTVSPropertyOp18
 70
     1
102
RTVSPropertyOp19
 70
     1
102
RTVSPropertyOp20
 70
     1
102
RTVSPropertyOp21
 70
     1
102
RTVSPropertyOp22
 70
     1
102
RTVSPropertyOp23
 70
     1
102
RTVSPropertyOp24
 70
     1
102
RTVSPropertyOp25
 70
     1
102
RTVSPropertyOp26
 70
     1
102
RTVSPropertyOp27
 70
     1
102
RTVSPropertyOp28
 70
     1
102
RTVSPropertyOp29
 70
     1
102
RTVSPropertyOp30
 70
     1
102
RTVSPropertyOp31
 70
     1
102
RTVSPropertyOp32
 70
     1
102
RTVSPropertyOp33
 70
     1
102
RTVSPropertyOp34
 70
     1
102
RTVSPropertyOp35
 70
     1
102
RTVSPropertyOp36
 70
     1
102
RTVSPropertyOp37
 70
     1
102
RTVSPropertyOp38
 70
     1
102
RTVSPropertyOp39
 70
     1
102
RTVSPropertyOp40
 70
     1
102
RTVSPropertyOp41
 70
     1
102
RTVSPropertyOp42
 70
     1
102
RTVSPropertyOp43
 70
     1
102
RTVSPropertyOp44
 70
     1
102
RTVSPropertyOp45
 70
     1
102
RTVSPropertyOp46
 70
     1
102
RTVSPropertyOp47
 70
     1
102
RTVSPropertyOp48
 70
     1
102
RTVSPropertyOp49
 70
     1
102
RTVSPropertyOp50
 70
     1
102
RTVSPropertyOp51
 70
     0
102
RTVSPropertyOp52
 70
     0
102
RTVSPropertyOp53
 70
     1
102
RTVSPropertyOp54
 70
     1
102
RTVSPropertyOp55
 70
     1
102
RTVSPropertyOp56
 70
     1
102
RTVSPropertyOp57
 70
     1
102
RTVSPost2010Prop28
280
     0
102
RTVSPost2010PropOp28
 70
     1
102
RTVSPost2010Prop29
280
     1
102
RTVSPost2010PropOp29
 70
     1
102
RTVSPost2010Prop30
280
     1
102
RTVSPost2010PropOp30
 70
     1
102
RTVSPost2010Prop31
280
     0
102
RTVSPost2010PropOp31
 70
     1
102
RTVSPost2010Prop32
280
     0
102
RTVSPost2010PropOp32
 70
     1
102
RTVSPost2010Prop33
280
     0
102
RTVSPost2010PropOp33
 70
     1
102
RTVSPost2010Prop34
280
     0
102
RTVSPost2010PropOp34
 70
     1
102
RTVSPost2010Prop35
280
     0
102
RTVSPost2010PropOp35
 70
     1
102
RTVSPost2010Prop36
280
     0
102
RTVSPost2010PropOp36
 70
     1
102
RTVSPost2010Prop37
 90
       50
102
RTVSPost2010PropOp37
 70
     1
102
RTVSPost2010Prop38
140
0.0
102
RTVSPost2010PropOp38
 70
     1
102
RTVSPost2010Prop39
140
1.0
102
RTVSPost2010PropOp39
 70
     1
102
RTVSPost2010Prop40
 90
        0
102
RTVSPost2010PropOp40
 70
     1
102
RTVSPost2010Prop41ColorIndex
 90
      178
102
RTVSPost2010Prop41ColorRGB
 90
        0
102
RTVSPost2010PropOp41
 70
     1
102
RTVSPost2010Prop42
 90
       50
102
RTVSPost2010PropOp42
 70
     1
102
RTVSPost2010Prop43
 90
        3
102
RTVSPost2010PropOp43
 70
     1
102
RTVSPost2010Prop44ColorIndex
 90
        5
102
RTVSPost2010Prop44ColorRGB
 90
      255
102
RTVSPost2010PropOp44
 70
     1
102
RTVSPost2010Prop45
280
     0
102
RTVSPost2010PropOp45
 70
     1
102
RTVSPost2010Prop46
 90
       50
102
RTVSPost2010PropOp46
 70
     1
102
RTVSPost2010Prop47
 90
       50
102
RTVSPost2010PropOp47
 70
     1
102
RTVSPost2010Prop48
 90
       50
102
RTVSPost2010PropOp48
 70
     1
102
RTVSPost2010Prop49
280
     0
102
RTVSPost2010PropOp49
 70
     1
102
RTVSPost2010Prop50
 90
       50
102
RTVSPost2010PropOp50
 70
     1
102
RTVSPost2010Prop51ColorIndex
 90
      256
102
RTVSPost2010Prop51ColorRGB
 90
-16777216
102
RTVSPost2010PropOp51
 70
     0
102
RTVSPost2010Prop52
140
1.0
102
RTVSPost2010PropOp52
 70
     0
102
RTVSPost2010Prop53
 90
        2
102
RTVSPost2010PropOp53
 70
     1
102
RTVSPost2010Prop54
  1
strokes_ogs.tif
102
RTVSPost2010PropOp54
 70
     1
102
RTVSPost2010Prop55
280
     0
102
RTVSPost2010PropOp55
 70
     1
102
RTVSPost2010Prop56
140
1.0
102
RTVSPost2010PropOp56
 70
     1
102
RTVSPost2010Prop57
140
1.0
102
RTVSPost2010PropOp57
 70
     1
  0
XRECORD
  5
424
102
{ACAD_REACTORS
330
423
102
}
330
423
100
AcDbXrecord
280
     1
102
RTVSPropertyOp0
 70
     0
102
RTVSPropertyOp1
 70
     0
102
RTVSPropertyOp2
 70
     0
102
RTVSPropertyOp3
 70
     0
102
RTVSPropertyOp4
 70
     0
102
RTVSPropertyOp5
 70
     0
102
RTVSPropertyOp6
 70
     0
102
RTVSPropertyOp7
 70
     0
102
RTVSPropertyOp8
 70
     0
102
RTVSPropertyOp9
 70
     0
102
RTVSPropertyOp10
 70
     0
102
RTVSPropertyOp11
 70
     0
102
RTVSPropertyOp12
 70
     0
102
RTVSPropertyOp13
 70
     0
102
RTVSPropertyOp14
 70
     2
102
RTVSPropertyOp15
 70
     0
102
RTVSPropertyOp16
 70
     0
102
RTVSPropertyOp17
 70
     0
102
RTVSPropertyOp18
 70
     0
102
RTVSPropertyOp19
 70
     0
102
RTVSPropertyOp20
 70
     0
102
RTVSPropertyOp21
 70
     0
102
RTVSPropertyOp22
 70
     0
102
RTVSPropertyOp23
 70
     0
102
RTVSPropertyOp24
 70
     0
102
RTVSPropertyOp25
 70
     0
102
RTVSPropertyOp26
 70
     0
102
RTVSPropertyOp27
 70
     0
102
RTVSPropertyOp28
 70
     0
102
RTVSPropertyOp29
 70
     0
102
RTVSPropertyOp30
 70
     0
102
RTVSPropertyOp31
 70
     0
102
RTVSPropertyOp32
 70
     0
102
RTVSPropertyOp33
 70
     0
102
RTVSPropertyOp34
 70
     0
102
RTVSPropertyOp35
 70
     0
102
RTVSPropertyOp36
 70
     0
102
RTVSPropertyOp37
 70
     0
102
RTVSPropertyOp38
 70
     0
102
RTVSPropertyOp39
 70
     0
102
RTVSPropertyOp40
 70
     0
102
RTVSPropertyOp41
 70
     0
102
RTVSPropertyOp42
 70
     0
102
RTVSPropertyOp43
 70
     0
102
RTVSPropertyOp44
 70
     0
102
RTVSPropertyOp45
 70
     0
102
RTVSPropertyOp46
 70
     0
102
RTVSPropertyOp47
 70
     0
102
RTVSPropertyOp48
 70
     0
102
RTVSPropertyOp49
 70
     0
102
RTVSPropertyOp50
 70
     0
102
RTVSPropertyOp51
 70
     0
102
RTVSPropertyOp52
 70
     0
102
RTVSPropertyOp53
 70
     0
102
RTVSPropertyOp54
 70
     0
102
RTVSPropertyOp55
 70
     0
102
RTVSPropertyOp56
 70
     0
102
RTVSPropertyOp57
 70
     0
102
RTVSPost2010Prop28
280
     0
102
RTVSPost2010PropOp28
 70
     0
102
RTVSPost2010Prop29
280
     1
102
RTVSPost2010PropOp29
 70
     0
102
RTVSPost2010Prop30
280
     1
102
RTVSPost2010PropOp30
 70
     0
102
RTVSPost2010Prop31
280
     0
102
RTVSPost2010PropOp31
 70
     0
102
RTVSPost2010Prop32
280
     0
102
RTVSPost2010PropOp32
 70
     0
102
RTVSPost2010Prop33
280
     0
102
RTVSPost2010PropOp33
 70
     0
102
RTVSPost2010Prop34
280
     0
102
RTVSPost2010PropOp34
 70
     0
102
RTVSPost2010Prop35
280
     0
102
RTVSPost2010PropOp35
 70
     0
102
RTVSPost2010Prop36
280
     0
102
RTVSPost2010PropOp36
 70
     0
102
RTVSPost2010Prop37
 90
       50
102
RTVSPost2010PropOp37
 70
     0
102
RTVSPost2010Prop38
140
0.0
102
RTVSPost2010PropOp38
 70
     0
102
RTVSPost2010Prop39
140
1.0
102
RTVSPost2010PropOp39
 70
     0
102
RTVSPost2010Prop40
 90
        0
102
RTVSPost2010PropOp40
 70
     0
102
RTVSPost2010Prop41ColorIndex
 90
      178
102
RTVSPost2010Prop41ColorRGB
 90
        0
102
RTVSPost2010PropOp41
 70
     0
102
RTVSPost2010Prop42
 90
       50
102
RTVSPost2010PropOp42
 70
     0
102
RTVSPost2010Prop43
 90
        3
102
RTVSPost2010PropOp43
 70
     0
102
RTVSPost2010Prop44ColorIndex
 90
        5
102
RTVSPost2010Prop44ColorRGB
 90
      255
102
RTVSPost2010PropOp44
 70
     0
102
RTVSPost2010Prop45
280
     0
102
RTVSPost2010PropOp45
 70
     0
102
RTVSPost2010Prop46
 90
       50
102
RTVSPost2010PropOp46
 70
     0
102
RTVSPost2010Prop47
 90
       50
102
RTVSPost2010PropOp47
 70
     0
102
RTVSPost2010Prop48
 90
       50
102
RTVSPost2010PropOp48
 70
     0
102
RTVSPost2010Prop49
280
     0
102
RTVSPost2010PropOp49
 70
     0
102
RTVSPost2010Prop50
 90
       50
102
RTVSPost2010PropOp50
 70
     0
102
RTVSPost2010Prop51ColorIndex
 90
      256
102
RTVSPost2010Prop51ColorRGB
 90
-16777216
102
RTVSPost2010PropOp51
 70
     0
102
RTVSPost2010Prop52
140
1.0
102
RTVSPost2010PropOp52
 70
     0
102
RTVSPost2010Prop53
 90
        2
102
RTVSPost2010PropOp53
 70
     0
102
RTVSPost2010Prop54
  1
strokes_ogs.tif
102
RTVSPost2010PropOp54
 70
     0
102
RTVSPost2010Prop55
280
     0
102
RTVSPost2010PropOp55
 70
     0
102
RTVSPost2010Prop56
140
1.0
102
RTVSPost2010PropOp56
 70
     0
102
RTVSPost2010Prop57
140
1.0
102
RTVSPost2010PropOp57
 70
     0
  0
XRECORD
  5
41E
102
{ACAD_REACTORS
330
41D
102
}
330
41D
100
AcDbXrecord
280
     1
102
RTVSPropertyOp0
 70
     1
102
RTVSPropertyOp1
 70
     1
102
RTVSPropertyOp2
 70
     1
102
RTVSPropertyOp3
 70
     1
102
RTVSPropertyOp4
 70
     1
102
RTVSPropertyOp5
 70
     1
102
RTVSPropertyOp6
 70
     1
102
RTVSPropertyOp7
 70
     1
102
RTVSPropertyOp8
 70
     1
102
RTVSPropertyOp9
 70
     1
102
RTVSPropertyOp10
 70
     1
102
RTVSPropertyOp11
 70
     1
102
RTVSPropertyOp12
 70
     1
102
RTVSPropertyOp13
 70
     1
102
RTVSPropertyOp14
 70
     1
102
RTVSPropertyOp15
 70
     1
102
RTVSPropertyOp16
 70
     1
102
RTVSPropertyOp17
 70
     1
102
RTVSPropertyOp18
 70
     1
102
RTVSPropertyOp19
 70
     1
102
RTVSPropertyOp20
 70
     1
102
RTVSPropertyOp21
 70
     1
102
RTVSPropertyOp22
 70
     1
102
RTVSPropertyOp23
 70
     1
102
RTVSPropertyOp24
 70
     1
102
RTVSPropertyOp25
 70
     1
102
RTVSPropertyOp26
 70
     1
102
RTVSPropertyOp27
 70
     1
102
RTVSPropertyOp28
 70
     1
102
RTVSPropertyOp29
 70
     1
102
RTVSPropertyOp30
 70
     1
102
RTVSPropertyOp31
 70
     1
102
RTVSPropertyOp32
 70
     1
102
RTVSPropertyOp33
 70
     1
102
RTVSPropertyOp34
 70
     1
102
RTVSPropertyOp35
 70
     1
102
RTVSPropertyOp36
 70
     1
102
RTVSPropertyOp37
 70
     1
102
RTVSPropertyOp38
 70
     1
102
RTVSPropertyOp39
 70
     1
102
RTVSPropertyOp40
 70
     1
102
RTVSPropertyOp41
 70
     1
102
RTVSPropertyOp42
 70
     1
102
RTVSPropertyOp43
 70
     1
102
RTVSPropertyOp44
 70
     1
102
RTVSPropertyOp45
 70
     1
102
RTVSPropertyOp46
 70
     1
102
RTVSPropertyOp47
 70
     1
102
RTVSPropertyOp48
 70
     1
102
RTVSPropertyOp49
 70
     1
102
RTVSPropertyOp50
 70
     1
102
RTVSPropertyOp51
 70
     0
102
RTVSPropertyOp52
 70
     0
102
RTVSPropertyOp53
 70
     1
102
RTVSPropertyOp54
 70
     1
102
RTVSPropertyOp55
 70
     1
102
RTVSPropertyOp56
 70
     1
102
RTVSPropertyOp57
 70
     1
102
RTVSPost2010Prop28
280
     0
102
RTVSPost2010PropOp28
 70
     1
102
RTVSPost2010Prop29
280
     1
102
RTVSPost2010PropOp29
 70
     1
102
RTVSPost2010Prop30
280
     1
102
RTVSPost2010PropOp30
 70
     1
102
RTVSPost2010Prop31
280
     0
102
RTVSPost2010PropOp31
 70
     1
102
RTVSPost2010Prop32
280
     0
102
RTVSPost2010PropOp32
 70
     1
102
RTVSPost2010Prop33
280
     0
102
RTVSPost2010PropOp33
 70
     1
102
RTVSPost2010Prop34
280
     0
102
RTVSPost2010PropOp34
 70
     1
102
RTVSPost2010Prop35
280
     0
102
RTVSPost2010PropOp35
 70
     1
102
RTVSPost2010Prop36
280
     0
102
RTVSPost2010PropOp36
 70
     1
102
RTVSPost2010Prop37
 90
       50
102
RTVSPost2010PropOp37
 70
     1
102
RTVSPost2010Prop38
140
0.0
102
RTVSPost2010PropOp38
 70
     1
102
RTVSPost2010Prop39
140
1.0
102
RTVSPost2010PropOp39
 70
     1
102
RTVSPost2010Prop40
 90
        0
102
RTVSPost2010PropOp40
 70
     1
102
RTVSPost2010Prop41ColorIndex
 90
      178
102
RTVSPost2010Prop41ColorRGB
 90
        0
102
RTVSPost2010PropOp41
 70
     1
102
RTVSPost2010Prop42
 90
       50
102
RTVSPost2010PropOp42
 70
     1
102
RTVSPost2010Prop43
 90
        3
102
RTVSPost2010PropOp43
 70
     1
102
RTVSPost2010Prop44ColorIndex
 90
        5
102
RTVSPost2010Prop44ColorRGB
 90
      255
102
RTVSPost2010PropOp44
 70
     1
102
RTVSPost2010Prop45
280
     0
102
RTVSPost2010PropOp45
 70
     1
102
RTVSPost2010Prop46
 90
       50
102
RTVSPost2010PropOp46
 70
     1
102
RTVSPost2010Prop47
 90
       50
102
RTVSPost2010PropOp47
 70
     1
102
RTVSPost2010Prop48
 90
       50
102
RTVSPost2010PropOp48
 70
     1
102
RTVSPost2010Prop49
280
     0
102
RTVSPost2010PropOp49
 70
     1
102
RTVSPost2010Prop50
 90
       50
102
RTVSPost2010PropOp50
 70
     1
102
RTVSPost2010Prop51ColorIndex
 90
      256
102
RTVSPost2010Prop51ColorRGB
 90
-16777216
102
RTVSPost2010PropOp51
 70
     0
102
RTVSPost2010Prop52
140
1.0
102
RTVSPost2010PropOp52
 70
     0
102
RTVSPost2010Prop53
 90
        2
102
RTVSPost2010PropOp53
 70
     1
102
RTVSPost2010Prop54
  1
strokes_ogs.tif
102
RTVSPost2010PropOp54
 70
     1
102
RTVSPost2010Prop55
280
     0
102
RTVSPost2010PropOp55
 70
     1
102
RTVSPost2010Prop56
140
1.0
102
RTVSPost2010PropOp56
 70
     1
102
RTVSPost2010Prop57
140
1.0
102
RTVSPost2010PropOp57
 70
     1
  0
XRECORD
  5
426
102
{ACAD_REACTORS
330
425
102
}
330
425
100
AcDbXrecord
280
     1
102
RTVSPropertyOp0
 70
     0
102
RTVSPropertyOp1
 70
     0
102
RTVSPropertyOp2
 70
     0
102
RTVSPropertyOp3
 70
     0
102
RTVSPropertyOp4
 70
     0
102
RTVSPropertyOp5
 70
     0
102
RTVSPropertyOp6
 70
     0
102
RTVSPropertyOp7
 70
     0
102
RTVSPropertyOp8
 70
     0
102
RTVSPropertyOp9
 70
     0
102
RTVSPropertyOp10
 70
     0
102
RTVSPropertyOp11
 70
     0
102
RTVSPropertyOp12
 70
     0
102
RTVSPropertyOp13
 70
     0
102
RTVSPropertyOp14
 70
     2
102
RTVSPropertyOp15
 70
     0
102
RTVSPropertyOp16
 70
     0
102
RTVSPropertyOp17
 70
     0
102
RTVSPropertyOp18
 70
     0
102
RTVSPropertyOp19
 70
     0
102
RTVSPropertyOp20
 70
     0
102
RTVSPropertyOp21
 70
     0
102
RTVSPropertyOp22
 70
     0
102
RTVSPropertyOp23
 70
     0
102
RTVSPropertyOp24
 70
     0
102
RTVSPropertyOp25
 70
     0
102
RTVSPropertyOp26
 70
     0
102
RTVSPropertyOp27
 70
     0
102
RTVSPropertyOp28
 70
     0
102
RTVSPropertyOp29
 70
     0
102
RTVSPropertyOp30
 70
     0
102
RTVSPropertyOp31
 70
     0
102
RTVSPropertyOp32
 70
     0
102
RTVSPropertyOp33
 70
     0
102
RTVSPropertyOp34
 70
     0
102
RTVSPropertyOp35
 70
     0
102
RTVSPropertyOp36
 70
     0
102
RTVSPropertyOp37
 70
     0
102
RTVSPropertyOp38
 70
     0
102
RTVSPropertyOp39
 70
     0
102
RTVSPropertyOp40
 70
     0
102
RTVSPropertyOp41
 70
     0
102
RTVSPropertyOp42
 70
     0
102
RTVSPropertyOp43
 70
     0
102
RTVSPropertyOp44
 70
     0
102
RTVSPropertyOp45
 70
     0
102
RTVSPropertyOp46
 70
     0
102
RTVSPropertyOp47
 70
     0
102
RTVSPropertyOp48
 70
     0
102
RTVSPropertyOp49
 70
     0
102
RTVSPropertyOp50
 70
     0
102
RTVSPropertyOp51
 70
     0
102
RTVSPropertyOp52
 70
     0
102
RTVSPropertyOp53
 70
     0
102
RTVSPropertyOp54
 70
     0
102
RTVSPropertyOp55
 70
     0
102
RTVSPropertyOp56
 70
     0
102
RTVSPropertyOp57
 70
     0
102
RTVSPost2010Prop28
280
     0
102
RTVSPost2010PropOp28
 70
     0
102
RTVSPost2010Prop29
280
     1
102
RTVSPost2010PropOp29
 70
     0
102
RTVSPost2010Prop30
280
     1
102
RTVSPost2010PropOp30
 70
     0
102
RTVSPost2010Prop31
280
     0
102
RTVSPost2010PropOp31
 70
     0
102
RTVSPost2010Prop32
280
     0
102
RTVSPost2010PropOp32
 70
     0
102
RTVSPost2010Prop33
280
     0
102
RTVSPost2010PropOp33
 70
     0
102
RTVSPost2010Prop34
280
     0
102
RTVSPost2010PropOp34
 70
     0
102
RTVSPost2010Prop35
280
     0
102
RTVSPost2010PropOp35
 70
     0
102
RTVSPost2010Prop36
280
     0
102
RTVSPost2010PropOp36
 70
     0
102
RTVSPost2010Prop37
 90
       50
102
RTVSPost2010PropOp37
 70
     0
102
RTVSPost2010Prop38
140
0.0
102
RTVSPost2010PropOp38
 70
     0
102
RTVSPost2010Prop39
140
1.0
102
RTVSPost2010PropOp39
 70
     0
102
RTVSPost2010Prop40
 90
        0
102
RTVSPost2010PropOp40
 70
     0
102
RTVSPost2010Prop41ColorIndex
 90
      178
102
RTVSPost2010Prop41ColorRGB
 90
        0
102
RTVSPost2010PropOp41
 70
     0
102
RTVSPost2010Prop42
 90
       50
102
RTVSPost2010PropOp42
 70
     0
102
RTVSPost2010Prop43
 90
        3
102
RTVSPost2010PropOp43
 70
     0
102
RTVSPost2010Prop44ColorIndex
 90
        5
102
RTVSPost2010Prop44ColorRGB
 90
      255
102
RTVSPost2010PropOp44
 70
     0
102
RTVSPost2010Prop45
280
     0
102
RTVSPost2010PropOp45
 70
     0
102
RTVSPost2010Prop46
 90
       50
102
RTVSPost2010PropOp46
 70
     0
102
RTVSPost2010Prop47
 90
       50
102
RTVSPost2010PropOp47
 70
     0
102
RTVSPost2010Prop48
 90
       50
102
RTVSPost2010PropOp48
 70
     0
102
RTVSPost2010Prop49
280
     0
102
RTVSPost2010PropOp49
 70
     0
102
RTVSPost2010Prop50
 90
       50
102
RTVSPost2010PropOp50
 70
     0
102
RTVSPost2010Prop51ColorIndex
 90
      256
102
RTVSPost2010Prop51ColorRGB
 90
-16777216
102
RTVSPost2010PropOp51
 70
     0
102
RTVSPost2010Prop52
140
1.0
102
RTVSPost2010PropOp52
 70
     0
102
RTVSPost2010Prop53
 90
        2
102
RTVSPost2010PropOp53
 70
     0
102
RTVSPost2010Prop54
  1
strokes_ogs.tif
102
RTVSPost2010PropOp54
 70
     0
102
RTVSPost2010Prop55
280
     0
102
RTVSPost2010PropOp55
 70
     0
102
RTVSPost2010Prop56
140
1.0
102
RTVSPost2010PropOp56
 70
     0
102
RTVSPost2010Prop57
140
1.0
102
RTVSPost2010PropOp57
 70
     0
  0
XRECORD
  5
414
102
{ACAD_REACTORS
330
413
102
}
330
413
100
AcDbXrecord
280
     1
102
RTVSPropertyOp0
 70
     1
102
RTVSPropertyOp1
 70
     1
102
RTVSPropertyOp2
 70
     1
102
RTVSPropertyOp3
 70
     1
102
RTVSPropertyOp4
 70
     1
102
RTVSPropertyOp5
 70
     1
102
RTVSPropertyOp6
 70
     1
102
RTVSPropertyOp7
 70
     1
102
RTVSPropertyOp8
 70
     1
102
RTVSPropertyOp9
 70
     1
102
RTVSPropertyOp10
 70
     1
102
RTVSPropertyOp11
 70
     1
102
RTVSPropertyOp12
 70
     1
102
RTVSPropertyOp13
 70
     1
102
RTVSPropertyOp14
 70
     1
102
RTVSPropertyOp15
 70
     1
102
RTVSPropertyOp16
 70
     1
102
RTVSPropertyOp17
 70
     1
102
RTVSPropertyOp18
 70
     1
102
RTVSPropertyOp19
 70
     1
102
RTVSPropertyOp20
 70
     1
102
RTVSPropertyOp21
 70
     1
102
RTVSPropertyOp22
 70
     1
102
RTVSPropertyOp23
 70
     1
102
RTVSPropertyOp24
 70
     1
102
RTVSPropertyOp25
 70
     1
102
RTVSPropertyOp26
 70
     1
102
RTVSPropertyOp27
 70
     1
102
RTVSPropertyOp28
 70
     1
102
RTVSPropertyOp29
 70
     1
102
RTVSPropertyOp30
 70
     1
102
RTVSPropertyOp31
 70
     1
102
RTVSPropertyOp32
 70
     1
102
RTVSPropertyOp33
 70
     1
102
RTVSPropertyOp34
 70
     1
102
RTVSPropertyOp35
 70
     1
102
RTVSPropertyOp36
 70
     1
102
RTVSPropertyOp37
 70
     1
102
RTVSPropertyOp38
 70
     1
102
RTVSPropertyOp39
 70
     1
102
RTVSPropertyOp40
 70
     1
102
RTVSPropertyOp41
 70
     1
102
RTVSPropertyOp42
 70
     1
102
RTVSPropertyOp43
 70
     1
102
RTVSPropertyOp44
 70
     1
102
RTVSPropertyOp45
 70
     1
102
RTVSPropertyOp46
 70
     1
102
RTVSPropertyOp47
 70
     1
102
RTVSPropertyOp48
 70
     1
102
RTVSPropertyOp49
 70
     1
102
RTVSPropertyOp50
 70
     1
102
RTVSPropertyOp51
 70
     0
102
RTVSPropertyOp52
 70
     0
102
RTVSPropertyOp53
 70
     1
102
RTVSPropertyOp54
 70
     1
102
RTVSPropertyOp55
 70
     1
102
RTVSPropertyOp56
 70
     1
102
RTVSPropertyOp57
 70
     1
102
RTVSPost2010Prop28
280
     0
102
RTVSPost2010PropOp28
 70
     1
102
RTVSPost2010Prop29
280
     1
102
RTVSPost2010PropOp29
 70
     1
102
RTVSPost2010Prop30
280
     1
102
RTVSPost2010PropOp30
 70
     1
102
RTVSPost2010Prop31
280
     0
102
RTVSPost2010PropOp31
 70
     1
102
RTVSPost2010Prop32
280
     0
102
RTVSPost2010PropOp32
 70
     1
102
RTVSPost2010Prop33
280
     0
102
RTVSPost2010PropOp33
 70
     1
102
RTVSPost2010Prop34
280
     0
102
RTVSPost2010PropOp34
 70
     1
102
RTVSPost2010Prop35
280
     0
102
RTVSPost2010PropOp35
 70
     1
102
RTVSPost2010Prop36
280
     0
102
RTVSPost2010PropOp36
 70
     1
102
RTVSPost2010Prop37
 90
       50
102
RTVSPost2010PropOp37
 70
     1
102
RTVSPost2010Prop38
140
0.0
102
RTVSPost2010PropOp38
 70
     1
102
RTVSPost2010Prop39
140
1.0
102
RTVSPost2010PropOp39
 70
     1
102
RTVSPost2010Prop40
 90
        0
102
RTVSPost2010PropOp40
 70
     1
102
RTVSPost2010Prop41ColorIndex
 90
      178
102
RTVSPost2010Prop41ColorRGB
 90
        0
102
RTVSPost2010PropOp41
 70
     1
102
RTVSPost2010Prop42
 90
       50
102
RTVSPost2010PropOp42
 70
     1
102
RTVSPost2010Prop43
 90
        3
102
RTVSPost2010PropOp43
 70
     1
102
RTVSPost2010Prop44ColorIndex
 90
        5
102
RTVSPost2010Prop44ColorRGB
 90
      255
102
RTVSPost2010PropOp44
 70
     1
102
RTVSPost2010Prop45
280
     0
102
RTVSPost2010PropOp45
 70
     1
102
RTVSPost2010Prop46
 90
       50
102
RTVSPost2010PropOp46
 70
     1
102
RTVSPost2010Prop47
 90
       50
102
RTVSPost2010PropOp47
 70
     1
102
RTVSPost2010Prop48
 90
       50
102
RTVSPost2010PropOp48
 70
     1
102
RTVSPost2010Prop49
280
     0
102
RTVSPost2010PropOp49
 70
     1
102
RTVSPost2010Prop50
 90
       50
102
RTVSPost2010PropOp50
 70
     1
102
RTVSPost2010Prop51ColorIndex
 90
      256
102
RTVSPost2010Prop51ColorRGB
 90
-16777216
102
RTVSPost2010PropOp51
 70
     0
102
RTVSPost2010Prop52
140
1.0
102
RTVSPost2010PropOp52
 70
     0
102
RTVSPost2010Prop53
 90
        2
102
RTVSPost2010PropOp53
 70
     1
102
RTVSPost2010Prop54
  1
strokes_ogs.tif
102
RTVSPost2010PropOp54
 70
     1
102
RTVSPost2010Prop55
280
     0
102
RTVSPost2010PropOp55
 70
     1
102
RTVSPost2010Prop56
140
1.0
102
RTVSPost2010PropOp56
 70
     1
102
RTVSPost2010Prop57
140
1.0
102
RTVSPost2010PropOp57
 70
     1
  0
XRECORD
  5
432
102
{ACAD_REACTORS
330
431
102
}
330
431
100
AcDbXrecord
280
     1
102
RTVSPropertyOp0
 70
     1
102
RTVSPropertyOp1
 70
     1
102
RTVSPropertyOp2
 70
     1
102
RTVSPropertyOp3
 70
     1
102
RTVSPropertyOp4
 70
     1
102
RTVSPropertyOp5
 70
     1
102
RTVSPropertyOp6
 70
     1
102
RTVSPropertyOp7
 70
     1
102
RTVSPropertyOp8
 70
     1
102
RTVSPropertyOp9
 70
     1
102
RTVSPropertyOp10
 70
     1
102
RTVSPropertyOp11
 70
     1
102
RTVSPropertyOp12
 70
     1
102
RTVSPropertyOp13
 70
     1
102
RTVSPropertyOp14
 70
     1
102
RTVSPropertyOp15
 70
     1
102
RTVSPropertyOp16
 70
     1
102
RTVSPropertyOp17
 70
     1
102
RTVSPropertyOp18
 70
     1
102
RTVSPropertyOp19
 70
     1
102
RTVSPropertyOp20
 70
     1
102
RTVSPropertyOp21
 70
     1
102
RTVSPropertyOp22
 70
     1
102
RTVSPropertyOp23
 70
     1
102
RTVSPropertyOp24
 70
     1
102
RTVSPropertyOp25
 70
     1
102
RTVSPropertyOp26
 70
     1
102
RTVSPropertyOp27
 70
     1
102
RTVSPropertyOp28
 70
     1
102
RTVSPropertyOp29
 70
     1
102
RTVSPropertyOp30
 70
     1
102
RTVSPropertyOp31
 70
     1
102
RTVSPropertyOp32
 70
     1
102
RTVSPropertyOp33
 70
     1
102
RTVSPropertyOp34
 70
     1
102
RTVSPropertyOp35
 70
     1
102
RTVSPropertyOp36
 70
     1
102
RTVSPropertyOp37
 70
     1
102
RTVSPropertyOp38
 70
     1
102
RTVSPropertyOp39
 70
     1
102
RTVSPropertyOp40
 70
     1
102
RTVSPropertyOp41
 70
     1
102
RTVSPropertyOp42
 70
     1
102
RTVSPropertyOp43
 70
     1
102
RTVSPropertyOp44
 70
     1
102
RTVSPropertyOp45
 70
     1
102
RTVSPropertyOp46
 70
     1
102
RTVSPropertyOp47
 70
     1
102
RTVSPropertyOp48
 70
     1
102
RTVSPropertyOp49
 70
     1
102
RTVSPropertyOp50
 70
     1
102
RTVSPropertyOp51
 70
     0
102
RTVSPropertyOp52
 70
     0
102
RTVSPropertyOp53
 70
     1
102
RTVSPropertyOp54
 70
     1
102
RTVSPropertyOp55
 70
     1
102
RTVSPropertyOp56
 70
     1
102
RTVSPropertyOp57
 70
     1
102
RTVSPost2010Prop28
280
     0
102
RTVSPost2010PropOp28
 70
     1
102
RTVSPost2010Prop29
280
     1
102
RTVSPost2010PropOp29
 70
     1
102
RTVSPost2010Prop30
280
     1
102
RTVSPost2010PropOp30
 70
     1
102
RTVSPost2010Prop31
280
     0
102
RTVSPost2010PropOp31
 70
     1
102
RTVSPost2010Prop32
280
     0
102
RTVSPost2010PropOp32
 70
     1
102
RTVSPost2010Prop33
280
     0
102
RTVSPost2010PropOp33
 70
     1
102
RTVSPost2010Prop34
280
     0
102
RTVSPost2010PropOp34
 70
     1
102
RTVSPost2010Prop35
280
     0
102
RTVSPost2010PropOp35
 70
     1
102
RTVSPost2010Prop36
280
     0
102
RTVSPost2010PropOp36
 70
     1
102
RTVSPost2010Prop37
 90
       50
102
RTVSPost2010PropOp37
 70
     1
102
RTVSPost2010Prop38
140
0.0
102
RTVSPost2010PropOp38
 70
     1
102
RTVSPost2010Prop39
140
1.0
102
RTVSPost2010PropOp39
 70
     1
102
RTVSPost2010Prop40
 90
        0
102
RTVSPost2010PropOp40
 70
     1
102
RTVSPost2010Prop41ColorIndex
 90
      178
102
RTVSPost2010Prop41ColorRGB
 90
        0
102
RTVSPost2010PropOp41
 70
     1
102
RTVSPost2010Prop42
 90
       50
102
RTVSPost2010PropOp42
 70
     1
102
RTVSPost2010Prop43
 90
        3
102
RTVSPost2010PropOp43
 70
     1
102
RTVSPost2010Prop44ColorIndex
 90
        5
102
RTVSPost2010Prop44ColorRGB
 90
      255
102
RTVSPost2010PropOp44
 70
     1
102
RTVSPost2010Prop45
280
     0
102
RTVSPost2010PropOp45
 70
     1
102
RTVSPost2010Prop46
 90
       50
102
RTVSPost2010PropOp46
 70
     1
102
RTVSPost2010Prop47
 90
       50
102
RTVSPost2010PropOp47
 70
     1
102
RTVSPost2010Prop48
 90
       50
102
RTVSPost2010PropOp48
 70
     1
102
RTVSPost2010Prop49
280
     0
102
RTVSPost2010PropOp49
 70
     1
102
RTVSPost2010Prop50
 90
       50
102
RTVSPost2010PropOp50
 70
     1
102
RTVSPost2010Prop51ColorIndex
 90
      256
102
RTVSPost2010Prop51ColorRGB
 90
-16777216
102
RTVSPost2010PropOp51
 70
     0
102
RTVSPost2010Prop52
140
1.0
102
RTVSPost2010PropOp52
 70
     0
102
RTVSPost2010Prop53
 90
        2
102
RTVSPost2010PropOp53
 70
     1
102
RTVSPost2010Prop54
  1
strokes_ogs.tif
102
RTVSPost2010PropOp54
 70
     1
102
RTVSPost2010Prop55
280
     0
102
RTVSPost2010PropOp55
 70
     1
102
RTVSPost2010Prop56
140
1.0
102
RTVSPost2010PropOp56
 70
     1
102
RTVSPost2010Prop57
140
1.0
102
RTVSPost2010PropOp57
 70
     1
  0
XRECORD
  5
430
102
{ACAD_REACTORS
330
42F
102
}
330
42F
100
AcDbXrecord
280
     1
102
RTVSPropertyOp0
 70
     1
102
RTVSPropertyOp1
 70
     1
102
RTVSPropertyOp2
 70
     1
102
RTVSPropertyOp3
 70
     1
102
RTVSPropertyOp4
 70
     1
102
RTVSPropertyOp5
 70
     1
102
RTVSPropertyOp6
 70
     1
102
RTVSPropertyOp7
 70
     1
102
RTVSPropertyOp8
 70
     1
102
RTVSPropertyOp9
 70
     1
102
RTVSPropertyOp10
 70
     1
102
RTVSPropertyOp11
 70
     1
102
RTVSPropertyOp12
 70
     1
102
RTVSPropertyOp13
 70
     1
102
RTVSPropertyOp14
 70
     1
102
RTVSPropertyOp15
 70
     1
102
RTVSPropertyOp16
 70
     1
102
RTVSPropertyOp17
 70
     1
102
RTVSPropertyOp18
 70
     1
102
RTVSPropertyOp19
 70
     1
102
RTVSPropertyOp20
 70
     1
102
RTVSPropertyOp21
 70
     1
102
RTVSPropertyOp22
 70
     1
102
RTVSPropertyOp23
 70
     1
102
RTVSPropertyOp24
 70
     1
102
RTVSPropertyOp25
 70
     1
102
RTVSPropertyOp26
 70
     1
102
RTVSPropertyOp27
 70
     1
102
RTVSPropertyOp28
 70
     1
102
RTVSPropertyOp29
 70
     1
102
RTVSPropertyOp30
 70
     1
102
RTVSPropertyOp31
 70
     1
102
RTVSPropertyOp32
 70
     1
102
RTVSPropertyOp33
 70
     1
102
RTVSPropertyOp34
 70
     1
102
RTVSPropertyOp35
 70
     1
102
RTVSPropertyOp36
 70
     1
102
RTVSPropertyOp37
 70
     1
102
RTVSPropertyOp38
 70
     1
102
RTVSPropertyOp39
 70
     1
102
RTVSPropertyOp40
 70
     1
102
RTVSPropertyOp41
 70
     1
102
RTVSPropertyOp42
 70
     1
102
RTVSPropertyOp43
 70
     1
102
RTVSPropertyOp44
 70
     1
102
RTVSPropertyOp45
 70
     1
102
RTVSPropertyOp46
 70
     1
102
RTVSPropertyOp47
 70
     1
102
RTVSPropertyOp48
 70
     1
102
RTVSPropertyOp49
 70
     1
102
RTVSPropertyOp50
 70
     1
102
RTVSPropertyOp51
 70
     0
102
RTVSPropertyOp52
 70
     0
102
RTVSPropertyOp53
 70
     1
102
RTVSPropertyOp54
 70
     1
102
RTVSPropertyOp55
 70
     1
102
RTVSPropertyOp56
 70
     1
102
RTVSPropertyOp57
 70
     1
102
RTVSPost2010Prop28
280
     0
102
RTVSPost2010PropOp28
 70
     1
102
RTVSPost2010Prop29
280
     1
102
RTVSPost2010PropOp29
 70
     1
102
RTVSPost2010Prop30
280
     1
102
RTVSPost2010PropOp30
 70
     1
102
RTVSPost2010Prop31
280
     0
102
RTVSPost2010PropOp31
 70
     1
102
RTVSPost2010Prop32
280
     0
102
RTVSPost2010PropOp32
 70
     1
102
RTVSPost2010Prop33
280
     0
102
RTVSPost2010PropOp33
 70
     1
102
RTVSPost2010Prop34
280
     0
102
RTVSPost2010PropOp34
 70
     1
102
RTVSPost2010Prop35
280
     0
102
RTVSPost2010PropOp35
 70
     1
102
RTVSPost2010Prop36
280
     0
102
RTVSPost2010PropOp36
 70
     1
102
RTVSPost2010Prop37
 90
       50
102
RTVSPost2010PropOp37
 70
     1
102
RTVSPost2010Prop38
140
0.0
102
RTVSPost2010PropOp38
 70
     1
102
RTVSPost2010Prop39
140
1.0
102
RTVSPost2010PropOp39
 70
     1
102
RTVSPost2010Prop40
 90
        0
102
RTVSPost2010PropOp40
 70
     1
102
RTVSPost2010Prop41ColorIndex
 90
      178
102
RTVSPost2010Prop41ColorRGB
 90
        0
102
RTVSPost2010PropOp41
 70
     1
102
RTVSPost2010Prop42
 90
       50
102
RTVSPost2010PropOp42
 70
     1
102
RTVSPost2010Prop43
 90
        3
102
RTVSPost2010PropOp43
 70
     1
102
RTVSPost2010Prop44ColorIndex
 90
        5
102
RTVSPost2010Prop44ColorRGB
 90
      255
102
RTVSPost2010PropOp44
 70
     1
102
RTVSPost2010Prop45
280
     0
102
RTVSPost2010PropOp45
 70
     1
102
RTVSPost2010Prop46
 90
       50
102
RTVSPost2010PropOp46
 70
     1
102
RTVSPost2010Prop47
 90
       50
102
RTVSPost2010PropOp47
 70
     1
102
RTVSPost2010Prop48
 90
       50
102
RTVSPost2010PropOp48
 70
     1
102
RTVSPost2010Prop49
280
     0
102
RTVSPost2010PropOp49
 70
     1
102
RTVSPost2010Prop50
 90
       50
102
RTVSPost2010PropOp50
 70
     1
102
RTVSPost2010Prop51ColorIndex
 90
      256
102
RTVSPost2010Prop51ColorRGB
 90
-16777216
102
RTVSPost2010PropOp51
 70
     0
102
RTVSPost2010Prop52
140
1.0
102
RTVSPost2010PropOp52
 70
     0
102
RTVSPost2010Prop53
 90
        2
102
RTVSPost2010PropOp53
 70
     1
102
RTVSPost2010Prop54
  1
strokes_ogs.tif
102
RTVSPost2010PropOp54
 70
     1
102
RTVSPost2010Prop55
280
     0
102
RTVSPost2010PropOp55
 70
     1
102
RTVSPost2010Prop56
140
1.0
102
RTVSPost2010PropOp56
 70
     1
102
RTVSPost2010Prop57
140
1.0
102
RTVSPost2010PropOp57
 70
     1
  0
XRECORD
  5
42A
102
{ACAD_REACTORS
330
429
102
}
330
429
100
AcDbXrecord
280
     1
102
RTVSPropertyOp0
 70
     1
102
RTVSPropertyOp1
 70
     1
102
RTVSPropertyOp2
 70
     1
102
RTVSPropertyOp3
 70
     1
102
RTVSPropertyOp4
 70
     1
102
RTVSPropertyOp5
 70
     1
102
RTVSPropertyOp6
 70
     1
102
RTVSPropertyOp7
 70
     1
102
RTVSPropertyOp8
 70
     1
102
RTVSPropertyOp9
 70
     1
102
RTVSPropertyOp10
 70
     1
102
RTVSPropertyOp11
 70
     1
102
RTVSPropertyOp12
 70
     1
102
RTVSPropertyOp13
 70
     1
102
RTVSPropertyOp14
 70
     1
102
RTVSPropertyOp15
 70
     1
102
RTVSPropertyOp16
 70
     1
102
RTVSPropertyOp17
 70
     1
102
RTVSPropertyOp18
 70
     1
102
RTVSPropertyOp19
 70
     1
102
RTVSPropertyOp20
 70
     1
102
RTVSPropertyOp21
 70
     1
102
RTVSPropertyOp22
 70
     1
102
RTVSPropertyOp23
 70
     1
102
RTVSPropertyOp24
 70
     1
102
RTVSPropertyOp25
 70
     1
102
RTVSPropertyOp26
 70
     1
102
RTVSPropertyOp27
 70
     1
102
RTVSPropertyOp28
 70
     1
102
RTVSPropertyOp29
 70
     1
102
RTVSPropertyOp30
 70
     1
102
RTVSPropertyOp31
 70
     1
102
RTVSPropertyOp32
 70
     1
102
RTVSPropertyOp33
 70
     1
102
RTVSPropertyOp34
 70
     1
102
RTVSPropertyOp35
 70
     1
102
RTVSPropertyOp36
 70
     1
102
RTVSPropertyOp37
 70
     1
102
RTVSPropertyOp38
 70
     1
102
RTVSPropertyOp39
 70
     1
102
RTVSPropertyOp40
 70
     1
102
RTVSPropertyOp41
 70
     1
102
RTVSPropertyOp42
 70
     1
102
RTVSPropertyOp43
 70
     1
102
RTVSPropertyOp44
 70
     1
102
RTVSPropertyOp45
 70
     1
102
RTVSPropertyOp46
 70
     1
102
RTVSPropertyOp47
 70
     1
102
RTVSPropertyOp48
 70
     1
102
RTVSPropertyOp49
 70
     1
102
RTVSPropertyOp50
 70
     1
102
RTVSPropertyOp51
 70
     0
102
RTVSPropertyOp52
 70
     0
102
RTVSPropertyOp53
 70
     1
102
RTVSPropertyOp54
 70
     1
102
RTVSPropertyOp55
 70
     1
102
RTVSPropertyOp56
 70
     1
102
RTVSPropertyOp57
 70
     1
102
RTVSPost2010Prop28
280
     0
102
RTVSPost2010PropOp28
 70
     1
102
RTVSPost2010Prop29
280
     1
102
RTVSPost2010PropOp29
 70
     1
102
RTVSPost2010Prop30
280
     1
102
RTVSPost2010PropOp30
 70
     1
102
RTVSPost2010Prop31
280
     0
102
RTVSPost2010PropOp31
 70
     1
102
RTVSPost2010Prop32
280
     0
102
RTVSPost2010PropOp32
 70
     1
102
RTVSPost2010Prop33
280
     0
102
RTVSPost2010PropOp33
 70
     1
102
RTVSPost2010Prop34
280
     0
102
RTVSPost2010PropOp34
 70
     1
102
RTVSPost2010Prop35
280
     0
102
RTVSPost2010PropOp35
 70
     1
102
RTVSPost2010Prop36
280
     0
102
RTVSPost2010PropOp36
 70
     1
102
RTVSPost2010Prop37
 90
       50
102
RTVSPost2010PropOp37
 70
     1
102
RTVSPost2010Prop38
140
0.0
102
RTVSPost2010PropOp38
 70
     1
102
RTVSPost2010Prop39
140
1.0
102
RTVSPost2010PropOp39
 70
     1
102
RTVSPost2010Prop40
 90
        0
102
RTVSPost2010PropOp40
 70
     1
102
RTVSPost2010Prop41ColorIndex
 90
      178
102
RTVSPost2010Prop41ColorRGB
 90
        0
102
RTVSPost2010PropOp41
 70
     1
102
RTVSPost2010Prop42
 90
       50
102
RTVSPost2010PropOp42
 70
     1
102
RTVSPost2010Prop43
 90
        3
102
RTVSPost2010PropOp43
 70
     1
102
RTVSPost2010Prop44ColorIndex
 90
        5
102
RTVSPost2010Prop44ColorRGB
 90
      255
102
RTVSPost2010PropOp44
 70
     1
102
RTVSPost2010Prop45
280
     0
102
RTVSPost2010PropOp45
 70
     1
102
RTVSPost2010Prop46
 90
       50
102
RTVSPost2010PropOp46
 70
     1
102
RTVSPost2010Prop47
 90
       50
102
RTVSPost2010PropOp47
 70
     1
102
RTVSPost2010Prop48
 90
       50
102
RTVSPost2010PropOp48
 70
     1
102
RTVSPost2010Prop49
280
     0
102
RTVSPost2010PropOp49
 70
     1
102
RTVSPost2010Prop50
 90
       50
102
RTVSPost2010PropOp50
 70
     1
102
RTVSPost2010Prop51ColorIndex
 90
      256
102
RTVSPost2010Prop51ColorRGB
 90
-16777216
102
RTVSPost2010PropOp51
 70
     0
102
RTVSPost2010Prop52
140
1.0
102
RTVSPost2010PropOp52
 70
     0
102
RTVSPost2010Prop53
 90
        2
102
RTVSPost2010PropOp53
 70
     1
102
RTVSPost2010Prop54
  1
strokes_ogs.tif
102
RTVSPost2010PropOp54
 70
     1
102
RTVSPost2010Prop55
280
     0
102
RTVSPost2010PropOp55
 70
     1
102
RTVSPost2010Prop56
140
1.0
102
RTVSPost2010PropOp56
 70
     1
102
RTVSPost2010Prop57
140
1.0
102
RTVSPost2010PropOp57
 70
     1
  0
XRECORD
  5
42C
102
{ACAD_REACTORS
330
42B
102
}
330
42B
100
AcDbXrecord
280
     1
102
RTVSPropertyOp0
 70
     1
102
RTVSPropertyOp1
 70
     1
102
RTVSPropertyOp2
 70
     1
102
RTVSPropertyOp3
 70
     1
102
RTVSPropertyOp4
 70
     1
102
RTVSPropertyOp5
 70
     1
102
RTVSPropertyOp6
 70
     1
102
RTVSPropertyOp7
 70
     1
102
RTVSPropertyOp8
 70
     1
102
RTVSPropertyOp9
 70
     1
102
RTVSPropertyOp10
 70
     1
102
RTVSPropertyOp11
 70
     1
102
RTVSPropertyOp12
 70
     1
102
RTVSPropertyOp13
 70
     1
102
RTVSPropertyOp14
 70
     1
102
RTVSPropertyOp15
 70
     1
102
RTVSPropertyOp16
 70
     1
102
RTVSPropertyOp17
 70
     1
102
RTVSPropertyOp18
 70
     1
102
RTVSPropertyOp19
 70
     1
102
RTVSPropertyOp20
 70
     1
102
RTVSPropertyOp21
 70
     1
102
RTVSPropertyOp22
 70
     1
102
RTVSPropertyOp23
 70
     1
102
RTVSPropertyOp24
 70
     1
102
RTVSPropertyOp25
 70
     1
102
RTVSPropertyOp26
 70
     1
102
RTVSPropertyOp27
 70
     1
102
RTVSPropertyOp28
 70
     1
102
RTVSPropertyOp29
 70
     1
102
RTVSPropertyOp30
 70
     1
102
RTVSPropertyOp31
 70
     1
102
RTVSPropertyOp32
 70
     1
102
RTVSPropertyOp33
 70
     1
102
RTVSPropertyOp34
 70
     1
102
RTVSPropertyOp35
 70
     1
102
RTVSPropertyOp36
 70
     1
102
RTVSPropertyOp37
 70
     1
102
RTVSPropertyOp38
 70
     1
102
RTVSPropertyOp39
 70
     1
102
RTVSPropertyOp40
 70
     1
102
RTVSPropertyOp41
 70
     1
102
RTVSPropertyOp42
 70
     1
102
RTVSPropertyOp43
 70
     1
102
RTVSPropertyOp44
 70
     1
102
RTVSPropertyOp45
 70
     1
102
RTVSPropertyOp46
 70
     1
102
RTVSPropertyOp47
 70
     1
102
RTVSPropertyOp48
 70
     1
102
RTVSPropertyOp49
 70
     1
102
RTVSPropertyOp50
 70
     1
102
RTVSPropertyOp51
 70
     0
102
RTVSPropertyOp52
 70
     0
102
RTVSPropertyOp53
 70
     1
102
RTVSPropertyOp54
 70
     1
102
RTVSPropertyOp55
 70
     1
102
RTVSPropertyOp56
 70
     1
102
RTVSPropertyOp57
 70
     1
102
RTVSPost2010Prop28
280
     0
102
RTVSPost2010PropOp28
 70
     1
102
RTVSPost2010Prop29
280
     1
102
RTVSPost2010PropOp29
 70
     1
102
RTVSPost2010Prop30
280
     1
102
RTVSPost2010PropOp30
 70
     1
102
RTVSPost2010Prop31
280
     0
102
RTVSPost2010PropOp31
 70
     1
102
RTVSPost2010Prop32
280
     0
102
RTVSPost2010PropOp32
 70
     1
102
RTVSPost2010Prop33
280
     0
102
RTVSPost2010PropOp33
 70
     1
102
RTVSPost2010Prop34
280
     0
102
RTVSPost2010PropOp34
 70
     1
102
RTVSPost2010Prop35
280
     0
102
RTVSPost2010PropOp35
 70
     1
102
RTVSPost2010Prop36
280
     0
102
RTVSPost2010PropOp36
 70
     1
102
RTVSPost2010Prop37
 90
       50
102
RTVSPost2010PropOp37
 70
     1
102
RTVSPost2010Prop38
140
0.0
102
RTVSPost2010PropOp38
 70
     1
102
RTVSPost2010Prop39
140
1.0
102
RTVSPost2010PropOp39
 70
     1
102
RTVSPost2010Prop40
 90
        0
102
RTVSPost2010PropOp40
 70
     1
102
RTVSPost2010Prop41ColorIndex
 90
      178
102
RTVSPost2010Prop41ColorRGB
 90
        0
102
RTVSPost2010PropOp41
 70
     1
102
RTVSPost2010Prop42
 90
       50
102
RTVSPost2010PropOp42
 70
     1
102
RTVSPost2010Prop43
 90
        3
102
RTVSPost2010PropOp43
 70
     1
102
RTVSPost2010Prop44ColorIndex
 90
        5
102
RTVSPost2010Prop44ColorRGB
 90
      255
102
RTVSPost2010PropOp44
 70
     1
102
RTVSPost2010Prop45
280
     0
102
RTVSPost2010PropOp45
 70
     1
102
RTVSPost2010Prop46
 90
       50
102
RTVSPost2010PropOp46
 70
     1
102
RTVSPost2010Prop47
 90
       50
102
RTVSPost2010PropOp47
 70
     1
102
RTVSPost2010Prop48
 90
       50
102
RTVSPost2010PropOp48
 70
     1
102
RTVSPost2010Prop49
280
     0
102
RTVSPost2010PropOp49
 70
     1
102
RTVSPost2010Prop50
 90
       50
102
RTVSPost2010PropOp50
 70
     1
102
RTVSPost2010Prop51ColorIndex
 90
      256
102
RTVSPost2010Prop51ColorRGB
 90
-16777216
102
RTVSPost2010PropOp51
 70
     0
102
RTVSPost2010Prop52
140
1.0
102
RTVSPost2010PropOp52
 70
     0
102
RTVSPost2010Prop53
 90
        2
102
RTVSPost2010PropOp53
 70
     1
102
RTVSPost2010Prop54
  1
strokes_ogs.tif
102
RTVSPost2010PropOp54
 70
     1
102
RTVSPost2010Prop55
280
     0
102
RTVSPost2010PropOp55
 70
     1
102
RTVSPost2010Prop56
140
1.0
102
RTVSPost2010PropOp56
 70
     1
102
RTVSPost2010Prop57
140
1.0
102
RTVSPost2010PropOp57
 70
     1
  0
XRECORD
  5
41C
102
{ACAD_REACTORS
330
41B
102
}
330
41B
100
AcDbXrecord
280
     1
102
RTVSPropertyOp0
 70
     1
102
RTVSPropertyOp1
 70
     1
102
RTVSPropertyOp2
 70
     1
102
RTVSPropertyOp3
 70
     1
102
RTVSPropertyOp4
 70
     1
102
RTVSPropertyOp5
 70
     1
102
RTVSPropertyOp6
 70
     1
102
RTVSPropertyOp7
 70
     1
102
RTVSPropertyOp8
 70
     1
102
RTVSPropertyOp9
 70
     1
102
RTVSPropertyOp10
 70
     1
102
RTVSPropertyOp11
 70
     1
102
RTVSPropertyOp12
 70
     1
102
RTVSPropertyOp13
 70
     1
102
RTVSPropertyOp14
 70
     1
102
RTVSPropertyOp15
 70
     1
102
RTVSPropertyOp16
 70
     1
102
RTVSPropertyOp17
 70
     1
102
RTVSPropertyOp18
 70
     1
102
RTVSPropertyOp19
 70
     1
102
RTVSPropertyOp20
 70
     1
102
RTVSPropertyOp21
 70
     1
102
RTVSPropertyOp22
 70
     1
102
RTVSPropertyOp23
 70
     1
102
RTVSPropertyOp24
 70
     1
102
RTVSPropertyOp25
 70
     1
102
RTVSPropertyOp26
 70
     1
102
RTVSPropertyOp27
 70
     1
102
RTVSPropertyOp28
 70
     1
102
RTVSPropertyOp29
 70
     1
102
RTVSPropertyOp30
 70
     1
102
RTVSPropertyOp31
 70
     1
102
RTVSPropertyOp32
 70
     1
102
RTVSPropertyOp33
 70
     1
102
RTVSPropertyOp34
 70
     1
102
RTVSPropertyOp35
 70
     1
102
RTVSPropertyOp36
 70
     1
102
RTVSPropertyOp37
 70
     1
102
RTVSPropertyOp38
 70
     1
102
RTVSPropertyOp39
 70
     1
102
RTVSPropertyOp40
 70
     1
102
RTVSPropertyOp41
 70
     1
102
RTVSPropertyOp42
 70
     1
102
RTVSPropertyOp43
 70
     1
102
RTVSPropertyOp44
 70
     1
102
RTVSPropertyOp45
 70
     1
102
RTVSPropertyOp46
 70
     1
102
RTVSPropertyOp47
 70
     1
102
RTVSPropertyOp48
 70
     1
102
RTVSPropertyOp49
 70
     1
102
RTVSPropertyOp50
 70
     1
102
RTVSPropertyOp51
 70
     0
102
RTVSPropertyOp52
 70
     0
102
RTVSPropertyOp53
 70
     1
102
RTVSPropertyOp54
 70
     1
102
RTVSPropertyOp55
 70
     1
102
RTVSPropertyOp56
 70
     1
102
RTVSPropertyOp57
 70
     1
102
RTVSPost2010Prop28
280
     0
102
RTVSPost2010PropOp28
 70
     1
102
RTVSPost2010Prop29
280
     1
102
RTVSPost2010PropOp29
 70
     1
102
RTVSPost2010Prop30
280
     1
102
RTVSPost2010PropOp30
 70
     1
102
RTVSPost2010Prop31
280
     0
102
RTVSPost2010PropOp31
 70
     1
102
RTVSPost2010Prop32
280
     0
102
RTVSPost2010PropOp32
 70
     1
102
RTVSPost2010Prop33
280
     0
102
RTVSPost2010PropOp33
 70
     1
102
RTVSPost2010Prop34
280
     0
102
RTVSPost2010PropOp34
 70
     1
102
RTVSPost2010Prop35
280
     0
102
RTVSPost2010PropOp35
 70
     1
102
RTVSPost2010Prop36
280
     0
102
RTVSPost2010PropOp36
 70
     1
102
RTVSPost2010Prop37
 90
       50
102
RTVSPost2010PropOp37
 70
     1
102
RTVSPost2010Prop38
140
0.0
102
RTVSPost2010PropOp38
 70
     1
102
RTVSPost2010Prop39
140
1.0
102
RTVSPost2010PropOp39
 70
     1
102
RTVSPost2010Prop40
 90
        0
102
RTVSPost2010PropOp40
 70
     1
102
RTVSPost2010Prop41ColorIndex
 90
      178
102
RTVSPost2010Prop41ColorRGB
 90
        0
102
RTVSPost2010PropOp41
 70
     1
102
RTVSPost2010Prop42
 90
       50
102
RTVSPost2010PropOp42
 70
     1
102
RTVSPost2010Prop43
 90
        3
102
RTVSPost2010PropOp43
 70
     1
102
RTVSPost2010Prop44ColorIndex
 90
        5
102
RTVSPost2010Prop44ColorRGB
 90
      255
102
RTVSPost2010PropOp44
 70
     1
102
RTVSPost2010Prop45
280
     0
102
RTVSPost2010PropOp45
 70
     1
102
RTVSPost2010Prop46
 90
       50
102
RTVSPost2010PropOp46
 70
     1
102
RTVSPost2010Prop47
 90
       50
102
RTVSPost2010PropOp47
 70
     1
102
RTVSPost2010Prop48
 90
       50
102
RTVSPost2010PropOp48
 70
     1
102
RTVSPost2010Prop49
280
     0
102
RTVSPost2010PropOp49
 70
     1
102
RTVSPost2010Prop50
 90
       50
102
RTVSPost2010PropOp50
 70
     1
102
RTVSPost2010Prop51ColorIndex
 90
      256
102
RTVSPost2010Prop51ColorRGB
 90
-16777216
102
RTVSPost2010PropOp51
 70
     0
102
RTVSPost2010Prop52
140
1.0
102
RTVSPost2010PropOp52
 70
     0
102
RTVSPost2010Prop53
 90
        2
102
RTVSPost2010PropOp53
 70
     1
102
RTVSPost2010Prop54
  1
strokes_ogs.tif
102
RTVSPost2010PropOp54
 70
     1
102
RTVSPost2010Prop55
280
     0
102
RTVSPost2010PropOp55
 70
     1
102
RTVSPost2010Prop56
140
1.0
102
RTVSPost2010PropOp56
 70
     1
102
RTVSPost2010Prop57
140
1.0
102
RTVSPost2010PropOp57
 70
     1
  0
XRECORD
  5
40E
102
{ACAD_REACTORS
330
40D
102
}
330
40D
100
AcDbXrecord
280
     1
102
RTVSPropertyOp0
 70
     1
102
RTVSPropertyOp1
 70
     1
102
RTVSPropertyOp2
 70
     1
102
RTVSPropertyOp3
 70
     1
102
RTVSPropertyOp4
 70
     1
102
RTVSPropertyOp5
 70
     1
102
RTVSPropertyOp6
 70
     1
102
RTVSPropertyOp7
 70
     1
102
RTVSPropertyOp8
 70
     1
102
RTVSPropertyOp9
 70
     1
102
RTVSPropertyOp10
 70
     1
102
RTVSPropertyOp11
 70
     1
102
RTVSPropertyOp12
 70
     1
102
RTVSPropertyOp13
 70
     1
102
RTVSPropertyOp14
 70
     1
102
RTVSPropertyOp15
 70
     1
102
RTVSPropertyOp16
 70
     1
102
RTVSPropertyOp17
 70
     1
102
RTVSPropertyOp18
 70
     1
102
RTVSPropertyOp19
 70
     1
102
RTVSPropertyOp20
 70
     1
102
RTVSPropertyOp21
 70
     1
102
RTVSPropertyOp22
 70
     1
102
RTVSPropertyOp23
 70
     1
102
RTVSPropertyOp24
 70
     1
102
RTVSPropertyOp25
 70
     1
102
RTVSPropertyOp26
 70
     1
102
RTVSPropertyOp27
 70
     1
102
RTVSPropertyOp28
 70
     1
102
RTVSPropertyOp29
 70
     1
102
RTVSPropertyOp30
 70
     1
102
RTVSPropertyOp31
 70
     1
102
RTVSPropertyOp32
 70
     1
102
RTVSPropertyOp33
 70
     1
102
RTVSPropertyOp34
 70
     1
102
RTVSPropertyOp35
 70
     1
102
RTVSPropertyOp36
 70
     1
102
RTVSPropertyOp37
 70
     1
102
RTVSPropertyOp38
 70
     1
102
RTVSPropertyOp39
 70
     1
102
RTVSPropertyOp40
 70
     1
102
RTVSPropertyOp41
 70
     1
102
RTVSPropertyOp42
 70
     1
102
RTVSPropertyOp43
 70
     1
102
RTVSPropertyOp44
 70
     1
102
RTVSPropertyOp45
 70
     1
102
RTVSPropertyOp46
 70
     1
102
RTVSPropertyOp47
 70
     1
102
RTVSPropertyOp48
 70
     1
102
RTVSPropertyOp49
 70
     1
102
RTVSPropertyOp50
 70
     1
102
RTVSPropertyOp51
 70
     0
102
RTVSPropertyOp52
 70
     0
102
RTVSPropertyOp53
 70
     1
102
RTVSPropertyOp54
 70
     1
102
RTVSPropertyOp55
 70
     1
102
RTVSPropertyOp56
 70
     1
102
RTVSPropertyOp57
 70
     1
102
RTVSPost2010Prop28
280
     0
102
RTVSPost2010PropOp28
 70
     1
102
RTVSPost2010Prop29
280
     1
102
RTVSPost2010PropOp29
 70
     1
102
RTVSPost2010Prop30
280
     1
102
RTVSPost2010PropOp30
 70
     1
102
RTVSPost2010Prop31
280
     0
102
RTVSPost2010PropOp31
 70
     1
102
RTVSPost2010Prop32
280
     0
102
RTVSPost2010PropOp32
 70
     1
102
RTVSPost2010Prop33
280
     0
102
RTVSPost2010PropOp33
 70
     1
102
RTVSPost2010Prop34
280
     0
102
RTVSPost2010PropOp34
 70
     1
102
RTVSPost2010Prop35
280
     0
102
RTVSPost2010PropOp35
 70
     1
102
RTVSPost2010Prop36
280
     0
102
RTVSPost2010PropOp36
 70
     1
102
RTVSPost2010Prop37
 90
       50
102
RTVSPost2010PropOp37
 70
     1
102
RTVSPost2010Prop38
140
0.0
102
RTVSPost2010PropOp38
 70
     1
102
RTVSPost2010Prop39
140
1.0
102
RTVSPost2010PropOp39
 70
     1
102
RTVSPost2010Prop40
 90
        0
102
RTVSPost2010PropOp40
 70
     1
102
RTVSPost2010Prop41ColorIndex
 90
      178
102
RTVSPost2010Prop41ColorRGB
 90
        0
102
RTVSPost2010PropOp41
 70
     1
102
RTVSPost2010Prop42
 90
       50
102
RTVSPost2010PropOp42
 70
     1
102
RTVSPost2010Prop43
 90
        3
102
RTVSPost2010PropOp43
 70
     1
102
RTVSPost2010Prop44ColorIndex
 90
        5
102
RTVSPost2010Prop44ColorRGB
 90
      255
102
RTVSPost2010PropOp44
 70
     1
102
RTVSPost2010Prop45
280
     0
102
RTVSPost2010PropOp45
 70
     1
102
RTVSPost2010Prop46
 90
       50
102
RTVSPost2010PropOp46
 70
     1
102
RTVSPost2010Prop47
 90
       50
102
RTVSPost2010PropOp47
 70
     1
102
RTVSPost2010Prop48
 90
       50
102
RTVSPost2010PropOp48
 70
     1
102
RTVSPost2010Prop49
280
     0
102
RTVSPost2010PropOp49
 70
     1
102
RTVSPost2010Prop50
 90
       50
102
RTVSPost2010PropOp50
 70
     1
102
RTVSPost2010Prop51ColorIndex
 90
      256
102
RTVSPost2010Prop51ColorRGB
 90
-16777216
102
RTVSPost2010PropOp51
 70
     0
102
RTVSPost2010Prop52
140
1.0
102
RTVSPost2010PropOp52
 70
     0
102
RTVSPost2010Prop53
 90
        2
102
RTVSPost2010PropOp53
 70
     1
102
RTVSPost2010Prop54
  1
strokes_ogs.tif
102
RTVSPost2010PropOp54
 70
     1
102
RTVSPost2010Prop55
280
     0
102
RTVSPost2010PropOp55
 70
     1
102
RTVSPost2010Prop56
140
1.0
102
RTVSPost2010PropOp56
 70
     1
102
RTVSPost2010Prop57
140
1.0
102
RTVSPost2010PropOp57
 70
     1
  0
XRECORD
  5
42E
102
{ACAD_REACTORS
330
42D
102
}
330
42D
100
AcDbXrecord
280
     1
102
RTVSPropertyOp0
 70
     1
102
RTVSPropertyOp1
 70
     1
102
RTVSPropertyOp2
 70
     1
102
RTVSPropertyOp3
 70
     1
102
RTVSPropertyOp4
 70
     1
102
RTVSPropertyOp5
 70
     1
102
RTVSPropertyOp6
 70
     1
102
RTVSPropertyOp7
 70
     1
102
RTVSPropertyOp8
 70
     1
102
RTVSPropertyOp9
 70
     1
102
RTVSPropertyOp10
 70
     1
102
RTVSPropertyOp11
 70
     1
102
RTVSPropertyOp12
 70
     1
102
RTVSPropertyOp13
 70
     1
102
RTVSPropertyOp14
 70
     1
102
RTVSPropertyOp15
 70
     1
102
RTVSPropertyOp16
 70
     1
102
RTVSPropertyOp17
 70
     1
102
RTVSPropertyOp18
 70
     1
102
RTVSPropertyOp19
 70
     1
102
RTVSPropertyOp20
 70
     1
102
RTVSPropertyOp21
 70
     1
102
RTVSPropertyOp22
 70
     1
102
RTVSPropertyOp23
 70
     1
102
RTVSPropertyOp24
 70
     1
102
RTVSPropertyOp25
 70
     1
102
RTVSPropertyOp26
 70
     1
102
RTVSPropertyOp27
 70
     1
102
RTVSPropertyOp28
 70
     1
102
RTVSPropertyOp29
 70
     1
102
RTVSPropertyOp30
 70
     1
102
RTVSPropertyOp31
 70
     1
102
RTVSPropertyOp32
 70
     1
102
RTVSPropertyOp33
 70
     1
102
RTVSPropertyOp34
 70
     1
102
RTVSPropertyOp35
 70
     1
102
RTVSPropertyOp36
 70
     1
102
RTVSPropertyOp37
 70
     1
102
RTVSPropertyOp38
 70
     1
102
RTVSPropertyOp39
 70
     1
102
RTVSPropertyOp40
 70
     1
102
RTVSPropertyOp41
 70
     1
102
RTVSPropertyOp42
 70
     1
102
RTVSPropertyOp43
 70
     1
102
RTVSPropertyOp44
 70
     1
102
RTVSPropertyOp45
 70
     1
102
RTVSPropertyOp46
 70
     1
102
RTVSPropertyOp47
 70
     1
102
RTVSPropertyOp48
 70
     1
102
RTVSPropertyOp49
 70
     1
102
RTVSPropertyOp50
 70
     1
102
RTVSPropertyOp51
 70
     0
102
RTVSPropertyOp52
 70
     0
102
RTVSPropertyOp53
 70
     1
102
RTVSPropertyOp54
 70
     1
102
RTVSPropertyOp55
 70
     1
102
RTVSPropertyOp56
 70
     1
102
RTVSPropertyOp57
 70
     1
102
RTVSPost2010Prop28
280
     0
102
RTVSPost2010PropOp28
 70
     1
102
RTVSPost2010Prop29
280
     1
102
RTVSPost2010PropOp29
 70
     1
102
RTVSPost2010Prop30
280
     1
102
RTVSPost2010PropOp30
 70
     1
102
RTVSPost2010Prop31
280
     0
102
RTVSPost2010PropOp31
 70
     1
102
RTVSPost2010Prop32
280
     0
102
RTVSPost2010PropOp32
 70
     1
102
RTVSPost2010Prop33
280
     0
102
RTVSPost2010PropOp33
 70
     1
102
RTVSPost2010Prop34
280
     0
102
RTVSPost2010PropOp34
 70
     1
102
RTVSPost2010Prop35
280
     0
102
RTVSPost2010PropOp35
 70
     1
102
RTVSPost2010Prop36
280
     0
102
RTVSPost2010PropOp36
 70
     1
102
RTVSPost2010Prop37
 90
       50
102
RTVSPost2010PropOp37
 70
     1
102
RTVSPost2010Prop38
140
0.0
102
RTVSPost2010PropOp38
 70
     1
102
RTVSPost2010Prop39
140
1.0
102
RTVSPost2010PropOp39
 70
     1
102
RTVSPost2010Prop40
 90
        0
102
RTVSPost2010PropOp40
 70
     1
102
RTVSPost2010Prop41ColorIndex
 90
      178
102
RTVSPost2010Prop41ColorRGB
 90
        0
102
RTVSPost2010PropOp41
 70
     1
102
RTVSPost2010Prop42
 90
       50
102
RTVSPost2010PropOp42
 70
     1
102
RTVSPost2010Prop43
 90
        3
102
RTVSPost2010PropOp43
 70
     1
102
RTVSPost2010Prop44ColorIndex
 90
        5
102
RTVSPost2010Prop44ColorRGB
 90
      255
102
RTVSPost2010PropOp44
 70
     1
102
RTVSPost2010Prop45
280
     0
102
RTVSPost2010PropOp45
 70
     1
102
RTVSPost2010Prop46
 90
       50
102
RTVSPost2010PropOp46
 70
     1
102
RTVSPost2010Prop47
 90
       50
102
RTVSPost2010PropOp47
 70
     1
102
RTVSPost2010Prop48
 90
       50
102
RTVSPost2010PropOp48
 70
     1
102
RTVSPost2010Prop49
280
     0
102
RTVSPost2010PropOp49
 70
     1
102
RTVSPost2010Prop50
 90
       50
102
RTVSPost2010PropOp50
 70
     1
102
RTVSPost2010Prop51ColorIndex
 90
      256
102
RTVSPost2010Prop51ColorRGB
 90
-16777216
102
RTVSPost2010PropOp51
 70
     0
102
RTVSPost2010Prop52
140
1.0
102
RTVSPost2010PropOp52
 70
     0
102
RTVSPost2010Prop53
 90
        2
102
RTVSPost2010PropOp53
 70
     1
102
RTVSPost2010Prop54
  1
strokes_ogs.tif
102
RTVSPost2010PropOp54
 70
     1
102
RTVSPost2010Prop55
280
     0
102
RTVSPost2010PropOp55
 70
     1
102
RTVSPost2010Prop56
140
1.0
102
RTVSPost2010PropOp56
 70
     1
102
RTVSPost2010Prop57
140
1.0
102
RTVSPost2010PropOp57
 70
     1
  0
ENDSEC
  0
EOF
