  0
SECTION
  2
HEADER
  9
$ACADVER
  1
AC1018
  9
$ACADMAINTVER
 70
     0
  9
$DWGCODEPAGE
  3
ANSI_950
  9
$INSBASE
 10
0.0
 20
0.0
 30
0.0
  9
$EXTMIN
 10
1.000000000000000E+20
 20
1.000000000000000E+20
 30
1.000000000000000E+20
  9
$EXTMAX
 10
-1.000000000000000E+20
 20
-1.000000000000000E+20
 30
-1.000000000000000E+20
  9
$LIMMIN
 10
0.0
 20
0.0
  9
$LIMMAX
 10
12.0
 20
9.0
  9
$ORTHOMODE
 70
     0
  9
$REGENMODE
 70
     1
  9
$FILLMODE
 70
     1
  9
$QTEXTMODE
 70
     0
  9
$MIRRTEXT
 70
     1
  9
$LTSCALE
 40
1.0
  9
$ATTMODE
 70
     1
  9
$TEXTSIZE
 40
0.2
  9
$TRACEWID
 40
0.05
  9
$TEXTSTYLE
  7
Standard
  9
$CLAYER
  8
0
  9
$CELTYPE
  6
ByLayer
  9
$CECOLOR
 62
   256
  9
$CELTSCALE
 40
1.0
  9
$DISPSILH
 70
     0
  9
$DIMSCALE
 40
1.0
  9
$DIMASZ
 40
0.18
  9
$DIMEXO
 40
0.0625
  9
$DIMDLI
 40
0.38
  9
$DIMRND
 40
0.0
  9
$DIMDLE
 40
0.0
  9
$DIMEXE
 40
0.18
  9
$DIMTP
 40
0.0
  9
$DIMTM
 40
0.0
  9
$DIMTXT
 40
0.18
  9
$DIMCEN
 40
0.09
  9
$DIMTSZ
 40
0.0
  9
$DIMTOL
 70
     0
  9
$DIMLIM
 70
     0
  9
$DIMTIH
 70
     1
  9
$DIMTOH
 70
     1
  9
$DIMSE1
 70
     0
  9
$DIMSE2
 70
     0
  9
$DIMTAD
 70
     0
  9
$DIMZIN
 70
     0
  9
$DIMBLK
  1

  9
$DIMASO
 70
     1
  9
$DIMSHO
 70
     1
  9
$DIMPOST
  1

  9
$DIMAPOST
  1

  9
$DIMALT
 70
     0
  9
$DIMALTD
 70
     2
  9
$DIMALTF
 40
25.4
  9
$DIMLFAC
 40
1.0
  9
$DIMTOFL
 70
     0
  9
$DIMTVP
 40
0.0
  9
$DIMTIX
 70
     0
  9
$DIMSOXD
 70
     0
  9
$DIMSAH
 70
     0
  9
$DIMBLK1
  1

  9
$DIMBLK2
  1

  9
$DIMSTYLE
  2
Standard
  9
$DIMCLRD
 70
     0
  9
$DIMCLRE
 70
     0
  9
$DIMCLRT
 70
     0
  9
$DIMTFAC
 40
1.0
  9
$DIMGAP
 40
0.09
  9
$DIMJUST
 70
     0
  9
$DIMSD1
 70
     0
  9
$DIMSD2
 70
     0
  9
$DIMTOLJ
 70
     1
  9
$DIMTZIN
 70
     0
  9
$DIMALTZ
 70
     0
  9
$DIMALTTZ
 70
     0
  9
$DIMUPT
 70
     0
  9
$DIMDEC
 70
     4
  9
$DIMTDEC
 70
     4
  9
$DIMALTU
 70
     2
  9
$DIMALTTD
 70
     2
  9
$DIMTXSTY
  7
Standard
  9
$DIMAUNIT
 70
     0
  9
$DIMADEC
 70
     0
  9
$DIMALTRND
 40
0.0
  9
$DIMAZIN
 70
     0
  9
$DIMDSEP
 70
    46
  9
$DIMATFIT
 70
     3
  9
$DIMFRAC
 70
     0
  9
$DIMLDRBLK
  1

  9
$DIMLUNIT
 70
     2
  9
$DIMLWD
 70
    -2
  9
$DIMLWE
 70
    -2
  9
$DIMTMOVE
 70
     0
  9
$LUNITS
 70
     2
  9
$LUPREC
 70
     4
  9
$SKETCHINC
 40
0.1
  9
$FILLETRAD
 40
0.5
  9
$AUNITS
 70
     0
  9
$AUPREC
 70
     0
  9
$MENU
  1
.
  9
$ELEVATION
 40
0.0
  9
$PELEVATION
 40
0.0
  9
$THICKNESS
 40
0.0
  9
$LIMCHECK
 70
     0
  9
$CHAMFERA
 40
0.5
  9
$CHAMFERB
 40
0.5
  9
$CHAMFERC
 40
1.0
  9
$CHAMFERD
 40
0.0
  9
$SKPOLY
 70
     0
  9
$TDCREATE
 40
2457117.973315127
  9
$TDUCREATE
 40
2457117.639981794
  9
$TDUPDATE
 40
2457117.973315162
  9
$TDUUPDATE
 40
2457117.639981829
  9
$TDINDWG
 40
0.0000000116
  9
$TDUSRTIMER
 40
0.0000000116
  9
$USRTIMER
 70
     1
  9
$ANGBASE
 50
0.0
  9
$ANGDIR
 70
     0
  9
$PDMODE
 70
     0
  9
$PDSIZE
 40
0.0
  9
$PLINEWID
 40
0.0
  9
$SPLFRAME
 70
     0
  9
$SPLINETYPE
 70
     6
  9
$SPLINESEGS
 70
     8
  9
$HANDSEED
  5
13A
  9
$SURFTAB1
 70
     6
  9
$SURFTAB2
 70
     6
  9
$SURFTYPE
 70
     6
  9
$SURFU
 70
     6
  9
$SURFV
 70
     6
  9
$UCSBASE
  2

  9
$UCSNAME
  2

  9
$UCSORG
 10
0.0
 20
0.0
 30
0.0
  9
$UCSXDIR
 10
1.0
 20
0.0
 30
0.0
  9
$UCSYDIR
 10
0.0
 20
1.0
 30
0.0
  9
$UCSORTHOREF
  2

  9
$UCSORTHOVIEW
 70
     0
  9
$UCSORGTOP
 10
0.0
 20
0.0
 30
0.0
  9
$UCSORGBOTTOM
 10
0.0
 20
0.0
 30
0.0
  9
$UCSORGLEFT
 10
0.0
 20
0.0
 30
0.0
  9
$UCSORGRIGHT
 10
0.0
 20
0.0
 30
0.0
  9
$UCSORGFRONT
 10
0.0
 20
0.0
 30
0.0
  9
$UCSORGBACK
 10
0.0
 20
0.0
 30
0.0
  9
$PUCSBASE
  2

  9
$PUCSNAME
  2

  9
$PUCSORG
 10
0.0
 20
0.0
 30
0.0
  9
$PUCSXDIR
 10
1.0
 20
0.0
 30
0.0
  9
$PUCSYDIR
 10
0.0
 20
1.0
 30
0.0
  9
$PUCSORTHOREF
  2

  9
$PUCSORTHOVIEW
 70
     0
  9
$PUCSORGTOP
 10
0.0
 20
0.0
 30
0.0
  9
$PUCSORGBOTTOM
 10
0.0
 20
0.0
 30
0.0
  9
$PUCSORGLEFT
 10
0.0
 20
0.0
 30
0.0
  9
$PUCSORGRIGHT
 10
0.0
 20
0.0
 30
0.0
  9
$PUCSORGFRONT
 10
0.0
 20
0.0
 30
0.0
  9
$PUCSORGBACK
 10
0.0
 20
0.0
 30
0.0
  9
$USERI1
 70
     0
  9
$USERI2
 70
     0
  9
$USERI3
 70
     0
  9
$USERI4
 70
     0
  9
$USERI5
 70
     0
  9
$USERR1
 40
0.0
  9
$USERR2
 40
0.0
  9
$USERR3
 40
0.0
  9
$USERR4
 40
0.0
  9
$USERR5
 40
0.0
  9
$WORLDVIEW
 70
     1
  9
$SHADEDGE
 70
     3
  9
$SHADEDIF
 70
    70
  9
$TILEMODE
 70
     1
  9
$MAXACTVP
 70
    64
  9
$PINSBASE
 10
0.0
 20
0.0
 30
0.0
  9
$PLIMCHECK
 70
     0
  9
$PEXTMIN
 10
1.000000000000000E+20
 20
1.000000000000000E+20
 30
1.000000000000000E+20
  9
$PEXTMAX
 10
-1.000000000000000E+20
 20
-1.000000000000000E+20
 30
-1.000000000000000E+20
  9
$PLIMMIN
 10
0.0
 20
0.0
  9
$PLIMMAX
 10
12.0
 20
9.0
  9
$UNITMODE
 70
     0
  9
$VISRETAIN
 70
     1
  9
$PLINEGEN
 70
     0
  9
$PSLTSCALE
 70
     1
  9
$TREEDEPTH
 70
  3020
  9
$CMLSTYLE
  2
Standard
  9
$CMLJUST
 70
     0
  9
$CMLSCALE
 40
1.0
  9
$PROXYGRAPHICS
 70
     1
  9
$MEASUREMENT
 70
     0
  9
$CELWEIGHT
370
    -1
  9
$ENDCAPS
280
     0
  9
$JOINSTYLE
280
     0
  9
$LWDISPLAY
290
     1
  9
$INSUNITS
 70
     1
  9
$HYPERLINKBASE
  1

  9
$STYLESHEET
  1

  9
$XEDIT
290
     1
  9
$CEPSNTYPE
380
     0
  9
$PSTYLEMODE
290
     1
  9
$FINGERPRINTGUID
  2
{993840CC-B8C7-486A-8EC9-9D7D6B43EC4B}
  9
$VERSIONGUID
  2
{FAEB1C32-E019-11D5-929B-00C0DF256EC4}
  9
$EXTNAMES
290
     1
  9
$PSVPSCALE
 40
0.0
  9
$OLESTARTUP
290
     0
  9
$SORTENTS
280
   127
  9
$INDEXCTL
280
     0
  9
$HIDETEXT
280
     1
  9
$XCLIPFRAME
290
     0
  9
$HALOGAP
280
     0
  9
$OBSCOLOR
 70
   257
  9
$OBSLTYPE
280
     0
  9
$INTERSECTIONDISPLAY
280
     0
  9
$INTERSECTIONCOLOR
 70
   257
  9
$DIMASSOC
280
     2
  9
$PROJECTNAME
  1

  0
ENDSEC
  0
SECTION
  2
CLASSES
  0
CLASS
  1
ACDBDICTIONARYWDFLT
  2
AcDbDictionaryWithDefault
  3
ObjectDBX Classes
 90
        0
 91
        4
280
     0
281
     0
  0
CLASS
  1
VISUALSTYLE
  2
AcDbVisualStyle
  3
ObjectDBX Classes
 90
     4095
 91
        4
280
     0
281
     0
  0
CLASS
  1
MATERIAL
  2
AcDbMaterial
  3
ObjectDBX Classes
 90
     1153
 91
        4
280
     0
281
     0
  0
CLASS
  1
SUN
  2
AcDbSun
  3
SCENEOE
 90
     1024
 91
        4
280
     0
281
     0
  0
ENDSEC
  0
SECTION
  2
TABLES
  0
TABLE
  2
VPORT
  5
8
330
0
100
AcDbSymbolTable
 70
     1
  0
VPORT
  5
29
330
8
100
AcDbSymbolTableRecord
100
AcDbViewportTableRecord
  2
*Active
 70
     0
 10
0.0
 20
0.0
 11
1.0
 21
1.0
 12
0.0
 22
0.0
 13
0.0
 23
0.0
 14
0.5
 24
0.5
 15
0.5
 25
0.5
 16
0.0
 26
0.0
 36
1.0
 17
20.00003055055556
 27
-14.99993471847223
 37
0.0
 40
29.99986943694445
 41
1.333341172873624
 42
50.0
 43
0.0
 44
0.0
 50
0.0
 51
0.0
 71
     0
 72
   100
 73
     1
 74
     3
 75
     0
 76
     0
 77
     0
 78
     0
281
     0
 65
     1
110
0.0
120
0.0
130
0.0
111
1.0
121
0.0
131
0.0
112
0.0
122
1.0
132
0.0
 79
     0
146
0.0
  0
ENDTAB
  0
TABLE
  2
LTYPE
  5
5
330
0
100
AcDbSymbolTable
 70
     1
  0
LTYPE
  5
14
330
5
100
AcDbSymbolTableRecord
100
AcDbLinetypeTableRecord
  2
ByBlock
 70
     0
  3

 72
    65
 73
     0
 40
0.0
  0
LTYPE
  5
15
330
5
100
AcDbSymbolTableRecord
100
AcDbLinetypeTableRecord
  2
ByLayer
 70
     0
  3

 72
    65
 73
     0
 40
0.0
  0
LTYPE
  5
16
330
5
100
AcDbSymbolTableRecord
100
AcDbLinetypeTableRecord
  2
Continuous
 70
     0
  3
Solid line
 72
    65
 73
     0
 40
0.0
  0
ENDTAB
  0
TABLE
  2
LAYER
  5
2
330
0
100
AcDbSymbolTable
 70
     3
  0
LAYER
  5
10
330
2
100
AcDbSymbolTableRecord
100
AcDbLayerTableRecord
  2
0
 70
     0
 62
     7
  6
Continuous
370
    -3
390
F
  0
LAYER
  5
40
330
2
100
AcDbSymbolTableRecord
100
AcDbLayerTableRecord
  2
_U+5716_U+5C64 1
 70
     5
 62
     7
  6
Continuous
370
    -3
390
F
  0
LAYER
  5
41
330
2
100
AcDbSymbolTableRecord
100
AcDbLayerTableRecord
  2
_U+5716_U+5C64 2
 70
     0
 62
     7
  6
Continuous
370
    -3
390
F
  0
ENDTAB
  0
TABLE
  2
STYLE
  5
3
330
0
100
AcDbSymbolTable
 70
     1
  0
STYLE
  5
11
330
3
100
AcDbSymbolTableRecord
100
AcDbTextStyleTableRecord
  2
Standard
 70
     0
 40
0.0
 41
1.0
 50
0.0
 71
     0
 42
0.2
  3
txt
  4

  0
ENDTAB
  0
TABLE
  2
VIEW
  5
6
330
0
100
AcDbSymbolTable
 70
     0
  0
ENDTAB
  0
TABLE
  2
UCS
  5
7
330
0
100
AcDbSymbolTable
 70
     0
  0
ENDTAB
  0
TABLE
  2
APPID
  5
9
330
0
100
AcDbSymbolTable
 70
     1
  0
APPID
  5
12
330
9
100
AcDbSymbolTableRecord
100
AcDbRegAppTableRecord
  2
ACAD
 70
     0
  0
ENDTAB
  0
TABLE
  2
DIMSTYLE
  5
A
330
0
100
AcDbSymbolTable
 70
     1
100
AcDbDimStyleTable
  0
DIMSTYLE
105
27
330
A
100
AcDbSymbolTableRecord
100
AcDbDimStyleTableRecord
  2
Standard
 70
     0
178
     0
340
11
  0
ENDTAB
  0
TABLE
  2
BLOCK_RECORD
  5
1
330
0
100
AcDbSymbolTable
 70
     1
  0
BLOCK_RECORD
  5
1F
330
1
100
AcDbSymbolTableRecord
100
AcDbBlockTableRecord
  2
*Model_Space
340
22
  0
BLOCK_RECORD
  5
1B
330
1
100
AcDbSymbolTableRecord
100
AcDbBlockTableRecord
  2
*Paper_Space
340
1E
  0
BLOCK_RECORD
  5
23
330
1
100
AcDbSymbolTableRecord
100
AcDbBlockTableRecord
  2
*Paper_Space0
340
26
  0
ENDTAB
  0
ENDSEC
  0
SECTION
  2
BLOCKS
  0
BLOCK
  5
20
330
1F
100
AcDbEntity
  8
0
100
AcDbBlockBegin
  2
*Model_Space
 70
     0
 10
0.0
 20
0.0
 30
0.0
  3
*Model_Space
  1

  0
ENDBLK
  5
21
330
1F
100
AcDbEntity
  8
0
100
AcDbBlockEnd
  0
BLOCK
  5
1C
330
1B
100
AcDbEntity
 67
     1
  8
0
100
AcDbBlockBegin
  2
*Paper_Space
 70
     0
 10
0.0
 20
0.0
 30
0.0
  3
*Paper_Space
  1

  0
ENDBLK
  5
1D
330
1B
100
AcDbEntity
 67
     1
  8
0
100
AcDbBlockEnd
  0
BLOCK
  5
24
330
23
100
AcDbEntity
  8
0
100
AcDbBlockBegin
  2
*Paper_Space0
 70
     0
 10
0.0
 20
0.0
 30
0.0
  3
*Paper_Space0
  1

  0
ENDBLK
  5
25
330
23
100
AcDbEntity
  8
0
100
AcDbBlockEnd
  0
ENDSEC
  0
SECTION
  2
ENTITIES
  0
SPLINE
  5
42
330
1F
100
AcDbEntity
  8
_U+5716_U+5C64 2
370
     0
100
AcDbSpline
210
0.0
220
0.0
230
1.0
 70
    11
 71
     3
 72
    14
 73
    10
 74
     0
 42
0.0000000001
 43
0.0000000001
 12
1.0
 22
0.0
 32
0.0
 13
1.0
 23
0.0
 33
0.0
 40
0.0
 40
0.0
 40
0.0
 40
0.0
 40
1.0
 40
1.0
 40
1.0
 40
2.0
 40
2.0
 40
2.0
 40
3.0
 40
3.0
 40
3.0
 40
3.0
 10
8.855646489494253
 20
-26.73838561517708
 30
0.0
 10
8.856022554771595
 20
-26.73825010987473
 30
0.0
 10
8.856757937479886
 20
-26.73798062180156
 30
0.0
 10
8.85716902098141
 20
-26.73782532358983
 30
0.0
 10
8.855756111761282
 20
-26.73834298429546
 30
0.0
 10
8.85414831851086
 20
-26.73893372651244
 30
0.0
 10
8.852803923207702
 20
-26.73942854924571
 30
0.0
 10
8.853881875500612
 20
-26.73903269105908
 30
0.0
 10
8.854486320501033
 20
-26.73880887893052
 30
0.0
 10
8.855646489494253
 20
-26.73838561517708
 30
0.0
  0
SPLINE
  5
43
330
1F
100
AcDbEntity
  8
_U+5716_U+5C64 2
370
     0
100
AcDbSpline
210
0.0
220
0.0
230
1.0
 70
    11
 71
     3
 72
   107
 73
   103
 74
     0
 42
0.0000000001
 43
0.0000000001
 12
1.0
 22
0.0
 32
0.0
 13
1.0
 23
0.0
 33
0.0
 40
0.0
 40
0.0
 40
0.0
 40
0.0
 40
1.0
 40
1.0
 40
1.0
 40
2.0
 40
2.0
 40
2.0
 40
3.0
 40
3.0
 40
3.0
 40
4.0
 40
4.0
 40
4.0
 40
5.0
 40
5.0
 40
5.0
 40
6.0
 40
6.0
 40
6.0
 40
7.0
 40
7.0
 40
7.0
 40
8.0
 40
8.0
 40
8.0
 40
9.0
 40
9.0
 40
9.0
 40
10.0
 40
10.0
 40
10.0
 40
11.0
 40
11.0
 40
11.0
 40
12.0
 40
12.0
 40
12.0
 40
13.0
 40
13.0
 40
13.0
 40
14.0
 40
14.0
 40
14.0
 40
15.0
 40
15.0
 40
15.0
 40
16.0
 40
16.0
 40
16.0
 40
17.0
 40
17.0
 40
17.0
 40
18.0
 40
18.0
 40
18.0
 40
19.0
 40
19.0
 40
19.0
 40
20.0
 40
20.0
 40
20.0
 40
21.0
 40
21.0
 40
21.0
 40
22.0
 40
22.0
 40
22.0
 40
23.0
 40
23.0
 40
23.0
 40
24.0
 40
24.0
 40
24.0
 40
25.0
 40
25.0
 40
25.0
 40
26.0
 40
26.0
 40
26.0
 40
27.0
 40
27.0
 40
27.0
 40
28.0
 40
28.0
 40
28.0
 40
29.0
 40
29.0
 40
29.0
 40
30.0
 40
30.0
 40
30.0
 40
31.0
 40
31.0
 40
31.0
 40
32.0
 40
32.0
 40
32.0
 40
33.0
 40
33.0
 40
33.0
 40
34.0
 40
34.0
 40
34.0
 40
34.0
 10
2.418354434058087
 20
-10.13226409975952
 30
0.0
 10
2.125314321245737
 20
-10.58845564165611
 30
0.0
 10
1.29919025877522
 20
-13.67144944289632
 30
0.0
 10
1.29919025877522
 20
-13.67144944289632
 30
0.0
 10
1.249756706448842
 20
-13.72892805159844
 30
0.0
 10
0.9706173060784616
 20
-15.77901822158406
 30
0.0
 10
0.9706173060784616
 20
-15.77901822158406
 30
0.0
 10
0.8967425557826173
 20
-16.10786522989951
 30
0.0
 10
0.978312180173899
 20
-17.59101035001958
 30
0.0
 10
0.978312180173899
 20
-17.59101035001958
 30
0.0
 10
0.9950234857614688
 20
-18.28119214352724
 30
0.0
 10
1.36992098141696
 20
-19.27253218773459
 30
0.0
 10
1.36992098141696
 20
-19.27253218773459
 30
0.0
 10
1.36992098141696
 20
-19.27253218773459
 30
0.0
 10
3.981593845442398
 20
-16.70250665012532
 30
0.0
 10
3.981593845442398
 20
-16.70250665012532
 30
0.0
 10
3.981593845442398
 20
-16.70250665012532
 30
0.0
 10
4.346993789694432
 20
-17.09420375824058
 30
0.0
 10
4.346993789694432
 20
-17.09420375824058
 30
0.0
 10
4.346993789694432
 20
-17.09420375824058
 30
0.0
 10
1.675124598258921
 20
-19.76607294955609
 30
0.0
 10
1.675124598258921
 20
-19.76607294955609
 30
0.0
 10
1.603471221409039
 20
-19.81892001747383
 30
0.0
 10
2.153010691301835
 20
-20.69247854836989
 30
0.0
 10
2.153010691301835
 20
-20.69247854836989
 30
0.0
 10
2.348025659357977
 20
-21.05704262284873
 30
0.0
 10
3.106837082166867
 20
-21.66175558880979
 30
0.0
 10
3.106837082166867
 20
-21.66175558880979
 30
0.0
 10
3.106837082166867
 20
-21.66175558880979
 30
0.0
 10
3.35211994980576
 20
-21.90619192895285
 30
0.0
 10
3.35211994980576
 20
-21.90619192895285
 30
0.0
 10
3.461944713564932
 20
-22.089603684556
 30
0.0
 10
5.097406928701266
 20
-22.99758208480668
 30
0.0
 10
5.097406928701266
 20
-22.99758208480668
 30
0.0
 10
5.097406928701266
 20
-22.99758208480668
 30
0.0
 10
5.038146958158604
 20
-22.97006994083239
 30
0.0
 10
5.001301696169741
 20
-22.9529627770418
 30
0.0
 10
5.106549730281504
 20
-23.00185278562835
 30
0.0
 10
6.272760128425977
 20
-23.54571321311984
 30
0.0
 10
6.272760128425977
 20
-23.54571321311984
 30
0.0
 10
6.361290766808412
 20
-23.60875058428468
 30
0.0
 10
8.48728674407452
 20
-24.41382869398669
 30
0.0
 10
8.48728674407452
 20
-24.41382869398669
 30
0.0
 10
8.48728674407452
 20
-24.41382869398669
 30
0.0
 10
8.85566780498412
 20
-24.55479836185959
 30
0.0
 10
8.85566780498412
 20
-24.55479836185959
 30
0.0
 10
8.85566780498412
 20
-24.55479836185959
 30
0.0
 10
10.21841722521256
 20
-25.05100812140184
 30
0.0
 10
10.21841722521256
 20
-25.05100812140184
 30
0.0
 10
10.44455578193485
 20
-25.16412612077693
 30
0.0
 10
13.04063944598235
 20
-26.19557725706337
 30
0.0
 10
13.14242067589725
 20
-26.2720783741695
 30
0.0
 10
13.24419886074919
 20
-26.34858253633855
 30
0.0
 10
15.30637031806938
 20
-27.34012203220857
 30
0.0
 10
15.30637031806938
 20
-27.34012203220857
 30
0.0
 10
15.39482939747173
 20
-27.41206469004187
 30
0.0
 10
16.91156612977495
 20
-28.13656129824076
 30
0.0
 10
16.91156612977495
 20
-28.13656129824076
 30
0.0
 10
16.91156612977495
 20
-28.13656129824076
 30
0.0
 10
17.88982001586335
 20
-27.17390422475044
 30
0.0
 10
17.88982001586335
 20
-27.17390422475044
 30
0.0
 10
17.88982001586335
 20
-27.17390422475044
 30
0.0
 10
18.14152492131481
 20
-27.42968951459886
 30
0.0
 10
18.14152492131481
 20
-27.42968951459886
 30
0.0
 10
18.14152492131481
 20
-27.42968951459886
 30
0.0
 10
17.25750355403177
 20
-28.29961224027141
 30
0.0
 10
17.25750355403177
 20
-28.29961224027141
 30
0.0
 10
17.2790108338173
 20
-28.39327533229899
 30
0.0
 10
18.61533976514988
 20
-28.85366144847931
 30
0.0
 10
18.61533976514988
 20
-28.85366144847931
 30
0.0
 10
18.81448383860406
 20
-29.0021722148043
 30
0.0
 10
19.84162925578302
 20
-29.15733948880969
 30
0.0
 10
19.84162925578302
 20
-29.15733948880969
 30
0.0
 10
19.84162925578302
 20
-29.15733948880969
 30
0.0
 10
20.28636679330702
 20
-29.21433697757298
 30
0.0
 10
20.28636679330702
 20
-29.21433697757298
 30
0.0
 10
20.33935393412194
 20
-29.26818891627501
 30
0.0
 10
21.74592942321879
 20
-29.29729971834108
 30
0.0
 10
21.74592942321879
 20
-29.29729971834108
 30
0.0
 10
21.74592942321879
 20
-29.29729971834108
 30
0.0
 10
19.24655391420655
 20
-26.75742487165728
 30
0.0
 10
19.24655391420655
 20
-26.75742487165728
 30
0.0
 10
19.24655391420655
 20
-26.75742487165728
 30
0.0
 10
16.21058349799775
 20
-23.68123526354651
 30
0.0
 10
16.21058349799775
 20
-23.68123526354651
 30
0.0
 10
16.21058349799775
 20
-23.68123526354651
 30
0.0
 10
9.699404511796995
 20
-17.06454484499085
 30
0.0
 10
9.699404511796995
 20
-17.06454484499085
 30
0.0
 10
9.699404511796995
 20
-17.06454484499085
 30
0.0
 10
7.341338195167769
 20
-14.66826907805318
 30
0.0
 10
7.341338195167769
 20
-14.66826907805318
 30
0.0
 10
7.341338195167769
 20
-14.66826907805318
 30
0.0
 10
7.080801084559496
 20
-14.40351151015067
 30
0.0
 10
7.080801084559496
 20
-14.40351151015067
 30
0.0
 10
7.080801084559496
 20
-14.40351151015067
 30
0.0
 10
4.49311265916806
 20
-11.77388647735977
 30
0.0
 10
4.49311265916806
 20
-11.77388647735977
 30
0.0
 10
4.49311265916806
 20
-11.77388647735977
 30
0.0
 10
2.532472736623042
 20
-9.78148045777795
 30
0.0
 10
2.532472736623042
 20
-9.78148045777795
 30
0.0
 10
2.532472736623042
 20
-9.78148045777795
 30
0.0
 10
2.418354434058087
 20
-10.13226409975952
 30
0.0
 10
2.418354434058087
 20
-10.13226409975952
 30
0.0
  0
POLYLINE
  5
44
330
1F
100
AcDbEntity
  8
_U+5716_U+5C64 2
370
     0
100
AcDb2dPolyline
 66
     1
 10
0.0
 20
0.0
 30
0.0
  0
VERTEX
  5
45
330
44
100
AcDbEntity
  8
_U+5716_U+5C64 2
370
     0
100
AcDbVertex
100
AcDb2dVertex
 10
6.723047293364315
 20
-17.20262322549456
 30
0.0
  0
VERTEX
  5
46
330
44
100
AcDbEntity
  8
_U+5716_U+5C64 2
370
     0
100
AcDbVertex
100
AcDb2dVertex
 10
7.077900662021563
 20
-16.84776985685322
 30
0.0
  0
VERTEX
  5
47
330
44
100
AcDbEntity
  8
_U+5716_U+5C64 2
370
     0
100
AcDbVertex
100
AcDb2dVertex
 10
7.431453788772912
 20
-17.20132298362042
 30
0.0
  0
VERTEX
  5
48
330
44
100
AcDbEntity
  8
_U+5716_U+5C64 2
370
     0
100
AcDbVertex
100
AcDb2dVertex
 10
7.076600420115632
 20
-17.55617635226175
 30
0.0
  0
VERTEX
  5
49
330
44
100
AcDbEntity
  8
_U+5716_U+5C64 2
370
     0
100
AcDbVertex
100
AcDb2dVertex
 10
6.723047293364315
 20
-17.20262322549456
 30
0.0
  0
SEQEND
  5
4A
330
44
100
AcDbEntity
  8
_U+5716_U+5C64 2
370
     0
  0
POLYLINE
  5
4B
330
1F
100
AcDbEntity
  8
_U+5716_U+5C64 2
370
     0
100
AcDb2dPolyline
 66
     1
 10
0.0
 20
0.0
 30
0.0
  0
VERTEX
  5
4C
330
4B
100
AcDbEntity
  8
_U+5716_U+5C64 2
370
     0
100
AcDbVertex
100
AcDb2dVertex
 10
14.86023814174687
 20
-25.33720750033635
 30
0.0
  0
VERTEX
  5
4D
330
4B
100
AcDbEntity
  8
_U+5716_U+5C64 2
370
     0
100
AcDbVertex
100
AcDb2dVertex
 10
14.50668501499552
 20
-24.98365437356916
 30
0.0
  0
VERTEX
  5
4E
330
4B
100
AcDbEntity
  8
_U+5716_U+5C64 2
370
     0
100
AcDbVertex
100
AcDb2dVertex
 10
14.86023509669976
 20
-24.63010429188079
 30
0.0
  0
VERTEX
  5
4F
330
4B
100
AcDbEntity
  8
_U+5716_U+5C64 2
370
     0
100
AcDbVertex
100
AcDb2dVertex
 10
15.21378822345111
 20
-24.98365741864799
 30
0.0
  0
VERTEX
  5
50
330
4B
100
AcDbEntity
  8
_U+5716_U+5C64 2
370
     0
100
AcDbVertex
100
AcDb2dVertex
 10
14.86023814174687
 20
-25.33720750033635
 30
0.0
  0
SEQEND
  5
51
330
4B
100
AcDbEntity
  8
_U+5716_U+5C64 2
370
     0
  0
POLYLINE
  5
52
330
1F
100
AcDbEntity
  8
_U+5716_U+5C64 2
370
     0
100
AcDb2dPolyline
 66
     1
 10
0.0
 20
0.0
 30
0.0
  0
VERTEX
  5
53
330
52
100
AcDbEntity
  8
_U+5716_U+5C64 2
370
     0
100
AcDbVertex
100
AcDb2dVertex
 10
15.56734135020243
 20
-25.33721054541519
 30
0.0
  0
VERTEX
  5
54
330
52
100
AcDbEntity
  8
_U+5716_U+5C64 2
370
     0
100
AcDbVertex
100
AcDb2dVertex
 10
15.92089447695381
 20
-25.69076367218246
 30
0.0
  0
VERTEX
  5
55
330
52
100
AcDbEntity
  8
_U+5716_U+5C64 2
370
     0
100
AcDbVertex
100
AcDb2dVertex
 10
15.56734439524953
 20
-26.04431375387075
 30
0.0
  0
VERTEX
  5
56
330
52
100
AcDbEntity
  8
_U+5716_U+5C64 2
370
     0
100
AcDbVertex
100
AcDb2dVertex
 10
15.21379126849818
 20
-25.69076062710355
 30
0.0
  0
VERTEX
  5
57
330
52
100
AcDbEntity
  8
_U+5716_U+5C64 2
370
     0
100
AcDbVertex
100
AcDb2dVertex
 10
15.56734135020243
 20
-25.33721054541519
 30
0.0
  0
SEQEND
  5
58
330
52
100
AcDbEntity
  8
_U+5716_U+5C64 2
370
     0
  0
POLYLINE
  5
59
330
1F
100
AcDbEntity
  8
_U+5716_U+5C64 2
370
     0
100
AcDb2dPolyline
 66
     1
 10
0.0
 20
0.0
 30
0.0
  0
VERTEX
  5
5A
330
59
100
AcDbEntity
  8
_U+5716_U+5C64 2
370
     0
100
AcDbVertex
100
AcDb2dVertex
 10
14.15313188824423
 20
-24.63010124680196
 30
0.0
  0
VERTEX
  5
5B
330
59
100
AcDbEntity
  8
_U+5716_U+5C64 2
370
     0
100
AcDbVertex
100
AcDb2dVertex
 10
13.79957571642987
 20
-24.27654507497177
 30
0.0
  0
VERTEX
  5
5C
330
59
100
AcDbEntity
  8
_U+5716_U+5C64 2
370
     0
100
AcDbVertex
100
AcDb2dVertex
 10
14.15312579813414
 20
-23.92299499328341
 30
0.0
  0
VERTEX
  5
5D
330
59
100
AcDbEntity
  8
_U+5716_U+5C64 2
370
     0
100
AcDbVertex
100
AcDb2dVertex
 10
14.50668196994841
 20
-24.2765511651136
 30
0.0
  0
VERTEX
  5
5E
330
59
100
AcDbEntity
  8
_U+5716_U+5C64 2
370
     0
100
AcDbVertex
100
AcDb2dVertex
 10
14.15313188824423
 20
-24.63010124680196
 30
0.0
  0
SEQEND
  5
5F
330
59
100
AcDbEntity
  8
_U+5716_U+5C64 2
370
     0
  0
POLYLINE
  5
60
330
1F
100
AcDbEntity
  8
_U+5716_U+5C64 2
370
     0
100
AcDb2dPolyline
 66
     1
 10
0.0
 20
0.0
 30
0.0
  0
VERTEX
  5
61
330
60
100
AcDbEntity
  8
_U+5716_U+5C64 2
370
     0
100
AcDbVertex
100
AcDb2dVertex
 10
13.4460256347415
 20
-23.92299499326756
 30
0.0
  0
VERTEX
  5
62
330
60
100
AcDbEntity
  8
_U+5716_U+5C64 2
370
     0
100
AcDbVertex
100
AcDb2dVertex
 10
13.09247098545869
 20
-23.56944034396884
 30
0.0
  0
VERTEX
  5
63
330
60
100
AcDbEntity
  8
_U+5716_U+5C64 2
370
     0
100
AcDbVertex
100
AcDb2dVertex
 10
13.44602106716294
 20
-23.21589026228047
 30
0.0
  0
VERTEX
  5
64
330
60
100
AcDbEntity
  8
_U+5716_U+5C64 2
370
     0
100
AcDbVertex
100
AcDb2dVertex
 10
13.79957571644575
 20
-23.5694449115792
 30
0.0
  0
VERTEX
  5
65
330
60
100
AcDbEntity
  8
_U+5716_U+5C64 2
370
     0
100
AcDbVertex
100
AcDb2dVertex
 10
13.4460256347415
 20
-23.92299499326756
 30
0.0
  0
SEQEND
  5
66
330
60
100
AcDbEntity
  8
_U+5716_U+5C64 2
370
     0
  0
POLYLINE
  5
67
330
1F
100
AcDbEntity
  8
_U+5716_U+5C64 2
370
     0
100
AcDb2dPolyline
 66
     1
 10
0.0
 20
0.0
 30
0.0
  0
VERTEX
  5
68
330
67
100
AcDbEntity
  8
_U+5716_U+5C64 2
370
     0
100
AcDbVertex
100
AcDb2dVertex
 10
12.73891785870734
 20
-23.21588721720164
 30
0.0
  0
VERTEX
  5
69
330
67
100
AcDbEntity
  8
_U+5716_U+5C64 2
370
     0
100
AcDbVertex
100
AcDb2dVertex
 10
12.38536320942453
 20
-22.86233256790291
 30
0.0
  0
VERTEX
  5
6A
330
67
100
AcDbEntity
  8
_U+5716_U+5C64 2
370
     0
100
AcDbVertex
100
AcDb2dVertex
 10
12.73891329112878
 20
-22.50878248621455
 30
0.0
  0
VERTEX
  5
6B
330
67
100
AcDbEntity
  8
_U+5716_U+5C64 2
370
     0
100
AcDbVertex
100
AcDb2dVertex
 10
13.09246794041159
 20
-22.86233713551327
 30
0.0
  0
VERTEX
  5
6C
330
67
100
AcDbEntity
  8
_U+5716_U+5C64 2
370
     0
100
AcDbVertex
100
AcDb2dVertex
 10
12.73891785870734
 20
-23.21588721720164
 30
0.0
  0
SEQEND
  5
6D
330
67
100
AcDbEntity
  8
_U+5716_U+5C64 2
370
     0
  0
POLYLINE
  5
6E
330
1F
100
AcDbEntity
  8
_U+5716_U+5C64 2
370
     0
100
AcDb2dPolyline
 66
     1
 10
0.0
 20
0.0
 30
0.0
  0
VERTEX
  5
6F
330
6E
100
AcDbEntity
  8
_U+5716_U+5C64 2
370
     0
100
AcDbVertex
100
AcDb2dVertex
 10
12.03181008267318
 20
-22.50877944113571
 30
0.0
  0
VERTEX
  5
70
330
6E
100
AcDbEntity
  8
_U+5716_U+5C64 2
370
     0
100
AcDbVertex
100
AcDb2dVertex
 10
11.67825695592187
 20
-22.15522631436851
 30
0.0
  0
VERTEX
  5
71
330
6E
100
AcDbEntity
  8
_U+5716_U+5C64 2
370
     0
100
AcDbVertex
100
AcDb2dVertex
 10
12.03180703762608
 20
-21.80167623268015
 30
0.0
  0
VERTEX
  5
72
330
6E
100
AcDbEntity
  8
_U+5716_U+5C64 2
370
     0
100
AcDbVertex
100
AcDb2dVertex
 10
12.38536016437743
 20
-22.15522935944735
 30
0.0
  0
VERTEX
  5
73
330
6E
100
AcDbEntity
  8
_U+5716_U+5C64 2
370
     0
100
AcDbVertex
100
AcDb2dVertex
 10
12.03181008267318
 20
-22.50877944113571
 30
0.0
  0
SEQEND
  5
74
330
6E
100
AcDbEntity
  8
_U+5716_U+5C64 2
370
     0
  0
POLYLINE
  5
75
330
1F
100
AcDbEntity
  8
_U+5716_U+5C64 2
370
     0
100
AcDb2dPolyline
 66
     1
 10
0.0
 20
0.0
 30
0.0
  0
VERTEX
  5
76
330
75
100
AcDbEntity
  8
_U+5716_U+5C64 2
370
     0
100
AcDbVertex
100
AcDb2dVertex
 10
11.32470382917052
 20
-21.80167318760131
 30
0.0
  0
VERTEX
  5
77
330
75
100
AcDbEntity
  8
_U+5716_U+5C64 2
370
     0
100
AcDbVertex
100
AcDb2dVertex
 10
10.9711507024192
 20
-21.44812006083405
 30
0.0
  0
VERTEX
  5
78
330
75
100
AcDbEntity
  8
_U+5716_U+5C64 2
370
     0
100
AcDbVertex
100
AcDb2dVertex
 10
11.32470078412341
 20
-21.09456997914575
 30
0.0
  0
VERTEX
  5
79
330
75
100
AcDbEntity
  8
_U+5716_U+5C64 2
370
     0
100
AcDbVertex
100
AcDb2dVertex
 10
11.67825391087476
 20
-21.44812310591295
 30
0.0
  0
VERTEX
  5
7A
330
75
100
AcDbEntity
  8
_U+5716_U+5C64 2
370
     0
100
AcDbVertex
100
AcDb2dVertex
 10
11.32470382917052
 20
-21.80167318760131
 30
0.0
  0
SEQEND
  5
7B
330
75
100
AcDbEntity
  8
_U+5716_U+5C64 2
370
     0
  0
POLYLINE
  5
7C
330
1F
100
AcDbEntity
  8
_U+5716_U+5C64 2
370
     0
100
AcDb2dPolyline
 66
     1
 10
0.0
 20
0.0
 30
0.0
  0
VERTEX
  5
7D
330
7C
100
AcDbEntity
  8
_U+5716_U+5C64 2
370
     0
100
AcDbVertex
100
AcDb2dVertex
 10
10.61759605313636
 20
-21.09456541153539
 30
0.0
  0
VERTEX
  5
7E
330
7C
100
AcDbEntity
  8
_U+5716_U+5C64 2
370
     0
100
AcDbVertex
100
AcDb2dVertex
 10
10.26404292638504
 20
-20.74101228476819
 30
0.0
  0
VERTEX
  5
7F
330
7C
100
AcDbEntity
  8
_U+5716_U+5C64 2
370
     0
100
AcDbVertex
100
AcDb2dVertex
 10
10.61759300808925
 20
-20.38746220307983
 30
0.0
  0
VERTEX
  5
80
330
7C
100
AcDbEntity
  8
_U+5716_U+5C64 2
370
     0
100
AcDbVertex
100
AcDb2dVertex
 10
10.97114613484063
 20
-20.74101532984703
 30
0.0
  0
VERTEX
  5
81
330
7C
100
AcDbEntity
  8
_U+5716_U+5C64 2
370
     0
100
AcDbVertex
100
AcDb2dVertex
 10
10.61759605313636
 20
-21.09456541153539
 30
0.0
  0
SEQEND
  5
82
330
7C
100
AcDbEntity
  8
_U+5716_U+5C64 2
370
     0
  0
POLYLINE
  5
83
330
1F
100
AcDbEntity
  8
_U+5716_U+5C64 2
370
     0
100
AcDb2dPolyline
 66
     1
 10
0.0
 20
0.0
 30
0.0
  0
VERTEX
  5
84
330
83
100
AcDbEntity
  8
_U+5716_U+5C64 2
370
     0
100
AcDbVertex
100
AcDb2dVertex
 10
9.910489799633691
 20
-20.38745915800099
 30
0.0
  0
VERTEX
  5
85
330
83
100
AcDbEntity
  8
_U+5716_U+5C64 2
370
     0
100
AcDbVertex
100
AcDb2dVertex
 10
9.556936672882342
 20
-20.03390603123379
 30
0.0
  0
VERTEX
  5
86
330
83
100
AcDbEntity
  8
_U+5716_U+5C64 2
370
     0
100
AcDbVertex
100
AcDb2dVertex
 10
9.910486754586586
 20
-19.68035594954537
 30
0.0
  0
VERTEX
  5
87
330
83
100
AcDbEntity
  8
_U+5716_U+5C64 2
370
     0
100
AcDbVertex
100
AcDb2dVertex
 10
10.2640398813379
 20
-20.03390907631263
 30
0.0
  0
VERTEX
  5
88
330
83
100
AcDbEntity
  8
_U+5716_U+5C64 2
370
     0
100
AcDbVertex
100
AcDb2dVertex
 10
9.910489799633691
 20
-20.38745915800099
 30
0.0
  0
SEQEND
  5
89
330
83
100
AcDbEntity
  8
_U+5716_U+5C64 2
370
     0
  0
POLYLINE
  5
8A
330
1F
100
AcDbEntity
  8
_U+5716_U+5C64 2
370
     0
100
AcDb2dPolyline
 66
     1
 10
0.0
 20
0.0
 30
0.0
  0
VERTEX
  5
8B
330
8A
100
AcDbEntity
  8
_U+5716_U+5C64 2
370
     0
100
AcDbVertex
100
AcDb2dVertex
 10
9.203382023599563
 20
-19.68035138193507
 30
0.0
  0
VERTEX
  5
8C
330
8A
100
AcDbEntity
  8
_U+5716_U+5C64 2
370
     0
100
AcDbVertex
100
AcDb2dVertex
 10
8.849828896848182
 20
-19.32679825516787
 30
0.0
  0
VERTEX
  5
8D
330
8A
100
AcDbEntity
  8
_U+5716_U+5C64 2
370
     0
100
AcDbVertex
100
AcDb2dVertex
 10
9.203378978552427
 20
-18.9732481734795
 30
0.0
  0
VERTEX
  5
8E
330
8A
100
AcDbEntity
  8
_U+5716_U+5C64 2
370
     0
100
AcDbVertex
100
AcDb2dVertex
 10
9.556932105303744
 20
-19.3268013002467
 30
0.0
  0
VERTEX
  5
8F
330
8A
100
AcDbEntity
  8
_U+5716_U+5C64 2
370
     0
100
AcDbVertex
100
AcDb2dVertex
 10
9.203382023599563
 20
-19.68035138193507
 30
0.0
  0
SEQEND
  5
90
330
8A
100
AcDbEntity
  8
_U+5716_U+5C64 2
370
     0
  0
POLYLINE
  5
91
330
1F
100
AcDbEntity
  8
_U+5716_U+5C64 2
370
     0
100
AcDb2dPolyline
 66
     1
 10
0.0
 20
0.0
 30
0.0
  0
VERTEX
  5
92
330
91
100
AcDbEntity
  8
_U+5716_U+5C64 2
370
     0
100
AcDbVertex
100
AcDb2dVertex
 10
8.492117736605525
 20
-18.96908709490911
 30
0.0
  0
VERTEX
  5
93
330
91
100
AcDbEntity
  8
_U+5716_U+5C64 2
370
     0
100
AcDbVertex
100
AcDb2dVertex
 10
8.138564609854177
 20
-18.61553396814191
 30
0.0
  0
VERTEX
  5
94
330
91
100
AcDbEntity
  8
_U+5716_U+5C64 2
370
     0
100
AcDbVertex
100
AcDb2dVertex
 10
8.49211469155842
 20
-18.26198388645354
 30
0.0
  0
VERTEX
  5
95
330
91
100
AcDbEntity
  8
_U+5716_U+5C64 2
370
     0
100
AcDbVertex
100
AcDb2dVertex
 10
8.845667818309707
 20
-18.61553701322074
 30
0.0
  0
VERTEX
  5
96
330
91
100
AcDbEntity
  8
_U+5716_U+5C64 2
370
     0
100
AcDbVertex
100
AcDb2dVertex
 10
8.492117736605525
 20
-18.96908709490911
 30
0.0
  0
SEQEND
  5
97
330
91
100
AcDbEntity
  8
_U+5716_U+5C64 2
370
     0
  0
POLYLINE
  5
98
330
1F
100
AcDbEntity
  8
_U+5716_U+5C64 2
370
     0
100
AcDb2dPolyline
 66
     1
 10
0.0
 20
0.0
 30
0.0
  0
VERTEX
  5
99
330
98
100
AcDbEntity
  8
_U+5716_U+5C64 2
370
     0
100
AcDbVertex
100
AcDb2dVertex
 10
7.785011483102827
 20
-18.26198084137471
 30
0.0
  0
VERTEX
  5
9A
330
98
100
AcDbEntity
  8
_U+5716_U+5C64 2
370
     0
100
AcDbVertex
100
AcDb2dVertex
 10
7.43145835635151
 20
-17.90842771460751
 30
0.0
  0
VERTEX
  5
9B
330
98
100
AcDbEntity
  8
_U+5716_U+5C64 2
370
     0
100
AcDbVertex
100
AcDb2dVertex
 10
7.785008438055723
 20
-17.55487763291914
 30
0.0
  0
VERTEX
  5
9C
330
98
100
AcDbEntity
  8
_U+5716_U+5C64 2
370
     0
100
AcDbVertex
100
AcDb2dVertex
 10
8.138561564807071
 20
-17.90843075968634
 30
0.0
  0
VERTEX
  5
9D
330
98
100
AcDbEntity
  8
_U+5716_U+5C64 2
370
     0
100
AcDbVertex
100
AcDb2dVertex
 10
7.785011483102827
 20
-18.26198084137471
 30
0.0
  0
SEQEND
  5
9E
330
98
100
AcDbEntity
  8
_U+5716_U+5C64 2
370
     0
  0
POLYLINE
  5
9F
330
1F
100
AcDbEntity
  8
_U+5716_U+5C64 2
370
     0
100
AcDb2dPolyline
 66
     1
 10
0.0
 20
0.0
 30
0.0
  0
VERTEX
  5
A0
330
9F
100
AcDbEntity
  8
_U+5716_U+5C64 2
370
     0
100
AcDbVertex
100
AcDb2dVertex
 10
16.62865237393296
 20
-26.39721828224034
 30
0.0
  0
VERTEX
  5
A1
330
9F
100
AcDbEntity
  8
_U+5716_U+5C64 2
370
     0
100
AcDbVertex
100
AcDb2dVertex
 10
16.27379900527568
 20
-26.75207165088167
 30
0.0
  0
VERTEX
  5
A2
330
9F
100
AcDbEntity
  8
_U+5716_U+5C64 2
370
     0
100
AcDbVertex
100
AcDb2dVertex
 10
15.92024892358732
 20
-26.39852156917746
 30
0.0
  0
VERTEX
  5
A3
330
9F
100
AcDbEntity
  8
_U+5716_U+5C64 2
370
     0
100
AcDbVertex
100
AcDb2dVertex
 10
16.2751022922446
 20
-26.04366820053612
 30
0.0
  0
VERTEX
  5
A4
330
9F
100
AcDbEntity
  8
_U+5716_U+5C64 2
370
     0
100
AcDbVertex
100
AcDb2dVertex
 10
16.62865237393296
 20
-26.39721828224034
 30
0.0
  0
SEQEND
  5
A5
330
9F
100
AcDbEntity
  8
_U+5716_U+5C64 2
370
     0
  0
SPLINE
  5
A6
330
1F
100
AcDbEntity
  8
_U+5716_U+5C64 2
370
     0
100
AcDbSpline
210
0.0
220
0.0
230
1.0
 70
    11
 71
     3
 72
    92
 73
    88
 74
     0
 42
0.0000000001
 43
0.0000000001
 12
1.0
 22
0.0
 32
0.0
 13
1.0
 23
0.0
 33
0.0
 40
0.0
 40
0.0
 40
0.0
 40
0.0
 40
1.0
 40
1.0
 40
1.0
 40
2.0
 40
2.0
 40
2.0
 40
3.0
 40
3.0
 40
3.0
 40
4.0
 40
4.0
 40
4.0
 40
5.0
 40
5.0
 40
5.0
 40
6.0
 40
6.0
 40
6.0
 40
7.0
 40
7.0
 40
7.0
 40
8.0
 40
8.0
 40
8.0
 40
9.0
 40
9.0
 40
9.0
 40
10.0
 40
10.0
 40
10.0
 40
11.0
 40
11.0
 40
11.0
 40
12.0
 40
12.0
 40
12.0
 40
13.0
 40
13.0
 40
13.0
 40
14.0
 40
14.0
 40
14.0
 40
15.0
 40
15.0
 40
15.0
 40
16.0
 40
16.0
 40
16.0
 40
17.0
 40
17.0
 40
17.0
 40
18.0
 40
18.0
 40
18.0
 40
19.0
 40
19.0
 40
19.0
 40
20.0
 40
20.0
 40
20.0
 40
21.0
 40
21.0
 40
21.0
 40
22.0
 40
22.0
 40
22.0
 40
23.0
 40
23.0
 40
23.0
 40
24.0
 40
24.0
 40
24.0
 40
25.0
 40
25.0
 40
25.0
 40
26.0
 40
26.0
 40
26.0
 40
27.0
 40
27.0
 40
27.0
 40
28.0
 40
28.0
 40
28.0
 40
29.0
 40
29.0
 40
29.0
 40
29.0
 10
33.54699295199092
 20
-28.48085678382136
 30
0.0
 10
33.54699295199092
 20
-28.48085678382136
 30
0.0
 10
31.68805158917961
 20
-27.62047289944514
 30
0.0
 10
31.10078569652122
 20
-27.46018725361545
 30
0.0
 10
31.10078569652122
 20
-27.46018725361545
 30
0.0
 10
30.96992900919978
 20
-27.41331686443531
 30
0.0
 10
30.75727780515859
 20
-27.33746161054394
 30
0.0
 10
30.75727780515859
 20
-27.33746161054394
 30
0.0
 10
29.97590800289994
 20
-27.0595829681198
 30
0.0
 10
29.97590800289994
 20
-27.0595829681198
 30
0.0
 10
28.89671101872932
 20
-26.67698203884071
 30
0.0
 10
27.41873135112383
 20
-26.15830770011389
 30
0.0
 10
27.3382090717642
 20
-26.158533210918
 30
0.0
 10
27.21065190336369
 20
-26.15889439600941
 30
0.0
 10
24.27998562418854
 20
-24.84131663753079
 30
0.0
 10
23.67938061232641
 20
-24.47172684219511
 30
0.0
 10
23.67938061232641
 20
-24.47172684219511
 30
0.0
 10
18.30519398936568
 20
-21.57710992561448
 30
0.0
 10
14.81671719502189
 20
-19.17589089278602
 30
0.0
 10
14.81671719502189
 20
-19.17589089278602
 30
0.0
 10
12.02472140236735
 20
-17.39973302068744
 30
0.0
 10
9.957676731825735
 20
-15.79779456809671
 30
0.0
 10
9.957676731825735
 20
-15.79779456809671
 30
0.0
 10
7.729932522104894
 20
-14.21109557626417
 30
0.0
 10
6.64918108074476
 20
-12.94217897482421
 30
0.0
 10
5.56842537676878
 20
-11.67326197083491
 30
0.0
 10
5.56842537676878
 20
-11.67326197083491
 30
0.0
 10
5.56842537676878
 20
-11.67326197083491
 30
0.0
 10
5.56842537676878
 20
-11.67326197083491
 30
0.0
 10
3.591104745507856
 20
-8.864200040543077
 30
0.0
 10
3.19388196991648
 20
-7.822026754688935
 30
0.0
 10
3.19388196991648
 20
-7.822026754688935
 30
0.0
 10
2.481345965338821
 20
-6.086262630764402
 30
0.0
 10
2.449518573736732
 20
-5.938103778959404
 30
0.0
 10
2.417692621162161
 20
-5.789943102662027
 30
0.0
 10
2.417692621162161
 20
-5.789943102662027
 30
0.0
 10
2.417692621162161
 20
-5.789943102662027
 30
0.0
 10
2.417692621162161
 20
-5.789943102662027
 30
0.0
 10
1.988719810625036
 20
-4.5618082258752
 30
0.0
 10
1.837847351691412
 20
-4.262962597394514
 30
0.0
 10
1.686977770812664
 20
-3.964113319928529
 30
0.0
 10
1.686977770812664
 20
-3.964113319928529
 30
0.0
 10
1.686977770812664
 20
-3.964113319928529
 30
0.0
 10
1.686977770812664
 20
-3.964113319928529
 30
0.0
 10
1.048128506187899
 20
-2.851266455176838
 30
0.0
 10
0.9396668019934968
 20
-2.762564916802907
 30
0.0
 10
0.9396668019934968
 20
-2.762564916802907
 30
0.0
 10
4.850751719019014
 20
-5.847344789585187
 30
0.0
 10
4.850751719019014
 20
-5.847344789585187
 30
0.0
 10
4.850751719019014
 20
-5.847344789585187
 30
0.0
 10
4.071232049919888
 20
-6.83567061705789
 30
0.0
 10
4.071232049919888
 20
-6.83567061705789
 30
0.0
 10
4.071232049919888
 20
-6.83567061705789
 30
0.0
 10
4.520679547371371
 20
-7.190162177181117
 30
0.0
 10
4.520679547371371
 20
-7.190162177181117
 30
0.0
 10
4.520679547371371
 20
-7.190162177181117
 30
0.0
 10
5.300199216470561
 20
-6.201836349708223
 30
0.0
 10
5.300199216470561
 20
-6.201836349708223
 30
0.0
 10
5.300199216470561
 20
-6.201836349708223
 30
0.0
 10
6.463847971981597
 20
-7.119638017568326
 30
0.0
 10
6.463847971981597
 20
-7.119638017568326
 30
0.0
 10
6.463847971981597
 20
-7.119638017568326
 30
0.0
 10
7.148260373064512
 20
-7.659452837326518
 30
0.0
 10
7.148260373064512
 20
-7.659452837326518
 30
0.0
 10
7.148260373064512
 20
-7.659452837326518
 30
0.0
 10
9.690359543388922
 20
-9.664476129226186
 30
0.0
 10
9.690359543388922
 20
-9.664476129226186
 30
0.0
 10
9.690359543388922
 20
-9.664476129226186
 30
0.0
 10
10.3747719444719
 20
-10.20429094898438
 30
0.0
 10
10.3747719444719
 20
-10.20429094898438
 30
0.0
 10
10.3747719444719
 20
-10.20429094898438
 30
0.0
 10
28.16947178391975
 20
-24.23945844636412
 30
0.0
 10
28.16947178391975
 20
-24.23945844636412
 30
0.0
 10
28.16947178391975
 20
-24.23945844636412
 30
0.0
 10
29.19058930474225
 20
-25.04229621016787
 30
0.0
 10
29.19058930474225
 20
-25.04229621016787
 30
0.0
 10
29.19058930474225
 20
-25.04229621016787
 30
0.0
 10
28.72073581680208
 20
-25.64418491142789
 30
0.0
 10
28.72073581680208
 20
-25.64418491142789
 30
0.0
 10
28.72073581680208
 20
-25.64418491142789
 30
0.0
 10
29.09067181569635
 20
-25.93596357331239
 30
0.0
 10
29.09067181569635
 20
-25.93596357331239
 30
0.0
 10
29.09067181569635
 20
-25.93596357331239
 30
0.0
 10
29.56229143979058
 20
-25.33801348467124
 30
0.0
 10
29.56229143979058
 20
-25.33801348467124
 30
0.0
 10
29.56229143979058
 20
-25.33801348467124
 30
0.0
 10
33.54699295199092
 20
-28.48085678382136
 30
0.0
 10
33.54699295199092
 20
-28.48085678382136
 30
0.0
  0
SPLINE
  5
A7
330
1F
100
AcDbEntity
  8
_U+5716_U+5C64 2
370
     0
100
AcDbSpline
210
0.0
220
0.0
230
1.0
 70
    11
 71
     3
 72
    89
 73
    85
 74
     0
 42
0.0000000001
 43
0.0000000001
 12
1.0
 22
0.0
 32
0.0
 13
1.0
 23
0.0
 33
0.0
 40
0.0
 40
0.0
 40
0.0
 40
0.0
 40
1.0
 40
1.0
 40
1.0
 40
2.0
 40
2.0
 40
2.0
 40
3.0
 40
3.0
 40
3.0
 40
4.0
 40
4.0
 40
4.0
 40
5.0
 40
5.0
 40
5.0
 40
6.0
 40
6.0
 40
6.0
 40
7.0
 40
7.0
 40
7.0
 40
8.0
 40
8.0
 40
8.0
 40
9.0
 40
9.0
 40
9.0
 40
10.0
 40
10.0
 40
10.0
 40
11.0
 40
11.0
 40
11.0
 40
12.0
 40
12.0
 40
12.0
 40
13.0
 40
13.0
 40
13.0
 40
14.0
 40
14.0
 40
14.0
 40
15.0
 40
15.0
 40
15.0
 40
16.0
 40
16.0
 40
16.0
 40
17.0
 40
17.0
 40
17.0
 40
18.0
 40
18.0
 40
18.0
 40
19.0
 40
19.0
 40
19.0
 40
20.0
 40
20.0
 40
20.0
 40
21.0
 40
21.0
 40
21.0
 40
22.0
 40
22.0
 40
22.0
 40
23.0
 40
23.0
 40
23.0
 40
24.0
 40
24.0
 40
24.0
 40
25.0
 40
25.0
 40
25.0
 40
26.0
 40
26.0
 40
26.0
 40
27.0
 40
27.0
 40
27.0
 40
28.0
 40
28.0
 40
28.0
 40
28.0
 10
33.88531550546621
 20
-25.74780241500221
 30
0.0
 10
33.88531550546621
 20
-25.74780241500221
 30
0.0
 10
34.21785993850861
 20
-26.00738476702536
 30
0.0
 10
34.21785993850861
 20
-26.00738476702536
 30
0.0
 10
34.21785993850861
 20
-26.00738476702536
 30
0.0
 10
33.72650424248339
 20
-26.63684821122103
 30
0.0
 10
33.72650424248339
 20
-26.63684821122103
 30
0.0
 10
33.72650424248339
 20
-26.63684821122103
 30
0.0
 10
36.86808714747143
 20
-29.06201414619058
 30
0.0
 10
36.86808714747143
 20
-29.06201414619058
 30
0.0
 10
36.86808714747143
 20
-29.06201414619058
 30
0.0
 10
35.87732776616063
 20
-27.03505027578754
 30
0.0
 10
35.73227531097874
 20
-26.29169603737831
 30
0.0
 10
35.73227531097874
 20
-26.29169603737831
 30
0.0
 10
35.68315481651282
 20
-26.13636448454252
 30
0.0
 10
35.60380407435078
 20
-25.88364745207379
 30
0.0
 10
35.60380407435078
 20
-25.88364745207379
 30
0.0
 10
35.31350247240768
 20
-24.95428096211847
 30
0.0
 10
35.31350247240768
 20
-24.95428096211847
 30
0.0
 10
34.91435255319708
 20
-23.66958172401453
 30
0.0
 10
34.37569566323508
 20
-21.90525824308457
 30
0.0
 10
34.38924395216121
 20
-21.78282660617074
 30
0.0
 10
34.41071091383012
 20
-21.58887770063546
 30
0.0
 10
32.90723964436992
 20
-18.35745169088375
 30
0.0
 10
32.44917929324217
 20
-17.78717182107061
 30
0.0
 10
32.44917929324217
 20
-17.78717182107061
 30
0.0
 10
28.97160312845935
 20
-12.30338412252196
 30
0.0
 10
25.92773820525325
 20
-9.226149547511554
 30
0.0
 10
25.92773820525325
 20
-9.226149547511554
 30
0.0
 10
23.71092959768478
 20
-6.628763365090672
 30
0.0
 10
21.63757249253005
 20
-4.97084421154171
 30
0.0
 10
21.63757249253005
 20
-4.97084421154171
 30
0.0
 10
19.61352589506374
 20
-3.054926369144213
 30
0.0
 10
17.87989686177067
 20
-2.586486286648628
 30
0.0
 10
16.14626493785155
 20
-2.118043975258723
 30
0.0
 10
16.14626493785155
 20
-2.118043975258723
 30
0.0
 10
16.14626493785155
 20
-2.118043975258723
 30
0.0
 10
16.14626493785155
 20
-2.118043975258723
 30
0.0
 10
12.24034359317847
 20
-1.711241631455653
 30
0.0
 10
10.73605457155258
 20
-2.07088678989849
 30
0.0
 10
10.73605457155258
 20
-2.07088678989849
 30
0.0
 10
8.238984416246838
 20
-2.592544236425836
 30
0.0
 10
8.021087285875986
 20
-2.681077913885199
 30
0.0
 10
7.803188736588432
 20
-2.769613431520577
 30
0.0
 10
7.803188736588432
 20
-2.769613431520577
 30
0.0
 10
7.803188736588432
 20
-2.769613431520577
 30
0.0
 10
7.803188736588432
 20
-2.769613431520577
 30
0.0
 10
6.02406346759553
 20
-3.252822632905612
 30
0.0
 10
5.598766780714025
 20
-3.299841935673739
 30
0.0
 10
5.173468674915658
 20
-3.346863078617977
 30
0.0
 10
5.173468674915658
 20
-3.346863078617977
 30
0.0
 10
5.173468674915658
 20
-3.346863078617977
 30
0.0
 10
5.173468674915658
 20
-3.346863078617977
 30
0.0
 10
3.602383235527762
 20
-3.405026766123546
 30
0.0
 10
3.486594797930558
 20
-3.322323634153438
 30
0.0
 10
3.486594797930558
 20
-3.322323634153438
 30
0.0
 10
9.141931106305334
 20
-7.683021615981379
 30
0.0
 10
9.141931106305334
 20
-7.683021615981379
 30
0.0
 10
9.141931106305334
 20
-7.683021615981379
 30
0.0
 10
11.53404331113862
 20
-4.580720318786828
 30
0.0
 10
11.53404331113862
 20
-4.580720318786828
 30
0.0
 10
11.53404331113862
 20
-4.580720318786828
 30
0.0
 10
12.23470503504686
 20
-5.120984239230686
 30
0.0
 10
12.23470503504686
 20
-5.120984239230686
 30
0.0
 10
12.23470503504686
 20
-5.120984239230686
 30
0.0
 10
9.842592830213636
 20
-8.223285536425397
 30
0.0
 10
9.842592830213636
 20
-8.223285536425397
 30
0.0
 10
9.842592830213636
 20
-8.223285536425397
 30
0.0
 10
12.44504653240735
 20
-10.22997691393935
 30
0.0
 10
12.44504653240735
 20
-10.22997691393935
 30
0.0
 10
12.44504653240735
 20
-10.22997691393935
 30
0.0
 10
13.14570825631572
 20
-10.77024083438334
 30
0.0
 10
13.14570825631572
 20
-10.77024083438334
 30
0.0
 10
13.14570825631572
 20
-10.77024083438334
 30
0.0
 10
31.36288995292486
 20
-24.81708493477018
 30
0.0
 10
31.36288995292486
 20
-24.81708493477018
 30
0.0
 10
31.36288995292486
 20
-24.81708493477018
 30
0.0
 10
32.16364538292707
 20
-25.43452877845044
 30
0.0
 10
32.16364538292707
 20
-25.43452877845044
 30
0.0
 10
32.16364538292707
 20
-25.43452877845044
 30
0.0
 10
33.38550720689166
 20
-26.37667794506079
 30
0.0
 10
33.38550720689166
 20
-26.37667794506079
 30
0.0
 10
33.38550720689166
 20
-26.37667794506079
 30
0.0
 10
33.88531550546621
 20
-25.74780241500221
 30
0.0
 10
33.88531550546621
 20
-25.74780241500221
 30
0.0
  0
SPLINE
  5
A8
330
1F
100
AcDbEntity
  8
_U+5716_U+5C64 2
370
     0
100
AcDbSpline
210
0.0
220
0.0
230
1.0
 70
    11
 71
     3
 72
   110
 73
   106
 74
     0
 42
0.0000000001
 43
0.0000000001
 12
1.0
 22
0.0
 32
0.0
 13
1.0
 23
0.0
 33
0.0
 40
0.0
 40
0.0
 40
0.0
 40
0.0
 40
1.0
 40
1.0
 40
1.0
 40
2.0
 40
2.0
 40
2.0
 40
3.0
 40
3.0
 40
3.0
 40
4.0
 40
4.0
 40
4.0
 40
5.0
 40
5.0
 40
5.0
 40
6.0
 40
6.0
 40
6.0
 40
7.0
 40
7.0
 40
7.0
 40
8.0
 40
8.0
 40
8.0
 40
9.0
 40
9.0
 40
9.0
 40
10.0
 40
10.0
 40
10.0
 40
11.0
 40
11.0
 40
11.0
 40
12.0
 40
12.0
 40
12.0
 40
13.0
 40
13.0
 40
13.0
 40
14.0
 40
14.0
 40
14.0
 40
15.0
 40
15.0
 40
15.0
 40
16.0
 40
16.0
 40
16.0
 40
17.0
 40
17.0
 40
17.0
 40
18.0
 40
18.0
 40
18.0
 40
19.0
 40
19.0
 40
19.0
 40
20.0
 40
20.0
 40
20.0
 40
21.0
 40
21.0
 40
21.0
 40
22.0
 40
22.0
 40
22.0
 40
23.0
 40
23.0
 40
23.0
 40
24.0
 40
24.0
 40
24.0
 40
25.0
 40
25.0
 40
25.0
 40
26.0
 40
26.0
 40
26.0
 40
27.0
 40
27.0
 40
27.0
 40
28.0
 40
28.0
 40
28.0
 40
29.0
 40
29.0
 40
29.0
 40
30.0
 40
30.0
 40
30.0
 40
31.0
 40
31.0
 40
31.0
 40
32.0
 40
32.0
 40
32.0
 40
33.0
 40
33.0
 40
33.0
 40
34.0
 40
34.0
 40
34.0
 40
35.0
 40
35.0
 40
35.0
 40
35.0
 10
38.08189115723377
 20
-23.09193283946662
 30
0.0
 10
38.31589151994374
 20
-22.82345057780811
 30
0.0
 10
38.65640845259414
 20
-21.1580872271467
 30
0.0
 10
38.84983674383906
 20
-20.38089674071539
 30
0.0
 10
38.84983674383906
 20
-20.38089674071539
 30
0.0
 10
37.46214297961978
 20
-21.40202209817697
 30
0.0
 10
37.46214297961978
 20
-21.40202209817697
 30
0.0
 10
37.46214297961978
 20
-21.40202209817697
 30
0.0
 10
37.21798428444749
 20
-21.0737477068112
 30
0.0
 10
37.21798428444749
 20
-21.0737477068112
 30
0.0
 10
37.21798428444749
 20
-21.0737477068112
 30
0.0
 10
38.92389294861714
 20
-19.80495414727117
 30
0.0
 10
38.92389294861714
 20
-19.80495414727117
 30
0.0
 10
38.78960403482827
 20
-19.33605555268331
 30
0.0
 10
38.53075798646433
 20
-18.57744458144446
 30
0.0
 10
38.53075798646433
 20
-18.57744458144446
 30
0.0
 10
38.65165531167577
 20
-18.26282982213192
 30
0.0
 10
38.12405733067514
 20
-16.93674327436556
 30
0.0
 10
38.12405733067514
 20
-16.93674327436556
 30
0.0
 10
38.2078642339176
 20
-16.25146480630107
 30
0.0
 10
37.62371526243684
 20
-15.02266954006875
 30
0.0
 10
37.62371526243684
 20
-15.02266954006875
 30
0.0
 10
37.62371526243684
 20
-15.02266954006875
 30
0.0
 10
37.39350670108995
 20
-14.49000102251267
 30
0.0
 10
37.39350670108995
 20
-14.49000102251267
 30
0.0
 10
37.47208185591017
 20
-14.44813260904288
 30
0.0
 10
37.05538149846068
 20
-13.50396157158573
 30
0.0
 10
37.05538149846068
 20
-13.50396157158573
 30
0.0
 10
36.91543987206057
 20
-13.11491897318935
 30
0.0
 10
36.68289839377248
 20
-12.10258610369491
 30
0.0
 10
36.68289839377248
 20
-12.10258610369491
 30
0.0
 10
36.60090412304766
 20
-11.90515463881465
 30
0.0
 10
36.12429365160677
 20
-10.64218789219951
 30
0.0
 10
36.12429365160677
 20
-10.64218789219951
 30
0.0
 10
36.12429365160677
 20
-10.64218789219951
 30
0.0
 10
36.12053454897033
 20
-10.63972422334724
 30
0.0
 10
36.11677287632352
 20
-10.63725709908418
 30
0.0
 10
36.11887834958553
 20
-10.638637547524
 30
0.0
 10
36.12102077458415
 20
-10.64003881461948
 30
0.0
 10
36.12429365160677
 20
-10.64218789219951
 30
0.0
 10
36.02727031768563
 20
-10.57851432104553
 30
0.0
 10
35.35468465608152
 20
-9.01631638275346
 30
0.0
 10
35.35468465608152
 20
-9.01631638275346
 30
0.0
 10
35.27625788842469
 20
-8.94107618239856
 30
0.0
 10
33.6820847573746
 20
-7.358607769131161
 30
0.0
 10
33.6820847573746
 20
-7.358607769131161
 30
0.0
 10
33.6820847573746
 20
-7.358607769131161
 30
0.0
 10
32.81823177291684
 20
-6.729157136245824
 30
0.0
 10
32.81823177291684
 20
-6.729157136245824
 30
0.0
 10
32.81823177291684
 20
-6.729157136245824
 30
0.0
 10
31.92315253148003
 20
-6.116834681652266
 30
0.0
 10
31.92315253148003
 20
-6.116834681652266
 30
0.0
 10
31.71586202035693
 20
-5.972041820580414
 30
0.0
 10
30.71909397563967
 20
-5.059132704056199
 30
0.0
 10
30.62951608187806
 20
-4.968647121609552
 30
0.0
 10
30.53994164352729
 20
-4.878158969152508
 30
0.0
 10
27.9379117648252
 20
-2.945782991686183
 30
0.0
 10
27.9379117648252
 20
-2.945782991686183
 30
0.0
 10
27.86085175763776
 20
-2.861744250399237
 30
0.0
 10
26.22693048307854
 20
-2.156491390302139
 30
0.0
 10
26.22693048307854
 20
-2.156491390302139
 30
0.0
 10
26.22693048307854
 20
-2.156491390302139
 30
0.0
 10
25.90837331035313
 20
-1.944879389452092
 30
0.0
 10
25.90837331035313
 20
-1.944879389452092
 30
0.0
 10
25.90344547604173
 20
-1.883240191888511
 30
0.0
 10
25.00654303311186
 20
-1.470553599383545
 30
0.0
 10
24.36748952669386
 20
-1.184060493142818
 30
0.0
 10
24.36748952669386
 20
-1.184060493142818
 30
0.0
 10
23.25658186824846
 20
-2.010313687047176
 30
0.0
 10
23.25658186824846
 20
-2.010313687047176
 30
0.0
 10
23.25658186824846
 20
-2.010313687047176
 30
0.0
 10
23.03826976736636
 20
-1.716790362005325
 30
0.0
 10
23.03826976736636
 20
-1.716790362005325
 30
0.0
 10
23.03826976736636
 20
-1.716790362005325
 30
0.0
 10
23.94819345716041
 20
-1.040021821266626
 30
0.0
 10
23.94819345716041
 20
-1.040021821266626
 30
0.0
 10
23.61085426360253
 20
-1.042081269303112
 30
0.0
 10
22.60234572054425
 20
-0.9148156205999386
 30
0.0
 10
22.60234572054425
 20
-0.9148156205999386
 30
0.0
 10
22.55775069695727
 20
-0.8538324076230793
 30
0.0
 10
21.74592943568091
 20
-1.320613764133708
 30
0.0
 10
21.74592943568091
 20
-1.320613764133708
 30
0.0
 10
21.74592943568091
 20
-1.320613764133708
 30
0.0
 10
23.84949575445957
 20
-4.196870170361647
 30
0.0
 10
23.84949575445957
 20
-4.196870170361647
 30
0.0
 10
23.84949575445957
 20
-4.196870170361647
 30
0.0
 10
26.40598488902183
 20
-7.681754985962957
 30
0.0
 10
26.40598488902183
 20
-7.681754985962957
 30
0.0
 10
26.40598488902183
 20
-7.681754985962957
 30
0.0
 10
31.88603425044121
 20
-15.17476391643624
 30
0.0
 10
31.88603425044121
 20
-15.17476391643624
 30
0.0
 10
31.88603425044121
 20
-15.17476391643624
 30
0.0
 10
33.87066957855232
 20
-17.88840297114629
 30
0.0
 10
33.87066957855232
 20
-17.88840297114629
 30
0.0
 10
33.87066957855232
 20
-17.88840297114629
 30
0.0
 10
34.08994608330982
 20
-18.18822353527813
 30
0.0
 10
34.08994608330982
 20
-18.18822353527813
 30
0.0
 10
34.08994608330982
 20
-18.18822353527813
 30
0.0
 10
36.26783888833721
 20
-21.16611576465704
 30
0.0
 10
36.26783888833721
 20
-21.16611576465704
 30
0.0
 10
36.26783888833721
 20
-21.16611576465704
 30
0.0
 10
37.91798606666521
 20
-23.42239698440764
 30
0.0
 10
37.91798606666521
 20
-23.42239698440764
 30
0.0
 10
37.91798606666521
 20
-23.42239698440764
 30
0.0
 10
38.08189115723377
 20
-23.09193283946662
 30
0.0
 10
38.08189115723377
 20
-23.09193283946662
 30
0.0
  0
POLYLINE
  5
A9
330
1F
100
AcDbEntity
  8
_U+5716_U+5C64 2
370
     0
100
AcDb2dPolyline
 66
     1
 10
0.0
 20
0.0
 30
0.0
  0
VERTEX
  5
AA
330
A9
100
AcDbEntity
  8
_U+5716_U+5C64 2
370
     0
100
AcDbVertex
100
AcDb2dVertex
 10
26.68560902534391
 20
-5.335041880581186
 30
0.0
  0
VERTEX
  5
AB
330
A9
100
AcDbEntity
  8
_U+5716_U+5C64 2
370
     0
100
AcDbVertex
100
AcDb2dVertex
 10
26.38721540133548
 20
-4.933847955295603
 30
0.0
  0
VERTEX
  5
AC
330
A9
100
AcDbEntity
  8
_U+5716_U+5C64 2
370
     0
100
AcDbVertex
100
AcDb2dVertex
 10
26.78988824243955
 20
-4.634354366848872
 30
0.0
  0
VERTEX
  5
AD
330
A9
100
AcDbEntity
  8
_U+5716_U+5C64 2
370
     0
100
AcDbVertex
100
AcDb2dVertex
 10
27.08828186644791
 20
-5.035548292134424
 30
0.0
  0
VERTEX
  5
AE
330
A9
100
AcDbEntity
  8
_U+5716_U+5C64 2
370
     0
100
AcDbVertex
100
AcDb2dVertex
 10
26.68560902534391
 20
-5.335041880581186
 30
0.0
  0
SEQEND
  5
AF
330
A9
100
AcDbEntity
  8
_U+5716_U+5C64 2
370
     0
  0
POLYLINE
  5
B0
330
1F
100
AcDbEntity
  8
_U+5716_U+5C64 2
370
     0
100
AcDb2dPolyline
 66
     1
 10
0.0
 20
0.0
 30
0.0
  0
VERTEX
  5
B1
330
B0
100
AcDbEntity
  8
_U+5716_U+5C64 2
370
     0
100
AcDbVertex
100
AcDb2dVertex
 10
27.28314601131139
 20
-6.136893570576341
 30
0.0
  0
VERTEX
  5
B2
330
B0
100
AcDbEntity
  8
_U+5716_U+5C64 2
370
     0
100
AcDbVertex
100
AcDb2dVertex
 10
26.98474724728223
 20
-5.735692734469189
 30
0.0
  0
VERTEX
  5
B3
330
B0
100
AcDbEntity
  8
_U+5716_U+5C64 2
370
     0
100
AcDbVertex
100
AcDb2dVertex
 10
27.38594117256785
 20
-5.437299110460726
 30
0.0
  0
VERTEX
  5
B4
330
B0
100
AcDbEntity
  8
_U+5716_U+5C64 2
370
     0
100
AcDbVertex
100
AcDb2dVertex
 10
27.68433993659694
 20
-5.838499946567911
 30
0.0
  0
VERTEX
  5
B5
330
B0
100
AcDbEntity
  8
_U+5716_U+5C64 2
370
     0
100
AcDbVertex
100
AcDb2dVertex
 10
27.28314601131139
 20
-6.136893570576341
 30
0.0
  0
SEQEND
  5
B6
330
B0
100
AcDbEntity
  8
_U+5716_U+5C64 2
370
     0
  0
POLYLINE
  5
B7
330
1F
100
AcDbEntity
  8
_U+5716_U+5C64 2
370
     0
100
AcDb2dPolyline
 66
     1
 10
0.0
 20
0.0
 30
0.0
  0
VERTEX
  5
B8
330
B7
100
AcDbEntity
  8
_U+5716_U+5C64 2
370
     0
100
AcDbVertex
100
AcDb2dVertex
 10
27.87993839934904
 20
-6.939288331969045
 30
0.0
  0
VERTEX
  5
B9
330
B7
100
AcDbEntity
  8
_U+5716_U+5C64 2
370
     0
100
AcDbVertex
100
AcDb2dVertex
 10
27.58153963531988
 20
-6.538087495861892
 30
0.0
  0
VERTEX
  5
BA
330
B7
100
AcDbEntity
  8
_U+5716_U+5C64 2
370
     0
100
AcDbVertex
100
AcDb2dVertex
 10
27.98273356060544
 20
-6.239693871853494
 30
0.0
  0
VERTEX
  5
BB
330
B7
100
AcDbEntity
  8
_U+5716_U+5C64 2
370
     0
100
AcDbVertex
100
AcDb2dVertex
 10
28.28113232463459
 20
-6.640894707960647
 30
0.0
  0
VERTEX
  5
BC
330
B7
100
AcDbEntity
  8
_U+5716_U+5C64 2
370
     0
100
AcDbVertex
100
AcDb2dVertex
 10
27.87993839934904
 20
-6.939288331969045
 30
0.0
  0
SEQEND
  5
BD
330
B7
100
AcDbEntity
  8
_U+5716_U+5C64 2
370
     0
  0
POLYLINE
  5
BE
330
1F
100
AcDbEntity
  8
_U+5716_U+5C64 2
370
     0
100
AcDb2dPolyline
 66
     1
 10
0.0
 20
0.0
 30
0.0
  0
VERTEX
  5
BF
330
BE
100
AcDbEntity
  8
_U+5716_U+5C64 2
370
     0
100
AcDbVertex
100
AcDb2dVertex
 10
28.47673078738657
 20
-7.741683093361781
 30
0.0
  0
VERTEX
  5
C0
330
BE
100
AcDbEntity
  8
_U+5716_U+5C64 2
370
     0
100
AcDbVertex
100
AcDb2dVertex
 10
28.17833202335741
 20
-7.340482257254628
 30
0.0
  0
VERTEX
  5
C1
330
BE
100
AcDbEntity
  8
_U+5716_U+5C64 2
370
     0
100
AcDbVertex
100
AcDb2dVertex
 10
28.57952594864296
 20
-7.042088633246198
 30
0.0
  0
VERTEX
  5
C2
330
BE
100
AcDbEntity
  8
_U+5716_U+5C64 2
370
     0
100
AcDbVertex
100
AcDb2dVertex
 10
28.87792471267212
 20
-7.443289469353383
 30
0.0
  0
VERTEX
  5
C3
330
BE
100
AcDbEntity
  8
_U+5716_U+5C64 2
370
     0
100
AcDbVertex
100
AcDb2dVertex
 10
28.47673078738657
 20
-7.741683093361781
 30
0.0
  0
SEQEND
  5
C4
330
BE
100
AcDbEntity
  8
_U+5716_U+5C64 2
370
     0
  0
POLYLINE
  5
C5
330
1F
100
AcDbEntity
  8
_U+5716_U+5C64 2
370
     0
100
AcDb2dPolyline
 66
     1
 10
0.0
 20
0.0
 30
0.0
  0
VERTEX
  5
C6
330
C5
100
AcDbEntity
  8
_U+5716_U+5C64 2
370
     0
100
AcDbVertex
100
AcDb2dVertex
 10
29.07352317542409
 20
-8.544077854754484
 30
0.0
  0
VERTEX
  5
C7
330
C5
100
AcDbEntity
  8
_U+5716_U+5C64 2
370
     0
100
AcDbVertex
100
AcDb2dVertex
 10
28.775124411395
 20
-8.142877018647365
 30
0.0
  0
VERTEX
  5
C8
330
C5
100
AcDbEntity
  8
_U+5716_U+5C64 2
370
     0
100
AcDbVertex
100
AcDb2dVertex
 10
29.17631833668055
 20
-7.844483394638934
 30
0.0
  0
VERTEX
  5
C9
330
C5
100
AcDbEntity
  8
_U+5716_U+5C64 2
370
     0
100
AcDbVertex
100
AcDb2dVertex
 10
29.47471710070971
 20
-8.245684230746086
 30
0.0
  0
VERTEX
  5
CA
330
C5
100
AcDbEntity
  8
_U+5716_U+5C64 2
370
     0
100
AcDbVertex
100
AcDb2dVertex
 10
29.07352317542409
 20
-8.544077854754484
 30
0.0
  0
SEQEND
  5
CB
330
C5
100
AcDbEntity
  8
_U+5716_U+5C64 2
370
     0
  0
POLYLINE
  5
CC
330
1F
100
AcDbEntity
  8
_U+5716_U+5C64 2
370
     0
100
AcDb2dPolyline
 66
     1
 10
0.0
 20
0.0
 30
0.0
  0
VERTEX
  5
CD
330
CC
100
AcDbEntity
  8
_U+5716_U+5C64 2
370
     0
100
AcDbVertex
100
AcDb2dVertex
 10
29.67031556346168
 20
-9.34647261614722
 30
0.0
  0
VERTEX
  5
CE
330
CC
100
AcDbEntity
  8
_U+5716_U+5C64 2
370
     0
100
AcDbVertex
100
AcDb2dVertex
 10
29.37191936944289
 20
-8.945275235450884
 30
0.0
  0
VERTEX
  5
CF
330
CC
100
AcDbEntity
  8
_U+5716_U+5C64 2
370
     0
100
AcDbVertex
100
AcDb2dVertex
 10
29.7731132947285
 20
-8.646881611442486
 30
0.0
  0
VERTEX
  5
D0
330
CC
100
AcDbEntity
  8
_U+5716_U+5C64 2
370
     0
100
AcDbVertex
100
AcDb2dVertex
 10
30.07150948874723
 20
-9.048078992138823
 30
0.0
  0
VERTEX
  5
D1
330
CC
100
AcDbEntity
  8
_U+5716_U+5C64 2
370
     0
100
AcDbVertex
100
AcDb2dVertex
 10
29.67031556346168
 20
-9.34647261614722
 30
0.0
  0
SEQEND
  5
D2
330
CC
100
AcDbEntity
  8
_U+5716_U+5C64 2
370
     0
  0
POLYLINE
  5
D3
330
1F
100
AcDbEntity
  8
_U+5716_U+5C64 2
370
     0
100
AcDb2dPolyline
 66
     1
 10
0.0
 20
0.0
 30
0.0
  0
VERTEX
  5
D4
330
D3
100
AcDbEntity
  8
_U+5716_U+5C64 2
370
     0
100
AcDbVertex
100
AcDb2dVertex
 10
30.26710795149927
 20
-10.14886737753999
 30
0.0
  0
VERTEX
  5
D5
330
D3
100
AcDbEntity
  8
_U+5716_U+5C64 2
370
     0
100
AcDbVertex
100
AcDb2dVertex
 10
29.96871432749084
 20
-9.747673452254373
 30
0.0
  0
VERTEX
  5
D6
330
D3
100
AcDbEntity
  8
_U+5716_U+5C64 2
370
     0
100
AcDbVertex
100
AcDb2dVertex
 10
30.36990825277639
 20
-9.449279828245974
 30
0.0
  0
VERTEX
  5
D7
330
D3
100
AcDbEntity
  8
_U+5716_U+5C64 2
370
     0
100
AcDbVertex
100
AcDb2dVertex
 10
30.66830187678482
 20
-9.850473753531558
 30
0.0
  0
VERTEX
  5
D8
330
D3
100
AcDbEntity
  8
_U+5716_U+5C64 2
370
     0
100
AcDbVertex
100
AcDb2dVertex
 10
30.26710795149927
 20
-10.14886737753999
 30
0.0
  0
SEQEND
  5
D9
330
D3
100
AcDbEntity
  8
_U+5716_U+5C64 2
370
     0
  0
POLYLINE
  5
DA
330
1F
100
AcDbEntity
  8
_U+5716_U+5C64 2
370
     0
100
AcDb2dPolyline
 66
     1
 10
0.0
 20
0.0
 30
0.0
  0
VERTEX
  5
DB
330
DA
100
AcDbEntity
  8
_U+5716_U+5C64 2
370
     0
100
AcDbVertex
100
AcDb2dVertex
 10
30.86390033953679
 20
-10.95126213893269
 30
0.0
  0
VERTEX
  5
DC
330
DA
100
AcDbEntity
  8
_U+5716_U+5C64 2
370
     0
100
AcDbVertex
100
AcDb2dVertex
 10
30.56550671552836
 20
-10.55006821364714
 30
0.0
  0
VERTEX
  5
DD
330
DA
100
AcDbEntity
  8
_U+5716_U+5C64 2
370
     0
100
AcDbVertex
100
AcDb2dVertex
 10
30.96670064081391
 20
-10.25167458963868
 30
0.0
  0
VERTEX
  5
DE
330
DA
100
AcDbEntity
  8
_U+5716_U+5C64 2
370
     0
100
AcDbVertex
100
AcDb2dVertex
 10
31.26509426482234
 20
-10.65286851492429
 30
0.0
  0
VERTEX
  5
DF
330
DA
100
AcDbEntity
  8
_U+5716_U+5C64 2
370
     0
100
AcDbVertex
100
AcDb2dVertex
 10
30.86390033953679
 20
-10.95126213893269
 30
0.0
  0
SEQEND
  5
E0
330
DA
100
AcDbEntity
  8
_U+5716_U+5C64 2
370
     0
  0
POLYLINE
  5
E1
330
1F
100
AcDbEntity
  8
_U+5716_U+5C64 2
370
     0
100
AcDb2dPolyline
 66
     1
 10
0.0
 20
0.0
 30
0.0
  0
VERTEX
  5
E2
330
E1
100
AcDbEntity
  8
_U+5716_U+5C64 2
370
     0
100
AcDbVertex
100
AcDb2dVertex
 10
31.46069529758474
 20
-11.75366035573621
 30
0.0
  0
VERTEX
  5
E3
330
E1
100
AcDbEntity
  8
_U+5716_U+5C64 2
370
     0
100
AcDbVertex
100
AcDb2dVertex
 10
31.16229910356595
 20
-11.35246297503984
 30
0.0
  0
VERTEX
  5
E4
330
E1
100
AcDbEntity
  8
_U+5716_U+5C64 2
370
     0
100
AcDbVertex
100
AcDb2dVertex
 10
31.56349302885156
 20
-11.05406935103145
 30
0.0
  0
VERTEX
  5
E5
330
E1
100
AcDbEntity
  8
_U+5716_U+5C64 2
370
     0
100
AcDbVertex
100
AcDb2dVertex
 10
31.8618892228703
 20
-11.45526673172781
 30
0.0
  0
VERTEX
  5
E6
330
E1
100
AcDbEntity
  8
_U+5716_U+5C64 2
370
     0
100
AcDbVertex
100
AcDb2dVertex
 10
31.46069529758474
 20
-11.75366035573621
 30
0.0
  0
SEQEND
  5
E7
330
E1
100
AcDbEntity
  8
_U+5716_U+5C64 2
370
     0
  0
POLYLINE
  5
E8
330
1F
100
AcDbEntity
  8
_U+5716_U+5C64 2
370
     0
100
AcDb2dPolyline
 66
     1
 10
0.0
 20
0.0
 30
0.0
  0
VERTEX
  5
E9
330
E8
100
AcDbEntity
  8
_U+5716_U+5C64 2
370
     0
100
AcDbVertex
100
AcDb2dVertex
 10
32.05748768562227
 20
-12.55605511712892
 30
0.0
  0
VERTEX
  5
EA
330
E8
100
AcDbEntity
  8
_U+5716_U+5C64 2
370
     0
100
AcDbVertex
100
AcDb2dVertex
 10
31.75909149160347
 20
-12.15485773643258
 30
0.0
  0
VERTEX
  5
EB
330
E8
100
AcDbEntity
  8
_U+5716_U+5C64 2
370
     0
100
AcDbVertex
100
AcDb2dVertex
 10
32.16028541688915
 20
-11.85646411242418
 30
0.0
  0
VERTEX
  5
EC
330
E8
100
AcDbEntity
  8
_U+5716_U+5C64 2
370
     0
100
AcDbVertex
100
AcDb2dVertex
 10
32.45868161090788
 20
-12.25766149312052
 30
0.0
  0
VERTEX
  5
ED
330
E8
100
AcDbEntity
  8
_U+5716_U+5C64 2
370
     0
100
AcDbVertex
100
AcDb2dVertex
 10
32.05748768562227
 20
-12.55605511712892
 30
0.0
  0
SEQEND
  5
EE
330
E8
100
AcDbEntity
  8
_U+5716_U+5C64 2
370
     0
  0
POLYLINE
  5
EF
330
1F
100
AcDbEntity
  8
_U+5716_U+5C64 2
370
     0
100
AcDb2dPolyline
 66
     1
 10
0.0
 20
0.0
 30
0.0
  0
VERTEX
  5
F0
330
EF
100
AcDbEntity
  8
_U+5716_U+5C64 2
370
     0
100
AcDbVertex
100
AcDb2dVertex
 10
32.65428264367029
 20
-13.35845333393247
 30
0.0
  0
VERTEX
  5
F1
330
EF
100
AcDbEntity
  8
_U+5716_U+5C64 2
370
     0
100
AcDbVertex
100
AcDb2dVertex
 10
32.35588387964113
 20
-12.95725249782532
 30
0.0
  0
VERTEX
  5
F2
330
EF
100
AcDbEntity
  8
_U+5716_U+5C64 2
370
     0
100
AcDbVertex
100
AcDb2dVertex
 10
32.75707780492668
 20
-12.65885887381689
 30
0.0
  0
VERTEX
  5
F3
330
EF
100
AcDbEntity
  8
_U+5716_U+5C64 2
370
     0
100
AcDbVertex
100
AcDb2dVertex
 10
33.05547656895583
 20
-13.06005970992404
 30
0.0
  0
VERTEX
  5
F4
330
EF
100
AcDbEntity
  8
_U+5716_U+5C64 2
370
     0
100
AcDbVertex
100
AcDb2dVertex
 10
32.65428264367029
 20
-13.35845333393247
 30
0.0
  0
SEQEND
  5
F5
330
EF
100
AcDbEntity
  8
_U+5716_U+5C64 2
370
     0
  0
POLYLINE
  5
F6
330
1F
100
AcDbEntity
  8
_U+5716_U+5C64 2
370
     0
100
AcDb2dPolyline
 66
     1
 10
0.0
 20
0.0
 30
0.0
  0
VERTEX
  5
F7
330
F6
100
AcDbEntity
  8
_U+5716_U+5C64 2
370
     0
100
AcDbVertex
100
AcDb2dVertex
 10
33.25458309586271
 20
-14.16556473105474
 30
0.0
  0
VERTEX
  5
F8
330
F6
100
AcDbEntity
  8
_U+5716_U+5C64 2
370
     0
100
AcDbVertex
100
AcDb2dVertex
 10
32.95618690184391
 20
-13.76436735035837
 30
0.0
  0
VERTEX
  5
F9
330
F6
100
AcDbEntity
  8
_U+5716_U+5C64 2
370
     0
100
AcDbVertex
100
AcDb2dVertex
 10
33.35738082712953
 20
-13.46597372634997
 30
0.0
  0
VERTEX
  5
FA
330
F6
100
AcDbEntity
  8
_U+5716_U+5C64 2
370
     0
100
AcDbVertex
100
AcDb2dVertex
 10
33.65577702114826
 20
-13.86717110704631
 30
0.0
  0
VERTEX
  5
FB
330
F6
100
AcDbEntity
  8
_U+5716_U+5C64 2
370
     0
100
AcDbVertex
100
AcDb2dVertex
 10
33.25458309586271
 20
-14.16556473105474
 30
0.0
  0
SEQEND
  5
FC
330
F6
100
AcDbEntity
  8
_U+5716_U+5C64 2
370
     0
  0
POLYLINE
  5
FD
330
1F
100
AcDbEntity
  8
_U+5716_U+5C64 2
370
     0
100
AcDb2dPolyline
 66
     1
 10
0.0
 20
0.0
 30
0.0
  0
VERTEX
  5
FE
330
FD
100
AcDbEntity
  8
_U+5716_U+5C64 2
370
     0
100
AcDbVertex
100
AcDb2dVertex
 10
33.8513754839003
 20
-14.96795949244748
 30
0.0
  0
VERTEX
  5
FF
330
FD
100
AcDbEntity
  8
_U+5716_U+5C64 2
370
     0
100
AcDbVertex
100
AcDb2dVertex
 10
33.55297928988151
 20
-14.56676211175111
 30
0.0
  0
VERTEX
  5
100
330
FD
100
AcDbEntity
  8
_U+5716_U+5C64 2
370
     0
100
AcDbVertex
100
AcDb2dVertex
 10
33.95417321516712
 20
-14.26836848774268
 30
0.0
  0
VERTEX
  5
101
330
FD
100
AcDbEntity
  8
_U+5716_U+5C64 2
370
     0
100
AcDbVertex
100
AcDb2dVertex
 10
34.25256940918585
 20
-14.66956586843905
 30
0.0
  0
VERTEX
  5
102
330
FD
100
AcDbEntity
  8
_U+5716_U+5C64 2
370
     0
100
AcDbVertex
100
AcDb2dVertex
 10
33.8513754839003
 20
-14.96795949244748
 30
0.0
  0
SEQEND
  5
103
330
FD
100
AcDbEntity
  8
_U+5716_U+5C64 2
370
     0
  0
POLYLINE
  5
104
330
1F
100
AcDbEntity
  8
_U+5716_U+5C64 2
370
     0
100
AcDb2dPolyline
 66
     1
 10
0.0
 20
0.0
 30
0.0
  0
VERTEX
  5
105
330
104
100
AcDbEntity
  8
_U+5716_U+5C64 2
370
     0
100
AcDbVertex
100
AcDb2dVertex
 10
34.44817044194825
 20
-15.77035770925099
 30
0.0
  0
VERTEX
  5
106
330
104
100
AcDbEntity
  8
_U+5716_U+5C64 2
370
     0
100
AcDbVertex
100
AcDb2dVertex
 10
34.14977167791909
 20
-15.36915687314381
 30
0.0
  0
VERTEX
  5
107
330
104
100
AcDbEntity
  8
_U+5716_U+5C64 2
370
     0
100
AcDbVertex
100
AcDb2dVertex
 10
34.55244451902315
 20
-15.06966328469714
 30
0.0
  0
VERTEX
  5
108
330
104
100
AcDbEntity
  8
_U+5716_U+5C64 2
370
     0
100
AcDbVertex
100
AcDb2dVertex
 10
34.85084328305225
 20
-15.47086412080426
 30
0.0
  0
VERTEX
  5
109
330
104
100
AcDbEntity
  8
_U+5716_U+5C64 2
370
     0
100
AcDbVertex
100
AcDb2dVertex
 10
34.44817044194825
 20
-15.77035770925099
 30
0.0
  0
SEQEND
  5
10A
330
104
100
AcDbEntity
  8
_U+5716_U+5C64 2
370
     0
  0
POLYLINE
  5
10B
330
1F
100
AcDbEntity
  8
_U+5716_U+5C64 2
370
     0
100
AcDb2dPolyline
 66
     1
 10
0.0
 20
0.0
 30
0.0
  0
VERTEX
  5
10C
330
10B
100
AcDbEntity
  8
_U+5716_U+5C64 2
370
     0
100
AcDbVertex
100
AcDb2dVertex
 10
35.04348391416726
 20
-16.57385243508203
 30
0.0
  0
VERTEX
  5
10D
330
10B
100
AcDbEntity
  8
_U+5716_U+5C64 2
370
     0
100
AcDbVertex
100
AcDb2dVertex
 10
34.74508515013817
 20
-16.17265159897485
 30
0.0
  0
VERTEX
  5
10E
330
10B
100
AcDbEntity
  8
_U+5716_U+5C64 2
370
     0
100
AcDbVertex
100
AcDb2dVertex
 10
35.14775799124223
 20
-15.87315801052812
 30
0.0
  0
VERTEX
  5
10F
330
10B
100
AcDbEntity
  8
_U+5716_U+5C64 2
370
     0
100
AcDbVertex
100
AcDb2dVertex
 10
35.44615675527139
 20
-16.2743588466353
 30
0.0
  0
VERTEX
  5
110
330
10B
100
AcDbEntity
  8
_U+5716_U+5C64 2
370
     0
100
AcDbVertex
100
AcDb2dVertex
 10
35.04348391416726
 20
-16.57385243508203
 30
0.0
  0
SEQEND
  5
111
330
10B
100
AcDbEntity
  8
_U+5716_U+5C64 2
370
     0
  0
ENDSEC
  0
SECTION
  2
OBJECTS
  0
DICTIONARY
  5
C
330
0
100
AcDbDictionary
281
     1
  3
ACAD_GROUP
350
D
  3
ACAD_LAYOUT
350
1A
  3
ACAD_MATERIAL
350
3B
  3
ACAD_MLEADERSTYLE
350
139
  3
ACAD_MLINESTYLE
350
17
  3
ACAD_PLOTSETTINGS
350
19
  3
ACAD_PLOTSTYLENAME
350
E
  3
ACAD_TABLESTYLE
350
138
  3
ACAD_VISUALSTYLE
350
2A
  0
DICTIONARY
  5
D
102
{ACAD_REACTORS
330
C
102
}
330
C
100
AcDbDictionary
281
     1
  0
DICTIONARY
  5
1A
102
{ACAD_REACTORS
330
C
102
}
330
C
100
AcDbDictionary
281
     1
  3
Layout1
350
1E
  3
Layout2
350
26
  3
Model
350
22
  0
DICTIONARY
  5
3B
102
{ACAD_REACTORS
330
C
102
}
330
C
100
AcDbDictionary
281
     1
  3
ByBlock
350
3D
  3
ByLayer
350
3C
  3
Global
350
3E
  0
DICTIONARY
  5
139
102
{ACAD_REACTORS
330
C
102
}
330
C
100
AcDbDictionary
281
     1
  0
DICTIONARY
  5
17
102
{ACAD_REACTORS
330
C
102
}
330
C
100
AcDbDictionary
281
     1
  3
Standard
350
18
  0
DICTIONARY
  5
19
102
{ACAD_REACTORS
330
C
102
}
330
C
100
AcDbDictionary
281
     1
  0
ACDBDICTIONARYWDFLT
  5
E
102
{ACAD_REACTORS
330
C
102
}
330
C
100
AcDbDictionary
281
     1
  3
Normal
350
F
100
AcDbDictionaryWithDefault
340
F
  0
DICTIONARY
  5
138
102
{ACAD_REACTORS
330
C
102
}
330
C
100
AcDbDictionary
281
     1
  0
DICTIONARY
  5
2A
102
{ACAD_REACTORS
330
C
102
}
330
C
100
AcDbDictionary
281
     1
  3
2dWireframe
350
2F
  3
3D Hidden
350
31
  3
3dWireframe
350
30
  3
Basic
350
32
  3
Brighten
350
36
  3
ColorChange
350
3A
  3
Conceptual
350
34
  3
Dim
350
35
  3
Facepattern
350
39
  3
Flat
350
2B
  3
FlatWithEdges
350
2C
  3
Gouraud
350
2D
  3
GouraudWithEdges
350
2E
  3
Linepattern
350
38
  3
Realistic
350
33
  3
Thicken
350
37
  0
LAYOUT
  5
1E
102
{ACAD_REACTORS
330
1A
102
}
330
1A
100
AcDbPlotSettings
  1

  2
none_device
  4

  6

 40
0.0
 41
0.0
 42
0.0
 43
0.0
 44
0.0
 45
0.0
 46
0.0
 47
0.0
 48
0.0
 49
0.0
140
0.0
141
0.0
142
1.0
143
1.0
 70
   688
 72
     0
 73
     0
 74
     5
  7

 75
    16
 76
     0
 77
     2
 78
   300
147
1.0
148
0.0
149
0.0
100
AcDbLayout
  1
Layout1
 70
     1
 71
     1
 10
0.0
 20
0.0
 11
12.0
 21
9.0
 12
0.0
 22
0.0
 32
0.0
 14
1.000000000000000E+20
 24
1.000000000000000E+20
 34
1.000000000000000E+20
 15
-1.000000000000000E+20
 25
-1.000000000000000E+20
 35
-1.000000000000000E+20
146
0.0
 13
0.0
 23
0.0
 33
0.0
 16
1.0
 26
0.0
 36
0.0
 17
0.0
 27
1.0
 37
0.0
 76
     0
330
1B
  0
LAYOUT
  5
26
102
{ACAD_REACTORS
330
1A
102
}
330
1A
100
AcDbPlotSettings
  1

  2
none_device
  4

  6

 40
0.0
 41
0.0
 42
0.0
 43
0.0
 44
0.0
 45
0.0
 46
0.0
 47
0.0
 48
0.0
 49
0.0
140
0.0
141
0.0
142
1.0
143
1.0
 70
   688
 72
     0
 73
     0
 74
     5
  7

 75
    16
 76
     0
 77
     2
 78
   300
147
1.0
148
0.0
149
0.0
100
AcDbLayout
  1
Layout2
 70
     1
 71
     2
 10
0.0
 20
0.0
 11
0.0
 21
0.0
 12
0.0
 22
0.0
 32
0.0
 14
0.0
 24
0.0
 34
0.0
 15
0.0
 25
0.0
 35
0.0
146
0.0
 13
0.0
 23
0.0
 33
0.0
 16
1.0
 26
0.0
 36
0.0
 17
0.0
 27
1.0
 37
0.0
 76
     0
330
23
  0
LAYOUT
  5
22
102
{ACAD_REACTORS
330
1A
102
}
330
1A
100
AcDbPlotSettings
  1

  2
none_device
  4

  6

 40
0.0
 41
0.0
 42
0.0
 43
0.0
 44
0.0
 45
0.0
 46
0.0
 47
0.0
 48
0.0
 49
0.0
140
0.0
141
0.0
142
1.0
143
1.0
 70
  1712
 72
     0
 73
     0
 74
     0
  7

 75
     0
 76
     0
 77
     2
 78
   300
147
1.0
148
0.0
149
0.0
100
AcDbLayout
  1
Model
 70
     1
 71
     0
 10
0.0
 20
0.0
 11
12.0
 21
9.0
 12
0.0
 22
0.0
 32
0.0
 14
1.000000000000000E+20
 24
1.000000000000000E+20
 34
1.000000000000000E+20
 15
-1.000000000000000E+20
 25
-1.000000000000000E+20
 35
-1.000000000000000E+20
146
0.0
 13
0.0
 23
0.0
 33
0.0
 16
1.0
 26
0.0
 36
0.0
 17
0.0
 27
1.0
 37
0.0
 76
     0
330
1F
331
29
  0
MATERIAL
  5
3D
102
{ACAD_REACTORS
330
3B
102
}
102
{ACAD_XDICTIONARY
360
134
102
}
330
3B
100
AcDbMaterial
  1
ByBlock
  0
MATERIAL
  5
3C
102
{ACAD_REACTORS
330
3B
102
}
102
{ACAD_XDICTIONARY
360
132
102
}
330
3B
100
AcDbMaterial
  1
ByLayer
  0
MATERIAL
  5
3E
102
{ACAD_REACTORS
330
3B
102
}
102
{ACAD_XDICTIONARY
360
136
102
}
330
3B
100
AcDbMaterial
  1
Global
  0
MLINESTYLE
  5
18
102
{ACAD_REACTORS
330
17
102
}
330
17
100
AcDbMlineStyle
  2
Standard
 70
     0
  3

 62
   256
 51
90.0
 52
90.0
 71
     2
 49
0.5
 62
   256
  6
BYLAYER
 49
-0.5
 62
   256
  6
BYLAYER
  0
ACDBPLACEHOLDER
  5
F
102
{ACAD_REACTORS
330
E
102
}
330
E
  0
VISUALSTYLE
  5
2F
102
{ACAD_REACTORS
330
2A
102
}
102
{ACAD_XDICTIONARY
360
11A
102
}
330
2A
100
AcDbVisualStyle
  2
2dWireframe
 70
     4
 71
     0
 72
     2
 73
     0
 90
        0
 40
-0.6
 41
-30.0
 62
     5
 63
     7
421
 16777215
 74
     1
 91
        4
 64
     7
 65
   257
 75
     1
175
     1
 42
1.0
 92
        0
 66
   257
 43
1.0
 76
     1
 77
     6
 78
     2
 67
     7
 79
     5
170
     0
171
     0
290
     0
174
     0
 93
        1
 44
0.0
173
     0
291
     0
 45
0.0
1001
ACAD
1000
AcDbSavedByObjectVersion
1070
     0
  0
VISUALSTYLE
  5
31
102
{ACAD_REACTORS
330
2A
102
}
102
{ACAD_XDICTIONARY
360
11E
102
}
330
2A
100
AcDbVisualStyle
  2
3D Hidden
 70
     6
 71
     1
 72
     2
 73
     2
 90
        0
 40
-0.6
 41
-30.0
 62
     5
 63
     7
421
 16777215
 74
     2
 91
        2
 64
     7
 65
   257
 75
     2
175
     1
 42
40.0
 92
        0
 66
   257
 43
1.0
 76
     1
 77
     6
 78
     2
 67
     7
 79
     3
170
     0
171
     0
290
     0
174
     0
 93
        1
 44
0.0
173
     0
291
     0
 45
0.0
1001
ACAD
1000
AcDbSavedByObjectVersion
1070
     0
  0
VISUALSTYLE
  5
30
102
{ACAD_REACTORS
330
2A
102
}
102
{ACAD_XDICTIONARY
360
11C
102
}
330
2A
100
AcDbVisualStyle
  2
3dWireframe
 70
     5
 71
     0
 72
     2
 73
     0
 90
        0
 40
-0.6
 41
-30.0
 62
     5
 63
     7
421
 16777215
 74
     1
 91
        4
 64
     7
 65
   257
 75
     1
175
     1
 42
1.0
 92
        0
 66
   257
 43
1.0
 76
     1
 77
     6
 78
     2
 67
     7
 79
     5
170
     0
171
     0
290
     0
174
     0
 93
        1
 44
0.0
173
     0
291
     0
 45
0.0
1001
ACAD
1000
AcDbSavedByObjectVersion
1070
     0
  0
VISUALSTYLE
  5
32
102
{ACAD_REACTORS
330
2A
102
}
102
{ACAD_XDICTIONARY
360
120
102
}
330
2A
100
AcDbVisualStyle
  2
Basic
 70
     7
 71
     1
 72
     0
 73
     1
 90
        0
 40
-0.6
 41
-30.0
 62
     5
 63
     7
421
 16777215
 74
     0
 91
        4
 64
     7
 65
   257
 75
     1
175
     1
 42
1.0
 92
        8
 66
     7
 43
1.0
 76
     1
 77
     6
 78
     2
 67
     7
 79
     5
170
     0
171
     0
290
     0
174
     0
 93
        1
 44
0.0
173
     0
291
     1
 45
0.0
1001
ACAD
1000
AcDbSavedByObjectVersion
1070
     0
  0
VISUALSTYLE
  5
36
102
{ACAD_REACTORS
330
2A
102
}
102
{ACAD_XDICTIONARY
360
128
102
}
330
2A
100
AcDbVisualStyle
  2
Brighten
 70
    12
 71
     2
 72
     2
 73
     0
 90
        0
 40
-0.6
 41
-30.0
 62
     5
 63
     7
421
 16777215
 74
     1
 91
        4
 64
     7
 65
   257
 75
     1
175
     1
 42
1.0
 92
        8
 66
     7
 43
1.0
 76
     1
 77
     6
 78
     2
 67
     7
 79
     5
170
     0
171
     0
290
     0
174
     0
 93
        1
 44
50.0
173
     0
291
     1
 45
0.0
1001
ACAD
1000
AcDbSavedByObjectVersion
1070
     0
  0
VISUALSTYLE
  5
3A
102
{ACAD_REACTORS
330
2A
102
}
102
{ACAD_XDICTIONARY
360
130
102
}
330
2A
100
AcDbVisualStyle
  2
ColorChange
 70
    16
 71
     2
 72
     2
 73
     3
 90
        0
 40
-0.6
 41
-30.0
 62
     5
 63
     8
421
  8421504
 74
     1
 91
        4
 64
     7
 65
   257
 75
     1
175
     1
 42
1.0
 92
        8
 66
     8
424
  8421504
 43
1.0
 76
     1
 77
     6
 78
     2
 67
     7
 79
     5
170
     0
171
     0
290
     0
174
     0
 93
        1
 44
0.0
173
     0
291
     1
 45
0.0
1001
ACAD
1000
AcDbSavedByObjectVersion
1070
     0
  0
VISUALSTYLE
  5
34
102
{ACAD_REACTORS
330
2A
102
}
102
{ACAD_XDICTIONARY
360
124
102
}
330
2A
100
AcDbVisualStyle
  2
Conceptual
 70
     9
 71
     3
 72
     2
 73
     0
 90
        0
 40
-0.6
 41
-30.0
 62
     5
 63
     7
421
 16777215
 74
     2
 91
        2
 64
     7
 65
   257
 75
     1
175
     1
 42
40.0
 92
        8
 66
     7
 43
1.0
 76
     1
 77
     6
 78
     2
 67
     7
 79
     3
170
     0
171
     0
290
     0
174
     0
 93
        1
 44
0.0
173
     0
291
     0
 45
0.0
1001
ACAD
1000
AcDbSavedByObjectVersion
1070
     0
  0
VISUALSTYLE
  5
35
102
{ACAD_REACTORS
330
2A
102
}
102
{ACAD_XDICTIONARY
360
126
102
}
330
2A
100
AcDbVisualStyle
  2
Dim
 70
    11
 71
     2
 72
     2
 73
     0
 90
        0
 40
-0.6
 41
-30.0
 62
     5
 63
     7
421
 16777215
 74
     1
 91
        4
 64
     7
 65
   257
 75
     1
175
     1
 42
1.0
 92
        8
 66
     7
 43
1.0
 76
     1
 77
     6
 78
     2
 67
     7
 79
     5
170
     0
171
     0
290
     0
174
     0
 93
        1
 44
-50.0
173
     0
291
     1
 45
0.0
1001
ACAD
1000
AcDbSavedByObjectVersion
1070
     0
  0
VISUALSTYLE
  5
39
102
{ACAD_REACTORS
330
2A
102
}
102
{ACAD_XDICTIONARY
360
12E
102
}
330
2A
100
AcDbVisualStyle
  2
Facepattern
 70
    15
 71
     2
 72
     2
 73
     0
 90
        0
 40
-0.6
 41
-30.0
 62
     5
 63
     7
421
 16777215
 74
     1
 91
        4
 64
     7
 65
   257
 75
     1
175
     1
 42
1.0
 92
        8
 66
     7
 43
1.0
 76
     1
 77
     6
 78
     2
 67
     7
 79
     5
170
     0
171
     0
290
     0
174
     0
 93
        1
 44
0.0
173
     0
291
     1
 45
0.0
1001
ACAD
1000
AcDbSavedByObjectVersion
1070
     0
  0
VISUALSTYLE
  5
2B
102
{ACAD_REACTORS
330
2A
102
}
102
{ACAD_XDICTIONARY
360
112
102
}
330
2A
100
AcDbVisualStyle
  2
Flat
 70
     0
 71
     2
 72
     1
 73
     1
 90
        2
 40
-0.6
 41
30.0
 62
     5
 63
     7
421
 16777215
 74
     0
 91
        4
 64
     7
 65
   257
 75
     1
175
     1
 42
1.0
 92
        8
 66
     7
 43
1.0
 76
     1
 77
     6
 78
     2
 67
     7
 79
     5
170
     0
171
     0
290
     0
174
     0
 93
       13
 44
0.0
173
     0
291
     1
 45
0.0
1001
ACAD
1000
AcDbSavedByObjectVersion
1070
     0
  0
VISUALSTYLE
  5
2C
102
{ACAD_REACTORS
330
2A
102
}
102
{ACAD_XDICTIONARY
360
114
102
}
330
2A
100
AcDbVisualStyle
  2
FlatWithEdges
 70
     1
 71
     2
 72
     1
 73
     1
 90
        2
 40
-0.6
 41
30.0
 62
     5
 63
     7
421
 16777215
 74
     1
 91
        4
 64
     7
 65
   257
 75
     1
175
     1
 42
1.0
 92
        0
 66
   257
 43
1.0
 76
     1
 77
     6
 78
     2
 67
     7
 79
     5
170
     0
171
     0
290
     0
174
     0
 93
       13
 44
0.0
173
     0
291
     1
 45
0.0
1001
ACAD
1000
AcDbSavedByObjectVersion
1070
     0
  0
VISUALSTYLE
  5
2D
102
{ACAD_REACTORS
330
2A
102
}
102
{ACAD_XDICTIONARY
360
116
102
}
330
2A
100
AcDbVisualStyle
  2
Gouraud
 70
     2
 71
     2
 72
     2
 73
     1
 90
        2
 40
-0.6
 41
30.0
 62
     5
 63
     7
421
 16777215
 74
     0
 91
        4
 64
     7
 65
   257
 75
     1
175
     1
 42
1.0
 92
        0
 66
     7
 43
1.0
 76
     1
 77
     6
 78
     2
 67
     7
 79
     5
170
     0
171
     0
290
     0
174
     0
 93
       13
 44
0.0
173
     0
291
     1
 45
0.0
1001
ACAD
1000
AcDbSavedByObjectVersion
1070
     0
  0
VISUALSTYLE
  5
2E
102
{ACAD_REACTORS
330
2A
102
}
102
{ACAD_XDICTIONARY
360
118
102
}
330
2A
100
AcDbVisualStyle
  2
GouraudWithEdges
 70
     3
 71
     2
 72
     2
 73
     1
 90
        2
 40
-0.6
 41
30.0
 62
     5
 63
     7
421
 16777215
 74
     1
 91
        4
 64
     7
 65
   257
 75
     1
175
     1
 42
1.0
 92
        0
 66
   257
 43
1.0
 76
     1
 77
     6
 78
     2
 67
     7
 79
     5
170
     0
171
     0
290
     0
174
     0
 93
       13
 44
0.0
173
     0
291
     1
 45
0.0
1001
ACAD
1000
AcDbSavedByObjectVersion
1070
     0
  0
VISUALSTYLE
  5
38
102
{ACAD_REACTORS
330
2A
102
}
102
{ACAD_XDICTIONARY
360
12C
102
}
330
2A
100
AcDbVisualStyle
  2
Linepattern
 70
    14
 71
     2
 72
     2
 73
     0
 90
        0
 40
-0.6
 41
-30.0
 62
     5
 63
     7
421
 16777215
 74
     1
 91
        4
 64
     7
 65
   257
 75
     7
175
     7
 42
1.0
 92
        8
 66
     7
 43
1.0
 76
     1
 77
     6
 78
     2
 67
     7
 79
     5
170
     0
171
     0
290
     0
174
     0
 93
        1
 44
0.0
173
     0
291
     1
 45
0.0
1001
ACAD
1000
AcDbSavedByObjectVersion
1070
     0
  0
VISUALSTYLE
  5
33
102
{ACAD_REACTORS
330
2A
102
}
102
{ACAD_XDICTIONARY
360
122
102
}
330
2A
100
AcDbVisualStyle
  2
Realistic
 70
     8
 71
     2
 72
     2
 73
     0
 90
        0
 40
-0.6
 41
-30.0
 62
     5
 63
     7
421
 16777215
 74
     1
 91
        0
 64
     7
 65
   257
 75
     1
175
     1
 42
1.0
 92
        8
 66
     8
424
  7895160
 43
1.0
 76
     1
 77
     6
 78
     2
 67
     7
 79
     5
170
     0
171
     0
290
     0
174
     0
 93
       13
 44
0.0
173
     0
291
     0
 45
0.0
1001
ACAD
1000
AcDbSavedByObjectVersion
1070
     0
  0
VISUALSTYLE
  5
37
102
{ACAD_REACTORS
330
2A
102
}
102
{ACAD_XDICTIONARY
360
12A
102
}
330
2A
100
AcDbVisualStyle
  2
Thicken
 70
    13
 71
     2
 72
     2
 73
     0
 90
        0
 40
-0.6
 41
-30.0
 62
     5
 63
     7
421
 16777215
 74
     1
 91
        4
 64
     7
 65
   257
 75
     1
175
     1
 42
1.0
 92
       12
 66
     7
 43
1.0
 76
     1
 77
     6
 78
     2
 67
     7
 79
     5
170
     0
171
     0
290
     0
174
     0
 93
        1
 44
0.0
173
     0
291
     1
 45
0.0
1001
ACAD
1000
AcDbSavedByObjectVersion
1070
     0
  0
DICTIONARY
  5
134
330
3D
100
AcDbDictionary
280
     1
281
     1
  3
ACAD_XREC_ROUNDTRIP
360
135
  0
DICTIONARY
  5
132
330
3C
100
AcDbDictionary
280
     1
281
     1
  3
ACAD_XREC_ROUNDTRIP
360
133
  0
DICTIONARY
  5
136
330
3E
100
AcDbDictionary
280
     1
281
     1
  3
ACAD_XREC_ROUNDTRIP
360
137
  0
DICTIONARY
  5
11A
330
2F
100
AcDbDictionary
280
     1
281
     1
  3
ACAD_XREC_ROUNDTRIP
360
11B
  0
DICTIONARY
  5
11E
330
31
100
AcDbDictionary
280
     1
281
     1
  3
ACAD_XREC_ROUNDTRIP
360
11F
  0
DICTIONARY
  5
11C
330
30
100
AcDbDictionary
280
     1
281
     1
  3
ACAD_XREC_ROUNDTRIP
360
11D
  0
DICTIONARY
  5
120
330
32
100
AcDbDictionary
280
     1
281
     1
  3
ACAD_XREC_ROUNDTRIP
360
121
  0
DICTIONARY
  5
128
330
36
100
AcDbDictionary
280
     1
281
     1
  3
ACAD_XREC_ROUNDTRIP
360
129
  0
DICTIONARY
  5
130
330
3A
100
AcDbDictionary
280
     1
281
     1
  3
ACAD_XREC_ROUNDTRIP
360
131
  0
DICTIONARY
  5
124
330
34
100
AcDbDictionary
280
     1
281
     1
  3
ACAD_XREC_ROUNDTRIP
360
125
  0
DICTIONARY
  5
126
330
35
100
AcDbDictionary
280
     1
281
     1
  3
ACAD_XREC_ROUNDTRIP
360
127
  0
DICTIONARY
  5
12E
330
39
100
AcDbDictionary
280
     1
281
     1
  3
ACAD_XREC_ROUNDTRIP
360
12F
  0
DICTIONARY
  5
112
330
2B
100
AcDbDictionary
280
     1
281
     1
  3
ACAD_XREC_ROUNDTRIP
360
113
  0
DICTIONARY
  5
114
330
2C
100
AcDbDictionary
280
     1
281
     1
  3
ACAD_XREC_ROUNDTRIP
360
115
  0
DICTIONARY
  5
116
330
2D
100
AcDbDictionary
280
     1
281
     1
  3
ACAD_XREC_ROUNDTRIP
360
117
  0
DICTIONARY
  5
118
330
2E
100
AcDbDictionary
280
     1
281
     1
  3
ACAD_XREC_ROUNDTRIP
360
119
  0
DICTIONARY
  5
12C
330
38
100
AcDbDictionary
280
     1
281
     1
  3
ACAD_XREC_ROUNDTRIP
360
12D
  0
DICTIONARY
  5
122
330
33
100
AcDbDictionary
280
     1
281
     1
  3
ACAD_XREC_ROUNDTRIP
360
123
  0
DICTIONARY
  5
12A
330
37
100
AcDbDictionary
280
     1
281
     1
  3
ACAD_XREC_ROUNDTRIP
360
12B
  0
XRECORD
  5
135
102
{ACAD_REACTORS
330
134
102
}
330
134
100
AcDbXrecord
280
     1
102
MATERIAL
148
0.0
149
0.0
149
0.0
 93
        0
 94
      127
282
     0
 72
     1
 77
     1
171
     1
175
     1
179
     1
273
     0
  0
XRECORD
  5
133
102
{ACAD_REACTORS
330
132
102
}
330
132
100
AcDbXrecord
280
     1
102
MATERIAL
148
0.0
149
0.0
149
0.0
 93
        0
 94
      127
282
     0
 72
     1
 77
     1
171
     1
175
     1
179
     1
273
     0
  0
XRECORD
  5
137
102
{ACAD_REACTORS
330
136
102
}
330
136
100
AcDbXrecord
280
     1
102
MATERIAL
148
0.0
149
0.0
149
0.0
 93
        0
 94
      127
282
     0
 72
     1
 77
     1
171
     1
175
     1
179
     1
273
     0
  0
XRECORD
  5
11B
102
{ACAD_REACTORS
330
11A
102
}
330
11A
100
AcDbXrecord
280
     1
102
RTVSPropertyOp0
 70
     1
102
RTVSPropertyOp1
 70
     1
102
RTVSPropertyOp2
 70
     1
102
RTVSPropertyOp3
 70
     1
102
RTVSPropertyOp4
 70
     1
102
RTVSPropertyOp5
 70
     1
102
RTVSPropertyOp6
 70
     1
102
RTVSPropertyOp7
 70
     1
102
RTVSPropertyOp8
 70
     1
102
RTVSPropertyOp9
 70
     1
102
RTVSPropertyOp10
 70
     1
102
RTVSPropertyOp11
 70
     1
102
RTVSPropertyOp12
 70
     1
102
RTVSPropertyOp13
 70
     1
102
RTVSPropertyOp14
 70
     1
102
RTVSPropertyOp15
 70
     1
102
RTVSPropertyOp16
 70
     1
102
RTVSPropertyOp17
 70
     1
102
RTVSPropertyOp18
 70
     1
102
RTVSPropertyOp19
 70
     1
102
RTVSPropertyOp20
 70
     1
102
RTVSPropertyOp21
 70
     1
102
RTVSPropertyOp22
 70
     1
102
RTVSPropertyOp23
 70
     1
102
RTVSPropertyOp24
 70
     1
102
RTVSPropertyOp25
 70
     1
102
RTVSPropertyOp26
 70
     1
102
RTVSPropertyOp27
 70
     1
102
RTVSPropertyOp28
 70
     1
102
RTVSPropertyOp29
 70
     1
102
RTVSPropertyOp30
 70
     1
102
RTVSPropertyOp31
 70
     1
102
RTVSPropertyOp32
 70
     1
  0
XRECORD
  5
11F
102
{ACAD_REACTORS
330
11E
102
}
330
11E
100
AcDbXrecord
280
     1
102
RTVSPropertyOp0
 70
     1
102
RTVSPropertyOp1
 70
     1
102
RTVSPropertyOp2
 70
     1
102
RTVSPropertyOp3
 70
     1
102
RTVSPropertyOp4
 70
     1
102
RTVSPropertyOp5
 70
     1
102
RTVSPropertyOp6
 70
     1
102
RTVSPropertyOp7
 70
     1
102
RTVSPropertyOp8
 70
     1
102
RTVSPropertyOp9
 70
     1
102
RTVSPropertyOp10
 70
     1
102
RTVSPropertyOp11
 70
     1
102
RTVSPropertyOp12
 70
     1
102
RTVSPropertyOp13
 70
     1
102
RTVSPropertyOp14
 70
     1
102
RTVSPropertyOp15
 70
     1
102
RTVSPropertyOp16
 70
     1
102
RTVSPropertyOp17
 70
     1
102
RTVSPropertyOp18
 70
     1
102
RTVSPropertyOp19
 70
     1
102
RTVSPropertyOp20
 70
     1
102
RTVSPropertyOp21
 70
     1
102
RTVSPropertyOp22
 70
     1
102
RTVSPropertyOp23
 70
     1
102
RTVSPropertyOp24
 70
     1
102
RTVSPropertyOp25
 70
     1
102
RTVSPropertyOp26
 70
     1
102
RTVSPropertyOp27
 70
     1
102
RTVSPropertyOp28
 70
     1
102
RTVSPropertyOp29
 70
     1
102
RTVSPropertyOp30
 70
     1
102
RTVSPropertyOp31
 70
     1
102
RTVSPropertyOp32
 70
     1
  0
XRECORD
  5
11D
102
{ACAD_REACTORS
330
11C
102
}
330
11C
100
AcDbXrecord
280
     1
102
RTVSPropertyOp0
 70
     1
102
RTVSPropertyOp1
 70
     1
102
RTVSPropertyOp2
 70
     1
102
RTVSPropertyOp3
 70
     1
102
RTVSPropertyOp4
 70
     1
102
RTVSPropertyOp5
 70
     1
102
RTVSPropertyOp6
 70
     1
102
RTVSPropertyOp7
 70
     1
102
RTVSPropertyOp8
 70
     1
102
RTVSPropertyOp9
 70
     1
102
RTVSPropertyOp10
 70
     1
102
RTVSPropertyOp11
 70
     1
102
RTVSPropertyOp12
 70
     1
102
RTVSPropertyOp13
 70
     1
102
RTVSPropertyOp14
 70
     1
102
RTVSPropertyOp15
 70
     1
102
RTVSPropertyOp16
 70
     1
102
RTVSPropertyOp17
 70
     1
102
RTVSPropertyOp18
 70
     1
102
RTVSPropertyOp19
 70
     1
102
RTVSPropertyOp20
 70
     1
102
RTVSPropertyOp21
 70
     1
102
RTVSPropertyOp22
 70
     1
102
RTVSPropertyOp23
 70
     1
102
RTVSPropertyOp24
 70
     1
102
RTVSPropertyOp25
 70
     1
102
RTVSPropertyOp26
 70
     1
102
RTVSPropertyOp27
 70
     1
102
RTVSPropertyOp28
 70
     1
102
RTVSPropertyOp29
 70
     1
102
RTVSPropertyOp30
 70
     1
102
RTVSPropertyOp31
 70
     1
102
RTVSPropertyOp32
 70
     1
  0
XRECORD
  5
121
102
{ACAD_REACTORS
330
120
102
}
330
120
100
AcDbXrecord
280
     1
102
RTVSPropertyOp0
 70
     1
102
RTVSPropertyOp1
 70
     1
102
RTVSPropertyOp2
 70
     1
102
RTVSPropertyOp3
 70
     1
102
RTVSPropertyOp4
 70
     1
102
RTVSPropertyOp5
 70
     1
102
RTVSPropertyOp6
 70
     1
102
RTVSPropertyOp7
 70
     1
102
RTVSPropertyOp8
 70
     1
102
RTVSPropertyOp9
 70
     1
102
RTVSPropertyOp10
 70
     1
102
RTVSPropertyOp11
 70
     1
102
RTVSPropertyOp12
 70
     1
102
RTVSPropertyOp13
 70
     1
102
RTVSPropertyOp14
 70
     1
102
RTVSPropertyOp15
 70
     1
102
RTVSPropertyOp16
 70
     1
102
RTVSPropertyOp17
 70
     1
102
RTVSPropertyOp18
 70
     1
102
RTVSPropertyOp19
 70
     1
102
RTVSPropertyOp20
 70
     1
102
RTVSPropertyOp21
 70
     1
102
RTVSPropertyOp22
 70
     1
102
RTVSPropertyOp23
 70
     1
102
RTVSPropertyOp24
 70
     1
102
RTVSPropertyOp25
 70
     1
102
RTVSPropertyOp26
 70
     1
102
RTVSPropertyOp27
 70
     1
102
RTVSPropertyOp28
 70
     1
102
RTVSPropertyOp29
 70
     1
102
RTVSPropertyOp30
 70
     1
102
RTVSPropertyOp31
 70
     1
102
RTVSPropertyOp32
 70
     1
  0
XRECORD
  5
129
102
{ACAD_REACTORS
330
128
102
}
330
128
100
AcDbXrecord
280
     1
102
RTVSPropertyOp0
 70
     1
102
RTVSPropertyOp1
 70
     1
102
RTVSPropertyOp2
 70
     1
102
RTVSPropertyOp3
 70
     1
102
RTVSPropertyOp4
 70
     1
102
RTVSPropertyOp5
 70
     1
102
RTVSPropertyOp6
 70
     1
102
RTVSPropertyOp7
 70
     1
102
RTVSPropertyOp8
 70
     1
102
RTVSPropertyOp9
 70
     1
102
RTVSPropertyOp10
 70
     1
102
RTVSPropertyOp11
 70
     1
102
RTVSPropertyOp12
 70
     1
102
RTVSPropertyOp13
 70
     1
102
RTVSPropertyOp14
 70
     1
102
RTVSPropertyOp15
 70
     1
102
RTVSPropertyOp16
 70
     1
102
RTVSPropertyOp17
 70
     1
102
RTVSPropertyOp18
 70
     1
102
RTVSPropertyOp19
 70
     1
102
RTVSPropertyOp20
 70
     1
102
RTVSPropertyOp21
 70
     1
102
RTVSPropertyOp22
 70
     1
102
RTVSPropertyOp23
 70
     1
102
RTVSPropertyOp24
 70
     1
102
RTVSPropertyOp25
 70
     1
102
RTVSPropertyOp26
 70
     1
102
RTVSPropertyOp27
 70
     1
102
RTVSPropertyOp28
 70
     1
102
RTVSPropertyOp29
 70
     1
102
RTVSPropertyOp30
 70
     1
102
RTVSPropertyOp31
 70
     1
102
RTVSPropertyOp32
 70
     1
  0
XRECORD
  5
131
102
{ACAD_REACTORS
330
130
102
}
330
130
100
AcDbXrecord
280
     1
102
RTVSPropertyOp0
 70
     1
102
RTVSPropertyOp1
 70
     1
102
RTVSPropertyOp2
 70
     1
102
RTVSPropertyOp3
 70
     1
102
RTVSPropertyOp4
 70
     1
102
RTVSPropertyOp5
 70
     1
102
RTVSPropertyOp6
 70
     1
102
RTVSPropertyOp7
 70
     1
102
RTVSPropertyOp8
 70
     1
102
RTVSPropertyOp9
 70
     1
102
RTVSPropertyOp10
 70
     1
102
RTVSPropertyOp11
 70
     1
102
RTVSPropertyOp12
 70
     1
102
RTVSPropertyOp13
 70
     1
102
RTVSPropertyOp14
 70
     1
102
RTVSPropertyOp15
 70
     1
102
RTVSPropertyOp16
 70
     1
102
RTVSPropertyOp17
 70
     1
102
RTVSPropertyOp18
 70
     1
102
RTVSPropertyOp19
 70
     1
102
RTVSPropertyOp20
 70
     1
102
RTVSPropertyOp21
 70
     1
102
RTVSPropertyOp22
 70
     1
102
RTVSPropertyOp23
 70
     1
102
RTVSPropertyOp24
 70
     1
102
RTVSPropertyOp25
 70
     1
102
RTVSPropertyOp26
 70
     1
102
RTVSPropertyOp27
 70
     1
102
RTVSPropertyOp28
 70
     1
102
RTVSPropertyOp29
 70
     1
102
RTVSPropertyOp30
 70
     1
102
RTVSPropertyOp31
 70
     1
102
RTVSPropertyOp32
 70
     1
  0
XRECORD
  5
125
102
{ACAD_REACTORS
330
124
102
}
330
124
100
AcDbXrecord
280
     1
102
RTVSPropertyOp0
 70
     1
102
RTVSPropertyOp1
 70
     1
102
RTVSPropertyOp2
 70
     1
102
RTVSPropertyOp3
 70
     1
102
RTVSPropertyOp4
 70
     1
102
RTVSPropertyOp5
 70
     1
102
RTVSPropertyOp6
 70
     1
102
RTVSPropertyOp7
 70
     1
102
RTVSPropertyOp8
 70
     1
102
RTVSPropertyOp9
 70
     1
102
RTVSPropertyOp10
 70
     1
102
RTVSPropertyOp11
 70
     1
102
RTVSPropertyOp12
 70
     1
102
RTVSPropertyOp13
 70
     1
102
RTVSPropertyOp14
 70
     1
102
RTVSPropertyOp15
 70
     1
102
RTVSPropertyOp16
 70
     1
102
RTVSPropertyOp17
 70
     1
102
RTVSPropertyOp18
 70
     1
102
RTVSPropertyOp19
 70
     1
102
RTVSPropertyOp20
 70
     1
102
RTVSPropertyOp21
 70
     1
102
RTVSPropertyOp22
 70
     1
102
RTVSPropertyOp23
 70
     1
102
RTVSPropertyOp24
 70
     1
102
RTVSPropertyOp25
 70
     1
102
RTVSPropertyOp26
 70
     1
102
RTVSPropertyOp27
 70
     1
102
RTVSPropertyOp28
 70
     1
102
RTVSPropertyOp29
 70
     1
102
RTVSPropertyOp30
 70
     1
102
RTVSPropertyOp31
 70
     1
102
RTVSPropertyOp32
 70
     1
  0
XRECORD
  5
127
102
{ACAD_REACTORS
330
126
102
}
330
126
100
AcDbXrecord
280
     1
102
RTVSPropertyOp0
 70
     1
102
RTVSPropertyOp1
 70
     1
102
RTVSPropertyOp2
 70
     1
102
RTVSPropertyOp3
 70
     1
102
RTVSPropertyOp4
 70
     1
102
RTVSPropertyOp5
 70
     1
102
RTVSPropertyOp6
 70
     1
102
RTVSPropertyOp7
 70
     1
102
RTVSPropertyOp8
 70
     1
102
RTVSPropertyOp9
 70
     1
102
RTVSPropertyOp10
 70
     1
102
RTVSPropertyOp11
 70
     1
102
RTVSPropertyOp12
 70
     1
102
RTVSPropertyOp13
 70
     1
102
RTVSPropertyOp14
 70
     1
102
RTVSPropertyOp15
 70
     1
102
RTVSPropertyOp16
 70
     1
102
RTVSPropertyOp17
 70
     1
102
RTVSPropertyOp18
 70
     1
102
RTVSPropertyOp19
 70
     1
102
RTVSPropertyOp20
 70
     1
102
RTVSPropertyOp21
 70
     1
102
RTVSPropertyOp22
 70
     1
102
RTVSPropertyOp23
 70
     1
102
RTVSPropertyOp24
 70
     1
102
RTVSPropertyOp25
 70
     1
102
RTVSPropertyOp26
 70
     1
102
RTVSPropertyOp27
 70
     1
102
RTVSPropertyOp28
 70
     1
102
RTVSPropertyOp29
 70
     1
102
RTVSPropertyOp30
 70
     1
102
RTVSPropertyOp31
 70
     1
102
RTVSPropertyOp32
 70
     1
  0
XRECORD
  5
12F
102
{ACAD_REACTORS
330
12E
102
}
330
12E
100
AcDbXrecord
280
     1
102
RTVSPropertyOp0
 70
     1
102
RTVSPropertyOp1
 70
     1
102
RTVSPropertyOp2
 70
     1
102
RTVSPropertyOp3
 70
     1
102
RTVSPropertyOp4
 70
     1
102
RTVSPropertyOp5
 70
     1
102
RTVSPropertyOp6
 70
     1
102
RTVSPropertyOp7
 70
     1
102
RTVSPropertyOp8
 70
     1
102
RTVSPropertyOp9
 70
     1
102
RTVSPropertyOp10
 70
     1
102
RTVSPropertyOp11
 70
     1
102
RTVSPropertyOp12
 70
     1
102
RTVSPropertyOp13
 70
     1
102
RTVSPropertyOp14
 70
     1
102
RTVSPropertyOp15
 70
     1
102
RTVSPropertyOp16
 70
     1
102
RTVSPropertyOp17
 70
     1
102
RTVSPropertyOp18
 70
     1
102
RTVSPropertyOp19
 70
     1
102
RTVSPropertyOp20
 70
     1
102
RTVSPropertyOp21
 70
     1
102
RTVSPropertyOp22
 70
     1
102
RTVSPropertyOp23
 70
     1
102
RTVSPropertyOp24
 70
     1
102
RTVSPropertyOp25
 70
     1
102
RTVSPropertyOp26
 70
     1
102
RTVSPropertyOp27
 70
     1
102
RTVSPropertyOp28
 70
     1
102
RTVSPropertyOp29
 70
     1
102
RTVSPropertyOp30
 70
     1
102
RTVSPropertyOp31
 70
     1
102
RTVSPropertyOp32
 70
     1
  0
XRECORD
  5
113
102
{ACAD_REACTORS
330
112
102
}
330
112
100
AcDbXrecord
280
     1
102
RTVSPropertyOp0
 70
     1
102
RTVSPropertyOp1
 70
     1
102
RTVSPropertyOp2
 70
     1
102
RTVSPropertyOp3
 70
     1
102
RTVSPropertyOp4
 70
     1
102
RTVSPropertyOp5
 70
     1
102
RTVSPropertyOp6
 70
     1
102
RTVSPropertyOp7
 70
     1
102
RTVSPropertyOp8
 70
     1
102
RTVSPropertyOp9
 70
     1
102
RTVSPropertyOp10
 70
     1
102
RTVSPropertyOp11
 70
     1
102
RTVSPropertyOp12
 70
     1
102
RTVSPropertyOp13
 70
     1
102
RTVSPropertyOp14
 70
     1
102
RTVSPropertyOp15
 70
     1
102
RTVSPropertyOp16
 70
     1
102
RTVSPropertyOp17
 70
     1
102
RTVSPropertyOp18
 70
     1
102
RTVSPropertyOp19
 70
     1
102
RTVSPropertyOp20
 70
     1
102
RTVSPropertyOp21
 70
     1
102
RTVSPropertyOp22
 70
     1
102
RTVSPropertyOp23
 70
     1
102
RTVSPropertyOp24
 70
     1
102
RTVSPropertyOp25
 70
     1
102
RTVSPropertyOp26
 70
     1
102
RTVSPropertyOp27
 70
     1
102
RTVSPropertyOp28
 70
     1
102
RTVSPropertyOp29
 70
     1
102
RTVSPropertyOp30
 70
     1
102
RTVSPropertyOp31
 70
     1
102
RTVSPropertyOp32
 70
     1
  0
XRECORD
  5
115
102
{ACAD_REACTORS
330
114
102
}
330
114
100
AcDbXrecord
280
     1
102
RTVSPropertyOp0
 70
     1
102
RTVSPropertyOp1
 70
     1
102
RTVSPropertyOp2
 70
     1
102
RTVSPropertyOp3
 70
     1
102
RTVSPropertyOp4
 70
     1
102
RTVSPropertyOp5
 70
     1
102
RTVSPropertyOp6
 70
     1
102
RTVSPropertyOp7
 70
     1
102
RTVSPropertyOp8
 70
     1
102
RTVSPropertyOp9
 70
     1
102
RTVSPropertyOp10
 70
     1
102
RTVSPropertyOp11
 70
     1
102
RTVSPropertyOp12
 70
     1
102
RTVSPropertyOp13
 70
     1
102
RTVSPropertyOp14
 70
     1
102
RTVSPropertyOp15
 70
     1
102
RTVSPropertyOp16
 70
     1
102
RTVSPropertyOp17
 70
     1
102
RTVSPropertyOp18
 70
     1
102
RTVSPropertyOp19
 70
     1
102
RTVSPropertyOp20
 70
     1
102
RTVSPropertyOp21
 70
     1
102
RTVSPropertyOp22
 70
     1
102
RTVSPropertyOp23
 70
     1
102
RTVSPropertyOp24
 70
     1
102
RTVSPropertyOp25
 70
     1
102
RTVSPropertyOp26
 70
     1
102
RTVSPropertyOp27
 70
     1
102
RTVSPropertyOp28
 70
     1
102
RTVSPropertyOp29
 70
     1
102
RTVSPropertyOp30
 70
     1
102
RTVSPropertyOp31
 70
     1
102
RTVSPropertyOp32
 70
     1
  0
XRECORD
  5
117
102
{ACAD_REACTORS
330
116
102
}
330
116
100
AcDbXrecord
280
     1
102
RTVSPropertyOp0
 70
     1
102
RTVSPropertyOp1
 70
     1
102
RTVSPropertyOp2
 70
     1
102
RTVSPropertyOp3
 70
     1
102
RTVSPropertyOp4
 70
     1
102
RTVSPropertyOp5
 70
     1
102
RTVSPropertyOp6
 70
     1
102
RTVSPropertyOp7
 70
     1
102
RTVSPropertyOp8
 70
     1
102
RTVSPropertyOp9
 70
     1
102
RTVSPropertyOp10
 70
     1
102
RTVSPropertyOp11
 70
     1
102
RTVSPropertyOp12
 70
     1
102
RTVSPropertyOp13
 70
     1
102
RTVSPropertyOp14
 70
     1
102
RTVSPropertyOp15
 70
     1
102
RTVSPropertyOp16
 70
     1
102
RTVSPropertyOp17
 70
     1
102
RTVSPropertyOp18
 70
     1
102
RTVSPropertyOp19
 70
     1
102
RTVSPropertyOp20
 70
     1
102
RTVSPropertyOp21
 70
     1
102
RTVSPropertyOp22
 70
     1
102
RTVSPropertyOp23
 70
     1
102
RTVSPropertyOp24
 70
     1
102
RTVSPropertyOp25
 70
     1
102
RTVSPropertyOp26
 70
     1
102
RTVSPropertyOp27
 70
     1
102
RTVSPropertyOp28
 70
     1
102
RTVSPropertyOp29
 70
     1
102
RTVSPropertyOp30
 70
     1
102
RTVSPropertyOp31
 70
     1
102
RTVSPropertyOp32
 70
     1
  0
XRECORD
  5
119
102
{ACAD_REACTORS
330
118
102
}
330
118
100
AcDbXrecord
280
     1
102
RTVSPropertyOp0
 70
     1
102
RTVSPropertyOp1
 70
     1
102
RTVSPropertyOp2
 70
     1
102
RTVSPropertyOp3
 70
     1
102
RTVSPropertyOp4
 70
     1
102
RTVSPropertyOp5
 70
     1
102
RTVSPropertyOp6
 70
     1
102
RTVSPropertyOp7
 70
     1
102
RTVSPropertyOp8
 70
     1
102
RTVSPropertyOp9
 70
     1
102
RTVSPropertyOp10
 70
     1
102
RTVSPropertyOp11
 70
     1
102
RTVSPropertyOp12
 70
     1
102
RTVSPropertyOp13
 70
     1
102
RTVSPropertyOp14
 70
     1
102
RTVSPropertyOp15
 70
     1
102
RTVSPropertyOp16
 70
     1
102
RTVSPropertyOp17
 70
     1
102
RTVSPropertyOp18
 70
     1
102
RTVSPropertyOp19
 70
     1
102
RTVSPropertyOp20
 70
     1
102
RTVSPropertyOp21
 70
     1
102
RTVSPropertyOp22
 70
     1
102
RTVSPropertyOp23
 70
     1
102
RTVSPropertyOp24
 70
     1
102
RTVSPropertyOp25
 70
     1
102
RTVSPropertyOp26
 70
     1
102
RTVSPropertyOp27
 70
     1
102
RTVSPropertyOp28
 70
     1
102
RTVSPropertyOp29
 70
     1
102
RTVSPropertyOp30
 70
     1
102
RTVSPropertyOp31
 70
     1
102
RTVSPropertyOp32
 70
     1
  0
XRECORD
  5
12D
102
{ACAD_REACTORS
330
12C
102
}
330
12C
100
AcDbXrecord
280
     1
102
RTVSPropertyOp0
 70
     1
102
RTVSPropertyOp1
 70
     1
102
RTVSPropertyOp2
 70
     1
102
RTVSPropertyOp3
 70
     1
102
RTVSPropertyOp4
 70
     1
102
RTVSPropertyOp5
 70
     1
102
RTVSPropertyOp6
 70
     1
102
RTVSPropertyOp7
 70
     1
102
RTVSPropertyOp8
 70
     1
102
RTVSPropertyOp9
 70
     1
102
RTVSPropertyOp10
 70
     1
102
RTVSPropertyOp11
 70
     1
102
RTVSPropertyOp12
 70
     1
102
RTVSPropertyOp13
 70
     1
102
RTVSPropertyOp14
 70
     1
102
RTVSPropertyOp15
 70
     1
102
RTVSPropertyOp16
 70
     1
102
RTVSPropertyOp17
 70
     1
102
RTVSPropertyOp18
 70
     1
102
RTVSPropertyOp19
 70
     1
102
RTVSPropertyOp20
 70
     1
102
RTVSPropertyOp21
 70
     1
102
RTVSPropertyOp22
 70
     1
102
RTVSPropertyOp23
 70
     1
102
RTVSPropertyOp24
 70
     1
102
RTVSPropertyOp25
 70
     1
102
RTVSPropertyOp26
 70
     1
102
RTVSPropertyOp27
 70
     1
102
RTVSPropertyOp28
 70
     1
102
RTVSPropertyOp29
 70
     1
102
RTVSPropertyOp30
 70
     1
102
RTVSPropertyOp31
 70
     1
102
RTVSPropertyOp32
 70
     1
  0
XRECORD
  5
123
102
{ACAD_REACTORS
330
122
102
}
330
122
100
AcDbXrecord
280
     1
102
RTVSPropertyOp0
 70
     1
102
RTVSPropertyOp1
 70
     1
102
RTVSPropertyOp2
 70
     1
102
RTVSPropertyOp3
 70
     1
102
RTVSPropertyOp4
 70
     1
102
RTVSPropertyOp5
 70
     1
102
RTVSPropertyOp6
 70
     1
102
RTVSPropertyOp7
 70
     1
102
RTVSPropertyOp8
 70
     1
102
RTVSPropertyOp9
 70
     1
102
RTVSPropertyOp10
 70
     1
102
RTVSPropertyOp11
 70
     1
102
RTVSPropertyOp12
 70
     1
102
RTVSPropertyOp13
 70
     1
102
RTVSPropertyOp14
 70
     1
102
RTVSPropertyOp15
 70
     1
102
RTVSPropertyOp16
 70
     1
102
RTVSPropertyOp17
 70
     1
102
RTVSPropertyOp18
 70
     1
102
RTVSPropertyOp19
 70
     1
102
RTVSPropertyOp20
 70
     1
102
RTVSPropertyOp21
 70
     1
102
RTVSPropertyOp22
 70
     1
102
RTVSPropertyOp23
 70
     1
102
RTVSPropertyOp24
 70
     1
102
RTVSPropertyOp25
 70
     1
102
RTVSPropertyOp26
 70
     1
102
RTVSPropertyOp27
 70
     1
102
RTVSPropertyOp28
 70
     1
102
RTVSPropertyOp29
 70
     1
102
RTVSPropertyOp30
 70
     1
102
RTVSPropertyOp31
 70
     1
102
RTVSPropertyOp32
 70
     1
  0
XRECORD
  5
12B
102
{ACAD_REACTORS
330
12A
102
}
330
12A
100
AcDbXrecord
280
     1
102
RTVSPropertyOp0
 70
     1
102
RTVSPropertyOp1
 70
     1
102
RTVSPropertyOp2
 70
     1
102
RTVSPropertyOp3
 70
     1
102
RTVSPropertyOp4
 70
     1
102
RTVSPropertyOp5
 70
     1
102
RTVSPropertyOp6
 70
     1
102
RTVSPropertyOp7
 70
     1
102
RTVSPropertyOp8
 70
     1
102
RTVSPropertyOp9
 70
     1
102
RTVSPropertyOp10
 70
     1
102
RTVSPropertyOp11
 70
     1
102
RTVSPropertyOp12
 70
     1
102
RTVSPropertyOp13
 70
     1
102
RTVSPropertyOp14
 70
     1
102
RTVSPropertyOp15
 70
     1
102
RTVSPropertyOp16
 70
     1
102
RTVSPropertyOp17
 70
     1
102
RTVSPropertyOp18
 70
     1
102
RTVSPropertyOp19
 70
     1
102
RTVSPropertyOp20
 70
     1
102
RTVSPropertyOp21
 70
     1
102
RTVSPropertyOp22
 70
     1
102
RTVSPropertyOp23
 70
     1
102
RTVSPropertyOp24
 70
     1
102
RTVSPropertyOp25
 70
     1
102
RTVSPropertyOp26
 70
     1
102
RTVSPropertyOp27
 70
     1
102
RTVSPropertyOp28
 70
     1
102
RTVSPropertyOp29
 70
     1
102
RTVSPropertyOp30
 70
     1
102
RTVSPropertyOp31
 70
     1
102
RTVSPropertyOp32
 70
     1
  0
ENDSEC
  0
EOF
