  0
SECTION
  2
HEADER
  9
$ACADVER
  1
AC1018
  9
$ACADMAINTVER
 70
     0
  9
$DWGCODEPAGE
  3
ANSI_1252
  9
$INSBASE
 10
0.0
 20
0.0
 30
0.0
  9
$EXTMIN
 10
-3723.170900000001
 20
-603.9166000000001
 30
0.0
  9
$EXTMAX
 10
-1323.1709
 20
596.0834000000002
 30
0.0
  9
$LIMMIN
 10
0.0
 20
0.0
  9
$LIMMAX
 10
12.0
 20
9.0
  9
$ORTHOMODE
 70
     0
  9
$REGENMODE
 70
     1
  9
$FILLMODE
 70
     1
  9
$QTEXTMODE
 70
     0
  9
$MIRRTEXT
 70
     1
  9
$LTSCALE
 40
1.0
  9
$ATTMODE
 70
     1
  9
$TEXTSIZE
 40
0.2
  9
$TRACEWID
 40
0.05
  9
$TEXTSTYLE
  7
Standard
  9
$CLAYER
  8
0
  9
$CELTYPE
  6
ByLayer
  9
$CECOLOR
 62
   256
  9
$CELTSCALE
 40
1.0
  9
$DISPSILH
 70
     0
  9
$DIMSCALE
 40
1.0
  9
$DIMASZ
 40
0.18
  9
$DIMEXO
 40
0.0625
  9
$DIMDLI
 40
0.38
  9
$DIMRND
 40
0.0
  9
$DIMDLE
 40
0.0
  9
$DIMEXE
 40
0.18
  9
$DIMTP
 40
0.0
  9
$DIMTM
 40
0.0
  9
$DIMTXT
 40
0.18
  9
$DIMCEN
 40
0.09
  9
$DIMTSZ
 40
0.0
  9
$DIMTOL
 70
     0
  9
$DIMLIM
 70
     0
  9
$DIMTIH
 70
     1
  9
$DIMTOH
 70
     1
  9
$DIMSE1
 70
     0
  9
$DIMSE2
 70
     0
  9
$DIMTAD
 70
     0
  9
$DIMZIN
 70
     0
  9
$DIMBLK
  1

  9
$DIMASO
 70
     1
  9
$DIMSHO
 70
     1
  9
$DIMPOST
  1

  9
$DIMAPOST
  1

  9
$DIMALT
 70
     0
  9
$DIMALTD
 70
     2
  9
$DIMALTF
 40
25.4
  9
$DIMLFAC
 40
1.0
  9
$DIMTOFL
 70
     0
  9
$DIMTVP
 40
0.0
  9
$DIMTIX
 70
     0
  9
$DIMSOXD
 70
     0
  9
$DIMSAH
 70
     0
  9
$DIMBLK1
  1

  9
$DIMBLK2
  1

  9
$DIMSTYLE
  2
Standard
  9
$DIMCLRD
 70
     0
  9
$DIMCLRE
 70
     0
  9
$DIMCLRT
 70
     0
  9
$DIMTFAC
 40
1.0
  9
$DIMGAP
 40
0.09
  9
$DIMJUST
 70
     0
  9
$DIMSD1
 70
     0
  9
$DIMSD2
 70
     0
  9
$DIMTOLJ
 70
     1
  9
$DIMTZIN
 70
     0
  9
$DIMALTZ
 70
     0
  9
$DIMALTTZ
 70
     0
  9
$DIMUPT
 70
     0
  9
$DIMDEC
 70
     4
  9
$DIMTDEC
 70
     4
  9
$DIMALTU
 70
     2
  9
$DIMALTTD
 70
     2
  9
$DIMTXSTY
  7
Standard
  9
$DIMAUNIT
 70
     0
  9
$DIMADEC
 70
     0
  9
$DIMALTRND
 40
0.0
  9
$DIMAZIN
 70
     0
  9
$DIMDSEP
 70
    46
  9
$DIMATFIT
 70
     3
  9
$DIMFRAC
 70
     0
  9
$DIMLDRBLK
  1

  9
$DIMLUNIT
 70
     2
  9
$DIMLWD
 70
    -2
  9
$DIMLWE
 70
    -2
  9
$DIMTMOVE
 70
     2
  9
$LUNITS
 70
     2
  9
$LUPREC
 70
     2
  9
$SKETCHINC
 40
0.1
  9
$FILLETRAD
 40
0.5
  9
$AUNITS
 70
     0
  9
$AUPREC
 70
     0
  9
$MENU
  1
.
  9
$ELEVATION
 40
0.0
  9
$PELEVATION
 40
0.0
  9
$THICKNESS
 40
0.0
  9
$LIMCHECK
 70
     0
  9
$CHAMFERA
 40
0.5
  9
$CHAMFERB
 40
0.5
  9
$CHAMFERC
 40
1.0
  9
$CHAMFERD
 40
0.0
  9
$SKPOLY
 70
     0
  9
$TDCREATE
 40
2456377.497790683
  9
$TDUCREATE
 40
2456377.456124016
  9
$TDUPDATE
 40
2456377.497832222
  9
$TDUUPDATE
 40
2456377.456165555
  9
$TDINDWG
 40
0.0000000116
  9
$TDUSRTIMER
 40
0.0000000116
  9
$USRTIMER
 70
     1
  9
$ANGBASE
 50
0.0
  9
$ANGDIR
 70
     0
  9
$PDMODE
 70
     0
  9
$PDSIZE
 40
0.0
  9
$PLINEWID
 40
0.0
  9
$SPLFRAME
 70
     0
  9
$SPLINETYPE
 70
     6
  9
$SPLINESEGS
 70
     8
  9
$HANDSEED
  5
9F
  9
$SURFTAB1
 70
     6
  9
$SURFTAB2
 70
     6
  9
$SURFTYPE
 70
     6
  9
$SURFU
 70
     6
  9
$SURFV
 70
     6
  9
$UCSBASE
  2

  9
$UCSNAME
  2

  9
$UCSORG
 10
0.0
 20
0.0
 30
0.0
  9
$UCSXDIR
 10
1.0
 20
0.0
 30
0.0
  9
$UCSYDIR
 10
0.0
 20
1.0
 30
0.0
  9
$UCSORTHOREF
  2

  9
$UCSORTHOVIEW
 70
     0
  9
$UCSORGTOP
 10
0.0
 20
0.0
 30
0.0
  9
$UCSORGBOTTOM
 10
0.0
 20
0.0
 30
0.0
  9
$UCSORGLEFT
 10
0.0
 20
0.0
 30
0.0
  9
$UCSORGRIGHT
 10
0.0
 20
0.0
 30
0.0
  9
$UCSORGFRONT
 10
0.0
 20
0.0
 30
0.0
  9
$UCSORGBACK
 10
0.0
 20
0.0
 30
0.0
  9
$PUCSBASE
  2

  9
$PUCSNAME
  2

  9
$PUCSORG
 10
0.0
 20
0.0
 30
0.0
  9
$PUCSXDIR
 10
1.0
 20
0.0
 30
0.0
  9
$PUCSYDIR
 10
0.0
 20
1.0
 30
0.0
  9
$PUCSORTHOREF
  2

  9
$PUCSORTHOVIEW
 70
     0
  9
$PUCSORGTOP
 10
0.0
 20
0.0
 30
0.0
  9
$PUCSORGBOTTOM
 10
0.0
 20
0.0
 30
0.0
  9
$PUCSORGLEFT
 10
0.0
 20
0.0
 30
0.0
  9
$PUCSORGRIGHT
 10
0.0
 20
0.0
 30
0.0
  9
$PUCSORGFRONT
 10
0.0
 20
0.0
 30
0.0
  9
$PUCSORGBACK
 10
0.0
 20
0.0
 30
0.0
  9
$USERI1
 70
     0
  9
$USERI2
 70
     0
  9
$USERI3
 70
     0
  9
$USERI4
 70
     0
  9
$USERI5
 70
     0
  9
$USERR1
 40
0.0
  9
$USERR2
 40
0.0
  9
$USERR3
 40
0.0
  9
$USERR4
 40
0.0
  9
$USERR5
 40
0.0
  9
$WORLDVIEW
 70
     1
  9
$SHADEDGE
 70
     3
  9
$SHADEDIF
 70
    70
  9
$TILEMODE
 70
     1
  9
$MAXACTVP
 70
    64
  9
$PINSBASE
 10
0.0
 20
0.0
 30
0.0
  9
$PLIMCHECK
 70
     0
  9
$PEXTMIN
 10
1.000000000000000E+20
 20
1.000000000000000E+20
 30
1.000000000000000E+20
  9
$PEXTMAX
 10
-1.000000000000000E+20
 20
-1.000000000000000E+20
 30
-1.000000000000000E+20
  9
$PLIMMIN
 10
0.0
 20
0.0
  9
$PLIMMAX
 10
12.0
 20
9.0
  9
$UNITMODE
 70
     0
  9
$VISRETAIN
 70
     1
  9
$PLINEGEN
 70
     0
  9
$PSLTSCALE
 70
     1
  9
$TREEDEPTH
 70
  3020
  9
$CMLSTYLE
  2
Standard
  9
$CMLJUST
 70
     0
  9
$CMLSCALE
 40
1.0
  9
$PROXYGRAPHICS
 70
     1
  9
$MEASUREMENT
 70
     0
  9
$CELWEIGHT
370
    -1
  9
$ENDCAPS
280
     0
  9
$JOINSTYLE
280
     0
  9
$LWDISPLAY
290
     0
  9
$INSUNITS
 70
     4
  9
$HYPERLINKBASE
  1

  9
$STYLESHEET
  1

  9
$XEDIT
290
     1
  9
$CEPSNTYPE
380
     0
  9
$PSTYLEMODE
290
     1
  9
$FINGERPRINTGUID
  2
{16F34328-C4A1-4E9A-9D65-8D11583C5B96}
  9
$VERSIONGUID
  2
{FAEB1C32-E019-11D5-929B-00C0DF256EC4}
  9
$EXTNAMES
290
     1
  9
$PSVPSCALE
 40
0.0
  9
$OLESTARTUP
290
     0
  9
$SORTENTS
280
   127
  9
$INDEXCTL
280
     0
  9
$HIDETEXT
280
     1
  9
$XCLIPFRAME
290
     0
  9
$HALOGAP
280
     0
  9
$OBSCOLOR
 70
   257
  9
$OBSLTYPE
280
     0
  9
$INTERSECTIONDISPLAY
280
     0
  9
$INTERSECTIONCOLOR
 70
   257
  9
$DIMASSOC
280
     2
  9
$PROJECTNAME
  1

  0
ENDSEC
  0
SECTION
  2
CLASSES
  0
CLASS
  1
ACDBDICTIONARYWDFLT
  2
AcDbDictionaryWithDefault
  3
ObjectDBX Classes
 90
        0
 91
        4
280
     0
281
     0
  0
CLASS
  1
VISUALSTYLE
  2
AcDbVisualStyle
  3
ObjectDBX Classes
 90
     4095
 91
        4
280
     0
281
     0
  0
CLASS
  1
MATERIAL
  2
AcDbMaterial
  3
ObjectDBX Classes
 90
     1153
 91
        4
280
     0
281
     0
  0
CLASS
  1
SCALE
  2
AcDbScale
  3
ObjectDBX Classes
 90
     1153
 91
        4
280
     0
281
     0
  0
CLASS
  1
SUN
  2
AcDbSun
  3
SCENEOE
 90
     1153
 91
        4
280
     0
281
     0
  0
CLASS
  1
DICTIONARYVAR
  2
AcDbDictionaryVar
  3
ObjectDBX Classes
 90
        0
 91
        4
280
     0
281
     0
  0
ENDSEC
  0
SECTION
  2
TABLES
  0
TABLE
  2
VPORT
  5
8
330
0
100
AcDbSymbolTable
 70
     1
  0
VPORT
  5
29
330
8
100
AcDbSymbolTableRecord
100
AcDbViewportTableRecord
  2
*Active
 70
     0
 10
0.0
 20
0.0
 11
1.0
 21
1.0
 12
-2523.1709
 22
-3.916599999999903
 13
0.0
 23
0.0
 14
0.5
 24
0.5
 15
0.5
 25
0.5
 16
0.0
 26
0.0
 36
1.0
 17
0.0
 27
0.0
 37
0.0
 40
1224.0
 41
2.0
 42
50.0
 43
0.0
 44
0.0
 50
0.0
 51
0.0
 71
     0
 72
   100
 73
     1
 74
     3
 75
     0
 76
     0
 77
     0
 78
     0
281
     0
 65
     1
110
0.0
120
0.0
130
0.0
111
1.0
121
0.0
131
0.0
112
0.0
122
1.0
132
0.0
 79
     0
146
0.0
  0
ENDTAB
  0
TABLE
  2
LTYPE
  5
5
330
0
100
AcDbSymbolTable
 70
     1
  0
LTYPE
  5
14
330
5
100
AcDbSymbolTableRecord
100
AcDbLinetypeTableRecord
  2
ByBlock
 70
     0
  3

 72
    65
 73
     0
 40
0.0
  0
LTYPE
  5
15
330
5
100
AcDbSymbolTableRecord
100
AcDbLinetypeTableRecord
  2
ByLayer
 70
     0
  3

 72
    65
 73
     0
 40
0.0
  0
LTYPE
  5
16
330
5
100
AcDbSymbolTableRecord
100
AcDbLinetypeTableRecord
  2
Continuous
 70
     0
  3
Solid line
 72
    65
 73
     0
 40
0.0
  0
ENDTAB
  0
TABLE
  2
LAYER
  5
2
330
0
100
AcDbSymbolTable
 70
     3
  0
LAYER
  5
10
330
2
100
AcDbSymbolTableRecord
100
AcDbLayerTableRecord
  2
0
 70
     0
 62
     7
  6
Continuous
370
    -3
390
F
  0
LAYER
  5
62
330
2
100
AcDbSymbolTableRecord
100
AcDbLayerTableRecord
  2
LAYER_1
 70
     0
 62
    18
420
        0
  6
Continuous
370
    -3
390
F
  0
LAYER
  5
65
330
2
100
AcDbSymbolTableRecord
100
AcDbLayerTableRecord
  2
CAPA_1
 70
     0
 62
    18
420
        0
  6
Continuous
370
    -3
390
F
  0
ENDTAB
  0
TABLE
  2
STYLE
  5
3
330
0
100
AcDbSymbolTable
 70
     1
  0
STYLE
  5
11
330
3
100
AcDbSymbolTableRecord
100
AcDbTextStyleTableRecord
  2
Standard
 70
     0
 40
0.0
 41
1.0
 50
0.0
 71
     0
 42
0.2
  3
txt
  4

  0
ENDTAB
  0
TABLE
  2
VIEW
  5
6
330
0
100
AcDbSymbolTable
 70
     0
  0
ENDTAB
  0
TABLE
  2
UCS
  5
7
330
0
100
AcDbSymbolTable
 70
     0
  0
ENDTAB
  0
TABLE
  2
APPID
  5
9
330
0
100
AcDbSymbolTable
 70
     1
  0
APPID
  5
12
330
9
100
AcDbSymbolTableRecord
100
AcDbRegAppTableRecord
  2
ACAD
 70
     0
  0
ENDTAB
  0
TABLE
  2
DIMSTYLE
  5
A
330
0
100
AcDbSymbolTable
 70
     1
100
AcDbDimStyleTable
  0
DIMSTYLE
105
27
330
A
100
AcDbSymbolTableRecord
100
AcDbDimStyleTableRecord
  2
Standard
 70
     0
178
     0
340
11
  0
ENDTAB
  0
TABLE
  2
BLOCK_RECORD
  5
1
330
0
100
AcDbSymbolTable
 70
     1
  0
BLOCK_RECORD
  5
1F
330
1
100
AcDbSymbolTableRecord
100
AcDbBlockTableRecord
  2
*Model_Space
340
22
  0
BLOCK_RECORD
  5
1B
330
1
100
AcDbSymbolTableRecord
100
AcDbBlockTableRecord
  2
*Paper_Space
340
1E
  0
BLOCK_RECORD
  5
23
330
1
100
AcDbSymbolTableRecord
100
AcDbBlockTableRecord
  2
*Paper_Space0
340
26
  0
ENDTAB
  0
ENDSEC
  0
SECTION
  2
BLOCKS
  0
BLOCK
  5
20
330
1F
100
AcDbEntity
  8
0
100
AcDbBlockBegin
  2
*Model_Space
 70
     0
 10
0.0
 20
0.0
 30
0.0
  3
*Model_Space
  1
*Model_Space
  0
ENDBLK
  5
21
330
1F
100
AcDbEntity
  8
0
100
AcDbBlockEnd
  0
BLOCK
  5
1C
330
1B
100
AcDbEntity
 67
     1
  8
0
100
AcDbBlockBegin
  2
*Paper_Space
 70
     0
 10
0.0
 20
0.0
 30
0.0
  3
*Paper_Space
  1
*Paper_Space
  0
ENDBLK
  5
1D
330
1B
100
AcDbEntity
 67
     1
  8
0
100
AcDbBlockEnd
  0
BLOCK
  5
24
330
23
100
AcDbEntity
  8
0
100
AcDbBlockBegin
  2
*Paper_Space0
 70
     0
 10
0.0
 20
0.0
 30
0.0
  3
*Paper_Space0
  1
*Paper_Space0
  0
ENDBLK
  5
25
330
23
100
AcDbEntity
  8
0
100
AcDbBlockEnd
  0
ENDSEC
  0
SECTION
  2
ENTITIES
  0
SPLINE
  5
63
330
1F
100
AcDbEntity
  8
LAYER_1
100
AcDbSpline
210
0.0
220
0.0
230
1.0
 70
    11
 71
     3
 72
   152
 73
   148
 74
     0
 42
0.000000001
 43
0.0000000001
 12
1.0
 22
0.0
 32
0.0
 13
1.0
 23
0.0
 33
0.0
 40
0.0
 40
0.0
 40
0.0
 40
0.0
 40
0.02
 40
0.02
 40
0.02
 40
0.04
 40
0.04
 40
0.04
 40
0.06
 40
0.06
 40
0.06
 40
0.08
 40
0.08
 40
0.08
 40
0.1
 40
0.1
 40
0.1
 40
0.12
 40
0.12
 40
0.12
 40
0.14
 40
0.14
 40
0.14
 40
0.16
 40
0.16
 40
0.16
 40
0.18
 40
0.18
 40
0.18
 40
0.2
 40
0.2
 40
0.2
 40
0.22
 40
0.22
 40
0.22
 40
0.24
 40
0.24
 40
0.24
 40
0.26
 40
0.26
 40
0.26
 40
0.28
 40
0.28
 40
0.28
 40
0.3
 40
0.3
 40
0.3
 40
0.32
 40
0.32
 40
0.32
 40
0.34
 40
0.34
 40
0.34
 40
0.36
 40
0.36
 40
0.36
 40
0.38
 40
0.38
 40
0.38
 40
0.4
 40
0.4
 40
0.4
 40
0.42
 40
0.42
 40
0.42
 40
0.44
 40
0.44
 40
0.44
 40
0.46
 40
0.46
 40
0.46
 40
0.48
 40
0.48
 40
0.48
 40
0.5
 40
0.5
 40
0.5
 40
0.52
 40
0.52
 40
0.52
 40
0.54
 40
0.54
 40
0.54
 40
0.56
 40
0.56
 40
0.56
 40
0.58
 40
0.58
 40
0.58
 40
0.6
 40
0.6
 40
0.6
 40
0.62
 40
0.62
 40
0.62
 40
0.64
 40
0.64
 40
0.64
 40
0.66
 40
0.66
 40
0.66
 40
0.68
 40
0.68
 40
0.68
 40
0.7
 40
0.7
 40
0.7
 40
0.72
 40
0.72
 40
0.72
 40
0.74
 40
0.74
 40
0.74
 40
0.76
 40
0.76
 40
0.76
 40
0.78
 40
0.78
 40
0.78
 40
0.8
 40
0.8
 40
0.8
 40
0.82
 40
0.82
 40
0.82
 40
0.84
 40
0.84
 40
0.84
 40
0.86
 40
0.86
 40
0.86
 40
0.88
 40
0.88
 40
0.88
 40
0.9
 40
0.9
 40
0.9
 40
0.92
 40
0.92
 40
0.92
 40
0.94
 40
0.94
 40
0.94
 40
0.96
 40
0.96
 40
0.96
 40
1.0
 40
1.0
 40
1.0
 40
1.0
 10
-2472.9484
 20
-169.2825
 30
0.0
 10
-2472.9484
 20
-169.2825
 30
0.0
 10
-2472.9484
 20
-154.1418
 30
0.0
 10
-2472.9484
 20
-154.1418
 30
0.0
 10
-2472.9484
 20
-154.1418
 30
0.0
 10
-2635.1236
 20
-154.1418
 30
0.0
 10
-2635.1236
 20
-154.1418
 30
0.0
 10
-2654.3945
 20
-154.1418
 30
0.0
 10
-2650.8921
 20
-129.2615
 30
0.0
 10
-2670.1632
 20
-129.1021
 30
0.0
 10
-2670.1632
 20
-129.1021
 30
0.0
 10
-3195.6329
 20
-124.7546
 30
0.0
 10
-3195.6329
 20
-124.7546
 30
0.0
 10
-3195.6329
 20
-124.7546
 30
0.0
 10
-3195.6329
 20
-275.3542
 30
0.0
 10
-3195.6329
 20
-275.3542
 30
0.0
 10
-3195.6329
 20
-289.1043
 30
0.0
 10
-3206.8828
 20
-300.3543
 30
0.0
 10
-3220.6328
 20
-300.3543
 30
0.0
 10
-3220.6328
 20
-300.3543
 30
0.0
 10
-3240.633
 20
-300.3543
 30
0.0
 10
-3240.633
 20
-300.3543
 30
0.0
 10
-3254.383
 20
-300.3543
 30
0.0
 10
-3265.6329
 20
-289.1043
 30
0.0
 10
-3265.6329
 20
-275.3542
 30
0.0
 10
-3265.6329
 20
-275.3542
 30
0.0
 10
-3265.6329
 20
-124.1754
 30
0.0
 10
-3265.6329
 20
-124.1754
 30
0.0
 10
-3265.6329
 20
-124.1754
 30
0.0
 10
-3295.0782
 20
-123.9318
 30
0.0
 10
-3295.0782
 20
-123.9318
 30
0.0
 10
-3295.0782
 20
-123.9318
 30
0.0
 10
-3295.0782
 20
-156.5353
 30
0.0
 10
-3295.0782
 20
-156.5353
 30
0.0
 10
-3295.0782
 20
-183.0969
 30
0.0
 10
-3327.646
 20
-182.4881
 30
0.0
 10
-3362.6199
 20
-167.6282
 30
0.0
 10
-3380.5152
 20
-202.5657
 30
0.0
 10
-3436.4525
 20
-271.9285
 30
0.0
 10
-3461.0486
 20
-244.9529
 30
0.0
 10
-3484.1817
 20
-219.5819
 30
0.0
 10
-3405.1269
 20
-203.5152
 30
0.0
 10
-3408.1951
 20
-140.3664
 30
0.0
 10
-3430.3938
 20
-122.5193
 30
0.0
 10
-3446.9736
 20
-100.3394
 30
0.0
 10
-3446.9736
 20
-78.5126
 30
0.0
 10
-3446.9736
 20
-56.9994
 30
0.0
 10
-3430.3911
 20
-34.6149
 30
0.0
 10
-3408.1886
 20
-16.5418
 30
0.0
 10
-3405.2648
 20
46.5199
 30
0.0
 10
-3476.0216
 20
70.6497
 30
0.0
 10
-3461.0486
 20
87.8832
 30
0.0
 10
-3437.1935
 20
115.3398
 30
0.0
 10
-3380.8387
 20
45.7808
 30
0.0
 10
-3362.8179
 20
10.9416
 30
0.0
 10
-3327.7704
 20
25.9482
 30
0.0
 10
-3295.0782
 20
26.0822
 30
0.0
 10
-3295.0782
 20
-3.0454
 30
0.0
 10
-3295.0782
 20
-3.0454
 30
0.0
 10
-3295.0782
 20
-26.7769
 30
0.0
 10
-3295.0782
 20
-26.7769
 30
0.0
 10
-3295.0782
 20
-26.7769
 30
0.0
 10
-3265.6329
 20
-26.5333
 30
0.0
 10
-3265.6329
 20
-26.5333
 30
0.0
 10
-3265.6329
 20
-26.5333
 30
0.0
 10
-3265.6329
 20
124.6457
 30
0.0
 10
-3265.6329
 20
124.6457
 30
0.0
 10
-3265.6329
 20
138.3958
 30
0.0
 10
-3254.383
 20
149.6457
 30
0.0
 10
-3240.633
 20
149.6457
 30
0.0
 10
-3240.633
 20
149.6457
 30
0.0
 10
-3220.6328
 20
149.6457
 30
0.0
 10
-3220.6328
 20
149.6457
 30
0.0
 10
-3206.8828
 20
149.6457
 30
0.0
 10
-3195.6329
 20
138.3958
 30
0.0
 10
-3195.6329
 20
124.6457
 30
0.0
 10
-3195.6329
 20
124.6457
 30
0.0
 10
-3195.6329
 20
-25.9541
 30
0.0
 10
-3195.6329
 20
-25.9541
 30
0.0
 10
-3195.6329
 20
-25.9541
 30
0.0
 10
-2670.1632
 20
-21.6064
 30
0.0
 10
-2670.1632
 20
-21.6064
 30
0.0
 10
-2650.8922
 20
-21.447
 30
0.0
 10
-2654.3945
 20
3.4332
 30
0.0
 10
-2635.1236
 20
3.4332
 30
0.0
 10
-2635.1236
 20
3.4332
 30
0.0
 10
-2472.9484
 20
3.4332
 30
0.0
 10
-2472.9484
 20
3.4332
 30
0.0
 10
-2472.9484
 20
3.4332
 30
0.0
 10
-2472.9484
 20
18.5738
 30
0.0
 10
-2472.9484
 20
18.5738
 30
0.0
 10
-2472.9484
 20
21.3236
 30
0.0
 10
-2470.6978
 20
23.5737
 30
0.0
 10
-2467.9484
 20
23.5737
 30
0.0
 10
-2467.9484
 20
23.5737
 30
0.0
 10
-2457.9484
 20
23.5737
 30
0.0
 10
-2457.9484
 20
23.5737
 30
0.0
 10
-2455.1996
 20
23.5737
 30
0.0
 10
-2452.9484
 20
21.3224
 30
0.0
 10
-2452.9484
 20
18.5738
 30
0.0
 10
-2452.9484
 20
18.5738
 30
0.0
 10
-2452.9484
 20
-67.5962
 30
0.0
 10
-2452.9484
 20
-67.5962
 30
0.0
 10
-2452.9484
 20
-67.5962
 30
0.0
 10
-2553.73
 20
-67.5962
 30
0.0
 10
-2553.73
 20
-67.5962
 30
0.0
 10
-2553.73
 20
-67.5962
 30
0.0
 10
-2553.73
 20
-63.6214
 30
0.0
 10
-2553.73
 20
-63.6214
 30
0.0
 10
-2553.73
 20
-63.6214
 30
0.0
 10
-2561.73
 20
-63.6214
 30
0.0
 10
-2561.73
 20
-63.6214
 30
0.0
 10
-2561.73
 20
-63.6214
 30
0.0
 10
-2561.73
 20
-67.5962
 30
0.0
 10
-2561.73
 20
-67.5962
 30
0.0
 10
-2561.73
 20
-67.5962
 30
0.0
 10
-2561.755
 20
-67.5962
 30
0.0
 10
-2561.755
 20
-67.5962
 30
0.0
 10
-2561.755
 20
-67.5962
 30
0.0
 10
-2561.755
 20
-83.0962
 30
0.0
 10
-2561.755
 20
-83.0962
 30
0.0
 10
-2561.755
 20
-83.0962
 30
0.0
 10
-2561.73
 20
-83.0962
 30
0.0
 10
-2561.73
 20
-83.0962
 30
0.0
 10
-2561.73
 20
-83.0962
 30
0.0
 10
-2561.73
 20
-87.0873
 30
0.0
 10
-2561.73
 20
-87.0873
 30
0.0
 10
-2561.73
 20
-87.0873
 30
0.0
 10
-2553.73
 20
-87.0873
 30
0.0
 10
-2553.73
 20
-87.0873
 30
0.0
 10
-2553.73
 20
-87.0873
 30
0.0
 10
-2553.73
 20
-83.0962
 30
0.0
 10
-2553.73
 20
-83.0962
 30
0.0
 10
-2553.73
 20
-83.0962
 30
0.0
 10
-2452.9484
 20
-83.0962
 30
0.0
 10
-2452.9484
 20
-83.0962
 30
0.0
 10
-2452.9484
 20
-83.0962
 30
0.0
 10
-2452.9484
 20
-169.2825
 30
0.0
 10
-2452.9484
 20
-169.2825
 30
0.0
 10
-2452.9484
 20
-172.0311
 30
0.0
 10
-2455.1984
 20
-174.2824
 30
0.0
 10
-2457.9484
 20
-174.2824
 30
0.0
 10
-2457.9484
 20
-174.2824
 30
0.0
 10
-2467.9484
 20
-174.2824
 30
0.0
 10
-2467.9484
 20
-174.2824
 30
0.0
 10
-2470.6984
 20
-174.2824
 30
0.0
 10
-2472.9484
 20
-172.0323
 30
0.0
 10
-2472.9484
 20
-169.2825
 30
0.0
  0
SPLINE
  5
64
330
1F
100
AcDbEntity
  8
LAYER_1
100
AcDbSpline
210
0.0
220
0.0
230
1.0
 70
    11
 71
     3
 72
    89
 73
    85
 74
     0
 42
0.000000001
 43
0.0000000001
 12
1.0
 22
0.0
 32
0.0
 13
1.0
 23
0.0
 33
0.0
 40
0.0
 40
0.0
 40
0.0
 40
0.0
 40
0.0344827586206897
 40
0.0344827586206897
 40
0.0344827586206897
 40
0.0689655172413793
 40
0.0689655172413793
 40
0.0689655172413793
 40
0.103448275862069
 40
0.103448275862069
 40
0.103448275862069
 40
0.1379310344827586
 40
0.1379310344827586
 40
0.1379310344827586
 40
0.1724137931034483
 40
0.1724137931034483
 40
0.1724137931034483
 40
0.2068965517241379
 40
0.2068965517241379
 40
0.2068965517241379
 40
0.2413793103448276
 40
0.2413793103448276
 40
0.2413793103448276
 40
0.2758620689655172
 40
0.2758620689655172
 40
0.2758620689655172
 40
0.3103448275862069
 40
0.3103448275862069
 40
0.3103448275862069
 40
0.3448275862068966
 40
0.3448275862068966
 40
0.3448275862068966
 40
0.3793103448275862
 40
0.3793103448275862
 40
0.3793103448275862
 40
0.4137931034482759
 40
0.4137931034482759
 40
0.4137931034482759
 40
0.4482758620689655
 40
0.4482758620689655
 40
0.4482758620689655
 40
0.4827586206896552
 40
0.4827586206896552
 40
0.4827586206896552
 40
0.5172413793103449
 40
0.5172413793103449
 40
0.5172413793103449
 40
0.5517241379310345
 40
0.5517241379310345
 40
0.5517241379310345
 40
0.5862068965517241
 40
0.5862068965517241
 40
0.5862068965517241
 40
0.6206896551724138
 40
0.6206896551724138
 40
0.6206896551724138
 40
0.6551724137931034
 40
0.6551724137931034
 40
0.6551724137931034
 40
0.6896551724137931
 40
0.6896551724137931
 40
0.6896551724137931
 40
0.7241379310344828
 40
0.7241379310344828
 40
0.7241379310344828
 40
0.7586206896551724
 40
0.7586206896551724
 40
0.7586206896551724
 40
0.7931034482758621
 40
0.7931034482758621
 40
0.7931034482758621
 40
0.8275862068965517
 40
0.8275862068965517
 40
0.8275862068965517
 40
0.8620689655172413
 40
0.8620689655172413
 40
0.8620689655172413
 40
0.896551724137931
 40
0.896551724137931
 40
0.896551724137931
 40
0.9310344827586207
 40
0.9310344827586207
 40
0.9310344827586207
 40
1.0
 40
1.0
 40
1.0
 40
1.0
 10
-2225.887
 20
8.2885
 30
0.0
 10
-2225.887
 20
8.2885
 30
0.0
 10
-2241.028
 20
8.2885
 30
0.0
 10
-2241.028
 20
8.2885
 30
0.0
 10
-2241.028
 20
8.2885
 30
0.0
 10
-2241.028
 20
-227.2739
 30
0.0
 10
-2241.028
 20
-227.2739
 30
0.0
 10
-2241.028
 20
-246.5448
 30
0.0
 10
-2256.7971
 20
-262.3135
 30
0.0
 10
-2276.0683
 20
-262.3135
 30
0.0
 10
-2276.0683
 20
-262.3135
 30
0.0
 10
-2286.1045
 20
-262.3135
 30
0.0
 10
-2286.1045
 20
-262.3135
 30
0.0
 10
-2286.1045
 20
-262.3135
 30
0.0
 10
-2313.3861
 20
-262.3135
 30
0.0
 10
-2313.3861
 20
-262.3135
 30
0.0
 10
-2313.3861
 20
-262.3135
 30
0.0
 10
-2313.3861
 20
-88.3437
 30
0.0
 10
-2313.3861
 20
-88.3437
 30
0.0
 10
-2313.3861
 20
-88.3437
 30
0.0
 10
-2309.395
 20
-88.3437
 30
0.0
 10
-2309.395
 20
-88.3437
 30
0.0
 10
-2309.395
 20
-88.3437
 30
0.0
 10
-2309.395
 20
-80.3437
 30
0.0
 10
-2309.395
 20
-80.3437
 30
0.0
 10
-2309.395
 20
-80.3437
 30
0.0
 10
-2313.3861
 20
-80.3437
 30
0.0
 10
-2313.3861
 20
-80.3437
 30
0.0
 10
-2313.3861
 20
-80.3437
 30
0.0
 10
-2313.3861
 20
-80.3187
 30
0.0
 10
-2313.3861
 20
-80.3187
 30
0.0
 10
-2313.3861
 20
-80.3187
 30
0.0
 10
-2328.8861
 20
-80.3187
 30
0.0
 10
-2328.8861
 20
-80.3187
 30
0.0
 10
-2328.8861
 20
-80.3187
 30
0.0
 10
-2328.8861
 20
-80.3437
 30
0.0
 10
-2328.8861
 20
-80.3437
 30
0.0
 10
-2328.8861
 20
-80.3437
 30
0.0
 10
-2332.8609
 20
-80.3437
 30
0.0
 10
-2332.8609
 20
-80.3437
 30
0.0
 10
-2332.8609
 20
-80.3437
 30
0.0
 10
-2332.8609
 20
-88.3437
 30
0.0
 10
-2332.8609
 20
-88.3437
 30
0.0
 10
-2332.8609
 20
-88.3437
 30
0.0
 10
-2328.8861
 20
-88.3437
 30
0.0
 10
-2328.8861
 20
-88.3437
 30
0.0
 10
-2328.8861
 20
-88.3437
 30
0.0
 10
-2328.8861
 20
-262.3135
 30
0.0
 10
-2328.8861
 20
-262.3135
 30
0.0
 10
-2328.8861
 20
-262.3135
 30
0.0
 10
-2353.5241
 20
-262.3135
 30
0.0
 10
-2353.5241
 20
-262.3135
 30
0.0
 10
-2353.5241
 20
-262.3135
 30
0.0
 10
-2363.5603
 20
-262.3135
 30
0.0
 10
-2363.5603
 20
-262.3135
 30
0.0
 10
-2382.8364
 20
-262.3135
 30
0.0
 10
-2398.6006
 20
-246.5449
 30
0.0
 10
-2398.6006
 20
-227.2739
 30
0.0
 10
-2398.6006
 20
-227.2739
 30
0.0
 10
-2398.6006
 20
8.2885
 30
0.0
 10
-2398.6006
 20
8.2885
 30
0.0
 10
-2398.6006
 20
8.2885
 30
0.0
 10
-2413.7416
 20
8.2885
 30
0.0
 10
-2413.7416
 20
8.2885
 30
0.0
 10
-2416.4918
 20
8.2885
 30
0.0
 10
-2418.7424
 20
10.5391
 30
0.0
 10
-2418.7424
 20
13.2885
 30
0.0
 10
-2418.7424
 20
13.2885
 30
0.0
 10
-2418.7424
 20
23.2885
 30
0.0
 10
-2418.7424
 20
23.2885
 30
0.0
 10
-2418.7424
 20
26.0373
 30
0.0
 10
-2416.4918
 20
28.2885
 30
0.0
 10
-2413.7416
 20
28.2885
 30
0.0
 10
-2413.7416
 20
28.2885
 30
0.0
 10
-2225.887
 20
28.2885
 30
0.0
 10
-2225.887
 20
28.2885
 30
0.0
 10
-2223.1368
 20
28.2885
 30
0.0
 10
-2220.8862
 20
26.0385
 30
0.0
 10
-2220.8862
 20
23.2885
 30
0.0
 10
-2220.8862
 20
23.2885
 30
0.0
 10
-2220.8862
 20
13.2885
 30
0.0
 10
-2220.8862
 20
13.2885
 30
0.0
 10
-2220.8862
 20
10.5385
 30
0.0
 10
-2223.1368
 20
8.2885
 30
0.0
 10
-2225.887
 20
8.2885
 30
0.0
  0
SPLINE
  5
66
330
1F
100
AcDbEntity
  8
CAPA_1
100
AcDbSpline
210
0.0
220
0.0
230
1.0
 70
    11
 71
     3
 72
    53
 73
    49
 74
     0
 42
0.000000001
 43
0.0000000001
 12
1.0
 22
0.0
 32
0.0
 13
1.0
 23
0.0
 33
0.0
 40
0.0
 40
0.0
 40
0.0
 40
0.0
 40
0.0588235294117647
 40
0.0588235294117647
 40
0.0588235294117647
 40
0.1176470588235294
 40
0.1176470588235294
 40
0.1176470588235294
 40
0.1764705882352941
 40
0.1764705882352941
 40
0.1764705882352941
 40
0.2352941176470588
 40
0.2352941176470588
 40
0.2352941176470588
 40
0.2941176470588235
 40
0.2941176470588235
 40
0.2941176470588235
 40
0.3529411764705883
 40
0.3529411764705883
 40
0.3529411764705883
 40
0.4117647058823529
 40
0.4117647058823529
 40
0.4117647058823529
 40
0.4705882352941176
 40
0.4705882352941176
 40
0.4705882352941176
 40
0.5294117647058824
 40
0.5294117647058824
 40
0.5294117647058824
 40
0.5882352941176471
 40
0.5882352941176471
 40
0.5882352941176471
 40
0.6470588235294118
 40
0.6470588235294118
 40
0.6470588235294118
 40
0.7058823529411765
 40
0.7058823529411765
 40
0.7058823529411765
 40
0.7647058823529411
 40
0.7647058823529411
 40
0.7647058823529411
 40
0.8235294117647058
 40
0.8235294117647058
 40
0.8235294117647058
 40
0.8823529411764706
 40
0.8823529411764706
 40
0.8823529411764706
 40
1.0
 40
1.0
 40
1.0
 40
1.0
 10
-3418.9415
 20
-527.4787
 30
0.0
 10
-3418.9415
 20
-527.4787
 30
0.0
 10
-3304.8826
 20
-527.4787
 30
0.0
 10
-3304.8826
 20
-527.4787
 30
0.0
 10
-3304.8826
 20
-525.2695
 30
0.0
 10
-3303.0918
 20
-523.4787
 30
0.0
 10
-3300.8826
 20
-523.4787
 30
0.0
 10
-3298.6734
 20
-523.4787
 30
0.0
 10
-3296.8826
 20
-525.2695
 30
0.0
 10
-3296.8826
 20
-527.4787
 30
0.0
 10
-3296.8826
 20
-527.4787
 30
0.0
 10
-3296.8782
 20
-527.4787
 30
0.0
 10
-3296.8782
 20
-527.4787
 30
0.0
 10
-3296.8782
 20
-527.4787
 30
0.0
 10
-3296.8782
 20
-542.2393
 30
0.0
 10
-3296.8782
 20
-542.2393
 30
0.0
 10
-3296.8334
 20
-542.479
 30
0.0
 10
-3296.8097
 20
-542.7261
 30
0.0
 10
-3296.8097
 20
-542.9787
 30
0.0
 10
-3296.8097
 20
-545.1879
 30
0.0
 10
-3298.6005
 20
-546.9787
 30
0.0
 10
-3300.8097
 20
-546.9787
 30
0.0
 10
-3303.0189
 20
-546.9787
 30
0.0
 10
-3304.8097
 20
-545.1879
 30
0.0
 10
-3304.8097
 20
-542.9787
 30
0.0
 10
-3304.8097
 20
-542.9787
 30
0.0
 10
-3418.7957
 20
-542.9787
 30
0.0
 10
-3418.7957
 20
-542.9787
 30
0.0
 10
-3418.7957
 20
-545.1879
 30
0.0
 10
-3420.5865
 20
-546.9787
 30
0.0
 10
-3422.7957
 20
-546.9787
 30
0.0
 10
-3425.0049
 20
-546.9787
 30
0.0
 10
-3426.7957
 20
-545.1879
 30
0.0
 10
-3426.7957
 20
-542.9787
 30
0.0
 10
-3426.7957
 20
-542.9787
 30
0.0
 10
-3426.8781
 20
-542.9787
 30
0.0
 10
-3426.8781
 20
-542.9787
 30
0.0
 10
-3426.8781
 20
-542.9787
 30
0.0
 10
-3426.8781
 20
-528.1915
 30
0.0
 10
-3426.8781
 20
-528.1915
 30
0.0
 10
-3426.9197
 20
-527.9602
 30
0.0
 10
-3426.9415
 20
-527.722
 30
0.0
 10
-3426.9415
 20
-527.4787
 30
0.0
 10
-3426.9415
 20
-525.2695
 30
0.0
 10
-3425.1507
 20
-523.4787
 30
0.0
 10
-3422.9415
 20
-523.4787
 30
0.0
 10
-3420.7323
 20
-523.4787
 30
0.0
 10
-3418.9415
 20
-525.2695
 30
0.0
 10
-3418.9415
 20
-527.4787
 30
0.0
  0
SPLINE
  5
67
330
1F
100
AcDbEntity
  8
CAPA_1
100
AcDbSpline
210
0.0
220
0.0
230
1.0
 70
    11
 71
     3
 72
    53
 73
    49
 74
     0
 42
0.000000001
 43
0.0000000001
 12
1.0
 22
0.0
 32
0.0
 13
1.0
 23
0.0
 33
0.0
 40
0.0
 40
0.0
 40
0.0
 40
0.0
 40
0.0588235294117647
 40
0.0588235294117647
 40
0.0588235294117647
 40
0.1176470588235294
 40
0.1176470588235294
 40
0.1176470588235294
 40
0.1764705882352941
 40
0.1764705882352941
 40
0.1764705882352941
 40
0.2352941176470588
 40
0.2352941176470588
 40
0.2352941176470588
 40
0.2941176470588235
 40
0.2941176470588235
 40
0.2941176470588235
 40
0.3529411764705883
 40
0.3529411764705883
 40
0.3529411764705883
 40
0.4117647058823529
 40
0.4117647058823529
 40
0.4117647058823529
 40
0.4705882352941176
 40
0.4705882352941176
 40
0.4705882352941176
 40
0.5294117647058824
 40
0.5294117647058824
 40
0.5294117647058824
 40
0.5882352941176471
 40
0.5882352941176471
 40
0.5882352941176471
 40
0.6470588235294118
 40
0.6470588235294118
 40
0.6470588235294118
 40
0.7058823529411765
 40
0.7058823529411765
 40
0.7058823529411765
 40
0.7647058823529411
 40
0.7647058823529411
 40
0.7647058823529411
 40
0.8235294117647058
 40
0.8235294117647058
 40
0.8235294117647058
 40
0.8823529411764706
 40
0.8823529411764706
 40
0.8823529411764706
 40
1.0
 40
1.0
 40
1.0
 40
1.0
 10
-3086.627
 20
-373.7196
 30
0.0
 10
-3086.627
 20
-373.7196
 30
0.0
 10
-2972.5681
 20
-373.7196
 30
0.0
 10
-2972.5681
 20
-373.7196
 30
0.0
 10
-2972.5681
 20
-371.5104
 30
0.0
 10
-2970.7773
 20
-369.7196
 30
0.0
 10
-2968.5681
 20
-369.7196
 30
0.0
 10
-2966.3589
 20
-369.7196
 30
0.0
 10
-2964.5681
 20
-371.5104
 30
0.0
 10
-2964.5681
 20
-373.7196
 30
0.0
 10
-2964.5681
 20
-373.7196
 30
0.0
 10
-2964.5637
 20
-373.7196
 30
0.0
 10
-2964.5637
 20
-373.7196
 30
0.0
 10
-2964.5637
 20
-373.7196
 30
0.0
 10
-2964.5637
 20
-388.4802
 30
0.0
 10
-2964.5637
 20
-388.4802
 30
0.0
 10
-2964.5189
 20
-388.7199
 30
0.0
 10
-2964.4952
 20
-388.967
 30
0.0
 10
-2964.4952
 20
-389.2196
 30
0.0
 10
-2964.4952
 20
-391.4288
 30
0.0
 10
-2966.286
 20
-393.2196
 30
0.0
 10
-2968.4952
 20
-393.2196
 30
0.0
 10
-2970.7044
 20
-393.2196
 30
0.0
 10
-2972.4952
 20
-391.4288
 30
0.0
 10
-2972.4952
 20
-389.2196
 30
0.0
 10
-2972.4952
 20
-389.2196
 30
0.0
 10
-3086.4812
 20
-389.2196
 30
0.0
 10
-3086.4812
 20
-389.2196
 30
0.0
 10
-3086.4812
 20
-391.4288
 30
0.0
 10
-3088.272
 20
-393.2196
 30
0.0
 10
-3090.4812
 20
-393.2196
 30
0.0
 10
-3092.6904
 20
-393.2196
 30
0.0
 10
-3094.4812
 20
-391.4288
 30
0.0
 10
-3094.4812
 20
-389.2196
 30
0.0
 10
-3094.4812
 20
-389.2196
 30
0.0
 10
-3094.5636
 20
-389.2196
 30
0.0
 10
-3094.5636
 20
-389.2196
 30
0.0
 10
-3094.5636
 20
-389.2196
 30
0.0
 10
-3094.5636
 20
-374.4324
 30
0.0
 10
-3094.5636
 20
-374.4324
 30
0.0
 10
-3094.6052
 20
-374.2011
 30
0.0
 10
-3094.627
 20
-373.9629
 30
0.0
 10
-3094.627
 20
-373.7196
 30
0.0
 10
-3094.627
 20
-371.5104
 30
0.0
 10
-3092.8362
 20
-369.7196
 30
0.0
 10
-3090.627
 20
-369.7196
 30
0.0
 10
-3088.4178
 20
-369.7196
 30
0.0
 10
-3086.627
 20
-371.5104
 30
0.0
 10
-3086.627
 20
-373.7196
 30
0.0
  0
SPLINE
  5
68
330
1F
100
AcDbEntity
  8
CAPA_1
100
AcDbSpline
210
0.0
220
0.0
230
1.0
 70
    11
 71
     3
 72
    53
 73
    49
 74
     0
 42
0.000000001
 43
0.0000000001
 12
1.0
 22
0.0
 32
0.0
 13
1.0
 23
0.0
 33
0.0
 40
0.0
 40
0.0
 40
0.0
 40
0.0
 40
0.0588235294117647
 40
0.0588235294117647
 40
0.0588235294117647
 40
0.1176470588235294
 40
0.1176470588235294
 40
0.1176470588235294
 40
0.1764705882352941
 40
0.1764705882352941
 40
0.1764705882352941
 40
0.2352941176470588
 40
0.2352941176470588
 40
0.2352941176470588
 40
0.2941176470588235
 40
0.2941176470588235
 40
0.2941176470588235
 40
0.3529411764705883
 40
0.3529411764705883
 40
0.3529411764705883
 40
0.4117647058823529
 40
0.4117647058823529
 40
0.4117647058823529
 40
0.4705882352941176
 40
0.4705882352941176
 40
0.4705882352941176
 40
0.5294117647058824
 40
0.5294117647058824
 40
0.5294117647058824
 40
0.5882352941176471
 40
0.5882352941176471
 40
0.5882352941176471
 40
0.6470588235294118
 40
0.6470588235294118
 40
0.6470588235294118
 40
0.7058823529411765
 40
0.7058823529411765
 40
0.7058823529411765
 40
0.7647058823529411
 40
0.7647058823529411
 40
0.7647058823529411
 40
0.8235294117647058
 40
0.8235294117647058
 40
0.8235294117647058
 40
0.8823529411764706
 40
0.8823529411764706
 40
0.8823529411764706
 40
1.0
 40
1.0
 40
1.0
 40
1.0
 10
-3086.627
 20
-527.4787
 30
0.0
 10
-3086.627
 20
-527.4787
 30
0.0
 10
-2972.5681
 20
-527.4787
 30
0.0
 10
-2972.5681
 20
-527.4787
 30
0.0
 10
-2972.5681
 20
-525.2695
 30
0.0
 10
-2970.7773
 20
-523.4787
 30
0.0
 10
-2968.5681
 20
-523.4787
 30
0.0
 10
-2966.3589
 20
-523.4787
 30
0.0
 10
-2964.5681
 20
-525.2695
 30
0.0
 10
-2964.5681
 20
-527.4787
 30
0.0
 10
-2964.5681
 20
-527.4787
 30
0.0
 10
-2964.5637
 20
-527.4787
 30
0.0
 10
-2964.5637
 20
-527.4787
 30
0.0
 10
-2964.5637
 20
-527.4787
 30
0.0
 10
-2964.5637
 20
-542.2393
 30
0.0
 10
-2964.5637
 20
-542.2393
 30
0.0
 10
-2964.5189
 20
-542.479
 30
0.0
 10
-2964.4952
 20
-542.7261
 30
0.0
 10
-2964.4952
 20
-542.9787
 30
0.0
 10
-2964.4952
 20
-545.1879
 30
0.0
 10
-2966.286
 20
-546.9787
 30
0.0
 10
-2968.4952
 20
-546.9787
 30
0.0
 10
-2970.7044
 20
-546.9787
 30
0.0
 10
-2972.4952
 20
-545.1879
 30
0.0
 10
-2972.4952
 20
-542.9787
 30
0.0
 10
-2972.4952
 20
-542.9787
 30
0.0
 10
-3086.4812
 20
-542.9787
 30
0.0
 10
-3086.4812
 20
-542.9787
 30
0.0
 10
-3086.4812
 20
-545.1879
 30
0.0
 10
-3088.272
 20
-546.9787
 30
0.0
 10
-3090.4812
 20
-546.9787
 30
0.0
 10
-3092.6904
 20
-546.9787
 30
0.0
 10
-3094.4812
 20
-545.1879
 30
0.0
 10
-3094.4812
 20
-542.9787
 30
0.0
 10
-3094.4812
 20
-542.9787
 30
0.0
 10
-3094.5636
 20
-542.9787
 30
0.0
 10
-3094.5636
 20
-542.9787
 30
0.0
 10
-3094.5636
 20
-542.9787
 30
0.0
 10
-3094.5636
 20
-528.1915
 30
0.0
 10
-3094.5636
 20
-528.1915
 30
0.0
 10
-3094.6052
 20
-527.9602
 30
0.0
 10
-3094.627
 20
-527.722
 30
0.0
 10
-3094.627
 20
-527.4787
 30
0.0
 10
-3094.627
 20
-525.2695
 30
0.0
 10
-3092.8362
 20
-523.4787
 30
0.0
 10
-3090.627
 20
-523.4787
 30
0.0
 10
-3088.4178
 20
-523.4787
 30
0.0
 10
-3086.627
 20
-525.2695
 30
0.0
 10
-3086.627
 20
-527.4787
 30
0.0
  0
SPLINE
  5
69
330
1F
100
AcDbEntity
  8
CAPA_1
100
AcDbSpline
210
0.0
220
0.0
230
1.0
 70
    11
 71
     3
 72
    53
 73
    49
 74
     0
 42
0.000000001
 43
0.0000000001
 12
1.0
 22
0.0
 32
0.0
 13
1.0
 23
0.0
 33
0.0
 40
0.0
 40
0.0
 40
0.0
 40
0.0
 40
0.0588235294117647
 40
0.0588235294117647
 40
0.0588235294117647
 40
0.1176470588235294
 40
0.1176470588235294
 40
0.1176470588235294
 40
0.1764705882352941
 40
0.1764705882352941
 40
0.1764705882352941
 40
0.2352941176470588
 40
0.2352941176470588
 40
0.2352941176470588
 40
0.2941176470588235
 40
0.2941176470588235
 40
0.2941176470588235
 40
0.3529411764705883
 40
0.3529411764705883
 40
0.3529411764705883
 40
0.4117647058823529
 40
0.4117647058823529
 40
0.4117647058823529
 40
0.4705882352941176
 40
0.4705882352941176
 40
0.4705882352941176
 40
0.5294117647058824
 40
0.5294117647058824
 40
0.5294117647058824
 40
0.5882352941176471
 40
0.5882352941176471
 40
0.5882352941176471
 40
0.6470588235294118
 40
0.6470588235294118
 40
0.6470588235294118
 40
0.7058823529411765
 40
0.7058823529411765
 40
0.7058823529411765
 40
0.7647058823529411
 40
0.7647058823529411
 40
0.7647058823529411
 40
0.8235294117647058
 40
0.8235294117647058
 40
0.8235294117647058
 40
0.8823529411764706
 40
0.8823529411764706
 40
0.8823529411764706
 40
1.0
 40
1.0
 40
1.0
 40
1.0
 10
-2754.3124
 20
-527.4787
 30
0.0
 10
-2754.3124
 20
-527.4787
 30
0.0
 10
-2640.2535
 20
-527.4787
 30
0.0
 10
-2640.2535
 20
-527.4787
 30
0.0
 10
-2640.2535
 20
-525.2695
 30
0.0
 10
-2638.4627
 20
-523.4787
 30
0.0
 10
-2636.2535
 20
-523.4787
 30
0.0
 10
-2634.0443
 20
-523.4787
 30
0.0
 10
-2632.2535
 20
-525.2695
 30
0.0
 10
-2632.2535
 20
-527.4787
 30
0.0
 10
-2632.2535
 20
-527.4787
 30
0.0
 10
-2632.2491
 20
-527.4787
 30
0.0
 10
-2632.2491
 20
-527.4787
 30
0.0
 10
-2632.2491
 20
-527.4787
 30
0.0
 10
-2632.2491
 20
-542.2393
 30
0.0
 10
-2632.2491
 20
-542.2393
 30
0.0
 10
-2632.2043
 20
-542.479
 30
0.0
 10
-2632.1806
 20
-542.7261
 30
0.0
 10
-2632.1806
 20
-542.9787
 30
0.0
 10
-2632.1806
 20
-545.1879
 30
0.0
 10
-2633.9714
 20
-546.9787
 30
0.0
 10
-2636.1806
 20
-546.9787
 30
0.0
 10
-2638.3898
 20
-546.9787
 30
0.0
 10
-2640.1806
 20
-545.1879
 30
0.0
 10
-2640.1806
 20
-542.9787
 30
0.0
 10
-2640.1806
 20
-542.9787
 30
0.0
 10
-2754.1666
 20
-542.9787
 30
0.0
 10
-2754.1666
 20
-542.9787
 30
0.0
 10
-2754.1666
 20
-545.1879
 30
0.0
 10
-2755.9574
 20
-546.9787
 30
0.0
 10
-2758.1666
 20
-546.9787
 30
0.0
 10
-2760.3758
 20
-546.9787
 30
0.0
 10
-2762.1666
 20
-545.1879
 30
0.0
 10
-2762.1666
 20
-542.9787
 30
0.0
 10
-2762.1666
 20
-542.9787
 30
0.0
 10
-2762.249
 20
-542.9787
 30
0.0
 10
-2762.249
 20
-542.9787
 30
0.0
 10
-2762.249
 20
-542.9787
 30
0.0
 10
-2762.249
 20
-528.1915
 30
0.0
 10
-2762.249
 20
-528.1915
 30
0.0
 10
-2762.2906
 20
-527.9602
 30
0.0
 10
-2762.3124
 20
-527.722
 30
0.0
 10
-2762.3124
 20
-527.4787
 30
0.0
 10
-2762.3124
 20
-525.2695
 30
0.0
 10
-2760.5216
 20
-523.4787
 30
0.0
 10
-2758.3124
 20
-523.4787
 30
0.0
 10
-2756.1032
 20
-523.4787
 30
0.0
 10
-2754.3124
 20
-525.2695
 30
0.0
 10
-2754.3124
 20
-527.4787
 30
0.0
  0
SPLINE
  5
6A
330
1F
100
AcDbEntity
  8
CAPA_1
100
AcDbSpline
210
0.0
220
0.0
230
1.0
 70
    11
 71
     3
 72
    53
 73
    49
 74
     0
 42
0.000000001
 43
0.0000000001
 12
1.0
 22
0.0
 32
0.0
 13
1.0
 23
0.0
 33
0.0
 40
0.0
 40
0.0
 40
0.0
 40
0.0
 40
0.0588235294117647
 40
0.0588235294117647
 40
0.0588235294117647
 40
0.1176470588235294
 40
0.1176470588235294
 40
0.1176470588235294
 40
0.1764705882352941
 40
0.1764705882352941
 40
0.1764705882352941
 40
0.2352941176470588
 40
0.2352941176470588
 40
0.2352941176470588
 40
0.2941176470588235
 40
0.2941176470588235
 40
0.2941176470588235
 40
0.3529411764705883
 40
0.3529411764705883
 40
0.3529411764705883
 40
0.4117647058823529
 40
0.4117647058823529
 40
0.4117647058823529
 40
0.4705882352941176
 40
0.4705882352941176
 40
0.4705882352941176
 40
0.5294117647058824
 40
0.5294117647058824
 40
0.5294117647058824
 40
0.5882352941176471
 40
0.5882352941176471
 40
0.5882352941176471
 40
0.6470588235294118
 40
0.6470588235294118
 40
0.6470588235294118
 40
0.7058823529411765
 40
0.7058823529411765
 40
0.7058823529411765
 40
0.7647058823529411
 40
0.7647058823529411
 40
0.7647058823529411
 40
0.8235294117647058
 40
0.8235294117647058
 40
0.8235294117647058
 40
0.8823529411764706
 40
0.8823529411764706
 40
0.8823529411764706
 40
1.0
 40
1.0
 40
1.0
 40
1.0
 10
-2421.9978
 20
-527.4787
 30
0.0
 10
-2421.9978
 20
-527.4787
 30
0.0
 10
-2307.9389
 20
-527.4787
 30
0.0
 10
-2307.9389
 20
-527.4787
 30
0.0
 10
-2307.9389
 20
-525.2695
 30
0.0
 10
-2306.1481
 20
-523.4787
 30
0.0
 10
-2303.9389
 20
-523.4787
 30
0.0
 10
-2301.7297
 20
-523.4787
 30
0.0
 10
-2299.9389
 20
-525.2695
 30
0.0
 10
-2299.9389
 20
-527.4787
 30
0.0
 10
-2299.9389
 20
-527.4787
 30
0.0
 10
-2299.9345
 20
-527.4787
 30
0.0
 10
-2299.9345
 20
-527.4787
 30
0.0
 10
-2299.9345
 20
-527.4787
 30
0.0
 10
-2299.9345
 20
-542.2393
 30
0.0
 10
-2299.9345
 20
-542.2393
 30
0.0
 10
-2299.8897
 20
-542.479
 30
0.0
 10
-2299.866
 20
-542.7261
 30
0.0
 10
-2299.866
 20
-542.9787
 30
0.0
 10
-2299.866
 20
-545.1879
 30
0.0
 10
-2301.6568
 20
-546.9787
 30
0.0
 10
-2303.866
 20
-546.9787
 30
0.0
 10
-2306.0752
 20
-546.9787
 30
0.0
 10
-2307.866
 20
-545.1879
 30
0.0
 10
-2307.866
 20
-542.9787
 30
0.0
 10
-2307.866
 20
-542.9787
 30
0.0
 10
-2421.852
 20
-542.9787
 30
0.0
 10
-2421.852
 20
-542.9787
 30
0.0
 10
-2421.852
 20
-545.1879
 30
0.0
 10
-2423.6428
 20
-546.9787
 30
0.0
 10
-2425.852
 20
-546.9787
 30
0.0
 10
-2428.0612
 20
-546.9787
 30
0.0
 10
-2429.852
 20
-545.1879
 30
0.0
 10
-2429.852
 20
-542.9787
 30
0.0
 10
-2429.852
 20
-542.9787
 30
0.0
 10
-2429.9344
 20
-542.9787
 30
0.0
 10
-2429.9344
 20
-542.9787
 30
0.0
 10
-2429.9344
 20
-542.9787
 30
0.0
 10
-2429.9344
 20
-528.1915
 30
0.0
 10
-2429.9344
 20
-528.1915
 30
0.0
 10
-2429.976
 20
-527.9602
 30
0.0
 10
-2429.9978
 20
-527.722
 30
0.0
 10
-2429.9978
 20
-527.4787
 30
0.0
 10
-2429.9978
 20
-525.2695
 30
0.0
 10
-2428.207
 20
-523.4787
 30
0.0
 10
-2425.9978
 20
-523.4787
 30
0.0
 10
-2423.7886
 20
-523.4787
 30
0.0
 10
-2421.9978
 20
-525.2695
 30
0.0
 10
-2421.9978
 20
-527.4787
 30
0.0
  0
SPLINE
  5
6B
330
1F
100
AcDbEntity
  8
CAPA_1
100
AcDbSpline
210
0.0
220
0.0
230
1.0
 70
    11
 71
     3
 72
    53
 73
    49
 74
     0
 42
0.000000001
 43
0.0000000001
 12
1.0
 22
0.0
 32
0.0
 13
1.0
 23
0.0
 33
0.0
 40
0.0
 40
0.0
 40
0.0
 40
0.0
 40
0.0588235294117647
 40
0.0588235294117647
 40
0.0588235294117647
 40
0.1176470588235294
 40
0.1176470588235294
 40
0.1176470588235294
 40
0.1764705882352941
 40
0.1764705882352941
 40
0.1764705882352941
 40
0.2352941176470588
 40
0.2352941176470588
 40
0.2352941176470588
 40
0.2941176470588235
 40
0.2941176470588235
 40
0.2941176470588235
 40
0.3529411764705883
 40
0.3529411764705883
 40
0.3529411764705883
 40
0.4117647058823529
 40
0.4117647058823529
 40
0.4117647058823529
 40
0.4705882352941176
 40
0.4705882352941176
 40
0.4705882352941176
 40
0.5294117647058824
 40
0.5294117647058824
 40
0.5294117647058824
 40
0.5882352941176471
 40
0.5882352941176471
 40
0.5882352941176471
 40
0.6470588235294118
 40
0.6470588235294118
 40
0.6470588235294118
 40
0.7058823529411765
 40
0.7058823529411765
 40
0.7058823529411765
 40
0.7647058823529411
 40
0.7647058823529411
 40
0.7647058823529411
 40
0.8235294117647058
 40
0.8235294117647058
 40
0.8235294117647058
 40
0.8823529411764706
 40
0.8823529411764706
 40
0.8823529411764706
 40
1.0
 40
1.0
 40
1.0
 40
1.0
 10
-2133.6804
 20
-414.9099
 30
0.0
 10
-2133.6804
 20
-414.9099
 30
0.0
 10
-2207.2131
 20
-488.4425
 30
0.0
 10
-2207.2131
 20
-488.4425
 30
0.0
 10
-2205.6509
 20
-490.0047
 30
0.0
 10
-2205.6509
 20
-492.5373
 30
0.0
 10
-2207.2131
 20
-494.0994
 30
0.0
 10
-2208.7752
 20
-495.6615
 30
0.0
 10
-2211.3078
 20
-495.6615
 30
0.0
 10
-2212.8699
 20
-494.0994
 30
0.0
 10
-2212.8699
 20
-494.0994
 30
0.0
 10
-2212.873
 20
-494.1025
 30
0.0
 10
-2212.873
 20
-494.1025
 30
0.0
 10
-2212.873
 20
-494.1025
 30
0.0
 10
-2223.3104
 20
-483.6652
 30
0.0
 10
-2223.3104
 20
-483.6652
 30
0.0
 10
-2223.5115
 20
-483.5274
 30
0.0
 10
-2223.0113
 20
-484.0612
 30
0.0
 10
-2223.8816
 20
-483.1908
 30
0.0
 10
-2224.752
 20
-482.3204
 30
0.0
 10
-2225.4438
 20
-479.0961
 30
0.0
 10
-2223.8816
 20
-477.5339
 30
0.0
 10
-2222.3195
 20
-475.9718
 30
0.0
 10
-2219.7869
 20
-475.9718
 30
0.0
 10
-2218.2248
 20
-477.5339
 30
0.0
 10
-2218.2248
 20
-477.5339
 30
0.0
 10
-2144.7437
 20
-404.0528
 30
0.0
 10
-2144.7437
 20
-404.0528
 30
0.0
 10
-2146.3058
 20
-402.4907
 30
0.0
 10
-2146.3058
 20
-399.9581
 30
0.0
 10
-2144.7437
 20
-398.396
 30
0.0
 10
-2143.1815
 20
-396.8338
 30
0.0
 10
-2140.649
 20
-396.8338
 30
0.0
 10
-2139.0868
 20
-398.396
 30
0.0
 10
-2139.0868
 20
-398.396
 30
0.0
 10
-2139.0285
 20
-398.3377
 30
0.0
 10
-2139.0285
 20
-398.3377
 30
0.0
 10
-2139.0285
 20
-398.3377
 30
0.0
 10
-2128.5724
 20
-408.7938
 30
0.0
 10
-2128.5724
 20
-408.7938
 30
0.0
 10
-2128.3794
 20
-408.928
 30
0.0
 10
-2128.1956
 20
-409.081
 30
0.0
 10
-2128.0236
 20
-409.253
 30
0.0
 10
-2126.4614
 20
-410.8152
 30
0.0
 10
-2126.4614
 20
-413.3477
 30
0.0
 10
-2128.0236
 20
-414.9099
 30
0.0
 10
-2129.5857
 20
-416.472
 30
0.0
 10
-2132.1183
 20
-416.472
 30
0.0
 10
-2133.6804
 20
-414.9099
 30
0.0
  0
SPLINE
  5
6C
330
1F
100
AcDbEntity
  8
CAPA_1
100
AcDbSpline
210
0.0
220
0.0
230
1.0
 70
    11
 71
     3
 72
    53
 73
    49
 74
     0
 42
0.000000001
 43
0.0000000001
 12
1.0
 22
0.0
 32
0.0
 13
1.0
 23
0.0
 33
0.0
 40
0.0
 40
0.0
 40
0.0
 40
0.0
 40
0.0588235294117647
 40
0.0588235294117647
 40
0.0588235294117647
 40
0.1176470588235294
 40
0.1176470588235294
 40
0.1176470588235294
 40
0.1764705882352941
 40
0.1764705882352941
 40
0.1764705882352941
 40
0.2352941176470588
 40
0.2352941176470588
 40
0.2352941176470588
 40
0.2941176470588235
 40
0.2941176470588235
 40
0.2941176470588235
 40
0.3529411764705883
 40
0.3529411764705883
 40
0.3529411764705883
 40
0.4117647058823529
 40
0.4117647058823529
 40
0.4117647058823529
 40
0.4705882352941176
 40
0.4705882352941176
 40
0.4705882352941176
 40
0.5294117647058824
 40
0.5294117647058824
 40
0.5294117647058824
 40
0.5882352941176471
 40
0.5882352941176471
 40
0.5882352941176471
 40
0.6470588235294118
 40
0.6470588235294118
 40
0.6470588235294118
 40
0.7058823529411765
 40
0.7058823529411765
 40
0.7058823529411765
 40
0.7647058823529411
 40
0.7647058823529411
 40
0.7647058823529411
 40
0.8235294117647058
 40
0.8235294117647058
 40
0.8235294117647058
 40
0.8823529411764706
 40
0.8823529411764706
 40
0.8823529411764706
 40
1.0
 40
1.0
 40
1.0
 40
1.0
 10
-2501.4867
 20
-373.7196
 30
0.0
 10
-2501.4867
 20
-373.7196
 30
0.0
 10
-2387.4278
 20
-373.7196
 30
0.0
 10
-2387.4278
 20
-373.7196
 30
0.0
 10
-2387.4278
 20
-371.5104
 30
0.0
 10
-2385.637
 20
-369.7196
 30
0.0
 10
-2383.4278
 20
-369.7196
 30
0.0
 10
-2381.2186
 20
-369.7196
 30
0.0
 10
-2379.4278
 20
-371.5104
 30
0.0
 10
-2379.4278
 20
-373.7196
 30
0.0
 10
-2379.4278
 20
-373.7196
 30
0.0
 10
-2379.4234
 20
-373.7196
 30
0.0
 10
-2379.4234
 20
-373.7196
 30
0.0
 10
-2379.4234
 20
-373.7196
 30
0.0
 10
-2379.4234
 20
-388.4802
 30
0.0
 10
-2379.4234
 20
-388.4802
 30
0.0
 10
-2379.3786
 20
-388.7199
 30
0.0
 10
-2379.3549
 20
-388.967
 30
0.0
 10
-2379.3549
 20
-389.2196
 30
0.0
 10
-2379.3549
 20
-391.4288
 30
0.0
 10
-2381.1457
 20
-393.2196
 30
0.0
 10
-2383.3549
 20
-393.2196
 30
0.0
 10
-2385.5641
 20
-393.2196
 30
0.0
 10
-2387.3549
 20
-391.4288
 30
0.0
 10
-2387.3549
 20
-389.2196
 30
0.0
 10
-2387.3549
 20
-389.2196
 30
0.0
 10
-2501.3409
 20
-389.2196
 30
0.0
 10
-2501.3409
 20
-389.2196
 30
0.0
 10
-2501.3409
 20
-391.4288
 30
0.0
 10
-2503.1317
 20
-393.2196
 30
0.0
 10
-2505.3409
 20
-393.2196
 30
0.0
 10
-2507.5501
 20
-393.2196
 30
0.0
 10
-2509.3409
 20
-391.4288
 30
0.0
 10
-2509.3409
 20
-389.2196
 30
0.0
 10
-2509.3409
 20
-389.2196
 30
0.0
 10
-2509.4233
 20
-389.2196
 30
0.0
 10
-2509.4233
 20
-389.2196
 30
0.0
 10
-2509.4233
 20
-389.2196
 30
0.0
 10
-2509.4233
 20
-374.4324
 30
0.0
 10
-2509.4233
 20
-374.4324
 30
0.0
 10
-2509.4649
 20
-374.2011
 30
0.0
 10
-2509.4867
 20
-373.9629
 30
0.0
 10
-2509.4867
 20
-373.7196
 30
0.0
 10
-2509.4867
 20
-371.5104
 30
0.0
 10
-2507.6959
 20
-369.7196
 30
0.0
 10
-2505.4867
 20
-369.7196
 30
0.0
 10
-2503.2775
 20
-369.7196
 30
0.0
 10
-2501.4867
 20
-371.5104
 30
0.0
 10
-2501.4867
 20
-373.7196
 30
0.0
  0
SPLINE
  5
6D
330
1F
100
AcDbEntity
  8
CAPA_1
100
AcDbSpline
210
0.0
220
0.0
230
1.0
 70
    11
 71
     3
 72
    53
 73
    49
 74
     0
 42
0.000000001
 43
0.0000000001
 12
1.0
 22
0.0
 32
0.0
 13
1.0
 23
0.0
 33
0.0
 40
0.0
 40
0.0
 40
0.0
 40
0.0
 40
0.0588235294117647
 40
0.0588235294117647
 40
0.0588235294117647
 40
0.1176470588235294
 40
0.1176470588235294
 40
0.1176470588235294
 40
0.1764705882352941
 40
0.1764705882352941
 40
0.1764705882352941
 40
0.2352941176470588
 40
0.2352941176470588
 40
0.2352941176470588
 40
0.2941176470588235
 40
0.2941176470588235
 40
0.2941176470588235
 40
0.3529411764705883
 40
0.3529411764705883
 40
0.3529411764705883
 40
0.4117647058823529
 40
0.4117647058823529
 40
0.4117647058823529
 40
0.4705882352941176
 40
0.4705882352941176
 40
0.4705882352941176
 40
0.5294117647058824
 40
0.5294117647058824
 40
0.5294117647058824
 40
0.5882352941176471
 40
0.5882352941176471
 40
0.5882352941176471
 40
0.6470588235294118
 40
0.6470588235294118
 40
0.6470588235294118
 40
0.7058823529411765
 40
0.7058823529411765
 40
0.7058823529411765
 40
0.7647058823529411
 40
0.7647058823529411
 40
0.7647058823529411
 40
0.8235294117647058
 40
0.8235294117647058
 40
0.8235294117647058
 40
0.8823529411764706
 40
0.8823529411764706
 40
0.8823529411764706
 40
1.0
 40
1.0
 40
1.0
 40
1.0
 10
-3582.5219
 20
-404.0962
 30
0.0
 10
-3582.5219
 20
-404.0962
 30
0.0
 10
-3508.9893
 20
-477.6289
 30
0.0
 10
-3508.9893
 20
-477.6289
 30
0.0
 10
-3507.4271
 20
-476.0667
 30
0.0
 10
-3504.8945
 20
-476.0667
 30
0.0
 10
-3503.3324
 20
-477.6289
 30
0.0
 10
-3501.7703
 20
-479.191
 30
0.0
 10
-3501.7703
 20
-481.7236
 30
0.0
 10
-3503.3324
 20
-483.2857
 30
0.0
 10
-3503.3324
 20
-483.2857
 30
0.0
 10
-3503.3293
 20
-483.2888
 30
0.0
 10
-3503.3293
 20
-483.2888
 30
0.0
 10
-3503.3293
 20
-483.2888
 30
0.0
 10
-3513.7666
 20
-493.7262
 30
0.0
 10
-3513.7666
 20
-493.7262
 30
0.0
 10
-3513.9044
 20
-493.9273
 30
0.0
 10
-3513.3706
 20
-493.4271
 30
0.0
 10
-3514.241
 20
-494.2974
 30
0.0
 10
-3515.1114
 20
-495.1678
 30
0.0
 10
-3518.3357
 20
-495.8596
 30
0.0
 10
-3519.8979
 20
-494.2974
 30
0.0
 10
-3521.46
 20
-492.7353
 30
0.0
 10
-3521.46
 20
-490.2027
 30
0.0
 10
-3519.8979
 20
-488.6406
 30
0.0
 10
-3519.8979
 20
-488.6406
 30
0.0
 10
-3593.379
 20
-415.1595
 30
0.0
 10
-3593.379
 20
-415.1595
 30
0.0
 10
-3594.9411
 20
-416.7216
 30
0.0
 10
-3597.4737
 20
-416.7216
 30
0.0
 10
-3599.0358
 20
-415.1595
 30
0.0
 10
-3600.598
 20
-413.5973
 30
0.0
 10
-3600.598
 20
-411.0648
 30
0.0
 10
-3599.0358
 20
-409.5026
 30
0.0
 10
-3599.0358
 20
-409.5026
 30
0.0
 10
-3599.0941
 20
-409.4443
 30
0.0
 10
-3599.0941
 20
-409.4443
 30
0.0
 10
-3599.0941
 20
-409.4443
 30
0.0
 10
-3588.638
 20
-398.9882
 30
0.0
 10
-3588.638
 20
-398.9882
 30
0.0
 10
-3588.5038
 20
-398.7952
 30
0.0
 10
-3588.3508
 20
-398.6114
 30
0.0
 10
-3588.1788
 20
-398.4394
 30
0.0
 10
-3586.6166
 20
-396.8772
 30
0.0
 10
-3584.0841
 20
-396.8772
 30
0.0
 10
-3582.5219
 20
-398.4394
 30
0.0
 10
-3580.9598
 20
-400.0015
 30
0.0
 10
-3580.9598
 20
-402.5341
 30
0.0
 10
-3582.5219
 20
-404.0962
 30
0.0
  0
SPLINE
  5
6E
330
1F
100
AcDbEntity
  8
CAPA_1
100
AcDbSpline
210
0.0
220
0.0
230
1.0
 70
    11
 71
     3
 72
   689
 73
   685
 74
     0
 42
0.000000001
 43
0.0000000001
 12
1.0
 22
0.0
 32
0.0
 13
1.0
 23
0.0
 33
0.0
 40
0.0
 40
0.0
 40
0.0
 40
0.0
 40
0.0043859649122807
 40
0.0043859649122807
 40
0.0043859649122807
 40
0.0087719298245614
 40
0.0087719298245614
 40
0.0087719298245614
 40
0.0131578947368421
 40
0.0131578947368421
 40
0.0131578947368421
 40
0.0175438596491228
 40
0.0175438596491228
 40
0.0175438596491228
 40
0.0219298245614035
 40
0.0219298245614035
 40
0.0219298245614035
 40
0.0263157894736842
 40
0.0263157894736842
 40
0.0263157894736842
 40
0.030701754385965
 40
0.030701754385965
 40
0.030701754385965
 40
0.0350877192982456
 40
0.0350877192982456
 40
0.0350877192982456
 40
0.0394736842105263
 40
0.0394736842105263
 40
0.0394736842105263
 40
0.043859649122807
 40
0.043859649122807
 40
0.043859649122807
 40
0.0482456140350877
 40
0.0482456140350877
 40
0.0482456140350877
 40
0.0526315789473685
 40
0.0526315789473685
 40
0.0526315789473685
 40
0.0570175438596491
 40
0.0570175438596491
 40
0.0570175438596491
 40
0.0614035087719298
 40
0.0614035087719298
 40
0.0614035087719298
 40
0.0657894736842105
 40
0.0657894736842105
 40
0.0657894736842105
 40
0.0701754385964912
 40
0.0701754385964912
 40
0.0701754385964912
 40
0.074561403508772
 40
0.074561403508772
 40
0.074561403508772
 40
0.0789473684210526
 40
0.0789473684210526
 40
0.0789473684210526
 40
0.0833333333333333
 40
0.0833333333333333
 40
0.0833333333333333
 40
0.087719298245614
 40
0.087719298245614
 40
0.087719298245614
 40
0.0921052631578948
 40
0.0921052631578948
 40
0.0921052631578948
 40
0.0964912280701755
 40
0.0964912280701755
 40
0.0964912280701755
 40
0.1008771929824561
 40
0.1008771929824561
 40
0.1008771929824561
 40
0.1052631578947368
 40
0.1052631578947368
 40
0.1052631578947368
 40
0.1096491228070175
 40
0.1096491228070175
 40
0.1096491228070175
 40
0.1140350877192983
 40
0.1140350877192983
 40
0.1140350877192983
 40
0.118421052631579
 40
0.118421052631579
 40
0.118421052631579
 40
0.1228070175438596
 40
0.1228070175438596
 40
0.1228070175438596
 40
0.1271929824561403
 40
0.1271929824561403
 40
0.1271929824561403
 40
0.131578947368421
 40
0.131578947368421
 40
0.131578947368421
 40
0.1359649122807018
 40
0.1359649122807018
 40
0.1359649122807018
 40
0.1403508771929824
 40
0.1403508771929824
 40
0.1403508771929824
 40
0.1447368421052631
 40
0.1447368421052631
 40
0.1447368421052631
 40
0.1491228070175438
 40
0.1491228070175438
 40
0.1491228070175438
 40
0.1535087719298246
 40
0.1535087719298246
 40
0.1535087719298246
 40
0.1578947368421053
 40
0.1578947368421053
 40
0.1578947368421053
 40
0.162280701754386
 40
0.162280701754386
 40
0.162280701754386
 40
0.1666666666666666
 40
0.1666666666666666
 40
0.1666666666666666
 40
0.1710526315789473
 40
0.1710526315789473
 40
0.1710526315789473
 40
0.1754385964912281
 40
0.1754385964912281
 40
0.1754385964912281
 40
0.1798245614035088
 40
0.1798245614035088
 40
0.1798245614035088
 40
0.1842105263157895
 40
0.1842105263157895
 40
0.1842105263157895
 40
0.1885964912280702
 40
0.1885964912280702
 40
0.1885964912280702
 40
0.1929824561403509
 40
0.1929824561403509
 40
0.1929824561403509
 40
0.1973684210526316
 40
0.1973684210526316
 40
0.1973684210526316
 40
0.2017543859649123
 40
0.2017543859649123
 40
0.2017543859649123
 40
0.206140350877193
 40
0.206140350877193
 40
0.206140350877193
 40
0.2105263157894736
 40
0.2105263157894736
 40
0.2105263157894736
 40
0.2149122807017544
 40
0.2149122807017544
 40
0.2149122807017544
 40
0.2192982456140351
 40
0.2192982456140351
 40
0.2192982456140351
 40
0.2236842105263158
 40
0.2236842105263158
 40
0.2236842105263158
 40
0.2280701754385965
 40
0.2280701754385965
 40
0.2280701754385965
 40
0.2324561403508772
 40
0.2324561403508772
 40
0.2324561403508772
 40
0.2368421052631579
 40
0.2368421052631579
 40
0.2368421052631579
 40
0.2412280701754386
 40
0.2412280701754386
 40
0.2412280701754386
 40
0.2456140350877193
 40
0.2456140350877193
 40
0.2456140350877193
 40
0.2500000000000001
 40
0.2500000000000001
 40
0.2500000000000001
 40
0.2543859649122807
 40
0.2543859649122807
 40
0.2543859649122807
 40
0.2587719298245614
 40
0.2587719298245614
 40
0.2587719298245614
 40
0.2631578947368421
 40
0.2631578947368421
 40
0.2631578947368421
 40
0.2675438596491228
 40
0.2675438596491228
 40
0.2675438596491228
 40
0.2719298245614035
 40
0.2719298245614035
 40
0.2719298245614035
 40
0.2763157894736841
 40
0.2763157894736841
 40
0.2763157894736841
 40
0.2807017543859649
 40
0.2807017543859649
 40
0.2807017543859649
 40
0.2850877192982456
 40
0.2850877192982456
 40
0.2850877192982456
 40
0.2894736842105263
 40
0.2894736842105263
 40
0.2894736842105263
 40
0.2938596491228069
 40
0.2938596491228069
 40
0.2938596491228069
 40
0.2982456140350878
 40
0.2982456140350878
 40
0.2982456140350878
 40
0.3026315789473684
 40
0.3026315789473684
 40
0.3026315789473684
 40
0.3070175438596491
 40
0.3070175438596491
 40
0.3070175438596491
 40
0.3114035087719298
 40
0.3114035087719298
 40
0.3114035087719298
 40
0.3157894736842106
 40
0.3157894736842106
 40
0.3157894736842106
 40
0.3201754385964912
 40
0.3201754385964912
 40
0.3201754385964912
 40
0.3245614035087719
 40
0.3245614035087719
 40
0.3245614035087719
 40
0.3289473684210526
 40
0.3289473684210526
 40
0.3289473684210526
 40
0.3333333333333333
 40
0.3333333333333333
 40
0.3333333333333333
 40
0.337719298245614
 40
0.337719298245614
 40
0.337719298245614
 40
0.3421052631578947
 40
0.3421052631578947
 40
0.3421052631578947
 40
0.3464912280701754
 40
0.3464912280701754
 40
0.3464912280701754
 40
0.3508771929824561
 40
0.3508771929824561
 40
0.3508771929824561
 40
0.3552631578947369
 40
0.3552631578947369
 40
0.3552631578947369
 40
0.3596491228070176
 40
0.3596491228070176
 40
0.3596491228070176
 40
0.3640350877192982
 40
0.3640350877192982
 40
0.3640350877192982
 40
0.368421052631579
 40
0.368421052631579
 40
0.368421052631579
 40
0.3728070175438596
 40
0.3728070175438596
 40
0.3728070175438596
 40
0.3771929824561404
 40
0.3771929824561404
 40
0.3771929824561404
 40
0.381578947368421
 40
0.381578947368421
 40
0.381578947368421
 40
0.3859649122807018
 40
0.3859649122807018
 40
0.3859649122807018
 40
0.3903508771929824
 40
0.3903508771929824
 40
0.3903508771929824
 40
0.3947368421052632
 40
0.3947368421052632
 40
0.3947368421052632
 40
0.3991228070175439
 40
0.3991228070175439
 40
0.3991228070175439
 40
0.4035087719298246
 40
0.4035087719298246
 40
0.4035087719298246
 40
0.4078947368421053
 40
0.4078947368421053
 40
0.4078947368421053
 40
0.4122807017543861
 40
0.4122807017543861
 40
0.4122807017543861
 40
0.4166666666666667
 40
0.4166666666666667
 40
0.4166666666666667
 40
0.4210526315789474
 40
0.4210526315789474
 40
0.4210526315789474
 40
0.4254385964912281
 40
0.4254385964912281
 40
0.4254385964912281
 40
0.4298245614035088
 40
0.4298245614035088
 40
0.4298245614035088
 40
0.4342105263157895
 40
0.4342105263157895
 40
0.4342105263157895
 40
0.4385964912280702
 40
0.4385964912280702
 40
0.4385964912280702
 40
0.4429824561403509
 40
0.4429824561403509
 40
0.4429824561403509
 40
0.4473684210526316
 40
0.4473684210526316
 40
0.4473684210526316
 40
0.4517543859649124
 40
0.4517543859649124
 40
0.4517543859649124
 40
0.4561403508771931
 40
0.4561403508771931
 40
0.4561403508771931
 40
0.4605263157894737
 40
0.4605263157894737
 40
0.4605263157894737
 40
0.4649122807017544
 40
0.4649122807017544
 40
0.4649122807017544
 40
0.4692982456140351
 40
0.4692982456140351
 40
0.4692982456140351
 40
0.4736842105263159
 40
0.4736842105263159
 40
0.4736842105263159
 40
0.4780701754385965
 40
0.4780701754385965
 40
0.4780701754385965
 40
0.4824561403508772
 40
0.4824561403508772
 40
0.4824561403508772
 40
0.4868421052631579
 40
0.4868421052631579
 40
0.4868421052631579
 40
0.4912280701754387
 40
0.4912280701754387
 40
0.4912280701754387
 40
0.4956140350877193
 40
0.4956140350877193
 40
0.4956140350877193
 40
0.5
 40
0.5
 40
0.5
 40
0.5043859649122806
 40
0.5043859649122806
 40
0.5043859649122806
 40
0.5087719298245613
 40
0.5087719298245613
 40
0.5087719298245613
 40
0.513157894736842
 40
0.513157894736842
 40
0.513157894736842
 40
0.5175438596491229
 40
0.5175438596491229
 40
0.5175438596491229
 40
0.5219298245614035
 40
0.5219298245614035
 40
0.5219298245614035
 40
0.5263157894736841
 40
0.5263157894736841
 40
0.5263157894736841
 40
0.5307017543859648
 40
0.5307017543859648
 40
0.5307017543859648
 40
0.5350877192982456
 40
0.5350877192982456
 40
0.5350877192982456
 40
0.5394736842105263
 40
0.5394736842105263
 40
0.5394736842105263
 40
0.5438596491228069
 40
0.5438596491228069
 40
0.5438596491228069
 40
0.5482456140350876
 40
0.5482456140350876
 40
0.5482456140350876
 40
0.5526315789473684
 40
0.5526315789473684
 40
0.5526315789473684
 40
0.5570175438596491
 40
0.5570175438596491
 40
0.5570175438596491
 40
0.5614035087719298
 40
0.5614035087719298
 40
0.5614035087719298
 40
0.5657894736842104
 40
0.5657894736842104
 40
0.5657894736842104
 40
0.5701754385964911
 40
0.5701754385964911
 40
0.5701754385964911
 40
0.5745614035087718
 40
0.5745614035087718
 40
0.5745614035087718
 40
0.5789473684210527
 40
0.5789473684210527
 40
0.5789473684210527
 40
0.5833333333333333
 40
0.5833333333333333
 40
0.5833333333333333
 40
0.5877192982456139
 40
0.5877192982456139
 40
0.5877192982456139
 40
0.5921052631578947
 40
0.5921052631578947
 40
0.5921052631578947
 40
0.5964912280701754
 40
0.5964912280701754
 40
0.5964912280701754
 40
0.6008771929824561
 40
0.6008771929824561
 40
0.6008771929824561
 40
0.6052631578947367
 40
0.6052631578947367
 40
0.6052631578947367
 40
0.6096491228070174
 40
0.6096491228070174
 40
0.6096491228070174
 40
0.6140350877192982
 40
0.6140350877192982
 40
0.6140350877192982
 40
0.618421052631579
 40
0.618421052631579
 40
0.618421052631579
 40
0.6228070175438596
 40
0.6228070175438596
 40
0.6228070175438596
 40
0.6271929824561402
 40
0.6271929824561402
 40
0.6271929824561402
 40
0.631578947368421
 40
0.631578947368421
 40
0.631578947368421
 40
0.6359649122807017
 40
0.6359649122807017
 40
0.6359649122807017
 40
0.6403508771929824
 40
0.6403508771929824
 40
0.6403508771929824
 40
0.644736842105263
 40
0.644736842105263
 40
0.644736842105263
 40
0.6491228070175438
 40
0.6491228070175438
 40
0.6491228070175438
 40
0.6535087719298245
 40
0.6535087719298245
 40
0.6535087719298245
 40
0.6578947368421052
 40
0.6578947368421052
 40
0.6578947368421052
 40
0.6622807017543859
 40
0.6622807017543859
 40
0.6622807017543859
 40
0.6666666666666665
 40
0.6666666666666665
 40
0.6666666666666665
 40
0.6710526315789473
 40
0.6710526315789473
 40
0.6710526315789473
 40
0.675438596491228
 40
0.675438596491228
 40
0.675438596491228
 40
0.6798245614035088
 40
0.6798245614035088
 40
0.6798245614035088
 40
0.6842105263157894
 40
0.6842105263157894
 40
0.6842105263157894
 40
0.68859649122807
 40
0.68859649122807
 40
0.68859649122807
 40
0.6929824561403508
 40
0.6929824561403508
 40
0.6929824561403508
 40
0.6973684210526315
 40
0.6973684210526315
 40
0.6973684210526315
 40
0.7017543859649122
 40
0.7017543859649122
 40
0.7017543859649122
 40
0.7061403508771928
 40
0.7061403508771928
 40
0.7061403508771928
 40
0.7105263157894737
 40
0.7105263157894737
 40
0.7105263157894737
 40
0.7149122807017543
 40
0.7149122807017543
 40
0.7149122807017543
 40
0.7192982456140351
 40
0.7192982456140351
 40
0.7192982456140351
 40
0.7236842105263157
 40
0.7236842105263157
 40
0.7236842105263157
 40
0.7280701754385965
 40
0.7280701754385965
 40
0.7280701754385965
 40
0.7324561403508771
 40
0.7324561403508771
 40
0.7324561403508771
 40
0.7368421052631579
 40
0.7368421052631579
 40
0.7368421052631579
 40
0.7412280701754386
 40
0.7412280701754386
 40
0.7412280701754386
 40
0.7456140350877192
 40
0.7456140350877192
 40
0.7456140350877192
 40
0.75
 40
0.75
 40
0.75
 40
0.7543859649122806
 40
0.7543859649122806
 40
0.7543859649122806
 40
0.7587719298245613
 40
0.7587719298245613
 40
0.7587719298245613
 40
0.763157894736842
 40
0.763157894736842
 40
0.763157894736842
 40
0.7675438596491229
 40
0.7675438596491229
 40
0.7675438596491229
 40
0.7719298245614035
 40
0.7719298245614035
 40
0.7719298245614035
 40
0.7763157894736842
 40
0.7763157894736842
 40
0.7763157894736842
 40
0.7807017543859649
 40
0.7807017543859649
 40
0.7807017543859649
 40
0.7850877192982455
 40
0.7850877192982455
 40
0.7850877192982455
 40
0.7894736842105263
 40
0.7894736842105263
 40
0.7894736842105263
 40
0.7938596491228069
 40
0.7938596491228069
 40
0.7938596491228069
 40
0.7982456140350876
 40
0.7982456140350876
 40
0.7982456140350876
 40
0.8026315789473684
 40
0.8026315789473684
 40
0.8026315789473684
 40
0.8070175438596491
 40
0.8070175438596491
 40
0.8070175438596491
 40
0.8114035087719298
 40
0.8114035087719298
 40
0.8114035087719298
 40
0.8157894736842104
 40
0.8157894736842104
 40
0.8157894736842104
 40
0.8201754385964911
 40
0.8201754385964911
 40
0.8201754385964911
 40
0.8245614035087719
 40
0.8245614035087719
 40
0.8245614035087719
 40
0.8289473684210527
 40
0.8289473684210527
 40
0.8289473684210527
 40
0.8333333333333333
 40
0.8333333333333333
 40
0.8333333333333333
 40
0.837719298245614
 40
0.837719298245614
 40
0.837719298245614
 40
0.8421052631578947
 40
0.8421052631578947
 40
0.8421052631578947
 40
0.8464912280701754
 40
0.8464912280701754
 40
0.8464912280701754
 40
0.8508771929824561
 40
0.8508771929824561
 40
0.8508771929824561
 40
0.8552631578947367
 40
0.8552631578947367
 40
0.8552631578947367
 40
0.8596491228070174
 40
0.8596491228070174
 40
0.8596491228070174
 40
0.8640350877192983
 40
0.8640350877192983
 40
0.8640350877192983
 40
0.868421052631579
 40
0.868421052631579
 40
0.868421052631579
 40
0.8728070175438596
 40
0.8728070175438596
 40
0.8728070175438596
 40
0.8771929824561403
 40
0.8771929824561403
 40
0.8771929824561403
 40
0.8815789473684209
 40
0.8815789473684209
 40
0.8815789473684209
 40
0.8859649122807017
 40
0.8859649122807017
 40
0.8859649122807017
 40
0.8903508771929824
 40
0.8903508771929824
 40
0.8903508771929824
 40
0.894736842105263
 40
0.894736842105263
 40
0.894736842105263
 40
0.8991228070175438
 40
0.8991228070175438
 40
0.8991228070175438
 40
0.9035087719298246
 40
0.9035087719298246
 40
0.9035087719298246
 40
0.9078947368421052
 40
0.9078947368421052
 40
0.9078947368421052
 40
0.9122807017543859
 40
0.9122807017543859
 40
0.9122807017543859
 40
0.9166666666666666
 40
0.9166666666666666
 40
0.9166666666666666
 40
0.9210526315789472
 40
0.9210526315789472
 40
0.9210526315789472
 40
0.9254385964912281
 40
0.9254385964912281
 40
0.9254385964912281
 40
0.9298245614035088
 40
0.9298245614035088
 40
0.9298245614035088
 40
0.9342105263157894
 40
0.9342105263157894
 40
0.9342105263157894
 40
0.9385964912280701
 40
0.9385964912280701
 40
0.9385964912280701
 40
0.9429824561403508
 40
0.9429824561403508
 40
0.9429824561403508
 40
0.9473684210526315
 40
0.9473684210526315
 40
0.9473684210526315
 40
0.9517543859649122
 40
0.9517543859649122
 40
0.9517543859649122
 40
0.9561403508771928
 40
0.9561403508771928
 40
0.9561403508771928
 40
0.9605263157894737
 40
0.9605263157894737
 40
0.9605263157894737
 40
0.9649122807017544
 40
0.9649122807017544
 40
0.9649122807017544
 40
0.969298245614035
 40
0.969298245614035
 40
0.969298245614035
 40
0.9736842105263157
 40
0.9736842105263157
 40
0.9736842105263157
 40
0.9780701754385964
 40
0.9780701754385964
 40
0.9780701754385964
 40
0.9824561403508771
 40
0.9824561403508771
 40
0.9824561403508771
 40
0.9868421052631579
 40
0.9868421052631579
 40
0.9868421052631579
 40
0.9912280701754386
 40
0.9912280701754386
 40
0.9912280701754386
 40
0.9956140350877192
 40
0.9956140350877192
 40
0.9956140350877192
 40
1.0
 40
1.0
 40
1.0
 40
1.0
 10
-2388.9717
 20
-563.5279
 30
0.0
 10
-2388.9717
 20
-563.5279
 30
0.0
 10
-3351.5414
 20
-563.5279
 30
0.0
 10
-3351.5414
 20
-563.5279
 30
0.0
 10
-3369.083
 20
-563.5716
 30
0.0
 10
-3386.6217
 20
-562.9765
 30
0.0
 10
-3404.1199
 20
-561.7443
 30
0.0
 10
-3420.0878
 20
-560.6215
 30
0.0
 10
-3435.9943
 20
-558.7327
 30
0.0
 10
-3451.7812
 20
-556.0849
 30
0.0
 10
-3466.4526
 20
-553.6285
 30
0.0
 10
-3480.9605
 20
-550.2703
 30
0.0
 10
-3495.2191
 20
-546.0303
 30
0.0
 10
-3508.2837
 20
-542.148
 30
0.0
 10
-3521.0362
 20
-537.2772
 30
0.0
 10
-3533.3628
 20
-531.4624
 30
0.0
 10
-3545.2286
 20
-525.8662
 30
0.0
 10
-3556.543
 20
-519.1633
 30
0.0
 10
-3567.152
 20
-511.4452
 30
0.0
 10
-3579.1431
 20
-502.7153
 30
0.0
 10
-3589.9662
 20
-492.4791
 30
0.0
 10
-3599.3509
 20
-480.9933
 30
0.0
 10
-3610.1222
 20
-467.707
 30
0.0
 10
-3618.7991
 20
-452.8461
 30
0.0
 10
-3625.0771
 20
-436.9361
 30
0.0
 10
-3629.912
 20
-424.6662
 30
0.0
 10
-3633.4983
 20
-411.9377
 30
0.0
 10
-3635.7807
 20
-398.9486
 30
0.0
 10
-3637.4986
 20
-389.26
 30
0.0
 10
-3638.6183
 20
-379.4738
 30
0.0
 10
-3639.133
 20
-369.6475
 30
0.0
 10
-3637.5601
 20
-361.2047
 30
0.0
 10
-3635.48
 20
-352.8632
 30
0.0
 10
-3632.9046
 20
-344.6703
 30
0.0
 10
-3629.6751
 20
-334.4419
 30
0.0
 10
-3625.3313
 20
-324.5971
 30
0.0
 10
-3619.9533
 20
-315.3166
 30
0.0
 10
-3618.7433
 20
-313.2086
 30
0.0
 10
-3617.5147
 20
-311.1114
 30
0.0
 10
-3616.267
 20
-309.0253
 30
0.0
 10
-3614.1209
 20
-305.5026
 30
0.0
 10
-3612.0882
 20
-301.9123
 30
0.0
 10
-3610.1716
 20
-298.2595
 30
0.0
 10
-3606.4754
 20
-291.1628
 30
0.0
 10
-3603.9967
 20
-283.4988
 30
0.0
 10
-3602.8378
 20
-275.5818
 30
0.0
 10
-3602.8378
 20
-275.5818
 30
0.0
 10
-3602.7623
 20
-275.0773
 30
0.0
 10
-3602.7623
 20
-275.0773
 30
0.0
 10
-3602.7623
 20
-275.0773
 30
0.0
 10
-3602.1525
 20
-270.9488
 30
0.0
 10
-3602.1525
 20
-270.9488
 30
0.0
 10
-3602.1525
 20
-270.9488
 30
0.0
 10
-3599.5603
 20
-252.1447
 30
0.0
 10
-3599.5603
 20
-252.1447
 30
0.0
 10
-3599.5603
 20
-252.1447
 30
0.0
 10
-3598.3219
 20
-242.3621
 30
0.0
 10
-3598.3219
 20
-242.3621
 30
0.0
 10
-3598.3219
 20
-242.3621
 30
0.0
 10
-3596.1869
 20
-223.6621
 30
0.0
 10
-3596.1869
 20
-223.6621
 30
0.0
 10
-3596.1869
 20
-223.6621
 30
0.0
 10
-3595.207
 20
-213.9324
 30
0.0
 10
-3595.207
 20
-213.9324
 30
0.0
 10
-3595.207
 20
-213.9324
 30
0.0
 10
-3593.6071
 20
-195.3535
 30
0.0
 10
-3593.6071
 20
-195.3535
 30
0.0
 10
-3593.6071
 20
-195.3535
 30
0.0
 10
-3593.2192
 20
-190.4872
 30
0.0
 10
-3593.2192
 20
-190.4872
 30
0.0
 10
-3593.2192
 20
-190.4872
 30
0.0
 10
-3593.2289
 20
-190.4606
 30
0.0
 10
-3593.2289
 20
-190.4606
 30
0.0
 10
-3593.2289
 20
-190.4606
 30
0.0
 10
-3593.2439
 20
-190.453
 30
0.0
 10
-3593.2439
 20
-190.453
 30
0.0
 10
-3593.2439
 20
-190.453
 30
0.0
 10
-3593.2926
 20
-190.4713
 30
0.0
 10
-3593.2926
 20
-190.4713
 30
0.0
 10
-3595.6701
 20
-192.6652
 30
0.0
 10
-3598.9704
 20
-193.5634
 30
0.0
 10
-3602.1328
 20
-192.8802
 30
0.0
 10
-3602.1328
 20
-192.8802
 30
0.0
 10
-3602.703
 20
-192.7243
 30
0.0
 10
-3602.703
 20
-192.7243
 30
0.0
 10
-3602.7395
 20
-192.7195
 30
0.0
 10
-3602.7763
 20
-192.7326
 30
0.0
 10
-3602.8017
 20
-192.7594
 30
0.0
 10
-3604.0242
 20
-194.0738
 30
0.0
 10
-3604.6452
 20
-195.8361
 30
0.0
 10
-3604.5156
 20
-197.6266
 30
0.0
 10
-3604.4733
 20
-198.4672
 30
0.0
 10
-3604.3126
 20
-199.2973
 30
0.0
 10
-3604.0375
 20
-200.0928
 30
0.0
 10
-3604.0306
 20
-200.1182
 30
0.0
 10
-3604.0389
 20
-200.1452
 30
0.0
 10
-3604.0589
 20
-200.1625
 30
0.0
 10
-3604.0589
 20
-200.1625
 30
0.0
 10
-3604.1203
 20
-200.1768
 30
0.0
 10
-3604.1203
 20
-200.1768
 30
0.0
 10
-3606.6589
 20
-200.0913
 30
0.0
 10
-3609.1981
 20
-200.3059
 30
0.0
 10
-3611.6863
 20
-200.8165
 30
0.0
 10
-3611.6863
 20
-200.8165
 30
0.0
 10
-3611.7262
 20
-200.841
 30
0.0
 10
-3611.7262
 20
-200.841
 30
0.0
 10
-3611.7262
 20
-200.841
 30
0.0
 10
-3611.7295
 20
-200.8868
 30
0.0
 10
-3611.7295
 20
-200.8868
 30
0.0
 10
-3611.7295
 20
-200.8868
 30
0.0
 10
-3611.6668
 20
-201.0119
 30
0.0
 10
-3611.6668
 20
-201.0119
 30
0.0
 10
-3609.8041
 20
-204.1453
 30
0.0
 10
-3608.3051
 20
-207.4819
 30
0.0
 10
-3607.1991
 20
-210.9552
 30
0.0
 10
-3606.3733
 20
-213.5329
 30
0.0
 10
-3605.9066
 20
-216.2127
 30
0.0
 10
-3605.8121
 20
-218.9176
 30
0.0
 10
-3605.646
 20
-223.7167
 30
0.0
 10
-3607.117
 20
-228.4327
 30
0.0
 10
-3609.9805
 20
-232.2872
 30
0.0
 10
-3612.6247
 20
-235.8351
 30
0.0
 10
-3616.2948
 20
-238.488
 30
0.0
 10
-3620.4923
 20
-239.8879
 30
0.0
 10
-3623.1284
 20
-240.7142
 30
0.0
 10
-3625.8925
 20
-241.0607
 30
0.0
 10
-3628.651
 20
-240.9114
 30
0.0
 10
-3632.474
 20
-240.7052
 30
0.0
 10
-3636.0589
 20
-238.9804
 30
0.0
 10
-3638.6079
 20
-236.1235
 30
0.0
 10
-3638.6079
 20
-236.1235
 30
0.0
 10
-3638.7888
 20
-235.9262
 30
0.0
 10
-3638.7888
 20
-235.9262
 30
0.0
 10
-3638.8082
 20
-235.907
 30
0.0
 10
-3638.8365
 20
-235.9001
 30
0.0
 10
-3638.8624
 20
-235.908
 30
0.0
 10
-3638.8624
 20
-235.908
 30
0.0
 10
-3638.9682
 20
-235.9763
 30
0.0
 10
-3638.9682
 20
-235.9763
 30
0.0
 10
-3641.0244
 20
-237.632
 30
0.0
 10
-3643.3913
 20
-238.861
 30
0.0
 10
-3645.9282
 20
-239.5909
 30
0.0
 10
-3648.1724
 20
-240.2743
 30
0.0
 10
-3650.5336
 20
-240.4925
 30
0.0
 10
-3652.8649
 20
-240.2318
 30
0.0
 10
-3653.4431
 20
-240.1549
 30
0.0
 10
-3654.0161
 20
-240.0424
 30
0.0
 10
-3654.5806
 20
-239.8955
 30
0.0
 10
-3655.429
 20
-239.9579
 30
0.0
 10
-3656.2299
 20
-240.308
 30
0.0
 10
-3656.8514
 20
-240.8889
 30
0.0
 10
-3657.4337
 20
-241.5156
 30
0.0
 10
-3657.5946
 20
-242.4242
 30
0.0
 10
-3657.2621
 20
-243.2123
 30
0.0
 10
-3657.06
 20
-243.74
 30
0.0
 10
-3656.7583
 20
-244.2233
 30
0.0
 10
-3656.3731
 20
-244.6366
 30
0.0
 10
-3656.3481
 20
-244.662
 30
0.0
 10
-3656.3387
 20
-244.699
 30
0.0
 10
-3656.3484
 20
-244.7332
 30
0.0
 10
-3656.3484
 20
-244.7332
 30
0.0
 10
-3656.4419
 20
-244.8541
 30
0.0
 10
-3656.4419
 20
-244.8541
 30
0.0
 10
-3658.2078
 20
-246.8568
 30
0.0
 10
-3660.2136
 20
-248.6353
 30
0.0
 10
-3662.4132
 20
-250.1493
 30
0.0
 10
-3664.066
 20
-251.2972
 30
0.0
 10
-3665.9216
 20
-252.1228
 30
0.0
 10
-3667.8809
 20
-252.5822
 30
0.0
 10
-3669.4847
 20
-252.948
 30
0.0
 10
-3671.161
 20
-252.8418
 30
0.0
 10
-3672.7059
 20
-252.2769
 30
0.0
 10
-3673.5543
 20
-251.9614
 30
0.0
 10
-3674.2935
 20
-251.4064
 30
0.0
 10
-3674.8338
 20
-250.68
 30
0.0
 10
-3675.1597
 20
-250.262
 30
0.0
 10
-3675.1989
 20
-249.6871
 30
0.0
 10
-3674.9328
 20
-249.2285
 30
0.0
 10
-3674.3671
 20
-247.8934
 30
0.0
 10
-3673.8926
 20
-246.5219
 30
0.0
 10
-3673.5125
 20
-245.1228
 30
0.0
 10
-3673.1854
 20
-243.614
 30
0.0
 10
-3673.198
 20
-242.0518
 30
0.0
 10
-3673.5496
 20
-240.5485
 30
0.0
 10
-3673.8411
 20
-239.1159
 30
0.0
 10
-3674.6113
 20
-237.826
 30
0.0
 10
-3675.7346
 20
-236.8902
 30
0.0
 10
-3676.6096
 20
-236.2026
 30
0.0
 10
-3677.6664
 20
-235.7862
 30
0.0
 10
-3678.7754
 20
-235.6929
 30
0.0
 10
-3678.8319
 20
-235.6846
 30
0.0
 10
-3678.8823
 20
-235.6528
 30
0.0
 10
-3678.9141
 20
-235.6053
 30
0.0
 10
-3678.9141
 20
-235.6053
 30
0.0
 10
-3678.9376
 20
-235.5533
 30
0.0
 10
-3678.9376
 20
-235.5533
 30
0.0
 10
-3681.4588
 20
-230.5285
 30
0.0
 10
-3681.9755
 20
-224.7296
 30
0.0
 10
-3680.3853
 20
-219.3373
 30
0.0
 10
-3679.4318
 20
-216.0287
 30
0.0
 10
-3677.886
 20
-212.919
 30
0.0
 10
-3675.8241
 20
-210.1612
 30
0.0
 10
-3675.8241
 20
-210.1612
 30
0.0
 10
-3675.8006
 20
-210.0653
 30
0.0
 10
-3675.8006
 20
-210.0653
 30
0.0
 10
-3676.1792
 20
-207.2326
 30
0.0
 10
-3677.454
 20
-204.5968
 30
0.0
 10
-3679.4401
 20
-202.5416
 30
0.0
 10
-3681.4474
 20
-200.5497
 30
0.0
 10
-3683.9975
 20
-199.1967
 30
0.0
 10
-3686.7725
 20
-198.6521
 30
0.0
 10
-3686.8193
 20
-198.6374
 30
0.0
 10
-3686.8527
 20
-198.5961
 30
0.0
 10
-3686.8577
 20
-198.5472
 30
0.0
 10
-3686.8577
 20
-198.5472
 30
0.0
 10
-3691.4346
 20
-172.0429
 30
0.0
 10
-3691.4346
 20
-172.0429
 30
0.0
 10
-3691.4346
 20
-172.0429
 30
0.0
 10
-3691.4837
 20
-171.7704
 30
0.0
 10
-3691.4837
 20
-171.7704
 30
0.0
 10
-3691.4837
 20
-171.7704
 30
0.0
 10
-3694.4754
 20
-154.4197
 30
0.0
 10
-3694.4754
 20
-154.4197
 30
0.0
 10
-3694.4754
 20
-154.4197
 30
0.0
 10
-3694.4989
 20
-154.1996
 30
0.0
 10
-3694.4989
 20
-154.1996
 30
0.0
 10
-3694.4989
 20
-154.1996
 30
0.0
 10
-3694.4942
 20
-154.1695
 30
0.0
 10
-3694.4942
 20
-154.1695
 30
0.0
 10
-3694.4942
 20
-154.1695
 30
0.0
 10
-3694.4479
 20
-154.132
 30
0.0
 10
-3694.4479
 20
-154.132
 30
0.0
 10
-3694.4479
 20
-154.132
 30
0.0
 10
-3694.3093
 20
-154.1199
 30
0.0
 10
-3694.3093
 20
-154.1199
 30
0.0
 10
-3693.1504
 20
-154.1306
 30
0.0
 10
-3692.0193
 20
-153.7693
 30
0.0
 10
-3691.0814
 20
-153.0885
 30
0.0
 10
-3689.5636
 20
-151.8907
 30
0.0
 10
-3688.9884
 20
-149.8547
 30
0.0
 10
-3689.6578
 20
-148.0406
 30
0.0
 10
-3690.4284
 20
-145.518
 30
0.0
 10
-3692.2367
 20
-143.445
 30
0.0
 10
-3694.6323
 20
-142.3409
 30
0.0
 10
-3694.663
 20
-142.3234
 30
0.0
 10
-3694.6824
 20
-142.2913
 30
0.0
 10
-3694.6843
 20
-142.2562
 30
0.0
 10
-3694.6843
 20
-142.2562
 30
0.0
 10
-3694.6618
 20
-142.1109
 30
0.0
 10
-3694.6618
 20
-142.1109
 30
0.0
 10
-3693.2282
 20
-134.9596
 30
0.0
 10
-3691.1208
 20
-127.9591
 30
0.0
 10
-3688.3689
 20
-121.2047
 30
0.0
 10
-3687.107
 20
-118.1418
 30
0.0
 10
-3685.6865
 20
-115.1466
 30
0.0
 10
-3684.1134
 20
-112.2311
 30
0.0
 10
-3682.7501
 20
-109.7113
 30
0.0
 10
-3681.2646
 20
-107.2594
 30
0.0
 10
-3679.6625
 20
-104.8845
 30
0.0
 10
-3679.6625
 20
-104.8845
 30
0.0
 10
-3679.6744
 20
-104.8368
 30
0.0
 10
-3679.6744
 20
-104.8368
 30
0.0
 10
-3679.7344
 20
-104.804
 30
0.0
 10
-3679.8026
 20
-104.7886
 30
0.0
 10
-3679.8707
 20
-104.7919
 30
0.0
 10
-3681.2867
 20
-104.6431
 30
0.0
 10
-3682.7119
 20
-104.6096
 30
0.0
 10
-3684.1331
 20
-104.692
 30
0.0
 10
-3684.3094
 20
-104.7005
 30
0.0
 10
-3684.4863
 20
-104.6834
 30
0.0
 10
-3684.6577
 20
-104.6414
 30
0.0
 10
-3684.742
 20
-104.6113
 30
0.0
 10
-3684.8091
 20
-104.5457
 30
0.0
 10
-3684.8417
 20
-104.4622
 30
0.0
 10
-3688.0971
 20
-95.9809
 30
0.0
 10
-3691.2438
 20
-87.4578
 30
0.0
 10
-3694.281
 20
-78.896
 30
0.0
 10
-3694.281
 20
-78.896
 30
0.0
 10
-3694.3354
 20
-78.7363
 30
0.0
 10
-3694.3354
 20
-78.7363
 30
0.0
 10
-3694.3354
 20
-78.7363
 30
0.0
 10
-3701.8299
 20
-57.1078
 30
0.0
 10
-3701.8299
 20
-57.1078
 30
0.0
 10
-3702.1698
 20
-56.1485
 30
0.0
 10
-3702.3972
 20
-55.1527
 30
0.0
 10
-3702.5076
 20
-54.141
 30
0.0
 10
-3702.5864
 20
-53.5383
 30
0.0
 10
-3702.4124
 20
-52.9294
 30
0.0
 10
-3702.0279
 20
-52.4589
 30
0.0
 10
-3701.4273
 20
-51.8728
 30
0.0
 10
-3700.5924
 20
-51.5908
 30
0.0
 10
-3699.7595
 20
-51.6922
 30
0.0
 10
-3698.7471
 20
-51.8045
 30
0.0
 10
-3697.7626
 20
-52.0967
 30
0.0
 10
-3696.853
 20
-52.5548
 30
0.0
 10
-3696.853
 20
-52.5548
 30
0.0
 10
-3669.5958
 20
-64.5451
 30
0.0
 10
-3669.5958
 20
-64.5451
 30
0.0
 10
-3669.5958
 20
-64.5451
 30
0.0
 10
-3666.5243
 20
-65.9012
 30
0.0
 10
-3666.5243
 20
-65.9012
 30
0.0
 10
-3666.5243
 20
-65.9012
 30
0.0
 10
-3652.6806
 20
-72.0002
 30
0.0
 10
-3652.6806
 20
-72.0002
 30
0.0
 10
-3652.5012
 20
-72.1298
 30
0.0
 10
-3652.4167
 20
-72.3546
 30
0.0
 10
-3652.4661
 20
-72.5704
 30
0.0
 10
-3652.4661
 20
-72.5704
 30
0.0
 10
-3652.7977
 20
-74.9657
 30
0.0
 10
-3652.7977
 20
-74.9657
 30
0.0
 10
-3653.0984
 20
-76.9771
 30
0.0
 10
-3652.9992
 20
-79.0273
 30
0.0
 10
-3652.505
 20
-81.0002
 30
0.0
 10
-3652.505
 20
-81.0002
 30
0.0
 10
-3652.4756
 20
-81.054
 30
0.0
 10
-3652.4756
 20
-81.054
 30
0.0
 10
-3652.4756
 20
-81.054
 30
0.0
 10
-3652.4366
 20
-81.0652
 30
0.0
 10
-3652.4366
 20
-81.0652
 30
0.0
 10
-3652.4366
 20
-81.0652
 30
0.0
 10
-3652.3331
 20
-81.0189
 30
0.0
 10
-3652.3331
 20
-81.0189
 30
0.0
 10
-3648.4888
 20
-79.2697
 30
0.0
 10
-3644.5015
 20
-77.8516
 30
0.0
 10
-3640.416
 20
-76.7807
 30
0.0
 10
-3635.6998
 20
-75.5153
 30
0.0
 10
-3630.875
 20
-74.693
 30
0.0
 10
-3626.0059
 20
-74.3246
 30
0.0
 10
-3621.7405
 20
-74.0158
 30
0.0
 10
-3617.4567
 20
-74.0395
 30
0.0
 10
-3613.1951
 20
-74.3949
 30
0.0
 10
-3609.0374
 20
-74.772
 30
0.0
 10
-3604.9011
 20
-75.3593
 30
0.0
 10
-3600.803
 20
-76.1545
 30
0.0
 10
-3598.8043
 20
-76.5415
 30
0.0
 10
-3596.7908
 20
-76.8453
 30
0.0
 10
-3594.7672
 20
-77.0656
 30
0.0
 10
-3593.6633
 20
-77.1852
 30
0.0
 10
-3592.5484
 20
-77.1413
 30
0.0
 10
-3591.4574
 20
-76.9358
 30
0.0
 10
-3590.5022
 20
-76.7584
 30
0.0
 10
-3589.6778
 20
-76.1621
 30
0.0
 10
-3589.2115
 20
-75.3099
 30
0.0
 10
-3589.0535
 20
-74.9987
 30
0.0
 10
-3588.9279
 20
-74.6723
 30
0.0
 10
-3588.8372
 20
-74.3353
 30
0.0
 10
-3588.8372
 20
-74.3353
 30
0.0
 10
-3588.8059
 20
-74.2766
 30
0.0
 10
-3588.8059
 20
-74.2766
 30
0.0
 10
-3588.8059
 20
-74.2766
 30
0.0
 10
-3588.7586
 20
-74.2702
 30
0.0
 10
-3588.7586
 20
-74.2702
 30
0.0
 10
-3588.7586
 20
-74.2702
 30
0.0
 10
-3588.6577
 20
-74.3343
 30
0.0
 10
-3588.6577
 20
-74.3343
 30
0.0
 10
-3587.0374
 20
-75.4604
 30
0.0
 10
-3585.7427
 20
-76.9956
 30
0.0
 10
-3584.9055
 20
-78.7823
 30
0.0
 10
-3582.8693
 20
-83.3272
 30
0.0
 10
-3584.6731
 20
-88.6789
 30
0.0
 10
-3589.0392
 20
-91.0745
 30
0.0
 10
-3590.3284
 20
-91.8189
 30
0.0
 10
-3591.7695
 20
-92.2623
 30
0.0
 10
-3593.2539
 20
-92.372
 30
0.0
 10
-3593.2539
 20
-92.372
 30
0.0
 10
-3593.3016
 20
-92.3912
 30
0.0
 10
-3593.3016
 20
-92.3912
 30
0.0
 10
-3593.3016
 20
-92.3912
 30
0.0
 10
-3593.294
 20
-92.4245
 30
0.0
 10
-3593.294
 20
-92.4245
 30
0.0
 10
-3584.135
 20
-96.0219
 30
0.0
 10
-3575.9036
 20
-101.644
 30
0.0
 10
-3569.219
 20
-108.8651
 30
0.0
 10
-3568.411
 20
-109.7294
 30
0.0
 10
-3567.625
 20
-110.6141
 30
0.0
 10
-3566.8616
 20
-111.518
 30
0.0
 10
-3561.4145
 20
-118.0144
 30
0.0
 10
-3557.0869
 20
-125.3752
 30
0.0
 10
-3554.0581
 20
-133.2937
 30
0.0
 10
-3553.6807
 20
-134.2646
 30
0.0
 10
-3553.3216
 20
-135.2423
 30
0.0
 10
-3552.9809
 20
-136.2265
 30
0.0
 10
-3550.3783
 20
-143.8355
 30
0.0
 10
-3548.8256
 20
-151.7658
 30
0.0
 10
-3548.3658
 20
-159.7942
 30
0.0
 10
-3548.2977
 20
-160.8398
 30
0.0
 10
-3548.2512
 20
-161.8869
 30
0.0
 10
-3548.2269
 20
-162.9347
 30
0.0
 10
-3548.1849
 20
-166.2383
 30
0.0
 10
-3548.1911
 20
-169.5426
 30
0.0
 10
-3548.2457
 20
-172.8462
 30
0.0
 10
-3548.2457
 20
-172.8462
 30
0.0
 10
-3548.4401
 20
-190.7263
 30
0.0
 10
-3548.4401
 20
-190.7263
 30
0.0
 10
-3548.4401
 20
-190.7263
 30
0.0
 10
-3548.5035
 20
-200.6515
 30
0.0
 10
-3548.5035
 20
-200.6515
 30
0.0
 10
-3548.5035
 20
-200.6515
 30
0.0
 10
-3548.5132
 20
-218.486
 30
0.0
 10
-3548.5132
 20
-218.486
 30
0.0
 10
-3548.5132
 20
-218.486
 30
0.0
 10
-3548.4541
 20
-228.3826
 30
0.0
 10
-3548.4541
 20
-228.3826
 30
0.0
 10
-3548.4541
 20
-228.3826
 30
0.0
 10
-3548.2182
 20
-246.172
 30
0.0
 10
-3548.2182
 20
-246.172
 30
0.0
 10
-3548.2182
 20
-246.172
 30
0.0
 10
-3548.0107
 20
-256.0334
 30
0.0
 10
-3548.0107
 20
-256.0334
 30
0.0
 10
-3548.0107
 20
-256.0334
 30
0.0
 10
-3547.4953
 20
-273.7558
 30
0.0
 10
-3547.4953
 20
-273.7558
 30
0.0
 10
-3547.4953
 20
-273.7558
 30
0.0
 10
-3547.1257
 20
-283.5855
 30
0.0
 10
-3547.1257
 20
-283.5855
 30
0.0
 10
-3547.1257
 20
-283.5855
 30
0.0
 10
-3546.2868
 20
-301.2391
 30
0.0
 10
-3546.2868
 20
-301.2391
 30
0.0
 10
-3546.2868
 20
-301.2391
 30
0.0
 10
-3545.7193
 20
-311.0236
 30
0.0
 10
-3545.7193
 20
-311.0236
 30
0.0
 10
-3545.7193
 20
-311.0236
 30
0.0
 10
-3544.8987
 20
-322.8854
 30
0.0
 10
-3544.8987
 20
-322.8854
 30
0.0
 10
-3544.8987
 20
-322.8854
 30
0.0
 10
-3447.7985
 20
-322.8854
 30
0.0
 10
-3447.7985
 20
-322.8854
 30
0.0
 10
-3447.8106
 20
-302.9627
 30
0.0
 10
-3431.6249
 20
-286.8019
 30
0.0
 10
-3411.7022
 20
-286.7889
 30
0.0
 10
-3391.7795
 20
-286.7768
 30
0.0
 10
-3375.6188
 20
-302.9627
 30
0.0
 10
-3375.6057
 20
-322.8854
 30
0.0
 10
-3375.6057
 20
-322.8854
 30
0.0
 10
-3327.4772
 20
-322.8854
 30
0.0
 10
-3327.4772
 20
-322.8854
 30
0.0
 10
-3327.4893
 20
-302.9627
 30
0.0
 10
-3311.3036
 20
-286.8019
 30
0.0
 10
-3291.3809
 20
-286.7889
 30
0.0
 10
-3271.4582
 20
-286.7768
 30
0.0
 10
-3255.2975
 20
-302.9627
 30
0.0
 10
-3255.2844
 20
-322.8854
 30
0.0
 10
-3255.2844
 20
-322.8854
 30
0.0
 10
-3207.1559
 20
-322.8854
 30
0.0
 10
-3207.1559
 20
-322.8854
 30
0.0
 10
-3207.168
 20
-302.9627
 30
0.0
 10
-3190.9824
 20
-286.8019
 30
0.0
 10
-3171.0596
 20
-286.7889
 30
0.0
 10
-3151.1369
 20
-286.7768
 30
0.0
 10
-3134.9762
 20
-302.9627
 30
0.0
 10
-3134.9631
 20
-322.8854
 30
0.0
 10
-3134.9631
 20
-322.8854
 30
0.0
 10
-3086.8346
 20
-322.8854
 30
0.0
 10
-3086.8346
 20
-322.8854
 30
0.0
 10
-3086.8467
 20
-302.9627
 30
0.0
 10
-3070.6611
 20
-286.8019
 30
0.0
 10
-3050.7384
 20
-286.7889
 30
0.0
 10
-3030.8157
 20
-286.7768
 30
0.0
 10
-3014.6549
 20
-302.9627
 30
0.0
 10
-3014.6419
 20
-322.8854
 30
0.0
 10
-3014.6419
 20
-322.8854
 30
0.0
 10
-2966.5133
 20
-322.8854
 30
0.0
 10
-2966.5133
 20
-322.8854
 30
0.0
 10
-2966.5255
 20
-302.9627
 30
0.0
 10
-2950.3398
 20
-286.8019
 30
0.0
 10
-2930.4171
 20
-286.7889
 30
0.0
 10
-2910.4944
 20
-286.7768
 30
0.0
 10
-2894.3336
 20
-302.9627
 30
0.0
 10
-2894.3206
 20
-322.8854
 30
0.0
 10
-2894.3206
 20
-322.8854
 30
0.0
 10
-2846.1923
 20
-322.8854
 30
0.0
 10
-2846.1923
 20
-322.8854
 30
0.0
 10
-2846.2044
 20
-302.9627
 30
0.0
 10
-2830.0188
 20
-286.8019
 30
0.0
 10
-2810.096
 20
-286.7889
 30
0.0
 10
-2790.1733
 20
-286.7768
 30
0.0
 10
-2774.0126
 20
-302.9627
 30
0.0
 10
-2773.9995
 20
-322.8854
 30
0.0
 10
-2773.9995
 20
-322.8854
 30
0.0
 10
-2725.871
 20
-322.8854
 30
0.0
 10
-2725.871
 20
-322.8854
 30
0.0
 10
-2725.8831
 20
-302.9627
 30
0.0
 10
-2709.6975
 20
-286.8019
 30
0.0
 10
-2689.7748
 20
-286.7889
 30
0.0
 10
-2669.8521
 20
-286.7768
 30
0.0
 10
-2653.6913
 20
-302.9627
 30
0.0
 10
-2653.6783
 20
-322.8854
 30
0.0
 10
-2653.6783
 20
-322.8854
 30
0.0
 10
-2605.5498
 20
-322.8854
 30
0.0
 10
-2605.5498
 20
-322.8854
 30
0.0
 10
-2605.5619
 20
-302.9627
 30
0.0
 10
-2589.3762
 20
-286.8019
 30
0.0
 10
-2569.4535
 20
-286.7889
 30
0.0
 10
-2549.5308
 20
-286.7768
 30
0.0
 10
-2533.37
 20
-302.9627
 30
0.0
 10
-2533.357
 20
-322.8854
 30
0.0
 10
-2533.357
 20
-322.8854
 30
0.0
 10
-2485.2287
 20
-322.8854
 30
0.0
 10
-2485.2287
 20
-322.8854
 30
0.0
 10
-2485.2408
 20
-302.9627
 30
0.0
 10
-2469.0549
 20
-286.8019
 30
0.0
 10
-2449.1322
 20
-286.7889
 30
0.0
 10
-2429.2097
 20
-286.7768
 30
0.0
 10
-2413.049
 20
-302.9627
 30
0.0
 10
-2413.0359
 20
-322.8854
 30
0.0
 10
-2413.0359
 20
-322.8854
 30
0.0
 10
-2364.9074
 20
-322.8854
 30
0.0
 10
-2364.9074
 20
-322.8854
 30
0.0
 10
-2364.9195
 20
-302.9627
 30
0.0
 10
-2348.7336
 20
-286.8019
 30
0.0
 10
-2328.8109
 20
-286.7889
 30
0.0
 10
-2308.8885
 20
-286.7768
 30
0.0
 10
-2292.7277
 20
-302.9627
 30
0.0
 10
-2292.7147
 20
-322.8854
 30
0.0
 10
-2292.7147
 20
-322.8854
 30
0.0
 10
-2215.1044
 20
-322.8897
 30
0.0
 10
-2215.1044
 20
-322.8897
 30
0.0
 10
-2214.2245
 20
-314.9726
 30
0.0
 10
-2212.9583
 20
-307.1028
 30
0.0
 10
-2211.3111
 20
-299.3092
 30
0.0
 10
-2209.8532
 20
-292.3751
 30
0.0
 10
-2208.2997
 20
-285.4612
 30
0.0
 10
-2206.6512
 20
-278.5701
 30
0.0
 10
-2205.3484
 20
-273.0864
 30
0.0
 10
-2204.0941
 20
-267.5914
 30
0.0
 10
-2202.888
 20
-262.0856
 30
0.0
 10
-2200.3041
 20
-250.8851
 30
0.0
 10
-2198.0369
 20
-239.6146
 30
0.0
 10
-2196.0885
 20
-228.2865
 30
0.0
 10
-2194.7708
 20
-220.7238
 30
0.0
 10
-2193.4937
 20
-213.1543
 30
0.0
 10
-2192.2577
 20
-205.5779
 30
0.0
 10
-2190.5647
 20
-195.0962
 30
0.0
 10
-2188.7649
 20
-184.6321
 30
0.0
 10
-2186.8585
 20
-174.1869
 30
0.0
 10
-2186.0032
 20
-168.5886
 30
0.0
 10
-2185.3497
 20
-162.9615
 30
0.0
 10
-2184.8994
 20
-157.3159
 30
0.0
 10
-2184.8994
 20
-157.3159
 30
0.0
 10
-2184.4838
 20
-152.4483
 30
0.0
 10
-2184.4838
 20
-152.4483
 30
0.0
 10
-2184.0347
 20
-146.5648
 30
0.0
 10
-2183.4491
 20
-140.6921
 30
0.0
 10
-2182.7277
 20
-134.8357
 30
0.0
 10
-2182.0338
 20
-129.1956
 30
0.0
 10
-2180.948
 20
-123.6096
 30
0.0
 10
-2179.4787
 20
-118.1202
 30
0.0
 10
-2177.9829
 20
-112.5392
 30
0.0
 10
-2175.8126
 20
-107.16
 30
0.0
 10
-2173.0165
 20
-102.1036
 30
0.0
 10
-2171.5367
 20
-99.4675
 30
0.0
 10
-2169.8556
 20
-96.9491
 30
0.0
 10
-2167.9881
 20
-94.5718
 30
0.0
 10
-2162.2974
 20
-86.0456
 30
0.0
 10
-2154.7956
 20
-78.8747
 30
0.0
 10
-2146.0225
 20
-73.5723
 30
0.0
 10
-2137.9239
 20
-68.6795
 30
0.0
 10
-2129.0367
 20
-65.2235
 30
0.0
 10
-2119.7599
 20
-63.3591
 30
0.0
 10
-2104.7329
 20
-60.2841
 30
0.0
 10
-2089.1646
 20
-61.0622
 30
0.0
 10
-2074.5182
 20
-65.6168
 30
0.0
 10
-2065.6635
 20
-68.3583
 30
0.0
 10
-2057.3573
 20
-72.6368
 30
0.0
 10
-2049.9836
 20
-78.2534
 30
0.0
 10
-2043.9713
 20
-82.8579
 30
0.0
 10
-2038.7516
 20
-88.4168
 30
0.0
 10
-2034.5336
 20
-94.7062
 30
0.0
 10
-2030.9034
 20
-100.0797
 30
0.0
 10
-2028.5571
 20
-106.2188
 30
0.0
 10
-2027.6769
 20
-112.6437
 30
0.0
 10
-2026.8143
 20
-118.9425
 30
0.0
 10
-2027.0828
 20
-125.3467
 30
0.0
 10
-2028.4686
 20
-131.5513
 30
0.0
 10
-2029.3141
 20
-135.4389
 30
0.0
 10
-2030.539
 20
-139.2351
 30
0.0
 10
-2032.1249
 20
-142.8838
 30
0.0
 10
-2034.5783
 20
-149.4226
 30
0.0
 10
-2038.566
 20
-155.2802
 30
0.0
 10
-2043.7489
 20
-159.9613
 30
0.0
 10
-2052.4203
 20
-167.8399
 30
0.0
 10
-2063.5681
 20
-172.4609
 30
0.0
 10
-2075.2702
 20
-173.033
 30
0.0
 10
-2076.6052
 20
-173.0912
 30
0.0
 10
-2077.9421
 20
-173.0919
 30
0.0
 10
-2079.2771
 20
-173.0349
 30
0.0
 10
-2084.7197
 20
-172.9991
 30
0.0
 10
-2090.1521
 20
-172.544
 30
0.0
 10
-2095.5247
 20
-171.6743
 30
0.0
 10
-2100.2839
 20
-170.9068
 30
0.0
 10
-2104.9358
 20
-169.5754
 30
0.0
 10
-2109.3803
 20
-167.7089
 30
0.0
 10
-2113.979
 20
-165.7761
 30
0.0
 10
-2118.1825
 20
-163.0097
 30
0.0
 10
-2121.7774
 20
-159.5511
 30
0.0
 10
-2122.4062
 20
-158.9375
 30
0.0
 10
-2123.0125
 20
-158.3015
 30
0.0
 10
-2123.5952
 20
-157.6442
 30
0.0
 10
-2127.0731
 20
-155.1641
 30
0.0
 10
-2129.7462
 20
-151.7143
 30
0.0
 10
-2131.2808
 20
-147.728
 30
0.0
 10
-2132.4217
 20
-144.7434
 30
0.0
 10
-2133.1471
 20
-141.6153
 30
0.0
 10
-2133.4367
 20
-138.4334
 30
0.0
 10
-2133.7662
 20
-134.8547
 30
0.0
 10
-2133.8557
 20
-131.2575
 30
0.0
 10
-2133.7042
 20
-127.6669
 30
0.0
 10
-2133.6551
 20
-126.141
 30
0.0
 10
-2133.5958
 20
-124.6156
 30
0.0
 10
-2133.526
 20
-123.0905
 30
0.0
 10
-2133.526
 20
-123.0905
 30
0.0
 10
-2133.4163
 20
-120.4781
 30
0.0
 10
-2133.4163
 20
-120.4781
 30
0.0
 10
-2133.4163
 20
-120.4781
 30
0.0
 10
-2142.9171
 20
-116.5329
 30
0.0
 10
-2142.9171
 20
-116.5329
 30
0.0
 10
-2143.94
 20
-119.7325
 30
0.0
 10
-2144.6925
 20
-123.0121
 30
0.0
 10
-2145.1663
 20
-126.3376
 30
0.0
 10
-2145.9665
 20
-131.845
 30
0.0
 10
-2146.4643
 20
-137.3916
 30
0.0
 10
-2146.6573
 20
-142.9536
 30
0.0
 10
-2146.9834
 20
-151.9391
 30
0.0
 10
-2146.9644
 20
-160.9334
 30
0.0
 10
-2146.6001
 20
-169.9177
 30
0.0
 10
-2146.0156
 20
-184.6916
 30
0.0
 10
-2144.9498
 20
-199.4421
 30
0.0
 10
-2143.404
 20
-214.1468
 30
0.0
 10
-2142.3451
 20
-224.6942
 30
0.0
 10
-2141.0039
 20
-235.211
 30
0.0
 10
-2139.3814
 20
-245.6868
 30
0.0
 10
-2139.3814
 20
-245.6868
 30
0.0
 10
-2139.0664
 20
-247.5951
 30
0.0
 10
-2139.0664
 20
-247.5951
 30
0.0
 10
-2138.0632
 20
-255.1409
 30
0.0
 10
-2136.4403
 20
-262.5898
 30
0.0
 10
-2134.2136
 20
-269.869
 30
0.0
 10
-2130.9955
 20
-280.3343
 30
0.0
 10
-2126.1157
 20
-290.2107
 30
0.0
 10
-2119.7575
 20
-299.1243
 30
0.0
 10
-2116.8323
 20
-303.2065
 30
0.0
 10
-2113.7663
 20
-307.1852
 30
0.0
 10
-2110.5643
 20
-311.054
 30
0.0
 10
-2110.5643
 20
-311.054
 30
0.0
 10
-2109.9723
 20
-311.7837
 30
0.0
 10
-2109.9723
 20
-311.7837
 30
0.0
 10
-2107.0319
 20
-315.3303
 30
0.0
 10
-2104.1997
 20
-318.9658
 30
0.0
 10
-2101.4801
 20
-322.6846
 30
0.0
 10
-2098.2382
 20
-327.1262
 30
0.0
 10
-2095.4538
 20
-331.8854
 30
0.0
 10
-2093.1702
 20
-336.8874
 30
0.0
 10
-2090.5141
 20
-342.8634
 30
0.0
 10
-2088.636
 20
-349.157
 30
0.0
 10
-2087.5823
 20
-355.6113
 30
0.0
 10
-2086.5478
 20
-361.9332
 30
0.0
 10
-2086.0422
 20
-368.3313
 30
0.0
 10
-2086.0709
 20
-374.7372
 30
0.0
 10
-2086.1685
 20
-403.7983
 30
0.0
 10
-2090.6112
 20
-417.3739
 30
0.0
 10
-2104.0587
 20
-443.4251
 30
0.0
 10
-2109.1541
 20
-453.3002
 30
0.0
 10
-2114.9582
 20
-462.7949
 30
0.0
 10
-2121.4244
 20
-471.8319
 30
0.0
 10
-2128.8408
 20
-482.1918
 30
0.0
 10
-2137.3644
 20
-491.7157
 30
0.0
 10
-2146.8405
 20
-500.2321
 30
0.0
 10
-2156.9253
 20
-509.2117
 30
0.0
 10
-2168.0251
 20
-516.9863
 30
0.0
 10
-2179.9105
 20
-523.3955
 30
0.0
 10
-2189.958
 20
-528.8097
 30
0.0
 10
-2200.4079
 20
-533.445
 30
0.0
 10
-2211.1651
 20
-537.2589
 30
0.0
 10
-2222.5116
 20
-541.2841
 30
0.0
 10
-2234.0788
 20
-544.662
 30
0.0
 10
-2245.8084
 20
-547.3755
 30
0.0
 10
-2259.3537
 20
-550.5139
 30
0.0
 10
-2273.0296
 20
-553.0657
 30
0.0
 10
-2286.7952
 20
-555.0236
 30
0.0
 10
-2303.4174
 20
-557.3936
 30
0.0
 10
-2320.1127
 20
-559.2278
 30
0.0
 10
-2336.8531
 20
-560.5232
 30
0.0
 10
-2354.2036
 20
-561.8791
 30
0.0
 10
-2371.5804
 20
-562.8808
 30
0.0
 10
-2388.9717
 20
-563.5279
 30
0.0
  0
SPLINE
  5
6F
330
1F
100
AcDbEntity
  8
CAPA_1
100
AcDbSpline
210
0.0
220
0.0
230
1.0
 70
    11
 71
     3
 72
   119
 73
   115
 74
     0
 42
0.000000001
 43
0.0000000001
 12
1.0
 22
0.0
 32
0.0
 13
1.0
 23
0.0
 33
0.0
 40
0.0
 40
0.0
 40
0.0
 40
0.0
 40
0.0263157894736842
 40
0.0263157894736842
 40
0.0263157894736842
 40
0.0526315789473684
 40
0.0526315789473684
 40
0.0526315789473684
 40
0.0789473684210526
 40
0.0789473684210526
 40
0.0789473684210526
 40
0.1052631578947368
 40
0.1052631578947368
 40
0.1052631578947368
 40
0.131578947368421
 40
0.131578947368421
 40
0.131578947368421
 40
0.1578947368421053
 40
0.1578947368421053
 40
0.1578947368421053
 40
0.1842105263157895
 40
0.1842105263157895
 40
0.1842105263157895
 40
0.2105263157894737
 40
0.2105263157894737
 40
0.2105263157894737
 40
0.2368421052631579
 40
0.2368421052631579
 40
0.2368421052631579
 40
0.2631578947368421
 40
0.2631578947368421
 40
0.2631578947368421
 40
0.2894736842105263
 40
0.2894736842105263
 40
0.2894736842105263
 40
0.3157894736842105
 40
0.3157894736842105
 40
0.3157894736842105
 40
0.3421052631578947
 40
0.3421052631578947
 40
0.3421052631578947
 40
0.3684210526315789
 40
0.3684210526315789
 40
0.3684210526315789
 40
0.3947368421052632
 40
0.3947368421052632
 40
0.3947368421052632
 40
0.4210526315789473
 40
0.4210526315789473
 40
0.4210526315789473
 40
0.4473684210526315
 40
0.4473684210526315
 40
0.4473684210526315
 40
0.4736842105263158
 40
0.4736842105263158
 40
0.4736842105263158
 40
0.4999999999999999
 40
0.4999999999999999
 40
0.4999999999999999
 40
0.5263157894736843
 40
0.5263157894736843
 40
0.5263157894736843
 40
0.5526315789473686
 40
0.5526315789473686
 40
0.5526315789473686
 40
0.5789473684210528
 40
0.5789473684210528
 40
0.5789473684210528
 40
0.6052631578947368
 40
0.6052631578947368
 40
0.6052631578947368
 40
0.631578947368421
 40
0.631578947368421
 40
0.631578947368421
 40
0.6578947368421053
 40
0.6578947368421053
 40
0.6578947368421053
 40
0.6842105263157896
 40
0.6842105263157896
 40
0.6842105263157896
 40
0.7105263157894738
 40
0.7105263157894738
 40
0.7105263157894738
 40
0.736842105263158
 40
0.736842105263158
 40
0.736842105263158
 40
0.7631578947368421
 40
0.7631578947368421
 40
0.7631578947368421
 40
0.7894736842105263
 40
0.7894736842105263
 40
0.7894736842105263
 40
0.8157894736842106
 40
0.8157894736842106
 40
0.8157894736842106
 40
0.8421052631578948
 40
0.8421052631578948
 40
0.8421052631578948
 40
0.868421052631579
 40
0.868421052631579
 40
0.868421052631579
 40
0.8947368421052632
 40
0.8947368421052632
 40
0.8947368421052632
 40
0.9210526315789475
 40
0.9210526315789475
 40
0.9210526315789475
 40
0.9473684210526316
 40
0.9473684210526316
 40
0.9473684210526316
 40
0.9736842105263159
 40
0.9736842105263159
 40
0.9736842105263159
 40
1.0
 40
1.0
 40
1.0
 40
1.0
 10
-2070.7894
 20
-138.9338
 30
0.0
 10
-2073.0433
 20
-139.4394
 30
0.0
 10
-2075.2517
 20
-140.129
 30
0.0
 10
-2077.393
 20
-140.9957
 30
0.0
 10
-2077.393
 20
-140.9957
 30
0.0
 10
-2079.0561
 20
-141.6402
 30
0.0
 10
-2079.0561
 20
-141.6402
 30
0.0
 10
-2081.2777
 20
-142.555
 30
0.0
 10
-2083.5487
 20
-143.3462
 30
0.0
 10
-2085.8577
 20
-144.0099
 30
0.0
 10
-2088.0103
 20
-144.6302
 30
0.0
 10
-2090.2537
 20
-144.8773
 30
0.0
 10
-2092.4896
 20
-144.7406
 30
0.0
 10
-2094.0957
 20
-144.6138
 30
0.0
 10
-2095.6693
 20
-144.2169
 30
0.0
 10
-2097.1437
 20
-143.5672
 30
0.0
 10
-2099.596
 20
-143.0182
 30
0.0
 10
-2101.6247
 20
-141.2991
 30
0.0
 10
-2102.5711
 20
-138.9709
 30
0.0
 10
-2103.6383
 20
-136.3694
 30
0.0
 10
-2103.6568
 20
-133.4537
 30
0.0
 10
-2102.624
 20
-130.8383
 30
0.0
 10
-2102.31
 20
-129.9827
 30
0.0
 10
-2101.7533
 20
-129.2367
 30
0.0
 10
-2101.0231
 20
-128.6916
 30
0.0
 10
-2099.8512
 20
-127.7996
 30
0.0
 10
-2098.5637
 20
-127.0701
 30
0.0
 10
-2097.1964
 20
-126.523
 30
0.0
 10
-2095.4393
 20
-125.7956
 30
0.0
 10
-2093.6556
 20
-125.1343
 30
0.0
 10
-2091.8492
 20
-124.5411
 30
0.0
 10
-2090.1011
 20
-123.9821
 30
0.0
 10
-2088.3839
 20
-123.3314
 30
0.0
 10
-2086.7045
 20
-122.5913
 30
0.0
 10
-2085.9413
 20
-122.2696
 30
0.0
 10
-2085.2448
 20
-121.8093
 30
0.0
 10
-2084.6495
 20
-121.2337
 30
0.0
 10
-2084.2656
 20
-120.8757
 30
0.0
 10
-2084.1104
 20
-120.3359
 30
0.0
 10
-2084.2459
 20
-119.8286
 30
0.0
 10
-2084.3233
 20
-119.5846
 30
0.0
 10
-2084.4463
 20
-119.3574
 30
0.0
 10
-2084.6079
 20
-119.1588
 30
0.0
 10
-2084.1412
 20
-118.594
 30
0.0
 10
-2084.1754
 20
-117.7689
 30
0.0
 10
-2084.6884
 20
-117.2457
 30
0.0
 10
-2085.2474
 20
-116.6644
 30
0.0
 10
-2085.9444
 20
-116.2343
 30
0.0
 10
-2086.7147
 20
-115.9952
 30
0.0
 10
-2088.386
 20
-115.4466
 30
0.0
 10
-2090.1403
 20
-115.1955
 30
0.0
 10
-2091.8985
 20
-115.2532
 30
0.0
 10
-2095.4298
 20
-115.3448
 30
0.0
 10
-2098.9114
 20
-116.0982
 30
0.0
 10
-2102.1645
 20
-117.4753
 30
0.0
 10
-2105.5746
 20
-118.8957
 30
0.0
 10
-2108.7562
 20
-120.8104
 30
0.0
 10
-2111.6078
 20
-123.1588
 30
0.0
 10
-2113.128
 20
-126.114
 30
0.0
 10
-2114.0593
 20
-129.3352
 30
0.0
 10
-2114.35
 20
-132.6459
 30
0.0
 10
-2114.6942
 20
-135.8959
 30
0.0
 10
-2114.4319
 20
-139.1805
 30
0.0
 10
-2113.5757
 20
-142.3345
 30
0.0
 10
-2113.1563
 20
-143.8725
 30
0.0
 10
-2112.4918
 20
-145.3321
 30
0.0
 10
-2111.6078
 20
-146.6586
 30
0.0
 10
-2109.145
 20
-149.3555
 30
0.0
 10
-2106.1021
 20
-151.4555
 30
0.0
 10
-2102.7064
 20
-152.8005
 30
0.0
 10
-2099.841
 20
-153.9307
 30
0.0
 10
-2096.8645
 20
-154.7537
 30
0.0
 10
-2093.8256
 20
-155.2562
 30
0.0
 10
-2091.3345
 20
-155.6837
 30
0.0
 10
-2088.833
 20
-156.0481
 30
0.0
 10
-2086.3235
 20
-156.3486
 30
0.0
 10
-2086.3235
 20
-156.3486
 30
0.0
 10
-2085.858
 20
-156.4084
 30
0.0
 10
-2085.858
 20
-156.4084
 30
0.0
 10
-2083.4979
 20
-156.1319
 30
0.0
 10
-2081.1712
 20
-155.6258
 30
0.0
 10
-2078.9097
 20
-154.8971
 30
0.0
 10
-2073.0659
 20
-153.0652
 30
0.0
 10
-2067.4362
 20
-150.6136
 30
0.0
 10
-2062.1144
 20
-147.5834
 30
0.0
 10
-2060.5976
 20
-146.7388
 30
0.0
 10
-2059.1678
 20
-145.7473
 30
0.0
 10
-2057.8452
 20
-144.6226
 30
0.0
 10
-2057.3861
 20
-144.2521
 30
0.0
 10
-2057.0167
 20
-143.7832
 30
0.0
 10
-2056.7637
 20
-143.2506
 30
0.0
 10
-2056.6806
 20
-143.0711
 30
0.0
 10
-2056.6777
 20
-142.8648
 30
0.0
 10
-2056.7558
 20
-142.6832
 30
0.0
 10
-2056.8342
 20
-142.5016
 30
0.0
 10
-2056.9849
 20
-142.3623
 30
0.0
 10
-2057.1722
 20
-142.2994
 30
0.0
 10
-2057.1722
 20
-142.2994
 30
0.0
 10
-2057.3514
 20
-142.2253
 30
0.0
 10
-2057.3514
 20
-142.2253
 30
0.0
 10
-2057.1736
 20
-141.3978
 30
0.0
 10
-2057.5382
 20
-140.5492
 30
0.0
 10
-2058.2615
 20
-140.1096
 30
0.0
 10
-2059.0629
 20
-139.6146
 30
0.0
 10
-2059.9571
 20
-139.2894
 30
0.0
 10
-2060.8891
 20
-139.1539
 30
0.0
 10
-2062.7335
 20
-138.8595
 30
0.0
 10
-2064.6009
 20
-138.7377
 30
0.0
 10
-2066.4679
 20
-138.79
 30
0.0
 10
-2067.7343
 20
-138.8082
 30
0.0
 10
-2069.0003
 20
-138.8484
 30
0.0
 10
-2070.2653
 20
-138.9108
 30
0.0
 10
-2070.2653
 20
-138.9108
 30
0.0
 10
-2070.7894
 20
-138.9338
 30
0.0
 10
-2070.7894
 20
-138.9338
 30
0.0
  0
SPLINE
  5
70
330
1F
100
AcDbEntity
  8
CAPA_1
100
AcDbSpline
210
0.0
220
0.0
230
1.0
 70
    11
 71
     3
 72
    92
 73
    88
 74
     0
 42
0.000000001
 43
0.0000000001
 12
1.0
 22
0.0
 32
0.0
 13
1.0
 23
0.0
 33
0.0
 40
0.0
 40
0.0
 40
0.0
 40
0.0
 40
0.0344827586206896
 40
0.0344827586206896
 40
0.0344827586206896
 40
0.0689655172413794
 40
0.0689655172413794
 40
0.0689655172413794
 40
0.103448275862069
 40
0.103448275862069
 40
0.103448275862069
 40
0.1379310344827586
 40
0.1379310344827586
 40
0.1379310344827586
 40
0.1724137931034483
 40
0.1724137931034483
 40
0.1724137931034483
 40
0.206896551724138
 40
0.206896551724138
 40
0.206896551724138
 40
0.2413793103448276
 40
0.2413793103448276
 40
0.2413793103448276
 40
0.2758620689655173
 40
0.2758620689655173
 40
0.2758620689655173
 40
0.310344827586207
 40
0.310344827586207
 40
0.310344827586207
 40
0.3448275862068966
 40
0.3448275862068966
 40
0.3448275862068966
 40
0.3793103448275863
 40
0.3793103448275863
 40
0.3793103448275863
 40
0.4137931034482759
 40
0.4137931034482759
 40
0.4137931034482759
 40
0.4482758620689655
 40
0.4482758620689655
 40
0.4482758620689655
 40
0.4827586206896551
 40
0.4827586206896551
 40
0.4827586206896551
 40
0.5172413793103449
 40
0.5172413793103449
 40
0.5172413793103449
 40
0.5517241379310345
 40
0.5517241379310345
 40
0.5517241379310345
 40
0.5862068965517241
 40
0.5862068965517241
 40
0.5862068965517241
 40
0.6206896551724139
 40
0.6206896551724139
 40
0.6206896551724139
 40
0.6551724137931034
 40
0.6551724137931034
 40
0.6551724137931034
 40
0.6896551724137931
 40
0.6896551724137931
 40
0.6896551724137931
 40
0.7241379310344827
 40
0.7241379310344827
 40
0.7241379310344827
 40
0.7586206896551725
 40
0.7586206896551725
 40
0.7586206896551725
 40
0.7931034482758621
 40
0.7931034482758621
 40
0.7931034482758621
 40
0.8275862068965517
 40
0.8275862068965517
 40
0.8275862068965517
 40
0.8620689655172413
 40
0.8620689655172413
 40
0.8620689655172413
 40
0.8965517241379312
 40
0.8965517241379312
 40
0.8965517241379312
 40
0.9310344827586208
 40
0.9310344827586208
 40
0.9310344827586208
 40
0.9655172413793104
 40
0.9655172413793104
 40
0.9655172413793104
 40
1.0
 40
1.0
 40
1.0
 40
1.0
 10
-2114.1077
 20
-81.4092
 30
0.0
 10
-2116.8682
 20
-82.1768
 30
0.0
 10
-2119.5413
 20
-83.2282
 30
0.0
 10
-2122.085
 20
-84.5468
 30
0.0
 10
-2125.3288
 20
-86.1551
 30
0.0
 10
-2128.3777
 20
-88.1282
 30
0.0
 10
-2131.1738
 20
-90.4286
 30
0.0
 10
-2132.7042
 20
-91.6732
 30
0.0
 10
-2134.0468
 20
-93.1316
 30
0.0
 10
-2135.1608
 20
-94.7596
 30
0.0
 10
-2135.8701
 20
-95.782
 30
0.0
 10
-2136.3199
 20
-96.961
 30
0.0
 10
-2136.4721
 20
-98.1959
 30
0.0
 10
-2136.59
 20
-99.5829
 30
0.0
 10
-2136.0963
 20
-100.9509
 30
0.0
 10
-2135.1188
 20
-101.9417
 30
0.0
 10
-2134.8821
 20
-102.1983
 30
0.0
 10
-2134.6276
 20
-102.4378
 30
0.0
 10
-2134.3575
 20
-102.6588
 30
0.0
 10
-2132.918
 20
-103.6197
 30
0.0
 10
-2131.2533
 20
-104.1882
 30
0.0
 10
-2129.5266
 20
-104.3084
 30
0.0
 10
-2127.8483
 20
-104.362
 30
0.0
 10
-2126.1822
 20
-104.0171
 30
0.0
 10
-2124.6634
 20
-103.3009
 30
0.0
 10
-2122.9807
 20
-102.5104
 30
0.0
 10
-2121.37
 20
-101.5759
 30
0.0
 10
-2119.8487
 20
-100.5077
 30
0.0
 10
-2119.8487
 20
-100.5077
 30
0.0
 10
-2118.9965
 20
-99.9349
 30
0.0
 10
-2118.9965
 20
-99.9349
 30
0.0
 10
-2117.3294
 20
-98.7575
 30
0.0
 10
-2115.5865
 20
-97.6907
 30
0.0
 10
-2113.7799
 20
-96.7414
 30
0.0
 10
-2112.8709
 20
-96.2831
 30
0.0
 10
-2111.9228
 20
-95.9068
 30
0.0
 10
-2110.947
 20
-95.6172
 30
0.0
 10
-2106.1629
 20
-93.3635
 30
0.0
 10
-2100.8919
 20
-92.3321
 30
0.0
 10
-2095.6114
 20
-92.6156
 30
0.0
 10
-2089.8383
 20
-92.8603
 30
0.0
 10
-2084.2276
 20
-94.6133
 30
0.0
 10
-2079.3414
 20
-97.6974
 30
0.0
 10
-2075.7665
 20
-99.9636
 30
0.0
 10
-2072.771
 20
-103.0372
 30
0.0
 10
-2070.5969
 20
-106.6686
 30
0.0
 10
-2068.2167
 20
-111.1712
 30
0.0
 10
-2065.4895
 20
-115.4808
 30
0.0
 10
-2062.4391
 20
-119.5592
 30
0.0
 10
-2060.9812
 20
-121.5276
 30
0.0
 10
-2059.3387
 20
-123.3518
 30
0.0
 10
-2057.5335
 20
-125.0073
 30
0.0
 10
-2056.5859
 20
-125.8927
 30
0.0
 10
-2055.4925
 20
-126.6072
 30
0.0
 10
-2054.3013
 20
-127.1197
 30
0.0
 10
-2053.5374
 20
-127.4568
 30
0.0
 10
-2052.6788
 20
-127.5102
 30
0.0
 10
-2051.8791
 20
-127.2705
 30
0.0
 10
-2051.8791
 20
-127.2705
 30
0.0
 10
-2051.5541
 20
-127.1337
 30
0.0
 10
-2051.5541
 20
-127.1337
 30
0.0
 10
-2050.3763
 20
-127.2194
 30
0.0
 10
-2049.2649
 20
-126.5828
 30
0.0
 10
-2048.7448
 20
-125.5224
 30
0.0
 10
-2048.2567
 20
-124.5247
 30
0.0
 10
-2047.9923
 20
-123.4328
 30
0.0
 10
-2047.9697
 20
-122.3223
 30
0.0
 10
-2047.9042
 20
-120.2336
 30
0.0
 10
-2048.1169
 20
-118.1459
 30
0.0
 10
-2048.6028
 20
-116.1132
 30
0.0
 10
-2049.6463
 20
-111.4705
 30
0.0
 10
-2051.4663
 20
-107.0389
 30
0.0
 10
-2053.987
 20
-103.003
 30
0.0
 10
-2055.083
 20
-101.2303
 30
0.0
 10
-2056.4282
 20
-99.6246
 30
0.0
 10
-2057.9819
 20
-98.2355
 30
0.0
 10
-2063.1705
 20
-92.5218
 30
0.0
 10
-2069.405
 20
-87.8585
 30
0.0
 10
-2076.3524
 20
-84.4967
 30
0.0
 10
-2082.0723
 20
-81.6707
 30
0.0
 10
-2088.2303
 20
-79.8413
 30
0.0
 10
-2094.5655
 20
-79.0871
 30
0.0
 10
-2099.8906
 20
-78.4488
 30
0.0
 10
-2105.2867
 20
-78.8274
 30
0.0
 10
-2110.4701
 20
-80.204
 30
0.0
 10
-2111.7028
 20
-80.5422
 30
0.0
 10
-2112.917
 20
-80.9444
 30
0.0
 10
-2114.1077
 20
-81.4092
 30
0.0
  0
SPLINE
  5
71
330
1F
100
AcDbEntity
  8
CAPA_1
100
AcDbSpline
210
0.0
220
0.0
230
1.0
 70
    11
 71
     3
 72
    56
 73
    52
 74
     0
 42
0.000000001
 43
0.0000000001
 12
1.0
 22
0.0
 32
0.0
 13
1.0
 23
0.0
 33
0.0
 40
0.0
 40
0.0
 40
0.0
 40
0.0
 40
0.0588235294117647
 40
0.0588235294117647
 40
0.0588235294117647
 40
0.1176470588235294
 40
0.1176470588235294
 40
0.1176470588235294
 40
0.1764705882352942
 40
0.1764705882352942
 40
0.1764705882352942
 40
0.2352941176470588
 40
0.2352941176470588
 40
0.2352941176470588
 40
0.2941176470588235
 40
0.2941176470588235
 40
0.2941176470588235
 40
0.3529411764705882
 40
0.3529411764705882
 40
0.3529411764705882
 40
0.4117647058823529
 40
0.4117647058823529
 40
0.4117647058823529
 40
0.4705882352941176
 40
0.4705882352941176
 40
0.4705882352941176
 40
0.5294117647058824
 40
0.5294117647058824
 40
0.5294117647058824
 40
0.588235294117647
 40
0.588235294117647
 40
0.588235294117647
 40
0.6470588235294118
 40
0.6470588235294118
 40
0.6470588235294118
 40
0.7058823529411764
 40
0.7058823529411764
 40
0.7058823529411764
 40
0.7647058823529411
 40
0.7647058823529411
 40
0.7647058823529411
 40
0.8235294117647058
 40
0.8235294117647058
 40
0.8235294117647058
 40
0.8823529411764706
 40
0.8823529411764706
 40
0.8823529411764706
 40
0.9411764705882353
 40
0.9411764705882353
 40
0.9411764705882353
 40
1.0
 40
1.0
 40
1.0
 40
1.0
 10
-3661.3587
 20
-86.2033
 30
0.0
 10
-3661.3129
 20
-86.1795
 30
0.0
 10
-3661.2885
 20
-86.1287
 30
0.0
 10
-3661.298
 20
-86.0782
 30
0.0
 10
-3661.7288
 20
-85.0019
 30
0.0
 10
-3662.1055
 20
-83.9045
 30
0.0
 10
-3662.4267
 20
-82.7905
 30
0.0
 10
-3662.4267
 20
-82.7905
 30
0.0
 10
-3663.1706
 20
-80.0665
 30
0.0
 10
-3663.1706
 20
-80.0665
 30
0.0
 10
-3663.1813
 20
-80.0086
 30
0.0
 10
-3663.2119
 20
-79.9562
 30
0.0
 10
-3663.2573
 20
-79.9187
 30
0.0
 10
-3663.2573
 20
-79.9187
 30
0.0
 10
-3663.3608
 20
-79.8536
 30
0.0
 10
-3663.3608
 20
-79.8536
 30
0.0
 10
-3666.2585
 20
-78.4752
 30
0.0
 10
-3669.1872
 20
-77.1629
 30
0.0
 10
-3672.1447
 20
-75.9176
 30
0.0
 10
-3674.7419
 20
-74.8326
 30
0.0
 10
-3677.3068
 20
-73.6711
 30
0.0
 10
-3679.8356
 20
-72.4351
 30
0.0
 10
-3679.8719
 20
-72.4229
 30
0.0
 10
-3679.9115
 20
-72.4289
 30
0.0
 10
-3679.9426
 20
-72.451
 30
0.0
 10
-3679.9426
 20
-72.451
 30
0.0
 10
-3683.147
 20
-75.3118
 30
0.0
 10
-3683.147
 20
-75.3118
 30
0.0
 10
-3683.147
 20
-75.3118
 30
0.0
 10
-3683.2652
 20
-75.4277
 30
0.0
 10
-3683.2652
 20
-75.4277
 30
0.0
 10
-3683.2873
 20
-75.4593
 30
0.0
 10
-3683.2925
 20
-75.4994
 30
0.0
 10
-3683.2797
 20
-75.5357
 30
0.0
 10
-3683.2797
 20
-75.5357
 30
0.0
 10
-3676.4574
 20
-92.7589
 30
0.0
 10
-3676.4574
 20
-92.7589
 30
0.0
 10
-3676.4363
 20
-92.8164
 30
0.0
 10
-3676.3865
 20
-92.8586
 30
0.0
 10
-3676.3262
 20
-92.87
 30
0.0
 10
-3675.2121
 20
-92.9505
 30
0.0
 10
-3674.1062
 20
-93.1212
 30
0.0
 10
-3673.0197
 20
-93.3802
 30
0.0
 10
-3672.2786
 20
-93.5689
 30
0.0
 10
-3671.5492
 20
-93.8006
 30
0.0
 10
-3670.8351
 20
-94.0743
 30
0.0
 10
-3670.8045
 20
-94.079
 30
0.0
 10
-3670.7736
 20
-94.0702
 30
0.0
 10
-3670.7499
 20
-94.0503
 30
0.0
 10
-3667.861
 20
-91.1588
 30
0.0
 10
-3664.7174
 20
-88.5324
 30
0.0
 10
-3661.3587
 20
-86.2033
 30
0.0
  0
SPLINE
  5
72
330
1F
100
AcDbEntity
  8
CAPA_1
100
AcDbSpline
210
0.0
220
0.0
230
1.0
 70
    11
 71
     3
 72
    44
 73
    40
 74
     0
 42
0.000000001
 43
0.0000000001
 12
1.0
 22
0.0
 32
0.0
 13
1.0
 23
0.0
 33
0.0
 40
0.0
 40
0.0
 40
0.0
 40
0.0
 40
0.0769230769230769
 40
0.0769230769230769
 40
0.0769230769230769
 40
0.1538461538461538
 40
0.1538461538461538
 40
0.1538461538461538
 40
0.2307692307692308
 40
0.2307692307692308
 40
0.2307692307692308
 40
0.3076923076923077
 40
0.3076923076923077
 40
0.3076923076923077
 40
0.3846153846153846
 40
0.3846153846153846
 40
0.3846153846153846
 40
0.4615384615384615
 40
0.4615384615384615
 40
0.4615384615384615
 40
0.5384615384615385
 40
0.5384615384615385
 40
0.5384615384615385
 40
0.6153846153846154
 40
0.6153846153846154
 40
0.6153846153846154
 40
0.6923076923076923
 40
0.6923076923076923
 40
0.6923076923076923
 40
0.7692307692307692
 40
0.7692307692307692
 40
0.7692307692307692
 40
0.846153846153846
 40
0.846153846153846
 40
0.846153846153846
 40
0.9230769230769231
 40
0.9230769230769231
 40
0.9230769230769231
 40
1.0
 40
1.0
 40
1.0
 40
1.0
 10
-3668.9494
 20
-192.5009
 30
0.0
 10
-3668.9494
 20
-192.5009
 30
0.0
 10
-3668.8822
 20
-192.5201
 30
0.0
 10
-3668.8822
 20
-192.5201
 30
0.0
 10
-3668.6724
 20
-192.5045
 30
0.0
 10
-3668.464
 20
-192.4722
 30
0.0
 10
-3668.2593
 20
-192.4233
 30
0.0
 10
-3666.6404
 20
-192.1553
 30
0.0
 10
-3665.0732
 20
-191.639
 30
0.0
 10
-3663.6119
 20
-190.8924
 30
0.0
 10
-3661.5353
 20
-189.8715
 30
0.0
 10
-3659.8084
 20
-188.2587
 30
0.0
 10
-3658.6486
 20
-186.2562
 30
0.0
 10
-3657.3872
 20
-183.9218
 30
0.0
 10
-3657.1728
 20
-181.1647
 30
0.0
 10
-3658.0599
 20
-178.6639
 30
0.0
 10
-3658.767
 20
-176.7117
 30
0.0
 10
-3659.8732
 20
-174.929
 30
0.0
 10
-3661.3091
 20
-173.429
 30
0.0
 10
-3661.6412
 20
-173.0641
 30
0.0
 10
-3661.9911
 20
-172.7156
 30
0.0
 10
-3662.3574
 20
-172.385
 30
0.0
 10
-3662.3797
 20
-172.3705
 30
0.0
 10
-3662.4058
 20
-172.3634
 30
0.0
 10
-3662.4324
 20
-172.3643
 30
0.0
 10
-3663.0339
 20
-172.3995
 30
0.0
 10
-3663.6331
 20
-172.4678
 30
0.0
 10
-3664.2272
 20
-172.5689
 30
0.0
 10
-3666.3622
 20
-172.8915
 30
0.0
 10
-3668.392
 20
-173.7065
 30
0.0
 10
-3670.1569
 20
-174.9503
 30
0.0
 10
-3672.2511
 20
-176.4292
 30
0.0
 10
-3673.6395
 20
-178.7061
 30
0.0
 10
-3673.9939
 20
-181.2451
 30
0.0
 10
-3674.2012
 20
-183.1335
 30
0.0
 10
-3673.9025
 20
-185.042
 30
0.0
 10
-3673.128
 20
-186.7765
 30
0.0
 10
-3672.1428
 20
-188.9516
 30
0.0
 10
-3670.7209
 20
-190.8998
 30
0.0
 10
-3668.9494
 20
-192.5009
 30
0.0
  0
SPLINE
  5
73
330
1F
100
AcDbEntity
  8
CAPA_1
100
AcDbSpline
210
0.0
220
0.0
230
1.0
 70
    11
 71
     3
 72
    17
 73
    13
 74
     0
 42
0.000000001
 43
0.0000000001
 12
1.0
 22
0.0
 32
0.0
 13
1.0
 23
0.0
 33
0.0
 40
0.0
 40
0.0
 40
0.0
 40
0.0
 40
0.2
 40
0.2
 40
0.2
 40
0.4
 40
0.4
 40
0.4
 40
0.6
 40
0.6
 40
0.6
 40
1.0
 40
1.0
 40
1.0
 40
1.0
 10
-3723.1709
 20
596.0834
 30
0.0
 10
-3723.1709
 20
596.0834
 30
0.0
 10
-1323.1709
 20
596.0834
 30
0.0
 10
-1323.1709
 20
596.0834
 30
0.0
 10
-1323.1709
 20
596.0834
 30
0.0
 10
-1323.1709
 20
-603.9166
 30
0.0
 10
-1323.1709
 20
-603.9166
 30
0.0
 10
-1323.1709
 20
-603.9166
 30
0.0
 10
-3723.1709
 20
-603.9166
 30
0.0
 10
-3723.1709
 20
-603.9166
 30
0.0
 10
-3723.1709
 20
-603.9166
 30
0.0
 10
-3723.1709
 20
596.0834
 30
0.0
 10
-3723.1709
 20
596.0834
 30
0.0
  0
ENDSEC
  0
SECTION
  2
OBJECTS
  0
DICTIONARY
  5
C
330
0
100
AcDbDictionary
281
     1
  3
ACAD_GROUP
350
D
  3
ACAD_LAYOUT
350
1A
  3
ACAD_MATERIAL
350
3B
  3
ACAD_MLEADERSTYLE
350
9E
  3
ACAD_MLINESTYLE
350
17
  3
ACAD_PLOTSETTINGS
350
19
  3
ACAD_PLOTSTYLENAME
350
E
  3
ACAD_SCALELIST
350
3F
  3
ACAD_TABLESTYLE
350
9D
  3
ACAD_VISUALSTYLE
350
2A
  3
AcDbVariableDictionary
350
74
  0
DICTIONARY
  5
D
102
{ACAD_REACTORS
330
C
102
}
330
C
100
AcDbDictionary
281
     1
  0
DICTIONARY
  5
1A
102
{ACAD_REACTORS
330
C
102
}
330
C
100
AcDbDictionary
281
     1
  3
Layout1
350
1E
  3
Layout2
350
26
  3
Model
350
22
  0
DICTIONARY
  5
3B
102
{ACAD_REACTORS
330
C
102
}
330
C
100
AcDbDictionary
281
     1
  3
ByBlock
350
3D
  3
ByLayer
350
3C
  3
Global
350
3E
  0
DICTIONARY
  5
9E
102
{ACAD_REACTORS
330
C
102
}
330
C
100
AcDbDictionary
281
     1
  0
DICTIONARY
  5
17
102
{ACAD_REACTORS
330
C
102
}
330
C
100
AcDbDictionary
281
     1
  3
Standard
350
18
  0
DICTIONARY
  5
19
102
{ACAD_REACTORS
330
C
102
}
330
C
100
AcDbDictionary
281
     1
  0
ACDBDICTIONARYWDFLT
  5
E
102
{ACAD_REACTORS
330
C
102
}
330
C
100
AcDbDictionary
281
     1
  3
Normal
350
F
100
AcDbDictionaryWithDefault
340
F
  0
DICTIONARY
  5
3F
102
{ACAD_REACTORS
330
C
102
}
330
C
100
AcDbDictionary
281
     1
  3
A0
350
40
  3
A1
350
41
  3
A2
350
42
  3
A3
350
43
  3
A4
350
44
  3
A5
350
45
  3
A6
350
46
  3
A7
350
47
  3
A8
350
48
  3
A9
350
49
  3
B0
350
4A
  3
B1
350
4B
  3
B2
350
4C
  3
B3
350
4D
  3
B4
350
4E
  3
B5
350
4F
  3
B6
350
50
  3
B7
350
51
  3
B8
350
52
  3
B9
350
53
  3
C0
350
54
  3
C1
350
55
  3
C2
350
56
  3
C3
350
57
  3
C4
350
58
  3
C5
350
59
  3
C6
350
5A
  3
C7
350
5B
  3
C8
350
5C
  3
C9
350
5D
  3
D0
350
5E
  3
D1
350
5F
  3
D2
350
60
  0
DICTIONARY
  5
9D
102
{ACAD_REACTORS
330
C
102
}
330
C
100
AcDbDictionary
281
     1
  0
DICTIONARY
  5
2A
102
{ACAD_REACTORS
330
C
102
}
330
C
100
AcDbDictionary
281
     1
  3
2dWireframe
350
2F
  3
3D Hidden
350
31
  3
3dWireframe
350
30
  3
Basic
350
32
  3
Brighten
350
36
  3
ColorChange
350
3A
  3
Conceptual
350
34
  3
Dim
350
35
  3
Facepattern
350
39
  3
Flat
350
2B
  3
FlatWithEdges
350
2C
  3
Gouraud
350
2D
  3
GouraudWithEdges
350
2E
  3
Linepattern
350
38
  3
Realistic
350
33
  3
Thicken
350
37
  0
DICTIONARY
  5
74
102
{ACAD_REACTORS
330
C
102
}
330
C
100
AcDbDictionary
281
     1
  3
CANNOSCALE
350
75
  3
MSLTSCALE
350
76
  0
LAYOUT
  5
1E
102
{ACAD_REACTORS
330
1A
102
}
330
1A
100
AcDbPlotSettings
  1

  2
none_device
  4

  6

 40
0.0
 41
0.0
 42
0.0
 43
0.0
 44
0.0
 45
0.0
 46
0.0
 47
0.0
 48
0.0
 49
0.0
140
0.0
141
0.0
142
1.0
143
1.0
 70
   688
 72
     0
 73
     0
 74
     5
  7

 75
    16
 76
     0
 77
     2
 78
   300
147
1.0
148
0.0
149
0.0
100
AcDbLayout
  1
Layout1
 70
     1
 71
     1
 10
0.0
 20
0.0
 11
12.0
 21
9.0
 12
0.0
 22
0.0
 32
0.0
 14
1.000000000000000E+20
 24
1.000000000000000E+20
 34
1.000000000000000E+20
 15
-1.000000000000000E+20
 25
-1.000000000000000E+20
 35
-1.000000000000000E+20
146
0.0
 13
0.0
 23
0.0
 33
0.0
 16
1.0
 26
0.0
 36
0.0
 17
0.0
 27
1.0
 37
0.0
 76
     0
330
1B
  0
LAYOUT
  5
26
102
{ACAD_REACTORS
330
1A
102
}
330
1A
100
AcDbPlotSettings
  1

  2
none_device
  4

  6

 40
0.0
 41
0.0
 42
0.0
 43
0.0
 44
0.0
 45
0.0
 46
0.0
 47
0.0
 48
0.0
 49
0.0
140
0.0
141
0.0
142
1.0
143
1.0
 70
   688
 72
     0
 73
     0
 74
     5
  7

 75
    16
 76
     0
 77
     2
 78
   300
147
1.0
148
0.0
149
0.0
100
AcDbLayout
  1
Layout2
 70
     1
 71
     2
 10
0.0
 20
0.0
 11
0.0
 21
0.0
 12
0.0
 22
0.0
 32
0.0
 14
0.0
 24
0.0
 34
0.0
 15
0.0
 25
0.0
 35
0.0
146
0.0
 13
0.0
 23
0.0
 33
0.0
 16
1.0
 26
0.0
 36
0.0
 17
0.0
 27
1.0
 37
0.0
 76
     0
330
23
  0
LAYOUT
  5
22
102
{ACAD_REACTORS
330
1A
102
}
330
1A
100
AcDbPlotSettings
  1

  2
none_device
  4
Letter_(8.50_x_11.00_Inches)
  6

 40
6.35
 41
6.35
 42
6.35000508
 43
6.35000508
 44
215.9
 45
279.4
 46
0.0
 47
0.0
 48
0.0
 49
0.0
140
0.0
141
0.0
142
1.0
143
1.0
 70
  1712
 72
     0
 73
     0
 74
     0
  7

 75
     0
 76
     0
 77
     2
 78
   300
147
1.0
148
0.0
149
0.0
100
AcDbLayout
  1
Model
 70
     1
 71
     0
 10
0.0
 20
0.0
 11
12.0
 21
9.0
 12
0.0
 22
0.0
 32
0.0
 14
-3723.170900000001
 24
-603.9166000000001
 34
0.0
 15
-1323.1709
 25
596.0834000000002
 35
0.0
146
0.0
 13
0.0
 23
0.0
 33
0.0
 16
1.0
 26
0.0
 36
0.0
 17
0.0
 27
1.0
 37
0.0
 76
     0
330
1F
331
29
  0
MATERIAL
  5
3D
102
{ACAD_REACTORS
330
3B
102
}
102
{ACAD_XDICTIONARY
360
99
102
}
330
3B
100
AcDbMaterial
  1
ByBlock
  0
MATERIAL
  5
3C
102
{ACAD_REACTORS
330
3B
102
}
102
{ACAD_XDICTIONARY
360
97
102
}
330
3B
100
AcDbMaterial
  1
ByLayer
  0
MATERIAL
  5
3E
102
{ACAD_REACTORS
330
3B
102
}
102
{ACAD_XDICTIONARY
360
9B
102
}
330
3B
100
AcDbMaterial
  1
Global
  0
MLINESTYLE
  5
18
102
{ACAD_REACTORS
330
17
102
}
330
17
100
AcDbMlineStyle
  2
Standard
 70
     0
  3

 62
   256
 51
90.0
 52
90.0
 71
     2
 49
0.5
 62
   256
  6
BYLAYER
 49
-0.5
 62
   256
  6
BYLAYER
  0
ACDBPLACEHOLDER
  5
F
102
{ACAD_REACTORS
330
E
102
}
330
E
  0
SCALE
  5
40
102
{ACAD_REACTORS
330
3F
102
}
330
3F
100
AcDbScale
 70
     0
300
1:1
140
1.0
141
1.0
290
     1
  0
SCALE
  5
41
102
{ACAD_REACTORS
330
3F
102
}
330
3F
100
AcDbScale
 70
     0
300
1:2
140
1.0
141
2.0
290
     0
  0
SCALE
  5
42
102
{ACAD_REACTORS
330
3F
102
}
330
3F
100
AcDbScale
 70
     0
300
1:4
140
1.0
141
4.0
290
     0
  0
SCALE
  5
43
102
{ACAD_REACTORS
330
3F
102
}
330
3F
100
AcDbScale
 70
     0
300
1:5
140
1.0
141
5.0
290
     0
  0
SCALE
  5
44
102
{ACAD_REACTORS
330
3F
102
}
330
3F
100
AcDbScale
 70
     0
300
1:8
140
1.0
141
8.0
290
     0
  0
SCALE
  5
45
102
{ACAD_REACTORS
330
3F
102
}
330
3F
100
AcDbScale
 70
     0
300
1:10
140
1.0
141
10.0
290
     0
  0
SCALE
  5
46
102
{ACAD_REACTORS
330
3F
102
}
330
3F
100
AcDbScale
 70
     0
300
1:16
140
1.0
141
16.0
290
     0
  0
SCALE
  5
47
102
{ACAD_REACTORS
330
3F
102
}
330
3F
100
AcDbScale
 70
     0
300
1:20
140
1.0
141
20.0
290
     0
  0
SCALE
  5
48
102
{ACAD_REACTORS
330
3F
102
}
330
3F
100
AcDbScale
 70
     0
300
1:30
140
1.0
141
30.0
290
     0
  0
SCALE
  5
49
102
{ACAD_REACTORS
330
3F
102
}
330
3F
100
AcDbScale
 70
     0
300
1:40
140
1.0
141
40.0
290
     0
  0
SCALE
  5
4A
102
{ACAD_REACTORS
330
3F
102
}
330
3F
100
AcDbScale
 70
     0
300
1:50
140
1.0
141
50.0
290
     0
  0
SCALE
  5
4B
102
{ACAD_REACTORS
330
3F
102
}
330
3F
100
AcDbScale
 70
     0
300
1:100
140
1.0
141
100.0
290
     0
  0
SCALE
  5
4C
102
{ACAD_REACTORS
330
3F
102
}
330
3F
100
AcDbScale
 70
     0
300
2:1
140
2.0
141
1.0
290
     0
  0
SCALE
  5
4D
102
{ACAD_REACTORS
330
3F
102
}
330
3F
100
AcDbScale
 70
     0
300
4:1
140
4.0
141
1.0
290
     0
  0
SCALE
  5
4E
102
{ACAD_REACTORS
330
3F
102
}
330
3F
100
AcDbScale
 70
     0
300
8:1
140
8.0
141
1.0
290
     0
  0
SCALE
  5
4F
102
{ACAD_REACTORS
330
3F
102
}
330
3F
100
AcDbScale
 70
     0
300
10:1
140
10.0
141
1.0
290
     0
  0
SCALE
  5
50
102
{ACAD_REACTORS
330
3F
102
}
330
3F
100
AcDbScale
 70
     0
300
100:1
140
100.0
141
1.0
290
     0
  0
SCALE
  5
51
102
{ACAD_REACTORS
330
3F
102
}
330
3F
100
AcDbScale
 70
     0
300
1/128" = 1'-0"
140
0.0078125
141
12.0
290
     0
  0
SCALE
  5
52
102
{ACAD_REACTORS
330
3F
102
}
330
3F
100
AcDbScale
 70
     0
300
1/64" = 1'-0"
140
0.015625
141
12.0
290
     0
  0
SCALE
  5
53
102
{ACAD_REACTORS
330
3F
102
}
330
3F
100
AcDbScale
 70
     0
300
1/32" = 1'-0"
140
0.03125
141
12.0
290
     0
  0
SCALE
  5
54
102
{ACAD_REACTORS
330
3F
102
}
330
3F
100
AcDbScale
 70
     0
300
1/16" = 1'-0"
140
0.0625
141
12.0
290
     0
  0
SCALE
  5
55
102
{ACAD_REACTORS
330
3F
102
}
330
3F
100
AcDbScale
 70
     0
300
3/32" = 1'-0"
140
0.09375
141
12.0
290
     0
  0
SCALE
  5
56
102
{ACAD_REACTORS
330
3F
102
}
330
3F
100
AcDbScale
 70
     0
300
1/8" = 1'-0"
140
0.125
141
12.0
290
     0
  0
SCALE
  5
57
102
{ACAD_REACTORS
330
3F
102
}
330
3F
100
AcDbScale
 70
     0
300
3/16" = 1'-0"
140
0.1875
141
12.0
290
     0
  0
SCALE
  5
58
102
{ACAD_REACTORS
330
3F
102
}
330
3F
100
AcDbScale
 70
     0
300
1/4" = 1'-0"
140
0.25
141
12.0
290
     0
  0
SCALE
  5
59
102
{ACAD_REACTORS
330
3F
102
}
330
3F
100
AcDbScale
 70
     0
300
3/8" = 1'-0"
140
0.375
141
12.0
290
     0
  0
SCALE
  5
5A
102
{ACAD_REACTORS
330
3F
102
}
330
3F
100
AcDbScale
 70
     0
300
1/2" = 1'-0"
140
0.5
141
12.0
290
     0
  0
SCALE
  5
5B
102
{ACAD_REACTORS
330
3F
102
}
330
3F
100
AcDbScale
 70
     0
300
3/4" = 1'-0"
140
0.75
141
12.0
290
     0
  0
SCALE
  5
5C
102
{ACAD_REACTORS
330
3F
102
}
330
3F
100
AcDbScale
 70
     0
300
1" = 1'-0"
140
1.0
141
12.0
290
     0
  0
SCALE
  5
5D
102
{ACAD_REACTORS
330
3F
102
}
330
3F
100
AcDbScale
 70
     0
300
1-1/2" = 1'-0"
140
1.5
141
12.0
290
     0
  0
SCALE
  5
5E
102
{ACAD_REACTORS
330
3F
102
}
330
3F
100
AcDbScale
 70
     0
300
3" = 1'-0"
140
3.0
141
12.0
290
     0
  0
SCALE
  5
5F
102
{ACAD_REACTORS
330
3F
102
}
330
3F
100
AcDbScale
 70
     0
300
6" = 1'-0"
140
6.0
141
12.0
290
     0
  0
SCALE
  5
60
102
{ACAD_REACTORS
330
3F
102
}
330
3F
100
AcDbScale
 70
     0
300
1'-0" = 1'-0"
140
12.0
141
12.0
290
     0
  0
VISUALSTYLE
  5
2F
102
{ACAD_REACTORS
330
2A
102
}
102
{ACAD_XDICTIONARY
360
7F
102
}
330
2A
100
AcDbVisualStyle
  2
2dWireframe
 70
     4
 71
     0
 72
     2
 73
     0
 90
        0
 40
0.6
 41
30.0
 62
     5
 63
     7
421
 16777215
 74
     1
 91
        4
 64
     7
 65
   257
 75
     1
175
     1
 42
1.0
 92
        0
 66
   257
 43
1.0
 76
     1
 77
     6
 78
     2
 67
     7
 79
     5
170
     0
171
     0
290
     0
174
     0
 93
        1
 44
0.0
173
     0
291
     0
 45
0.0
1001
ACAD
1000
AcDbSavedByObjectVersion
1070
     0
  0
VISUALSTYLE
  5
31
102
{ACAD_REACTORS
330
2A
102
}
102
{ACAD_XDICTIONARY
360
83
102
}
330
2A
100
AcDbVisualStyle
  2
3D Hidden
 70
     6
 71
     1
 72
     2
 73
     2
 90
        0
 40
0.6
 41
30.0
 62
     5
 63
     7
421
 16777215
 74
     2
 91
        2
 64
     7
 65
   257
 75
     2
175
     1
 42
40.0
 92
        0
 66
   257
 43
1.0
 76
     1
 77
     6
 78
     2
 67
     7
 79
     3
170
     0
171
     0
290
     0
174
     0
 93
        1
 44
0.0
173
     0
291
     0
 45
0.0
1001
ACAD
1000
AcDbSavedByObjectVersion
1070
     0
  0
VISUALSTYLE
  5
30
102
{ACAD_REACTORS
330
2A
102
}
102
{ACAD_XDICTIONARY
360
81
102
}
330
2A
100
AcDbVisualStyle
  2
3dWireframe
 70
     5
 71
     0
 72
     2
 73
     0
 90
        0
 40
0.6
 41
30.0
 62
     5
 63
     7
421
 16777215
 74
     1
 91
        4
 64
     7
 65
   257
 75
     1
175
     1
 42
1.0
 92
        0
 66
   257
 43
1.0
 76
     1
 77
     6
 78
     2
 67
     7
 79
     5
170
     0
171
     0
290
     0
174
     0
 93
        1
 44
0.0
173
     0
291
     0
 45
0.0
1001
ACAD
1000
AcDbSavedByObjectVersion
1070
     0
  0
VISUALSTYLE
  5
32
102
{ACAD_REACTORS
330
2A
102
}
102
{ACAD_XDICTIONARY
360
85
102
}
330
2A
100
AcDbVisualStyle
  2
Basic
 70
     7
 71
     1
 72
     0
 73
     1
 90
        0
 40
0.6
 41
30.0
 62
     5
 63
     7
421
 16777215
 74
     0
 91
        4
 64
     7
 65
   257
 75
     1
175
     1
 42
1.0
 92
        8
 66
     7
 43
1.0
 76
     1
 77
     6
 78
     2
 67
     7
 79
     5
170
     0
171
     0
290
     0
174
     0
 93
        1
 44
0.0
173
     0
291
     1
 45
0.0
1001
ACAD
1000
AcDbSavedByObjectVersion
1070
     0
  0
VISUALSTYLE
  5
36
102
{ACAD_REACTORS
330
2A
102
}
102
{ACAD_XDICTIONARY
360
8D
102
}
330
2A
100
AcDbVisualStyle
  2
Brighten
 70
    12
 71
     2
 72
     2
 73
     0
 90
        0
 40
0.6
 41
30.0
 62
     5
 63
     7
421
 16777215
 74
     1
 91
        4
 64
     7
 65
   257
 75
     1
175
     1
 42
1.0
 92
        8
 66
     7
 43
1.0
 76
     1
 77
     6
 78
     2
 67
     7
 79
     5
170
     0
171
     0
290
     0
174
     0
 93
        1
 44
50.0
173
     0
291
     1
 45
0.0
1001
ACAD
1000
AcDbSavedByObjectVersion
1070
     0
  0
VISUALSTYLE
  5
3A
102
{ACAD_REACTORS
330
2A
102
}
102
{ACAD_XDICTIONARY
360
95
102
}
330
2A
100
AcDbVisualStyle
  2
ColorChange
 70
    16
 71
     2
 72
     2
 73
     3
 90
        0
 40
0.6
 41
30.0
 62
     5
 63
     8
421
  8421504
 74
     1
 91
        4
 64
     7
 65
   257
 75
     1
175
     1
 42
1.0
 92
        8
 66
     8
424
  8421504
 43
1.0
 76
     1
 77
     6
 78
     2
 67
     7
 79
     5
170
     0
171
     0
290
     0
174
     0
 93
        1
 44
0.0
173
     0
291
     1
 45
0.0
1001
ACAD
1000
AcDbSavedByObjectVersion
1070
     0
  0
VISUALSTYLE
  5
34
102
{ACAD_REACTORS
330
2A
102
}
102
{ACAD_XDICTIONARY
360
89
102
}
330
2A
100
AcDbVisualStyle
  2
Conceptual
 70
     9
 71
     3
 72
     2
 73
     0
 90
        0
 40
0.6
 41
30.0
 62
     5
 63
     7
421
 16777215
 74
     2
 91
        2
 64
     7
 65
   257
 75
     1
175
     1
 42
40.0
 92
        8
 66
     7
 43
1.0
 76
     1
 77
     6
 78
     2
 67
     7
 79
     3
170
     0
171
     0
290
     0
174
     0
 93
        1
 44
0.0
173
     0
291
     0
 45
0.0
1001
ACAD
1000
AcDbSavedByObjectVersion
1070
     0
  0
VISUALSTYLE
  5
35
102
{ACAD_REACTORS
330
2A
102
}
102
{ACAD_XDICTIONARY
360
8B
102
}
330
2A
100
AcDbVisualStyle
  2
Dim
 70
    11
 71
     2
 72
     2
 73
     0
 90
        0
 40
0.6
 41
30.0
 62
     5
 63
     7
421
 16777215
 74
     1
 91
        4
 64
     7
 65
   257
 75
     1
175
     1
 42
1.0
 92
        8
 66
     7
 43
1.0
 76
     1
 77
     6
 78
     2
 67
     7
 79
     5
170
     0
171
     0
290
     0
174
     0
 93
        1
 44
-50.0
173
     0
291
     1
 45
0.0
1001
ACAD
1000
AcDbSavedByObjectVersion
1070
     0
  0
VISUALSTYLE
  5
39
102
{ACAD_REACTORS
330
2A
102
}
102
{ACAD_XDICTIONARY
360
93
102
}
330
2A
100
AcDbVisualStyle
  2
Facepattern
 70
    15
 71
     2
 72
     2
 73
     0
 90
        0
 40
0.6
 41
30.0
 62
     5
 63
     7
421
 16777215
 74
     1
 91
        4
 64
     7
 65
   257
 75
     1
175
     1
 42
1.0
 92
        8
 66
     7
 43
1.0
 76
     1
 77
     6
 78
     2
 67
     7
 79
     5
170
     0
171
     0
290
     0
174
     0
 93
        1
 44
0.0
173
     0
291
     1
 45
0.0
1001
ACAD
1000
AcDbSavedByObjectVersion
1070
     0
  0
VISUALSTYLE
  5
2B
102
{ACAD_REACTORS
330
2A
102
}
102
{ACAD_XDICTIONARY
360
77
102
}
330
2A
100
AcDbVisualStyle
  2
Flat
 70
     0
 71
     2
 72
     1
 73
     1
 90
        2
 40
0.6
 41
30.0
 62
     5
 63
     7
421
 16777215
 74
     0
 91
        4
 64
     7
 65
   257
 75
     1
175
     1
 42
1.0
 92
        8
 66
     7
 43
1.0
 76
     1
 77
     6
 78
     2
 67
     7
 79
     5
170
     0
171
     0
290
     0
174
     0
 93
       13
 44
0.0
173
     0
291
     1
 45
0.0
1001
ACAD
1000
AcDbSavedByObjectVersion
1070
     0
  0
VISUALSTYLE
  5
2C
102
{ACAD_REACTORS
330
2A
102
}
102
{ACAD_XDICTIONARY
360
79
102
}
330
2A
100
AcDbVisualStyle
  2
FlatWithEdges
 70
     1
 71
     2
 72
     1
 73
     1
 90
        2
 40
0.6
 41
30.0
 62
     5
 63
     7
421
 16777215
 74
     1
 91
        4
 64
     7
 65
   257
 75
     1
175
     1
 42
1.0
 92
        0
 66
   257
 43
1.0
 76
     1
 77
     6
 78
     2
 67
     7
 79
     5
170
     0
171
     0
290
     0
174
     0
 93
       13
 44
0.0
173
     0
291
     1
 45
0.0
1001
ACAD
1000
AcDbSavedByObjectVersion
1070
     0
  0
VISUALSTYLE
  5
2D
102
{ACAD_REACTORS
330
2A
102
}
102
{ACAD_XDICTIONARY
360
7B
102
}
330
2A
100
AcDbVisualStyle
  2
Gouraud
 70
     2
 71
     2
 72
     2
 73
     1
 90
        2
 40
0.6
 41
30.0
 62
     5
 63
     7
421
 16777215
 74
     0
 91
        4
 64
     7
 65
   257
 75
     1
175
     1
 42
1.0
 92
        0
 66
     7
 43
1.0
 76
     1
 77
     6
 78
     2
 67
     7
 79
     5
170
     0
171
     0
290
     0
174
     0
 93
       13
 44
0.0
173
     0
291
     1
 45
0.0
1001
ACAD
1000
AcDbSavedByObjectVersion
1070
     0
  0
VISUALSTYLE
  5
2E
102
{ACAD_REACTORS
330
2A
102
}
102
{ACAD_XDICTIONARY
360
7D
102
}
330
2A
100
AcDbVisualStyle
  2
GouraudWithEdges
 70
     3
 71
     2
 72
     2
 73
     1
 90
        2
 40
0.6
 41
30.0
 62
     5
 63
     7
421
 16777215
 74
     1
 91
        4
 64
     7
 65
   257
 75
     1
175
     1
 42
1.0
 92
        0
 66
   257
 43
1.0
 76
     1
 77
     6
 78
     2
 67
     7
 79
     5
170
     0
171
     0
290
     0
174
     0
 93
       13
 44
0.0
173
     0
291
     1
 45
0.0
1001
ACAD
1000
AcDbSavedByObjectVersion
1070
     0
  0
VISUALSTYLE
  5
38
102
{ACAD_REACTORS
330
2A
102
}
102
{ACAD_XDICTIONARY
360
91
102
}
330
2A
100
AcDbVisualStyle
  2
Linepattern
 70
    14
 71
     2
 72
     2
 73
     0
 90
        0
 40
0.6
 41
30.0
 62
     5
 63
     7
421
 16777215
 74
     1
 91
        4
 64
     7
 65
   257
 75
     7
175
     7
 42
1.0
 92
        8
 66
     7
 43
1.0
 76
     1
 77
     6
 78
     2
 67
     7
 79
     5
170
     0
171
     0
290
     0
174
     0
 93
        1
 44
0.0
173
     0
291
     1
 45
0.0
1001
ACAD
1000
AcDbSavedByObjectVersion
1070
     0
  0
VISUALSTYLE
  5
33
102
{ACAD_REACTORS
330
2A
102
}
102
{ACAD_XDICTIONARY
360
87
102
}
330
2A
100
AcDbVisualStyle
  2
Realistic
 70
     8
 71
     2
 72
     3
 73
     0
 90
        2
 40
0.6
 41
30.0
 62
     5
 63
     7
421
 16777215
 74
     0
 91
        0
 64
     7
 65
   257
 75
     1
175
     1
 42
1.0
 92
        8
 66
   257
 43
1.0
 76
     1
 77
     6
 78
     2
 67
     7
 79
     3
170
     0
171
     0
290
     0
174
     0
 93
       13
 44
0.0
173
     0
291
     0
 45
0.0
1001
ACAD
1000
AcDbSavedByObjectVersion
1070
     0
  0
VISUALSTYLE
  5
37
102
{ACAD_REACTORS
330
2A
102
}
102
{ACAD_XDICTIONARY
360
8F
102
}
330
2A
100
AcDbVisualStyle
  2
Thicken
 70
    13
 71
     2
 72
     2
 73
     0
 90
        0
 40
0.6
 41
30.0
 62
     5
 63
     7
421
 16777215
 74
     1
 91
        4
 64
     7
 65
   257
 75
     1
175
     1
 42
1.0
 92
       12
 66
     7
 43
1.0
 76
     1
 77
     6
 78
     2
 67
     7
 79
     5
170
     0
171
     0
290
     0
174
     0
 93
        1
 44
0.0
173
     0
291
     1
 45
0.0
1001
ACAD
1000
AcDbSavedByObjectVersion
1070
     0
  0
DICTIONARYVAR
  5
75
102
{ACAD_REACTORS
330
74
102
}
330
74
100
DictionaryVariables
280
     0
  1
1:1
  0
DICTIONARYVAR
  5
76
102
{ACAD_REACTORS
330
74
102
}
330
74
100
DictionaryVariables
280
     0
  1
1
  0
DICTIONARY
  5
99
330
3D
100
AcDbDictionary
280
     1
281
     1
  3
ACAD_XREC_ROUNDTRIP
360
9A
  0
DICTIONARY
  5
97
330
3C
100
AcDbDictionary
280
     1
281
     1
  3
ACAD_XREC_ROUNDTRIP
360
98
  0
DICTIONARY
  5
9B
330
3E
100
AcDbDictionary
280
     1
281
     1
  3
ACAD_XREC_ROUNDTRIP
360
9C
  0
DICTIONARY
  5
7F
330
2F
100
AcDbDictionary
280
     1
281
     1
  3
ACAD_XREC_ROUNDTRIP
360
80
  0
DICTIONARY
  5
83
330
31
100
AcDbDictionary
280
     1
281
     1
  3
ACAD_XREC_ROUNDTRIP
360
84
  0
DICTIONARY
  5
81
330
30
100
AcDbDictionary
280
     1
281
     1
  3
ACAD_XREC_ROUNDTRIP
360
82
  0
DICTIONARY
  5
85
330
32
100
AcDbDictionary
280
     1
281
     1
  3
ACAD_XREC_ROUNDTRIP
360
86
  0
DICTIONARY
  5
8D
330
36
100
AcDbDictionary
280
     1
281
     1
  3
ACAD_XREC_ROUNDTRIP
360
8E
  0
DICTIONARY
  5
95
330
3A
100
AcDbDictionary
280
     1
281
     1
  3
ACAD_XREC_ROUNDTRIP
360
96
  0
DICTIONARY
  5
89
330
34
100
AcDbDictionary
280
     1
281
     1
  3
ACAD_XREC_ROUNDTRIP
360
8A
  0
DICTIONARY
  5
8B
330
35
100
AcDbDictionary
280
     1
281
     1
  3
ACAD_XREC_ROUNDTRIP
360
8C
  0
DICTIONARY
  5
93
330
39
100
AcDbDictionary
280
     1
281
     1
  3
ACAD_XREC_ROUNDTRIP
360
94
  0
DICTIONARY
  5
77
330
2B
100
AcDbDictionary
280
     1
281
     1
  3
ACAD_XREC_ROUNDTRIP
360
78
  0
DICTIONARY
  5
79
330
2C
100
AcDbDictionary
280
     1
281
     1
  3
ACAD_XREC_ROUNDTRIP
360
7A
  0
DICTIONARY
  5
7B
330
2D
100
AcDbDictionary
280
     1
281
     1
  3
ACAD_XREC_ROUNDTRIP
360
7C
  0
DICTIONARY
  5
7D
330
2E
100
AcDbDictionary
280
     1
281
     1
  3
ACAD_XREC_ROUNDTRIP
360
7E
  0
DICTIONARY
  5
91
330
38
100
AcDbDictionary
280
     1
281
     1
  3
ACAD_XREC_ROUNDTRIP
360
92
  0
DICTIONARY
  5
87
330
33
100
AcDbDictionary
280
     1
281
     1
  3
ACAD_XREC_ROUNDTRIP
360
88
  0
DICTIONARY
  5
8F
330
37
100
AcDbDictionary
280
     1
281
     1
  3
ACAD_XREC_ROUNDTRIP
360
90
  0
XRECORD
  5
9A
102
{ACAD_REACTORS
330
99
102
}
330
99
100
AcDbXrecord
280
     1
102
MATERIAL
148
0.0
149
0.0
149
0.0
 93
        0
 94
      127
282
     0
 72
     1
 77
     1
171
     1
175
     1
179
     1
273
     0
  0
XRECORD
  5
98
102
{ACAD_REACTORS
330
97
102
}
330
97
100
AcDbXrecord
280
     1
102
MATERIAL
148
0.0
149
0.0
149
0.0
 93
        0
 94
      127
282
     0
 72
     1
 77
     1
171
     1
175
     1
179
     1
273
     0
  0
XRECORD
  5
9C
102
{ACAD_REACTORS
330
9B
102
}
330
9B
100
AcDbXrecord
280
     1
102
MATERIAL
148
0.0
149
0.0
149
0.0
 93
        0
 94
      127
282
     0
 72
     1
 77
     1
171
     1
175
     1
179
     1
273
     0
  0
XRECORD
  5
80
102
{ACAD_REACTORS
330
7F
102
}
330
7F
100
AcDbXrecord
280
     1
102
RTVSPropertyOp0
 70
     1
102
RTVSPropertyOp1
 70
     1
102
RTVSPropertyOp2
 70
     1
102
RTVSPropertyOp3
 70
     1
102
RTVSPropertyOp4
 70
     1
102
RTVSPropertyOp5
 70
     1
102
RTVSPropertyOp6
 70
     1
102
RTVSPropertyOp7
 70
     1
102
RTVSPropertyOp8
 70
     1
102
RTVSPropertyOp9
 70
     1
102
RTVSPropertyOp10
 70
     1
102
RTVSPropertyOp11
 70
     1
102
RTVSPropertyOp12
 70
     1
102
RTVSPropertyOp13
 70
     1
102
RTVSPropertyOp14
 70
     1
102
RTVSPropertyOp15
 70
     1
102
RTVSPropertyOp16
 70
     1
102
RTVSPropertyOp17
 70
     1
102
RTVSPropertyOp18
 70
     1
102
RTVSPropertyOp19
 70
     1
102
RTVSPropertyOp20
 70
     1
102
RTVSPropertyOp21
 70
     1
102
RTVSPropertyOp22
 70
     1
102
RTVSPropertyOp23
 70
     1
102
RTVSPropertyOp24
 70
     1
102
RTVSPropertyOp25
 70
     1
102
RTVSPropertyOp26
 70
     1
102
RTVSPropertyOp27
 70
     1
102
RTVSPropertyOp28
 70
     1
102
RTVSPropertyOp29
 70
     1
102
RTVSPropertyOp30
 70
     1
102
RTVSPropertyOp31
 70
     1
102
RTVSPropertyOp32
 70
     1
102
RTVSPropertyOp33
 70
     1
102
RTVSPropertyOp34
 70
     1
102
RTVSPropertyOp35
 70
     1
102
RTVSPropertyOp36
 70
     1
102
RTVSPropertyOp37
 70
     1
102
RTVSPropertyOp38
 70
     1
102
RTVSPropertyOp39
 70
     1
102
RTVSPropertyOp40
 70
     1
102
RTVSPropertyOp41
 70
     1
102
RTVSPropertyOp42
 70
     1
102
RTVSPropertyOp43
 70
     1
102
RTVSPropertyOp44
 70
     1
102
RTVSPropertyOp45
 70
     1
102
RTVSPropertyOp46
 70
     1
102
RTVSPropertyOp47
 70
     1
102
RTVSPropertyOp48
 70
     1
102
RTVSPropertyOp49
 70
     1
102
RTVSPropertyOp50
 70
     1
102
RTVSPropertyOp51
 70
     0
102
RTVSPropertyOp52
 70
     0
102
RTVSPropertyOp53
 70
     1
102
RTVSPropertyOp54
 70
     1
102
RTVSPropertyOp55
 70
     1
102
RTVSPropertyOp56
 70
     1
102
RTVSPropertyOp57
 70
     1
102
RTVSPost2010Prop28
280
     1
102
RTVSPost2010PropOp28
 70
     1
102
RTVSPost2010Prop29
280
     1
102
RTVSPost2010PropOp29
 70
     1
102
RTVSPost2010Prop30
280
     0
102
RTVSPost2010PropOp30
 70
     1
102
RTVSPost2010Prop31
280
     0
102
RTVSPost2010PropOp31
 70
     1
102
RTVSPost2010Prop32
280
     0
102
RTVSPost2010PropOp32
 70
     1
102
RTVSPost2010Prop33
280
     0
102
RTVSPost2010PropOp33
 70
     1
102
RTVSPost2010Prop34
280
     0
102
RTVSPost2010PropOp34
 70
     1
102
RTVSPost2010Prop35
280
     0
102
RTVSPost2010PropOp35
 70
     1
102
RTVSPost2010Prop36
280
     0
102
RTVSPost2010PropOp36
 70
     1
102
RTVSPost2010Prop37
 90
       50
102
RTVSPost2010PropOp37
 70
     1
102
RTVSPost2010Prop38
140
0.0
102
RTVSPost2010PropOp38
 70
     1
102
RTVSPost2010Prop39
140
1.0
102
RTVSPost2010PropOp39
 70
     1
102
RTVSPost2010Prop40
 90
        0
102
RTVSPost2010PropOp40
 70
     1
102
RTVSPost2010Prop41ColorIndex
 90
       18
102
RTVSPost2010Prop41ColorRGB
 90
        0
102
RTVSPost2010PropOp41
 70
     1
102
RTVSPost2010Prop42
 90
       50
102
RTVSPost2010PropOp42
 70
     1
102
RTVSPost2010Prop43
 90
        3
102
RTVSPost2010PropOp43
 70
     1
102
RTVSPost2010Prop44ColorIndex
 90
        5
102
RTVSPost2010Prop44ColorRGB
 90
      255
102
RTVSPost2010PropOp44
 70
     1
102
RTVSPost2010Prop45
280
     0
102
RTVSPost2010PropOp45
 70
     1
102
RTVSPost2010Prop46
 90
       50
102
RTVSPost2010PropOp46
 70
     1
102
RTVSPost2010Prop47
 90
       50
102
RTVSPost2010PropOp47
 70
     1
102
RTVSPost2010Prop48
 90
       50
102
RTVSPost2010PropOp48
 70
     1
102
RTVSPost2010Prop49
280
     0
102
RTVSPost2010PropOp49
 70
     1
102
RTVSPost2010Prop50
 90
       50
102
RTVSPost2010PropOp50
 70
     1
102
RTVSPost2010Prop51ColorIndex
 90
      256
102
RTVSPost2010Prop51ColorRGB
 90
-16777216
102
RTVSPost2010PropOp51
 70
     0
102
RTVSPost2010Prop52
140
1.0
102
RTVSPost2010PropOp52
 70
     0
102
RTVSPost2010Prop53
 90
        2
102
RTVSPost2010PropOp53
 70
     1
102
RTVSPost2010Prop54
  1
strokes_ogs.tif
102
RTVSPost2010PropOp54
 70
     1
102
RTVSPost2010Prop55
280
     0
102
RTVSPost2010PropOp55
 70
     1
102
RTVSPost2010Prop56
140
1.0
102
RTVSPost2010PropOp56
 70
     1
102
RTVSPost2010Prop57
140
1.0
102
RTVSPost2010PropOp57
 70
     1
  0
XRECORD
  5
84
102
{ACAD_REACTORS
330
83
102
}
330
83
100
AcDbXrecord
280
     1
102
RTVSPropertyOp0
 70
     1
102
RTVSPropertyOp1
 70
     1
102
RTVSPropertyOp2
 70
     1
102
RTVSPropertyOp3
 70
     1
102
RTVSPropertyOp4
 70
     1
102
RTVSPropertyOp5
 70
     1
102
RTVSPropertyOp6
 70
     1
102
RTVSPropertyOp7
 70
     1
102
RTVSPropertyOp8
 70
     1
102
RTVSPropertyOp9
 70
     1
102
RTVSPropertyOp10
 70
     1
102
RTVSPropertyOp11
 70
     1
102
RTVSPropertyOp12
 70
     1
102
RTVSPropertyOp13
 70
     1
102
RTVSPropertyOp14
 70
     1
102
RTVSPropertyOp15
 70
     1
102
RTVSPropertyOp16
 70
     1
102
RTVSPropertyOp17
 70
     1
102
RTVSPropertyOp18
 70
     1
102
RTVSPropertyOp19
 70
     1
102
RTVSPropertyOp20
 70
     1
102
RTVSPropertyOp21
 70
     1
102
RTVSPropertyOp22
 70
     1
102
RTVSPropertyOp23
 70
     1
102
RTVSPropertyOp24
 70
     1
102
RTVSPropertyOp25
 70
     1
102
RTVSPropertyOp26
 70
     1
102
RTVSPropertyOp27
 70
     1
102
RTVSPropertyOp28
 70
     1
102
RTVSPropertyOp29
 70
     1
102
RTVSPropertyOp30
 70
     1
102
RTVSPropertyOp31
 70
     1
102
RTVSPropertyOp32
 70
     1
102
RTVSPropertyOp33
 70
     1
102
RTVSPropertyOp34
 70
     1
102
RTVSPropertyOp35
 70
     1
102
RTVSPropertyOp36
 70
     1
102
RTVSPropertyOp37
 70
     1
102
RTVSPropertyOp38
 70
     1
102
RTVSPropertyOp39
 70
     1
102
RTVSPropertyOp40
 70
     1
102
RTVSPropertyOp41
 70
     1
102
RTVSPropertyOp42
 70
     1
102
RTVSPropertyOp43
 70
     1
102
RTVSPropertyOp44
 70
     1
102
RTVSPropertyOp45
 70
     1
102
RTVSPropertyOp46
 70
     1
102
RTVSPropertyOp47
 70
     1
102
RTVSPropertyOp48
 70
     1
102
RTVSPropertyOp49
 70
     1
102
RTVSPropertyOp50
 70
     1
102
RTVSPropertyOp51
 70
     0
102
RTVSPropertyOp52
 70
     0
102
RTVSPropertyOp53
 70
     1
102
RTVSPropertyOp54
 70
     1
102
RTVSPropertyOp55
 70
     1
102
RTVSPropertyOp56
 70
     1
102
RTVSPropertyOp57
 70
     1
102
RTVSPost2010Prop28
280
     0
102
RTVSPost2010PropOp28
 70
     1
102
RTVSPost2010Prop29
280
     1
102
RTVSPost2010PropOp29
 70
     1
102
RTVSPost2010Prop30
280
     1
102
RTVSPost2010PropOp30
 70
     1
102
RTVSPost2010Prop31
280
     0
102
RTVSPost2010PropOp31
 70
     1
102
RTVSPost2010Prop32
280
     0
102
RTVSPost2010PropOp32
 70
     1
102
RTVSPost2010Prop33
280
     0
102
RTVSPost2010PropOp33
 70
     1
102
RTVSPost2010Prop34
280
     0
102
RTVSPost2010PropOp34
 70
     1
102
RTVSPost2010Prop35
280
     0
102
RTVSPost2010PropOp35
 70
     1
102
RTVSPost2010Prop36
280
     0
102
RTVSPost2010PropOp36
 70
     1
102
RTVSPost2010Prop37
 90
       50
102
RTVSPost2010PropOp37
 70
     1
102
RTVSPost2010Prop38
140
0.0
102
RTVSPost2010PropOp38
 70
     1
102
RTVSPost2010Prop39
140
1.0
102
RTVSPost2010PropOp39
 70
     1
102
RTVSPost2010Prop40
 90
        0
102
RTVSPost2010PropOp40
 70
     1
102
RTVSPost2010Prop41ColorIndex
 90
       18
102
RTVSPost2010Prop41ColorRGB
 90
        0
102
RTVSPost2010PropOp41
 70
     1
102
RTVSPost2010Prop42
 90
       50
102
RTVSPost2010PropOp42
 70
     1
102
RTVSPost2010Prop43
 90
        3
102
RTVSPost2010PropOp43
 70
     1
102
RTVSPost2010Prop44ColorIndex
 90
        5
102
RTVSPost2010Prop44ColorRGB
 90
      255
102
RTVSPost2010PropOp44
 70
     1
102
RTVSPost2010Prop45
280
     0
102
RTVSPost2010PropOp45
 70
     1
102
RTVSPost2010Prop46
 90
       50
102
RTVSPost2010PropOp46
 70
     1
102
RTVSPost2010Prop47
 90
       50
102
RTVSPost2010PropOp47
 70
     1
102
RTVSPost2010Prop48
 90
       50
102
RTVSPost2010PropOp48
 70
     1
102
RTVSPost2010Prop49
280
     0
102
RTVSPost2010PropOp49
 70
     1
102
RTVSPost2010Prop50
 90
       50
102
RTVSPost2010PropOp50
 70
     1
102
RTVSPost2010Prop51ColorIndex
 90
      256
102
RTVSPost2010Prop51ColorRGB
 90
-16777216
102
RTVSPost2010PropOp51
 70
     0
102
RTVSPost2010Prop52
140
1.0
102
RTVSPost2010PropOp52
 70
     0
102
RTVSPost2010Prop53
 90
        2
102
RTVSPost2010PropOp53
 70
     1
102
RTVSPost2010Prop54
  1
strokes_ogs.tif
102
RTVSPost2010PropOp54
 70
     1
102
RTVSPost2010Prop55
280
     0
102
RTVSPost2010PropOp55
 70
     1
102
RTVSPost2010Prop56
140
1.0
102
RTVSPost2010PropOp56
 70
     1
102
RTVSPost2010Prop57
140
1.0
102
RTVSPost2010PropOp57
 70
     1
  0
XRECORD
  5
82
102
{ACAD_REACTORS
330
81
102
}
330
81
100
AcDbXrecord
280
     1
102
RTVSPropertyOp0
 70
     1
102
RTVSPropertyOp1
 70
     1
102
RTVSPropertyOp2
 70
     1
102
RTVSPropertyOp3
 70
     1
102
RTVSPropertyOp4
 70
     1
102
RTVSPropertyOp5
 70
     1
102
RTVSPropertyOp6
 70
     1
102
RTVSPropertyOp7
 70
     1
102
RTVSPropertyOp8
 70
     1
102
RTVSPropertyOp9
 70
     1
102
RTVSPropertyOp10
 70
     1
102
RTVSPropertyOp11
 70
     1
102
RTVSPropertyOp12
 70
     1
102
RTVSPropertyOp13
 70
     1
102
RTVSPropertyOp14
 70
     1
102
RTVSPropertyOp15
 70
     1
102
RTVSPropertyOp16
 70
     1
102
RTVSPropertyOp17
 70
     1
102
RTVSPropertyOp18
 70
     1
102
RTVSPropertyOp19
 70
     1
102
RTVSPropertyOp20
 70
     1
102
RTVSPropertyOp21
 70
     1
102
RTVSPropertyOp22
 70
     1
102
RTVSPropertyOp23
 70
     1
102
RTVSPropertyOp24
 70
     1
102
RTVSPropertyOp25
 70
     1
102
RTVSPropertyOp26
 70
     1
102
RTVSPropertyOp27
 70
     1
102
RTVSPropertyOp28
 70
     1
102
RTVSPropertyOp29
 70
     1
102
RTVSPropertyOp30
 70
     1
102
RTVSPropertyOp31
 70
     1
102
RTVSPropertyOp32
 70
     1
102
RTVSPropertyOp33
 70
     1
102
RTVSPropertyOp34
 70
     1
102
RTVSPropertyOp35
 70
     1
102
RTVSPropertyOp36
 70
     1
102
RTVSPropertyOp37
 70
     1
102
RTVSPropertyOp38
 70
     1
102
RTVSPropertyOp39
 70
     1
102
RTVSPropertyOp40
 70
     1
102
RTVSPropertyOp41
 70
     1
102
RTVSPropertyOp42
 70
     1
102
RTVSPropertyOp43
 70
     1
102
RTVSPropertyOp44
 70
     1
102
RTVSPropertyOp45
 70
     1
102
RTVSPropertyOp46
 70
     1
102
RTVSPropertyOp47
 70
     1
102
RTVSPropertyOp48
 70
     1
102
RTVSPropertyOp49
 70
     1
102
RTVSPropertyOp50
 70
     1
102
RTVSPropertyOp51
 70
     0
102
RTVSPropertyOp52
 70
     0
102
RTVSPropertyOp53
 70
     1
102
RTVSPropertyOp54
 70
     1
102
RTVSPropertyOp55
 70
     1
102
RTVSPropertyOp56
 70
     1
102
RTVSPropertyOp57
 70
     1
102
RTVSPost2010Prop28
280
     0
102
RTVSPost2010PropOp28
 70
     1
102
RTVSPost2010Prop29
280
     1
102
RTVSPost2010PropOp29
 70
     1
102
RTVSPost2010Prop30
280
     1
102
RTVSPost2010PropOp30
 70
     1
102
RTVSPost2010Prop31
280
     0
102
RTVSPost2010PropOp31
 70
     1
102
RTVSPost2010Prop32
280
     0
102
RTVSPost2010PropOp32
 70
     1
102
RTVSPost2010Prop33
280
     0
102
RTVSPost2010PropOp33
 70
     1
102
RTVSPost2010Prop34
280
     0
102
RTVSPost2010PropOp34
 70
     1
102
RTVSPost2010Prop35
280
     0
102
RTVSPost2010PropOp35
 70
     1
102
RTVSPost2010Prop36
280
     0
102
RTVSPost2010PropOp36
 70
     1
102
RTVSPost2010Prop37
 90
       50
102
RTVSPost2010PropOp37
 70
     1
102
RTVSPost2010Prop38
140
0.0
102
RTVSPost2010PropOp38
 70
     1
102
RTVSPost2010Prop39
140
1.0
102
RTVSPost2010PropOp39
 70
     1
102
RTVSPost2010Prop40
 90
        0
102
RTVSPost2010PropOp40
 70
     1
102
RTVSPost2010Prop41ColorIndex
 90
       18
102
RTVSPost2010Prop41ColorRGB
 90
        0
102
RTVSPost2010PropOp41
 70
     1
102
RTVSPost2010Prop42
 90
       50
102
RTVSPost2010PropOp42
 70
     1
102
RTVSPost2010Prop43
 90
        3
102
RTVSPost2010PropOp43
 70
     1
102
RTVSPost2010Prop44ColorIndex
 90
        5
102
RTVSPost2010Prop44ColorRGB
 90
      255
102
RTVSPost2010PropOp44
 70
     1
102
RTVSPost2010Prop45
280
     0
102
RTVSPost2010PropOp45
 70
     1
102
RTVSPost2010Prop46
 90
       50
102
RTVSPost2010PropOp46
 70
     1
102
RTVSPost2010Prop47
 90
       50
102
RTVSPost2010PropOp47
 70
     1
102
RTVSPost2010Prop48
 90
       50
102
RTVSPost2010PropOp48
 70
     1
102
RTVSPost2010Prop49
280
     0
102
RTVSPost2010PropOp49
 70
     1
102
RTVSPost2010Prop50
 90
       50
102
RTVSPost2010PropOp50
 70
     1
102
RTVSPost2010Prop51ColorIndex
 90
      256
102
RTVSPost2010Prop51ColorRGB
 90
-16777216
102
RTVSPost2010PropOp51
 70
     0
102
RTVSPost2010Prop52
140
1.0
102
RTVSPost2010PropOp52
 70
     0
102
RTVSPost2010Prop53
 90
        2
102
RTVSPost2010PropOp53
 70
     1
102
RTVSPost2010Prop54
  1
strokes_ogs.tif
102
RTVSPost2010PropOp54
 70
     1
102
RTVSPost2010Prop55
280
     0
102
RTVSPost2010PropOp55
 70
     1
102
RTVSPost2010Prop56
140
1.0
102
RTVSPost2010PropOp56
 70
     1
102
RTVSPost2010Prop57
140
1.0
102
RTVSPost2010PropOp57
 70
     1
  0
XRECORD
  5
86
102
{ACAD_REACTORS
330
85
102
}
330
85
100
AcDbXrecord
280
     1
102
RTVSPropertyOp0
 70
     1
102
RTVSPropertyOp1
 70
     1
102
RTVSPropertyOp2
 70
     1
102
RTVSPropertyOp3
 70
     1
102
RTVSPropertyOp4
 70
     1
102
RTVSPropertyOp5
 70
     1
102
RTVSPropertyOp6
 70
     1
102
RTVSPropertyOp7
 70
     1
102
RTVSPropertyOp8
 70
     1
102
RTVSPropertyOp9
 70
     1
102
RTVSPropertyOp10
 70
     1
102
RTVSPropertyOp11
 70
     1
102
RTVSPropertyOp12
 70
     1
102
RTVSPropertyOp13
 70
     1
102
RTVSPropertyOp14
 70
     1
102
RTVSPropertyOp15
 70
     1
102
RTVSPropertyOp16
 70
     1
102
RTVSPropertyOp17
 70
     1
102
RTVSPropertyOp18
 70
     1
102
RTVSPropertyOp19
 70
     1
102
RTVSPropertyOp20
 70
     1
102
RTVSPropertyOp21
 70
     1
102
RTVSPropertyOp22
 70
     1
102
RTVSPropertyOp23
 70
     1
102
RTVSPropertyOp24
 70
     1
102
RTVSPropertyOp25
 70
     1
102
RTVSPropertyOp26
 70
     1
102
RTVSPropertyOp27
 70
     1
102
RTVSPropertyOp28
 70
     1
102
RTVSPropertyOp29
 70
     1
102
RTVSPropertyOp30
 70
     1
102
RTVSPropertyOp31
 70
     1
102
RTVSPropertyOp32
 70
     1
102
RTVSPropertyOp33
 70
     1
102
RTVSPropertyOp34
 70
     1
102
RTVSPropertyOp35
 70
     1
102
RTVSPropertyOp36
 70
     1
102
RTVSPropertyOp37
 70
     1
102
RTVSPropertyOp38
 70
     1
102
RTVSPropertyOp39
 70
     1
102
RTVSPropertyOp40
 70
     1
102
RTVSPropertyOp41
 70
     1
102
RTVSPropertyOp42
 70
     1
102
RTVSPropertyOp43
 70
     1
102
RTVSPropertyOp44
 70
     1
102
RTVSPropertyOp45
 70
     1
102
RTVSPropertyOp46
 70
     1
102
RTVSPropertyOp47
 70
     1
102
RTVSPropertyOp48
 70
     1
102
RTVSPropertyOp49
 70
     1
102
RTVSPropertyOp50
 70
     1
102
RTVSPropertyOp51
 70
     0
102
RTVSPropertyOp52
 70
     0
102
RTVSPropertyOp53
 70
     1
102
RTVSPropertyOp54
 70
     1
102
RTVSPropertyOp55
 70
     1
102
RTVSPropertyOp56
 70
     1
102
RTVSPropertyOp57
 70
     1
102
RTVSPost2010Prop28
280
     0
102
RTVSPost2010PropOp28
 70
     1
102
RTVSPost2010Prop29
280
     1
102
RTVSPost2010PropOp29
 70
     1
102
RTVSPost2010Prop30
280
     1
102
RTVSPost2010PropOp30
 70
     1
102
RTVSPost2010Prop31
280
     0
102
RTVSPost2010PropOp31
 70
     1
102
RTVSPost2010Prop32
280
     0
102
RTVSPost2010PropOp32
 70
     1
102
RTVSPost2010Prop33
280
     0
102
RTVSPost2010PropOp33
 70
     1
102
RTVSPost2010Prop34
280
     0
102
RTVSPost2010PropOp34
 70
     1
102
RTVSPost2010Prop35
280
     0
102
RTVSPost2010PropOp35
 70
     1
102
RTVSPost2010Prop36
280
     0
102
RTVSPost2010PropOp36
 70
     1
102
RTVSPost2010Prop37
 90
       50
102
RTVSPost2010PropOp37
 70
     1
102
RTVSPost2010Prop38
140
0.0
102
RTVSPost2010PropOp38
 70
     1
102
RTVSPost2010Prop39
140
1.0
102
RTVSPost2010PropOp39
 70
     1
102
RTVSPost2010Prop40
 90
        0
102
RTVSPost2010PropOp40
 70
     1
102
RTVSPost2010Prop41ColorIndex
 90
       18
102
RTVSPost2010Prop41ColorRGB
 90
        0
102
RTVSPost2010PropOp41
 70
     1
102
RTVSPost2010Prop42
 90
       50
102
RTVSPost2010PropOp42
 70
     1
102
RTVSPost2010Prop43
 90
        3
102
RTVSPost2010PropOp43
 70
     1
102
RTVSPost2010Prop44ColorIndex
 90
        5
102
RTVSPost2010Prop44ColorRGB
 90
      255
102
RTVSPost2010PropOp44
 70
     1
102
RTVSPost2010Prop45
280
     0
102
RTVSPost2010PropOp45
 70
     1
102
RTVSPost2010Prop46
 90
       50
102
RTVSPost2010PropOp46
 70
     1
102
RTVSPost2010Prop47
 90
       50
102
RTVSPost2010PropOp47
 70
     1
102
RTVSPost2010Prop48
 90
       50
102
RTVSPost2010PropOp48
 70
     1
102
RTVSPost2010Prop49
280
     0
102
RTVSPost2010PropOp49
 70
     1
102
RTVSPost2010Prop50
 90
       50
102
RTVSPost2010PropOp50
 70
     1
102
RTVSPost2010Prop51ColorIndex
 90
      256
102
RTVSPost2010Prop51ColorRGB
 90
-16777216
102
RTVSPost2010PropOp51
 70
     0
102
RTVSPost2010Prop52
140
1.0
102
RTVSPost2010PropOp52
 70
     0
102
RTVSPost2010Prop53
 90
        2
102
RTVSPost2010PropOp53
 70
     1
102
RTVSPost2010Prop54
  1
strokes_ogs.tif
102
RTVSPost2010PropOp54
 70
     1
102
RTVSPost2010Prop55
280
     0
102
RTVSPost2010PropOp55
 70
     1
102
RTVSPost2010Prop56
140
1.0
102
RTVSPost2010PropOp56
 70
     1
102
RTVSPost2010Prop57
140
1.0
102
RTVSPost2010PropOp57
 70
     1
  0
XRECORD
  5
8E
102
{ACAD_REACTORS
330
8D
102
}
330
8D
100
AcDbXrecord
280
     1
102
RTVSPropertyOp0
 70
     1
102
RTVSPropertyOp1
 70
     1
102
RTVSPropertyOp2
 70
     1
102
RTVSPropertyOp3
 70
     1
102
RTVSPropertyOp4
 70
     1
102
RTVSPropertyOp5
 70
     1
102
RTVSPropertyOp6
 70
     1
102
RTVSPropertyOp7
 70
     1
102
RTVSPropertyOp8
 70
     1
102
RTVSPropertyOp9
 70
     1
102
RTVSPropertyOp10
 70
     1
102
RTVSPropertyOp11
 70
     1
102
RTVSPropertyOp12
 70
     1
102
RTVSPropertyOp13
 70
     1
102
RTVSPropertyOp14
 70
     1
102
RTVSPropertyOp15
 70
     1
102
RTVSPropertyOp16
 70
     1
102
RTVSPropertyOp17
 70
     1
102
RTVSPropertyOp18
 70
     1
102
RTVSPropertyOp19
 70
     1
102
RTVSPropertyOp20
 70
     1
102
RTVSPropertyOp21
 70
     1
102
RTVSPropertyOp22
 70
     1
102
RTVSPropertyOp23
 70
     1
102
RTVSPropertyOp24
 70
     1
102
RTVSPropertyOp25
 70
     1
102
RTVSPropertyOp26
 70
     1
102
RTVSPropertyOp27
 70
     1
102
RTVSPropertyOp28
 70
     1
102
RTVSPropertyOp29
 70
     1
102
RTVSPropertyOp30
 70
     1
102
RTVSPropertyOp31
 70
     1
102
RTVSPropertyOp32
 70
     1
102
RTVSPropertyOp33
 70
     1
102
RTVSPropertyOp34
 70
     1
102
RTVSPropertyOp35
 70
     1
102
RTVSPropertyOp36
 70
     1
102
RTVSPropertyOp37
 70
     1
102
RTVSPropertyOp38
 70
     1
102
RTVSPropertyOp39
 70
     1
102
RTVSPropertyOp40
 70
     1
102
RTVSPropertyOp41
 70
     1
102
RTVSPropertyOp42
 70
     1
102
RTVSPropertyOp43
 70
     1
102
RTVSPropertyOp44
 70
     1
102
RTVSPropertyOp45
 70
     1
102
RTVSPropertyOp46
 70
     1
102
RTVSPropertyOp47
 70
     1
102
RTVSPropertyOp48
 70
     1
102
RTVSPropertyOp49
 70
     1
102
RTVSPropertyOp50
 70
     1
102
RTVSPropertyOp51
 70
     0
102
RTVSPropertyOp52
 70
     0
102
RTVSPropertyOp53
 70
     1
102
RTVSPropertyOp54
 70
     1
102
RTVSPropertyOp55
 70
     1
102
RTVSPropertyOp56
 70
     1
102
RTVSPropertyOp57
 70
     1
102
RTVSPost2010Prop28
280
     0
102
RTVSPost2010PropOp28
 70
     1
102
RTVSPost2010Prop29
280
     1
102
RTVSPost2010PropOp29
 70
     1
102
RTVSPost2010Prop30
280
     1
102
RTVSPost2010PropOp30
 70
     1
102
RTVSPost2010Prop31
280
     0
102
RTVSPost2010PropOp31
 70
     1
102
RTVSPost2010Prop32
280
     0
102
RTVSPost2010PropOp32
 70
     1
102
RTVSPost2010Prop33
280
     0
102
RTVSPost2010PropOp33
 70
     1
102
RTVSPost2010Prop34
280
     0
102
RTVSPost2010PropOp34
 70
     1
102
RTVSPost2010Prop35
280
     0
102
RTVSPost2010PropOp35
 70
     1
102
RTVSPost2010Prop36
280
     0
102
RTVSPost2010PropOp36
 70
     1
102
RTVSPost2010Prop37
 90
       50
102
RTVSPost2010PropOp37
 70
     1
102
RTVSPost2010Prop38
140
0.0
102
RTVSPost2010PropOp38
 70
     1
102
RTVSPost2010Prop39
140
1.0
102
RTVSPost2010PropOp39
 70
     1
102
RTVSPost2010Prop40
 90
        0
102
RTVSPost2010PropOp40
 70
     1
102
RTVSPost2010Prop41ColorIndex
 90
       18
102
RTVSPost2010Prop41ColorRGB
 90
        0
102
RTVSPost2010PropOp41
 70
     1
102
RTVSPost2010Prop42
 90
       50
102
RTVSPost2010PropOp42
 70
     1
102
RTVSPost2010Prop43
 90
        3
102
RTVSPost2010PropOp43
 70
     1
102
RTVSPost2010Prop44ColorIndex
 90
        5
102
RTVSPost2010Prop44ColorRGB
 90
      255
102
RTVSPost2010PropOp44
 70
     1
102
RTVSPost2010Prop45
280
     0
102
RTVSPost2010PropOp45
 70
     1
102
RTVSPost2010Prop46
 90
       50
102
RTVSPost2010PropOp46
 70
     1
102
RTVSPost2010Prop47
 90
       50
102
RTVSPost2010PropOp47
 70
     1
102
RTVSPost2010Prop48
 90
       50
102
RTVSPost2010PropOp48
 70
     1
102
RTVSPost2010Prop49
280
     0
102
RTVSPost2010PropOp49
 70
     1
102
RTVSPost2010Prop50
 90
       50
102
RTVSPost2010PropOp50
 70
     1
102
RTVSPost2010Prop51ColorIndex
 90
      256
102
RTVSPost2010Prop51ColorRGB
 90
-16777216
102
RTVSPost2010PropOp51
 70
     0
102
RTVSPost2010Prop52
140
1.0
102
RTVSPost2010PropOp52
 70
     0
102
RTVSPost2010Prop53
 90
        2
102
RTVSPost2010PropOp53
 70
     1
102
RTVSPost2010Prop54
  1
strokes_ogs.tif
102
RTVSPost2010PropOp54
 70
     1
102
RTVSPost2010Prop55
280
     0
102
RTVSPost2010PropOp55
 70
     1
102
RTVSPost2010Prop56
140
1.0
102
RTVSPost2010PropOp56
 70
     1
102
RTVSPost2010Prop57
140
1.0
102
RTVSPost2010PropOp57
 70
     1
  0
XRECORD
  5
96
102
{ACAD_REACTORS
330
95
102
}
330
95
100
AcDbXrecord
280
     1
102
RTVSPropertyOp0
 70
     1
102
RTVSPropertyOp1
 70
     1
102
RTVSPropertyOp2
 70
     1
102
RTVSPropertyOp3
 70
     1
102
RTVSPropertyOp4
 70
     1
102
RTVSPropertyOp5
 70
     1
102
RTVSPropertyOp6
 70
     1
102
RTVSPropertyOp7
 70
     1
102
RTVSPropertyOp8
 70
     1
102
RTVSPropertyOp9
 70
     1
102
RTVSPropertyOp10
 70
     1
102
RTVSPropertyOp11
 70
     1
102
RTVSPropertyOp12
 70
     1
102
RTVSPropertyOp13
 70
     1
102
RTVSPropertyOp14
 70
     1
102
RTVSPropertyOp15
 70
     1
102
RTVSPropertyOp16
 70
     1
102
RTVSPropertyOp17
 70
     1
102
RTVSPropertyOp18
 70
     1
102
RTVSPropertyOp19
 70
     1
102
RTVSPropertyOp20
 70
     1
102
RTVSPropertyOp21
 70
     1
102
RTVSPropertyOp22
 70
     1
102
RTVSPropertyOp23
 70
     1
102
RTVSPropertyOp24
 70
     1
102
RTVSPropertyOp25
 70
     1
102
RTVSPropertyOp26
 70
     1
102
RTVSPropertyOp27
 70
     1
102
RTVSPropertyOp28
 70
     1
102
RTVSPropertyOp29
 70
     1
102
RTVSPropertyOp30
 70
     1
102
RTVSPropertyOp31
 70
     1
102
RTVSPropertyOp32
 70
     1
102
RTVSPropertyOp33
 70
     1
102
RTVSPropertyOp34
 70
     1
102
RTVSPropertyOp35
 70
     1
102
RTVSPropertyOp36
 70
     1
102
RTVSPropertyOp37
 70
     1
102
RTVSPropertyOp38
 70
     1
102
RTVSPropertyOp39
 70
     1
102
RTVSPropertyOp40
 70
     1
102
RTVSPropertyOp41
 70
     1
102
RTVSPropertyOp42
 70
     1
102
RTVSPropertyOp43
 70
     1
102
RTVSPropertyOp44
 70
     1
102
RTVSPropertyOp45
 70
     1
102
RTVSPropertyOp46
 70
     1
102
RTVSPropertyOp47
 70
     1
102
RTVSPropertyOp48
 70
     1
102
RTVSPropertyOp49
 70
     1
102
RTVSPropertyOp50
 70
     1
102
RTVSPropertyOp51
 70
     0
102
RTVSPropertyOp52
 70
     0
102
RTVSPropertyOp53
 70
     1
102
RTVSPropertyOp54
 70
     1
102
RTVSPropertyOp55
 70
     1
102
RTVSPropertyOp56
 70
     1
102
RTVSPropertyOp57
 70
     1
102
RTVSPost2010Prop28
280
     0
102
RTVSPost2010PropOp28
 70
     1
102
RTVSPost2010Prop29
280
     1
102
RTVSPost2010PropOp29
 70
     1
102
RTVSPost2010Prop30
280
     1
102
RTVSPost2010PropOp30
 70
     1
102
RTVSPost2010Prop31
280
     0
102
RTVSPost2010PropOp31
 70
     1
102
RTVSPost2010Prop32
280
     0
102
RTVSPost2010PropOp32
 70
     1
102
RTVSPost2010Prop33
280
     0
102
RTVSPost2010PropOp33
 70
     1
102
RTVSPost2010Prop34
280
     0
102
RTVSPost2010PropOp34
 70
     1
102
RTVSPost2010Prop35
280
     0
102
RTVSPost2010PropOp35
 70
     1
102
RTVSPost2010Prop36
280
     0
102
RTVSPost2010PropOp36
 70
     1
102
RTVSPost2010Prop37
 90
       50
102
RTVSPost2010PropOp37
 70
     1
102
RTVSPost2010Prop38
140
0.0
102
RTVSPost2010PropOp38
 70
     1
102
RTVSPost2010Prop39
140
1.0
102
RTVSPost2010PropOp39
 70
     1
102
RTVSPost2010Prop40
 90
        0
102
RTVSPost2010PropOp40
 70
     1
102
RTVSPost2010Prop41ColorIndex
 90
       18
102
RTVSPost2010Prop41ColorRGB
 90
        0
102
RTVSPost2010PropOp41
 70
     1
102
RTVSPost2010Prop42
 90
       50
102
RTVSPost2010PropOp42
 70
     1
102
RTVSPost2010Prop43
 90
        3
102
RTVSPost2010PropOp43
 70
     1
102
RTVSPost2010Prop44ColorIndex
 90
        5
102
RTVSPost2010Prop44ColorRGB
 90
      255
102
RTVSPost2010PropOp44
 70
     1
102
RTVSPost2010Prop45
280
     0
102
RTVSPost2010PropOp45
 70
     1
102
RTVSPost2010Prop46
 90
       50
102
RTVSPost2010PropOp46
 70
     1
102
RTVSPost2010Prop47
 90
       50
102
RTVSPost2010PropOp47
 70
     1
102
RTVSPost2010Prop48
 90
       50
102
RTVSPost2010PropOp48
 70
     1
102
RTVSPost2010Prop49
280
     0
102
RTVSPost2010PropOp49
 70
     1
102
RTVSPost2010Prop50
 90
       50
102
RTVSPost2010PropOp50
 70
     1
102
RTVSPost2010Prop51ColorIndex
 90
      256
102
RTVSPost2010Prop51ColorRGB
 90
-16777216
102
RTVSPost2010PropOp51
 70
     0
102
RTVSPost2010Prop52
140
1.0
102
RTVSPost2010PropOp52
 70
     0
102
RTVSPost2010Prop53
 90
        2
102
RTVSPost2010PropOp53
 70
     1
102
RTVSPost2010Prop54
  1
strokes_ogs.tif
102
RTVSPost2010PropOp54
 70
     1
102
RTVSPost2010Prop55
280
     0
102
RTVSPost2010PropOp55
 70
     1
102
RTVSPost2010Prop56
140
1.0
102
RTVSPost2010PropOp56
 70
     1
102
RTVSPost2010Prop57
140
1.0
102
RTVSPost2010PropOp57
 70
     1
  0
XRECORD
  5
8A
102
{ACAD_REACTORS
330
89
102
}
330
89
100
AcDbXrecord
280
     1
102
RTVSPropertyOp0
 70
     1
102
RTVSPropertyOp1
 70
     1
102
RTVSPropertyOp2
 70
     1
102
RTVSPropertyOp3
 70
     1
102
RTVSPropertyOp4
 70
     1
102
RTVSPropertyOp5
 70
     1
102
RTVSPropertyOp6
 70
     1
102
RTVSPropertyOp7
 70
     1
102
RTVSPropertyOp8
 70
     1
102
RTVSPropertyOp9
 70
     1
102
RTVSPropertyOp10
 70
     1
102
RTVSPropertyOp11
 70
     1
102
RTVSPropertyOp12
 70
     1
102
RTVSPropertyOp13
 70
     1
102
RTVSPropertyOp14
 70
     1
102
RTVSPropertyOp15
 70
     1
102
RTVSPropertyOp16
 70
     1
102
RTVSPropertyOp17
 70
     1
102
RTVSPropertyOp18
 70
     1
102
RTVSPropertyOp19
 70
     1
102
RTVSPropertyOp20
 70
     1
102
RTVSPropertyOp21
 70
     1
102
RTVSPropertyOp22
 70
     1
102
RTVSPropertyOp23
 70
     1
102
RTVSPropertyOp24
 70
     1
102
RTVSPropertyOp25
 70
     1
102
RTVSPropertyOp26
 70
     1
102
RTVSPropertyOp27
 70
     1
102
RTVSPropertyOp28
 70
     1
102
RTVSPropertyOp29
 70
     1
102
RTVSPropertyOp30
 70
     1
102
RTVSPropertyOp31
 70
     1
102
RTVSPropertyOp32
 70
     1
102
RTVSPropertyOp33
 70
     1
102
RTVSPropertyOp34
 70
     1
102
RTVSPropertyOp35
 70
     1
102
RTVSPropertyOp36
 70
     1
102
RTVSPropertyOp37
 70
     1
102
RTVSPropertyOp38
 70
     1
102
RTVSPropertyOp39
 70
     1
102
RTVSPropertyOp40
 70
     1
102
RTVSPropertyOp41
 70
     1
102
RTVSPropertyOp42
 70
     1
102
RTVSPropertyOp43
 70
     1
102
RTVSPropertyOp44
 70
     1
102
RTVSPropertyOp45
 70
     1
102
RTVSPropertyOp46
 70
     1
102
RTVSPropertyOp47
 70
     1
102
RTVSPropertyOp48
 70
     1
102
RTVSPropertyOp49
 70
     1
102
RTVSPropertyOp50
 70
     1
102
RTVSPropertyOp51
 70
     0
102
RTVSPropertyOp52
 70
     0
102
RTVSPropertyOp53
 70
     1
102
RTVSPropertyOp54
 70
     1
102
RTVSPropertyOp55
 70
     1
102
RTVSPropertyOp56
 70
     1
102
RTVSPropertyOp57
 70
     1
102
RTVSPost2010Prop28
280
     0
102
RTVSPost2010PropOp28
 70
     1
102
RTVSPost2010Prop29
280
     1
102
RTVSPost2010PropOp29
 70
     1
102
RTVSPost2010Prop30
280
     1
102
RTVSPost2010PropOp30
 70
     1
102
RTVSPost2010Prop31
280
     0
102
RTVSPost2010PropOp31
 70
     1
102
RTVSPost2010Prop32
280
     0
102
RTVSPost2010PropOp32
 70
     1
102
RTVSPost2010Prop33
280
     0
102
RTVSPost2010PropOp33
 70
     1
102
RTVSPost2010Prop34
280
     0
102
RTVSPost2010PropOp34
 70
     1
102
RTVSPost2010Prop35
280
     0
102
RTVSPost2010PropOp35
 70
     1
102
RTVSPost2010Prop36
280
     0
102
RTVSPost2010PropOp36
 70
     1
102
RTVSPost2010Prop37
 90
       50
102
RTVSPost2010PropOp37
 70
     1
102
RTVSPost2010Prop38
140
0.0
102
RTVSPost2010PropOp38
 70
     1
102
RTVSPost2010Prop39
140
1.0
102
RTVSPost2010PropOp39
 70
     1
102
RTVSPost2010Prop40
 90
        0
102
RTVSPost2010PropOp40
 70
     1
102
RTVSPost2010Prop41ColorIndex
 90
       18
102
RTVSPost2010Prop41ColorRGB
 90
        0
102
RTVSPost2010PropOp41
 70
     1
102
RTVSPost2010Prop42
 90
       50
102
RTVSPost2010PropOp42
 70
     1
102
RTVSPost2010Prop43
 90
        3
102
RTVSPost2010PropOp43
 70
     1
102
RTVSPost2010Prop44ColorIndex
 90
        5
102
RTVSPost2010Prop44ColorRGB
 90
      255
102
RTVSPost2010PropOp44
 70
     1
102
RTVSPost2010Prop45
280
     0
102
RTVSPost2010PropOp45
 70
     1
102
RTVSPost2010Prop46
 90
       50
102
RTVSPost2010PropOp46
 70
     1
102
RTVSPost2010Prop47
 90
       50
102
RTVSPost2010PropOp47
 70
     1
102
RTVSPost2010Prop48
 90
       50
102
RTVSPost2010PropOp48
 70
     1
102
RTVSPost2010Prop49
280
     0
102
RTVSPost2010PropOp49
 70
     1
102
RTVSPost2010Prop50
 90
       50
102
RTVSPost2010PropOp50
 70
     1
102
RTVSPost2010Prop51ColorIndex
 90
      256
102
RTVSPost2010Prop51ColorRGB
 90
-16777216
102
RTVSPost2010PropOp51
 70
     0
102
RTVSPost2010Prop52
140
1.0
102
RTVSPost2010PropOp52
 70
     0
102
RTVSPost2010Prop53
 90
        2
102
RTVSPost2010PropOp53
 70
     1
102
RTVSPost2010Prop54
  1
strokes_ogs.tif
102
RTVSPost2010PropOp54
 70
     1
102
RTVSPost2010Prop55
280
     0
102
RTVSPost2010PropOp55
 70
     1
102
RTVSPost2010Prop56
140
1.0
102
RTVSPost2010PropOp56
 70
     1
102
RTVSPost2010Prop57
140
1.0
102
RTVSPost2010PropOp57
 70
     1
  0
XRECORD
  5
8C
102
{ACAD_REACTORS
330
8B
102
}
330
8B
100
AcDbXrecord
280
     1
102
RTVSPropertyOp0
 70
     1
102
RTVSPropertyOp1
 70
     1
102
RTVSPropertyOp2
 70
     1
102
RTVSPropertyOp3
 70
     1
102
RTVSPropertyOp4
 70
     1
102
RTVSPropertyOp5
 70
     1
102
RTVSPropertyOp6
 70
     1
102
RTVSPropertyOp7
 70
     1
102
RTVSPropertyOp8
 70
     1
102
RTVSPropertyOp9
 70
     1
102
RTVSPropertyOp10
 70
     1
102
RTVSPropertyOp11
 70
     1
102
RTVSPropertyOp12
 70
     1
102
RTVSPropertyOp13
 70
     1
102
RTVSPropertyOp14
 70
     1
102
RTVSPropertyOp15
 70
     1
102
RTVSPropertyOp16
 70
     1
102
RTVSPropertyOp17
 70
     1
102
RTVSPropertyOp18
 70
     1
102
RTVSPropertyOp19
 70
     1
102
RTVSPropertyOp20
 70
     1
102
RTVSPropertyOp21
 70
     1
102
RTVSPropertyOp22
 70
     1
102
RTVSPropertyOp23
 70
     1
102
RTVSPropertyOp24
 70
     1
102
RTVSPropertyOp25
 70
     1
102
RTVSPropertyOp26
 70
     1
102
RTVSPropertyOp27
 70
     1
102
RTVSPropertyOp28
 70
     1
102
RTVSPropertyOp29
 70
     1
102
RTVSPropertyOp30
 70
     1
102
RTVSPropertyOp31
 70
     1
102
RTVSPropertyOp32
 70
     1
102
RTVSPropertyOp33
 70
     1
102
RTVSPropertyOp34
 70
     1
102
RTVSPropertyOp35
 70
     1
102
RTVSPropertyOp36
 70
     1
102
RTVSPropertyOp37
 70
     1
102
RTVSPropertyOp38
 70
     1
102
RTVSPropertyOp39
 70
     1
102
RTVSPropertyOp40
 70
     1
102
RTVSPropertyOp41
 70
     1
102
RTVSPropertyOp42
 70
     1
102
RTVSPropertyOp43
 70
     1
102
RTVSPropertyOp44
 70
     1
102
RTVSPropertyOp45
 70
     1
102
RTVSPropertyOp46
 70
     1
102
RTVSPropertyOp47
 70
     1
102
RTVSPropertyOp48
 70
     1
102
RTVSPropertyOp49
 70
     1
102
RTVSPropertyOp50
 70
     1
102
RTVSPropertyOp51
 70
     0
102
RTVSPropertyOp52
 70
     0
102
RTVSPropertyOp53
 70
     1
102
RTVSPropertyOp54
 70
     1
102
RTVSPropertyOp55
 70
     1
102
RTVSPropertyOp56
 70
     1
102
RTVSPropertyOp57
 70
     1
102
RTVSPost2010Prop28
280
     0
102
RTVSPost2010PropOp28
 70
     1
102
RTVSPost2010Prop29
280
     1
102
RTVSPost2010PropOp29
 70
     1
102
RTVSPost2010Prop30
280
     1
102
RTVSPost2010PropOp30
 70
     1
102
RTVSPost2010Prop31
280
     0
102
RTVSPost2010PropOp31
 70
     1
102
RTVSPost2010Prop32
280
     0
102
RTVSPost2010PropOp32
 70
     1
102
RTVSPost2010Prop33
280
     0
102
RTVSPost2010PropOp33
 70
     1
102
RTVSPost2010Prop34
280
     0
102
RTVSPost2010PropOp34
 70
     1
102
RTVSPost2010Prop35
280
     0
102
RTVSPost2010PropOp35
 70
     1
102
RTVSPost2010Prop36
280
     0
102
RTVSPost2010PropOp36
 70
     1
102
RTVSPost2010Prop37
 90
       50
102
RTVSPost2010PropOp37
 70
     1
102
RTVSPost2010Prop38
140
0.0
102
RTVSPost2010PropOp38
 70
     1
102
RTVSPost2010Prop39
140
1.0
102
RTVSPost2010PropOp39
 70
     1
102
RTVSPost2010Prop40
 90
        0
102
RTVSPost2010PropOp40
 70
     1
102
RTVSPost2010Prop41ColorIndex
 90
       18
102
RTVSPost2010Prop41ColorRGB
 90
        0
102
RTVSPost2010PropOp41
 70
     1
102
RTVSPost2010Prop42
 90
       50
102
RTVSPost2010PropOp42
 70
     1
102
RTVSPost2010Prop43
 90
        3
102
RTVSPost2010PropOp43
 70
     1
102
RTVSPost2010Prop44ColorIndex
 90
        5
102
RTVSPost2010Prop44ColorRGB
 90
      255
102
RTVSPost2010PropOp44
 70
     1
102
RTVSPost2010Prop45
280
     0
102
RTVSPost2010PropOp45
 70
     1
102
RTVSPost2010Prop46
 90
       50
102
RTVSPost2010PropOp46
 70
     1
102
RTVSPost2010Prop47
 90
       50
102
RTVSPost2010PropOp47
 70
     1
102
RTVSPost2010Prop48
 90
       50
102
RTVSPost2010PropOp48
 70
     1
102
RTVSPost2010Prop49
280
     0
102
RTVSPost2010PropOp49
 70
     1
102
RTVSPost2010Prop50
 90
       50
102
RTVSPost2010PropOp50
 70
     1
102
RTVSPost2010Prop51ColorIndex
 90
      256
102
RTVSPost2010Prop51ColorRGB
 90
-16777216
102
RTVSPost2010PropOp51
 70
     0
102
RTVSPost2010Prop52
140
1.0
102
RTVSPost2010PropOp52
 70
     0
102
RTVSPost2010Prop53
 90
        2
102
RTVSPost2010PropOp53
 70
     1
102
RTVSPost2010Prop54
  1
strokes_ogs.tif
102
RTVSPost2010PropOp54
 70
     1
102
RTVSPost2010Prop55
280
     0
102
RTVSPost2010PropOp55
 70
     1
102
RTVSPost2010Prop56
140
1.0
102
RTVSPost2010PropOp56
 70
     1
102
RTVSPost2010Prop57
140
1.0
102
RTVSPost2010PropOp57
 70
     1
  0
XRECORD
  5
94
102
{ACAD_REACTORS
330
93
102
}
330
93
100
AcDbXrecord
280
     1
102
RTVSPropertyOp0
 70
     1
102
RTVSPropertyOp1
 70
     1
102
RTVSPropertyOp2
 70
     1
102
RTVSPropertyOp3
 70
     1
102
RTVSPropertyOp4
 70
     1
102
RTVSPropertyOp5
 70
     1
102
RTVSPropertyOp6
 70
     1
102
RTVSPropertyOp7
 70
     1
102
RTVSPropertyOp8
 70
     1
102
RTVSPropertyOp9
 70
     1
102
RTVSPropertyOp10
 70
     1
102
RTVSPropertyOp11
 70
     1
102
RTVSPropertyOp12
 70
     1
102
RTVSPropertyOp13
 70
     1
102
RTVSPropertyOp14
 70
     1
102
RTVSPropertyOp15
 70
     1
102
RTVSPropertyOp16
 70
     1
102
RTVSPropertyOp17
 70
     1
102
RTVSPropertyOp18
 70
     1
102
RTVSPropertyOp19
 70
     1
102
RTVSPropertyOp20
 70
     1
102
RTVSPropertyOp21
 70
     1
102
RTVSPropertyOp22
 70
     1
102
RTVSPropertyOp23
 70
     1
102
RTVSPropertyOp24
 70
     1
102
RTVSPropertyOp25
 70
     1
102
RTVSPropertyOp26
 70
     1
102
RTVSPropertyOp27
 70
     1
102
RTVSPropertyOp28
 70
     1
102
RTVSPropertyOp29
 70
     1
102
RTVSPropertyOp30
 70
     1
102
RTVSPropertyOp31
 70
     1
102
RTVSPropertyOp32
 70
     1
102
RTVSPropertyOp33
 70
     1
102
RTVSPropertyOp34
 70
     1
102
RTVSPropertyOp35
 70
     1
102
RTVSPropertyOp36
 70
     1
102
RTVSPropertyOp37
 70
     1
102
RTVSPropertyOp38
 70
     1
102
RTVSPropertyOp39
 70
     1
102
RTVSPropertyOp40
 70
     1
102
RTVSPropertyOp41
 70
     1
102
RTVSPropertyOp42
 70
     1
102
RTVSPropertyOp43
 70
     1
102
RTVSPropertyOp44
 70
     1
102
RTVSPropertyOp45
 70
     1
102
RTVSPropertyOp46
 70
     1
102
RTVSPropertyOp47
 70
     1
102
RTVSPropertyOp48
 70
     1
102
RTVSPropertyOp49
 70
     1
102
RTVSPropertyOp50
 70
     1
102
RTVSPropertyOp51
 70
     0
102
RTVSPropertyOp52
 70
     0
102
RTVSPropertyOp53
 70
     1
102
RTVSPropertyOp54
 70
     1
102
RTVSPropertyOp55
 70
     1
102
RTVSPropertyOp56
 70
     1
102
RTVSPropertyOp57
 70
     1
102
RTVSPost2010Prop28
280
     0
102
RTVSPost2010PropOp28
 70
     1
102
RTVSPost2010Prop29
280
     1
102
RTVSPost2010PropOp29
 70
     1
102
RTVSPost2010Prop30
280
     1
102
RTVSPost2010PropOp30
 70
     1
102
RTVSPost2010Prop31
280
     0
102
RTVSPost2010PropOp31
 70
     1
102
RTVSPost2010Prop32
280
     0
102
RTVSPost2010PropOp32
 70
     1
102
RTVSPost2010Prop33
280
     0
102
RTVSPost2010PropOp33
 70
     1
102
RTVSPost2010Prop34
280
     0
102
RTVSPost2010PropOp34
 70
     1
102
RTVSPost2010Prop35
280
     0
102
RTVSPost2010PropOp35
 70
     1
102
RTVSPost2010Prop36
280
     0
102
RTVSPost2010PropOp36
 70
     1
102
RTVSPost2010Prop37
 90
       50
102
RTVSPost2010PropOp37
 70
     1
102
RTVSPost2010Prop38
140
0.0
102
RTVSPost2010PropOp38
 70
     1
102
RTVSPost2010Prop39
140
1.0
102
RTVSPost2010PropOp39
 70
     1
102
RTVSPost2010Prop40
 90
        0
102
RTVSPost2010PropOp40
 70
     1
102
RTVSPost2010Prop41ColorIndex
 90
       18
102
RTVSPost2010Prop41ColorRGB
 90
        0
102
RTVSPost2010PropOp41
 70
     1
102
RTVSPost2010Prop42
 90
       50
102
RTVSPost2010PropOp42
 70
     1
102
RTVSPost2010Prop43
 90
        3
102
RTVSPost2010PropOp43
 70
     1
102
RTVSPost2010Prop44ColorIndex
 90
        5
102
RTVSPost2010Prop44ColorRGB
 90
      255
102
RTVSPost2010PropOp44
 70
     1
102
RTVSPost2010Prop45
280
     0
102
RTVSPost2010PropOp45
 70
     1
102
RTVSPost2010Prop46
 90
       50
102
RTVSPost2010PropOp46
 70
     1
102
RTVSPost2010Prop47
 90
       50
102
RTVSPost2010PropOp47
 70
     1
102
RTVSPost2010Prop48
 90
       50
102
RTVSPost2010PropOp48
 70
     1
102
RTVSPost2010Prop49
280
     0
102
RTVSPost2010PropOp49
 70
     1
102
RTVSPost2010Prop50
 90
       50
102
RTVSPost2010PropOp50
 70
     1
102
RTVSPost2010Prop51ColorIndex
 90
      256
102
RTVSPost2010Prop51ColorRGB
 90
-16777216
102
RTVSPost2010PropOp51
 70
     0
102
RTVSPost2010Prop52
140
1.0
102
RTVSPost2010PropOp52
 70
     0
102
RTVSPost2010Prop53
 90
        2
102
RTVSPost2010PropOp53
 70
     1
102
RTVSPost2010Prop54
  1
strokes_ogs.tif
102
RTVSPost2010PropOp54
 70
     1
102
RTVSPost2010Prop55
280
     0
102
RTVSPost2010PropOp55
 70
     1
102
RTVSPost2010Prop56
140
1.0
102
RTVSPost2010PropOp56
 70
     1
102
RTVSPost2010Prop57
140
1.0
102
RTVSPost2010PropOp57
 70
     1
  0
XRECORD
  5
78
102
{ACAD_REACTORS
330
77
102
}
330
77
100
AcDbXrecord
280
     1
102
RTVSPropertyOp0
 70
     1
102
RTVSPropertyOp1
 70
     1
102
RTVSPropertyOp2
 70
     1
102
RTVSPropertyOp3
 70
     1
102
RTVSPropertyOp4
 70
     1
102
RTVSPropertyOp5
 70
     1
102
RTVSPropertyOp6
 70
     1
102
RTVSPropertyOp7
 70
     1
102
RTVSPropertyOp8
 70
     1
102
RTVSPropertyOp9
 70
     1
102
RTVSPropertyOp10
 70
     1
102
RTVSPropertyOp11
 70
     1
102
RTVSPropertyOp12
 70
     1
102
RTVSPropertyOp13
 70
     1
102
RTVSPropertyOp14
 70
     1
102
RTVSPropertyOp15
 70
     1
102
RTVSPropertyOp16
 70
     1
102
RTVSPropertyOp17
 70
     1
102
RTVSPropertyOp18
 70
     1
102
RTVSPropertyOp19
 70
     1
102
RTVSPropertyOp20
 70
     1
102
RTVSPropertyOp21
 70
     1
102
RTVSPropertyOp22
 70
     1
102
RTVSPropertyOp23
 70
     1
102
RTVSPropertyOp24
 70
     1
102
RTVSPropertyOp25
 70
     1
102
RTVSPropertyOp26
 70
     1
102
RTVSPropertyOp27
 70
     1
102
RTVSPropertyOp28
 70
     1
102
RTVSPropertyOp29
 70
     1
102
RTVSPropertyOp30
 70
     1
102
RTVSPropertyOp31
 70
     1
102
RTVSPropertyOp32
 70
     1
102
RTVSPropertyOp33
 70
     1
102
RTVSPropertyOp34
 70
     1
102
RTVSPropertyOp35
 70
     1
102
RTVSPropertyOp36
 70
     1
102
RTVSPropertyOp37
 70
     1
102
RTVSPropertyOp38
 70
     1
102
RTVSPropertyOp39
 70
     1
102
RTVSPropertyOp40
 70
     1
102
RTVSPropertyOp41
 70
     1
102
RTVSPropertyOp42
 70
     1
102
RTVSPropertyOp43
 70
     1
102
RTVSPropertyOp44
 70
     1
102
RTVSPropertyOp45
 70
     1
102
RTVSPropertyOp46
 70
     1
102
RTVSPropertyOp47
 70
     1
102
RTVSPropertyOp48
 70
     1
102
RTVSPropertyOp49
 70
     1
102
RTVSPropertyOp50
 70
     1
102
RTVSPropertyOp51
 70
     0
102
RTVSPropertyOp52
 70
     0
102
RTVSPropertyOp53
 70
     1
102
RTVSPropertyOp54
 70
     1
102
RTVSPropertyOp55
 70
     1
102
RTVSPropertyOp56
 70
     1
102
RTVSPropertyOp57
 70
     1
102
RTVSPost2010Prop28
280
     0
102
RTVSPost2010PropOp28
 70
     1
102
RTVSPost2010Prop29
280
     1
102
RTVSPost2010PropOp29
 70
     1
102
RTVSPost2010Prop30
280
     1
102
RTVSPost2010PropOp30
 70
     1
102
RTVSPost2010Prop31
280
     0
102
RTVSPost2010PropOp31
 70
     1
102
RTVSPost2010Prop32
280
     0
102
RTVSPost2010PropOp32
 70
     1
102
RTVSPost2010Prop33
280
     0
102
RTVSPost2010PropOp33
 70
     1
102
RTVSPost2010Prop34
280
     0
102
RTVSPost2010PropOp34
 70
     1
102
RTVSPost2010Prop35
280
     0
102
RTVSPost2010PropOp35
 70
     1
102
RTVSPost2010Prop36
280
     0
102
RTVSPost2010PropOp36
 70
     1
102
RTVSPost2010Prop37
 90
       50
102
RTVSPost2010PropOp37
 70
     1
102
RTVSPost2010Prop38
140
0.0
102
RTVSPost2010PropOp38
 70
     1
102
RTVSPost2010Prop39
140
1.0
102
RTVSPost2010PropOp39
 70
     1
102
RTVSPost2010Prop40
 90
        0
102
RTVSPost2010PropOp40
 70
     1
102
RTVSPost2010Prop41ColorIndex
 90
       18
102
RTVSPost2010Prop41ColorRGB
 90
        0
102
RTVSPost2010PropOp41
 70
     1
102
RTVSPost2010Prop42
 90
       50
102
RTVSPost2010PropOp42
 70
     1
102
RTVSPost2010Prop43
 90
        3
102
RTVSPost2010PropOp43
 70
     1
102
RTVSPost2010Prop44ColorIndex
 90
        5
102
RTVSPost2010Prop44ColorRGB
 90
      255
102
RTVSPost2010PropOp44
 70
     1
102
RTVSPost2010Prop45
280
     0
102
RTVSPost2010PropOp45
 70
     1
102
RTVSPost2010Prop46
 90
       50
102
RTVSPost2010PropOp46
 70
     1
102
RTVSPost2010Prop47
 90
       50
102
RTVSPost2010PropOp47
 70
     1
102
RTVSPost2010Prop48
 90
       50
102
RTVSPost2010PropOp48
 70
     1
102
RTVSPost2010Prop49
280
     0
102
RTVSPost2010PropOp49
 70
     1
102
RTVSPost2010Prop50
 90
       50
102
RTVSPost2010PropOp50
 70
     1
102
RTVSPost2010Prop51ColorIndex
 90
      256
102
RTVSPost2010Prop51ColorRGB
 90
-16777216
102
RTVSPost2010PropOp51
 70
     0
102
RTVSPost2010Prop52
140
1.0
102
RTVSPost2010PropOp52
 70
     0
102
RTVSPost2010Prop53
 90
        2
102
RTVSPost2010PropOp53
 70
     1
102
RTVSPost2010Prop54
  1
strokes_ogs.tif
102
RTVSPost2010PropOp54
 70
     1
102
RTVSPost2010Prop55
280
     0
102
RTVSPost2010PropOp55
 70
     1
102
RTVSPost2010Prop56
140
1.0
102
RTVSPost2010PropOp56
 70
     1
102
RTVSPost2010Prop57
140
1.0
102
RTVSPost2010PropOp57
 70
     1
  0
XRECORD
  5
7A
102
{ACAD_REACTORS
330
79
102
}
330
79
100
AcDbXrecord
280
     1
102
RTVSPropertyOp0
 70
     1
102
RTVSPropertyOp1
 70
     1
102
RTVSPropertyOp2
 70
     1
102
RTVSPropertyOp3
 70
     1
102
RTVSPropertyOp4
 70
     1
102
RTVSPropertyOp5
 70
     1
102
RTVSPropertyOp6
 70
     1
102
RTVSPropertyOp7
 70
     1
102
RTVSPropertyOp8
 70
     1
102
RTVSPropertyOp9
 70
     1
102
RTVSPropertyOp10
 70
     1
102
RTVSPropertyOp11
 70
     1
102
RTVSPropertyOp12
 70
     1
102
RTVSPropertyOp13
 70
     1
102
RTVSPropertyOp14
 70
     1
102
RTVSPropertyOp15
 70
     1
102
RTVSPropertyOp16
 70
     1
102
RTVSPropertyOp17
 70
     1
102
RTVSPropertyOp18
 70
     1
102
RTVSPropertyOp19
 70
     1
102
RTVSPropertyOp20
 70
     1
102
RTVSPropertyOp21
 70
     1
102
RTVSPropertyOp22
 70
     1
102
RTVSPropertyOp23
 70
     1
102
RTVSPropertyOp24
 70
     1
102
RTVSPropertyOp25
 70
     1
102
RTVSPropertyOp26
 70
     1
102
RTVSPropertyOp27
 70
     1
102
RTVSPropertyOp28
 70
     1
102
RTVSPropertyOp29
 70
     1
102
RTVSPropertyOp30
 70
     1
102
RTVSPropertyOp31
 70
     1
102
RTVSPropertyOp32
 70
     1
102
RTVSPropertyOp33
 70
     1
102
RTVSPropertyOp34
 70
     1
102
RTVSPropertyOp35
 70
     1
102
RTVSPropertyOp36
 70
     1
102
RTVSPropertyOp37
 70
     1
102
RTVSPropertyOp38
 70
     1
102
RTVSPropertyOp39
 70
     1
102
RTVSPropertyOp40
 70
     1
102
RTVSPropertyOp41
 70
     1
102
RTVSPropertyOp42
 70
     1
102
RTVSPropertyOp43
 70
     1
102
RTVSPropertyOp44
 70
     1
102
RTVSPropertyOp45
 70
     1
102
RTVSPropertyOp46
 70
     1
102
RTVSPropertyOp47
 70
     1
102
RTVSPropertyOp48
 70
     1
102
RTVSPropertyOp49
 70
     1
102
RTVSPropertyOp50
 70
     1
102
RTVSPropertyOp51
 70
     0
102
RTVSPropertyOp52
 70
     0
102
RTVSPropertyOp53
 70
     1
102
RTVSPropertyOp54
 70
     1
102
RTVSPropertyOp55
 70
     1
102
RTVSPropertyOp56
 70
     1
102
RTVSPropertyOp57
 70
     1
102
RTVSPost2010Prop28
280
     0
102
RTVSPost2010PropOp28
 70
     1
102
RTVSPost2010Prop29
280
     1
102
RTVSPost2010PropOp29
 70
     1
102
RTVSPost2010Prop30
280
     1
102
RTVSPost2010PropOp30
 70
     1
102
RTVSPost2010Prop31
280
     0
102
RTVSPost2010PropOp31
 70
     1
102
RTVSPost2010Prop32
280
     0
102
RTVSPost2010PropOp32
 70
     1
102
RTVSPost2010Prop33
280
     0
102
RTVSPost2010PropOp33
 70
     1
102
RTVSPost2010Prop34
280
     0
102
RTVSPost2010PropOp34
 70
     1
102
RTVSPost2010Prop35
280
     0
102
RTVSPost2010PropOp35
 70
     1
102
RTVSPost2010Prop36
280
     0
102
RTVSPost2010PropOp36
 70
     1
102
RTVSPost2010Prop37
 90
       50
102
RTVSPost2010PropOp37
 70
     1
102
RTVSPost2010Prop38
140
0.0
102
RTVSPost2010PropOp38
 70
     1
102
RTVSPost2010Prop39
140
1.0
102
RTVSPost2010PropOp39
 70
     1
102
RTVSPost2010Prop40
 90
        0
102
RTVSPost2010PropOp40
 70
     1
102
RTVSPost2010Prop41ColorIndex
 90
       18
102
RTVSPost2010Prop41ColorRGB
 90
        0
102
RTVSPost2010PropOp41
 70
     1
102
RTVSPost2010Prop42
 90
       50
102
RTVSPost2010PropOp42
 70
     1
102
RTVSPost2010Prop43
 90
        3
102
RTVSPost2010PropOp43
 70
     1
102
RTVSPost2010Prop44ColorIndex
 90
        5
102
RTVSPost2010Prop44ColorRGB
 90
      255
102
RTVSPost2010PropOp44
 70
     1
102
RTVSPost2010Prop45
280
     0
102
RTVSPost2010PropOp45
 70
     1
102
RTVSPost2010Prop46
 90
       50
102
RTVSPost2010PropOp46
 70
     1
102
RTVSPost2010Prop47
 90
       50
102
RTVSPost2010PropOp47
 70
     1
102
RTVSPost2010Prop48
 90
       50
102
RTVSPost2010PropOp48
 70
     1
102
RTVSPost2010Prop49
280
     0
102
RTVSPost2010PropOp49
 70
     1
102
RTVSPost2010Prop50
 90
       50
102
RTVSPost2010PropOp50
 70
     1
102
RTVSPost2010Prop51ColorIndex
 90
      256
102
RTVSPost2010Prop51ColorRGB
 90
-16777216
102
RTVSPost2010PropOp51
 70
     0
102
RTVSPost2010Prop52
140
1.0
102
RTVSPost2010PropOp52
 70
     0
102
RTVSPost2010Prop53
 90
        2
102
RTVSPost2010PropOp53
 70
     1
102
RTVSPost2010Prop54
  1
strokes_ogs.tif
102
RTVSPost2010PropOp54
 70
     1
102
RTVSPost2010Prop55
280
     0
102
RTVSPost2010PropOp55
 70
     1
102
RTVSPost2010Prop56
140
1.0
102
RTVSPost2010PropOp56
 70
     1
102
RTVSPost2010Prop57
140
1.0
102
RTVSPost2010PropOp57
 70
     1
  0
XRECORD
  5
7C
102
{ACAD_REACTORS
330
7B
102
}
330
7B
100
AcDbXrecord
280
     1
102
RTVSPropertyOp0
 70
     1
102
RTVSPropertyOp1
 70
     1
102
RTVSPropertyOp2
 70
     1
102
RTVSPropertyOp3
 70
     1
102
RTVSPropertyOp4
 70
     1
102
RTVSPropertyOp5
 70
     1
102
RTVSPropertyOp6
 70
     1
102
RTVSPropertyOp7
 70
     1
102
RTVSPropertyOp8
 70
     1
102
RTVSPropertyOp9
 70
     1
102
RTVSPropertyOp10
 70
     1
102
RTVSPropertyOp11
 70
     1
102
RTVSPropertyOp12
 70
     1
102
RTVSPropertyOp13
 70
     1
102
RTVSPropertyOp14
 70
     1
102
RTVSPropertyOp15
 70
     1
102
RTVSPropertyOp16
 70
     1
102
RTVSPropertyOp17
 70
     1
102
RTVSPropertyOp18
 70
     1
102
RTVSPropertyOp19
 70
     1
102
RTVSPropertyOp20
 70
     1
102
RTVSPropertyOp21
 70
     1
102
RTVSPropertyOp22
 70
     1
102
RTVSPropertyOp23
 70
     1
102
RTVSPropertyOp24
 70
     1
102
RTVSPropertyOp25
 70
     1
102
RTVSPropertyOp26
 70
     1
102
RTVSPropertyOp27
 70
     1
102
RTVSPropertyOp28
 70
     1
102
RTVSPropertyOp29
 70
     1
102
RTVSPropertyOp30
 70
     1
102
RTVSPropertyOp31
 70
     1
102
RTVSPropertyOp32
 70
     1
102
RTVSPropertyOp33
 70
     1
102
RTVSPropertyOp34
 70
     1
102
RTVSPropertyOp35
 70
     1
102
RTVSPropertyOp36
 70
     1
102
RTVSPropertyOp37
 70
     1
102
RTVSPropertyOp38
 70
     1
102
RTVSPropertyOp39
 70
     1
102
RTVSPropertyOp40
 70
     1
102
RTVSPropertyOp41
 70
     1
102
RTVSPropertyOp42
 70
     1
102
RTVSPropertyOp43
 70
     1
102
RTVSPropertyOp44
 70
     1
102
RTVSPropertyOp45
 70
     1
102
RTVSPropertyOp46
 70
     1
102
RTVSPropertyOp47
 70
     1
102
RTVSPropertyOp48
 70
     1
102
RTVSPropertyOp49
 70
     1
102
RTVSPropertyOp50
 70
     1
102
RTVSPropertyOp51
 70
     0
102
RTVSPropertyOp52
 70
     0
102
RTVSPropertyOp53
 70
     1
102
RTVSPropertyOp54
 70
     1
102
RTVSPropertyOp55
 70
     1
102
RTVSPropertyOp56
 70
     1
102
RTVSPropertyOp57
 70
     1
102
RTVSPost2010Prop28
280
     0
102
RTVSPost2010PropOp28
 70
     1
102
RTVSPost2010Prop29
280
     1
102
RTVSPost2010PropOp29
 70
     1
102
RTVSPost2010Prop30
280
     1
102
RTVSPost2010PropOp30
 70
     1
102
RTVSPost2010Prop31
280
     0
102
RTVSPost2010PropOp31
 70
     1
102
RTVSPost2010Prop32
280
     0
102
RTVSPost2010PropOp32
 70
     1
102
RTVSPost2010Prop33
280
     0
102
RTVSPost2010PropOp33
 70
     1
102
RTVSPost2010Prop34
280
     0
102
RTVSPost2010PropOp34
 70
     1
102
RTVSPost2010Prop35
280
     0
102
RTVSPost2010PropOp35
 70
     1
102
RTVSPost2010Prop36
280
     0
102
RTVSPost2010PropOp36
 70
     1
102
RTVSPost2010Prop37
 90
       50
102
RTVSPost2010PropOp37
 70
     1
102
RTVSPost2010Prop38
140
0.0
102
RTVSPost2010PropOp38
 70
     1
102
RTVSPost2010Prop39
140
1.0
102
RTVSPost2010PropOp39
 70
     1
102
RTVSPost2010Prop40
 90
        0
102
RTVSPost2010PropOp40
 70
     1
102
RTVSPost2010Prop41ColorIndex
 90
       18
102
RTVSPost2010Prop41ColorRGB
 90
        0
102
RTVSPost2010PropOp41
 70
     1
102
RTVSPost2010Prop42
 90
       50
102
RTVSPost2010PropOp42
 70
     1
102
RTVSPost2010Prop43
 90
        3
102
RTVSPost2010PropOp43
 70
     1
102
RTVSPost2010Prop44ColorIndex
 90
        5
102
RTVSPost2010Prop44ColorRGB
 90
      255
102
RTVSPost2010PropOp44
 70
     1
102
RTVSPost2010Prop45
280
     0
102
RTVSPost2010PropOp45
 70
     1
102
RTVSPost2010Prop46
 90
       50
102
RTVSPost2010PropOp46
 70
     1
102
RTVSPost2010Prop47
 90
       50
102
RTVSPost2010PropOp47
 70
     1
102
RTVSPost2010Prop48
 90
       50
102
RTVSPost2010PropOp48
 70
     1
102
RTVSPost2010Prop49
280
     0
102
RTVSPost2010PropOp49
 70
     1
102
RTVSPost2010Prop50
 90
       50
102
RTVSPost2010PropOp50
 70
     1
102
RTVSPost2010Prop51ColorIndex
 90
      256
102
RTVSPost2010Prop51ColorRGB
 90
-16777216
102
RTVSPost2010PropOp51
 70
     0
102
RTVSPost2010Prop52
140
1.0
102
RTVSPost2010PropOp52
 70
     0
102
RTVSPost2010Prop53
 90
        2
102
RTVSPost2010PropOp53
 70
     1
102
RTVSPost2010Prop54
  1
strokes_ogs.tif
102
RTVSPost2010PropOp54
 70
     1
102
RTVSPost2010Prop55
280
     0
102
RTVSPost2010PropOp55
 70
     1
102
RTVSPost2010Prop56
140
1.0
102
RTVSPost2010PropOp56
 70
     1
102
RTVSPost2010Prop57
140
1.0
102
RTVSPost2010PropOp57
 70
     1
  0
XRECORD
  5
7E
102
{ACAD_REACTORS
330
7D
102
}
330
7D
100
AcDbXrecord
280
     1
102
RTVSPropertyOp0
 70
     1
102
RTVSPropertyOp1
 70
     1
102
RTVSPropertyOp2
 70
     1
102
RTVSPropertyOp3
 70
     1
102
RTVSPropertyOp4
 70
     1
102
RTVSPropertyOp5
 70
     1
102
RTVSPropertyOp6
 70
     1
102
RTVSPropertyOp7
 70
     1
102
RTVSPropertyOp8
 70
     1
102
RTVSPropertyOp9
 70
     1
102
RTVSPropertyOp10
 70
     1
102
RTVSPropertyOp11
 70
     1
102
RTVSPropertyOp12
 70
     1
102
RTVSPropertyOp13
 70
     1
102
RTVSPropertyOp14
 70
     1
102
RTVSPropertyOp15
 70
     1
102
RTVSPropertyOp16
 70
     1
102
RTVSPropertyOp17
 70
     1
102
RTVSPropertyOp18
 70
     1
102
RTVSPropertyOp19
 70
     1
102
RTVSPropertyOp20
 70
     1
102
RTVSPropertyOp21
 70
     1
102
RTVSPropertyOp22
 70
     1
102
RTVSPropertyOp23
 70
     1
102
RTVSPropertyOp24
 70
     1
102
RTVSPropertyOp25
 70
     1
102
RTVSPropertyOp26
 70
     1
102
RTVSPropertyOp27
 70
     1
102
RTVSPropertyOp28
 70
     1
102
RTVSPropertyOp29
 70
     1
102
RTVSPropertyOp30
 70
     1
102
RTVSPropertyOp31
 70
     1
102
RTVSPropertyOp32
 70
     1
102
RTVSPropertyOp33
 70
     1
102
RTVSPropertyOp34
 70
     1
102
RTVSPropertyOp35
 70
     1
102
RTVSPropertyOp36
 70
     1
102
RTVSPropertyOp37
 70
     1
102
RTVSPropertyOp38
 70
     1
102
RTVSPropertyOp39
 70
     1
102
RTVSPropertyOp40
 70
     1
102
RTVSPropertyOp41
 70
     1
102
RTVSPropertyOp42
 70
     1
102
RTVSPropertyOp43
 70
     1
102
RTVSPropertyOp44
 70
     1
102
RTVSPropertyOp45
 70
     1
102
RTVSPropertyOp46
 70
     1
102
RTVSPropertyOp47
 70
     1
102
RTVSPropertyOp48
 70
     1
102
RTVSPropertyOp49
 70
     1
102
RTVSPropertyOp50
 70
     1
102
RTVSPropertyOp51
 70
     0
102
RTVSPropertyOp52
 70
     0
102
RTVSPropertyOp53
 70
     1
102
RTVSPropertyOp54
 70
     1
102
RTVSPropertyOp55
 70
     1
102
RTVSPropertyOp56
 70
     1
102
RTVSPropertyOp57
 70
     1
102
RTVSPost2010Prop28
280
     0
102
RTVSPost2010PropOp28
 70
     1
102
RTVSPost2010Prop29
280
     1
102
RTVSPost2010PropOp29
 70
     1
102
RTVSPost2010Prop30
280
     1
102
RTVSPost2010PropOp30
 70
     1
102
RTVSPost2010Prop31
280
     0
102
RTVSPost2010PropOp31
 70
     1
102
RTVSPost2010Prop32
280
     0
102
RTVSPost2010PropOp32
 70
     1
102
RTVSPost2010Prop33
280
     0
102
RTVSPost2010PropOp33
 70
     1
102
RTVSPost2010Prop34
280
     0
102
RTVSPost2010PropOp34
 70
     1
102
RTVSPost2010Prop35
280
     0
102
RTVSPost2010PropOp35
 70
     1
102
RTVSPost2010Prop36
280
     0
102
RTVSPost2010PropOp36
 70
     1
102
RTVSPost2010Prop37
 90
       50
102
RTVSPost2010PropOp37
 70
     1
102
RTVSPost2010Prop38
140
0.0
102
RTVSPost2010PropOp38
 70
     1
102
RTVSPost2010Prop39
140
1.0
102
RTVSPost2010PropOp39
 70
     1
102
RTVSPost2010Prop40
 90
        0
102
RTVSPost2010PropOp40
 70
     1
102
RTVSPost2010Prop41ColorIndex
 90
       18
102
RTVSPost2010Prop41ColorRGB
 90
        0
102
RTVSPost2010PropOp41
 70
     1
102
RTVSPost2010Prop42
 90
       50
102
RTVSPost2010PropOp42
 70
     1
102
RTVSPost2010Prop43
 90
        3
102
RTVSPost2010PropOp43
 70
     1
102
RTVSPost2010Prop44ColorIndex
 90
        5
102
RTVSPost2010Prop44ColorRGB
 90
      255
102
RTVSPost2010PropOp44
 70
     1
102
RTVSPost2010Prop45
280
     0
102
RTVSPost2010PropOp45
 70
     1
102
RTVSPost2010Prop46
 90
       50
102
RTVSPost2010PropOp46
 70
     1
102
RTVSPost2010Prop47
 90
       50
102
RTVSPost2010PropOp47
 70
     1
102
RTVSPost2010Prop48
 90
       50
102
RTVSPost2010PropOp48
 70
     1
102
RTVSPost2010Prop49
280
     0
102
RTVSPost2010PropOp49
 70
     1
102
RTVSPost2010Prop50
 90
       50
102
RTVSPost2010PropOp50
 70
     1
102
RTVSPost2010Prop51ColorIndex
 90
      256
102
RTVSPost2010Prop51ColorRGB
 90
-16777216
102
RTVSPost2010PropOp51
 70
     0
102
RTVSPost2010Prop52
140
1.0
102
RTVSPost2010PropOp52
 70
     0
102
RTVSPost2010Prop53
 90
        2
102
RTVSPost2010PropOp53
 70
     1
102
RTVSPost2010Prop54
  1
strokes_ogs.tif
102
RTVSPost2010PropOp54
 70
     1
102
RTVSPost2010Prop55
280
     0
102
RTVSPost2010PropOp55
 70
     1
102
RTVSPost2010Prop56
140
1.0
102
RTVSPost2010PropOp56
 70
     1
102
RTVSPost2010Prop57
140
1.0
102
RTVSPost2010PropOp57
 70
     1
  0
XRECORD
  5
92
102
{ACAD_REACTORS
330
91
102
}
330
91
100
AcDbXrecord
280
     1
102
RTVSPropertyOp0
 70
     1
102
RTVSPropertyOp1
 70
     1
102
RTVSPropertyOp2
 70
     1
102
RTVSPropertyOp3
 70
     1
102
RTVSPropertyOp4
 70
     1
102
RTVSPropertyOp5
 70
     1
102
RTVSPropertyOp6
 70
     1
102
RTVSPropertyOp7
 70
     1
102
RTVSPropertyOp8
 70
     1
102
RTVSPropertyOp9
 70
     1
102
RTVSPropertyOp10
 70
     1
102
RTVSPropertyOp11
 70
     1
102
RTVSPropertyOp12
 70
     1
102
RTVSPropertyOp13
 70
     1
102
RTVSPropertyOp14
 70
     1
102
RTVSPropertyOp15
 70
     1
102
RTVSPropertyOp16
 70
     1
102
RTVSPropertyOp17
 70
     1
102
RTVSPropertyOp18
 70
     1
102
RTVSPropertyOp19
 70
     1
102
RTVSPropertyOp20
 70
     1
102
RTVSPropertyOp21
 70
     1
102
RTVSPropertyOp22
 70
     1
102
RTVSPropertyOp23
 70
     1
102
RTVSPropertyOp24
 70
     1
102
RTVSPropertyOp25
 70
     1
102
RTVSPropertyOp26
 70
     1
102
RTVSPropertyOp27
 70
     1
102
RTVSPropertyOp28
 70
     1
102
RTVSPropertyOp29
 70
     1
102
RTVSPropertyOp30
 70
     1
102
RTVSPropertyOp31
 70
     1
102
RTVSPropertyOp32
 70
     1
102
RTVSPropertyOp33
 70
     1
102
RTVSPropertyOp34
 70
     1
102
RTVSPropertyOp35
 70
     1
102
RTVSPropertyOp36
 70
     1
102
RTVSPropertyOp37
 70
     1
102
RTVSPropertyOp38
 70
     1
102
RTVSPropertyOp39
 70
     1
102
RTVSPropertyOp40
 70
     1
102
RTVSPropertyOp41
 70
     1
102
RTVSPropertyOp42
 70
     1
102
RTVSPropertyOp43
 70
     1
102
RTVSPropertyOp44
 70
     1
102
RTVSPropertyOp45
 70
     1
102
RTVSPropertyOp46
 70
     1
102
RTVSPropertyOp47
 70
     1
102
RTVSPropertyOp48
 70
     1
102
RTVSPropertyOp49
 70
     1
102
RTVSPropertyOp50
 70
     1
102
RTVSPropertyOp51
 70
     0
102
RTVSPropertyOp52
 70
     0
102
RTVSPropertyOp53
 70
     1
102
RTVSPropertyOp54
 70
     1
102
RTVSPropertyOp55
 70
     1
102
RTVSPropertyOp56
 70
     1
102
RTVSPropertyOp57
 70
     1
102
RTVSPost2010Prop28
280
     0
102
RTVSPost2010PropOp28
 70
     1
102
RTVSPost2010Prop29
280
     1
102
RTVSPost2010PropOp29
 70
     1
102
RTVSPost2010Prop30
280
     1
102
RTVSPost2010PropOp30
 70
     1
102
RTVSPost2010Prop31
280
     0
102
RTVSPost2010PropOp31
 70
     1
102
RTVSPost2010Prop32
280
     0
102
RTVSPost2010PropOp32
 70
     1
102
RTVSPost2010Prop33
280
     0
102
RTVSPost2010PropOp33
 70
     1
102
RTVSPost2010Prop34
280
     0
102
RTVSPost2010PropOp34
 70
     1
102
RTVSPost2010Prop35
280
     0
102
RTVSPost2010PropOp35
 70
     1
102
RTVSPost2010Prop36
280
     0
102
RTVSPost2010PropOp36
 70
     1
102
RTVSPost2010Prop37
 90
       50
102
RTVSPost2010PropOp37
 70
     1
102
RTVSPost2010Prop38
140
0.0
102
RTVSPost2010PropOp38
 70
     1
102
RTVSPost2010Prop39
140
1.0
102
RTVSPost2010PropOp39
 70
     1
102
RTVSPost2010Prop40
 90
        0
102
RTVSPost2010PropOp40
 70
     1
102
RTVSPost2010Prop41ColorIndex
 90
       18
102
RTVSPost2010Prop41ColorRGB
 90
        0
102
RTVSPost2010PropOp41
 70
     1
102
RTVSPost2010Prop42
 90
       50
102
RTVSPost2010PropOp42
 70
     1
102
RTVSPost2010Prop43
 90
        3
102
RTVSPost2010PropOp43
 70
     1
102
RTVSPost2010Prop44ColorIndex
 90
        5
102
RTVSPost2010Prop44ColorRGB
 90
      255
102
RTVSPost2010PropOp44
 70
     1
102
RTVSPost2010Prop45
280
     0
102
RTVSPost2010PropOp45
 70
     1
102
RTVSPost2010Prop46
 90
       50
102
RTVSPost2010PropOp46
 70
     1
102
RTVSPost2010Prop47
 90
       50
102
RTVSPost2010PropOp47
 70
     1
102
RTVSPost2010Prop48
 90
       50
102
RTVSPost2010PropOp48
 70
     1
102
RTVSPost2010Prop49
280
     0
102
RTVSPost2010PropOp49
 70
     1
102
RTVSPost2010Prop50
 90
       50
102
RTVSPost2010PropOp50
 70
     1
102
RTVSPost2010Prop51ColorIndex
 90
      256
102
RTVSPost2010Prop51ColorRGB
 90
-16777216
102
RTVSPost2010PropOp51
 70
     0
102
RTVSPost2010Prop52
140
1.0
102
RTVSPost2010PropOp52
 70
     0
102
RTVSPost2010Prop53
 90
        2
102
RTVSPost2010PropOp53
 70
     1
102
RTVSPost2010Prop54
  1
strokes_ogs.tif
102
RTVSPost2010PropOp54
 70
     1
102
RTVSPost2010Prop55
280
     0
102
RTVSPost2010PropOp55
 70
     1
102
RTVSPost2010Prop56
140
1.0
102
RTVSPost2010PropOp56
 70
     1
102
RTVSPost2010Prop57
140
1.0
102
RTVSPost2010PropOp57
 70
     1
  0
XRECORD
  5
88
102
{ACAD_REACTORS
330
87
102
}
330
87
100
AcDbXrecord
280
     1
102
RTVSPropertyOp0
 70
     1
102
RTVSPropertyOp1
 70
     1
102
RTVSPropertyOp2
 70
     1
102
RTVSPropertyOp3
 70
     1
102
RTVSPropertyOp4
 70
     1
102
RTVSPropertyOp5
 70
     1
102
RTVSPropertyOp6
 70
     1
102
RTVSPropertyOp7
 70
     1
102
RTVSPropertyOp8
 70
     1
102
RTVSPropertyOp9
 70
     1
102
RTVSPropertyOp10
 70
     1
102
RTVSPropertyOp11
 70
     1
102
RTVSPropertyOp12
 70
     1
102
RTVSPropertyOp13
 70
     1
102
RTVSPropertyOp14
 70
     1
102
RTVSPropertyOp15
 70
     1
102
RTVSPropertyOp16
 70
     1
102
RTVSPropertyOp17
 70
     1
102
RTVSPropertyOp18
 70
     1
102
RTVSPropertyOp19
 70
     1
102
RTVSPropertyOp20
 70
     1
102
RTVSPropertyOp21
 70
     1
102
RTVSPropertyOp22
 70
     1
102
RTVSPropertyOp23
 70
     1
102
RTVSPropertyOp24
 70
     1
102
RTVSPropertyOp25
 70
     1
102
RTVSPropertyOp26
 70
     1
102
RTVSPropertyOp27
 70
     1
102
RTVSPropertyOp28
 70
     1
102
RTVSPropertyOp29
 70
     1
102
RTVSPropertyOp30
 70
     1
102
RTVSPropertyOp31
 70
     1
102
RTVSPropertyOp32
 70
     1
102
RTVSPropertyOp33
 70
     1
102
RTVSPropertyOp34
 70
     1
102
RTVSPropertyOp35
 70
     1
102
RTVSPropertyOp36
 70
     1
102
RTVSPropertyOp37
 70
     1
102
RTVSPropertyOp38
 70
     1
102
RTVSPropertyOp39
 70
     1
102
RTVSPropertyOp40
 70
     1
102
RTVSPropertyOp41
 70
     1
102
RTVSPropertyOp42
 70
     1
102
RTVSPropertyOp43
 70
     1
102
RTVSPropertyOp44
 70
     1
102
RTVSPropertyOp45
 70
     1
102
RTVSPropertyOp46
 70
     1
102
RTVSPropertyOp47
 70
     1
102
RTVSPropertyOp48
 70
     1
102
RTVSPropertyOp49
 70
     1
102
RTVSPropertyOp50
 70
     1
102
RTVSPropertyOp51
 70
     0
102
RTVSPropertyOp52
 70
     0
102
RTVSPropertyOp53
 70
     1
102
RTVSPropertyOp54
 70
     1
102
RTVSPropertyOp55
 70
     1
102
RTVSPropertyOp56
 70
     1
102
RTVSPropertyOp57
 70
     1
102
RTVSPost2010Prop28
280
     0
102
RTVSPost2010PropOp28
 70
     1
102
RTVSPost2010Prop29
280
     1
102
RTVSPost2010PropOp29
 70
     1
102
RTVSPost2010Prop30
280
     1
102
RTVSPost2010PropOp30
 70
     1
102
RTVSPost2010Prop31
280
     0
102
RTVSPost2010PropOp31
 70
     1
102
RTVSPost2010Prop32
280
     0
102
RTVSPost2010PropOp32
 70
     1
102
RTVSPost2010Prop33
280
     0
102
RTVSPost2010PropOp33
 70
     1
102
RTVSPost2010Prop34
280
     0
102
RTVSPost2010PropOp34
 70
     1
102
RTVSPost2010Prop35
280
     0
102
RTVSPost2010PropOp35
 70
     1
102
RTVSPost2010Prop36
280
     0
102
RTVSPost2010PropOp36
 70
     1
102
RTVSPost2010Prop37
 90
       50
102
RTVSPost2010PropOp37
 70
     1
102
RTVSPost2010Prop38
140
0.0
102
RTVSPost2010PropOp38
 70
     1
102
RTVSPost2010Prop39
140
1.0
102
RTVSPost2010PropOp39
 70
     1
102
RTVSPost2010Prop40
 90
        0
102
RTVSPost2010PropOp40
 70
     1
102
RTVSPost2010Prop41ColorIndex
 90
       18
102
RTVSPost2010Prop41ColorRGB
 90
        0
102
RTVSPost2010PropOp41
 70
     1
102
RTVSPost2010Prop42
 90
       50
102
RTVSPost2010PropOp42
 70
     1
102
RTVSPost2010Prop43
 90
        3
102
RTVSPost2010PropOp43
 70
     1
102
RTVSPost2010Prop44ColorIndex
 90
        5
102
RTVSPost2010Prop44ColorRGB
 90
      255
102
RTVSPost2010PropOp44
 70
     1
102
RTVSPost2010Prop45
280
     0
102
RTVSPost2010PropOp45
 70
     1
102
RTVSPost2010Prop46
 90
       50
102
RTVSPost2010PropOp46
 70
     1
102
RTVSPost2010Prop47
 90
       50
102
RTVSPost2010PropOp47
 70
     1
102
RTVSPost2010Prop48
 90
       50
102
RTVSPost2010PropOp48
 70
     1
102
RTVSPost2010Prop49
280
     0
102
RTVSPost2010PropOp49
 70
     1
102
RTVSPost2010Prop50
 90
       50
102
RTVSPost2010PropOp50
 70
     1
102
RTVSPost2010Prop51ColorIndex
 90
      256
102
RTVSPost2010Prop51ColorRGB
 90
-16777216
102
RTVSPost2010PropOp51
 70
     0
102
RTVSPost2010Prop52
140
1.0
102
RTVSPost2010PropOp52
 70
     0
102
RTVSPost2010Prop53
 90
        2
102
RTVSPost2010PropOp53
 70
     1
102
RTVSPost2010Prop54
  1
strokes_ogs.tif
102
RTVSPost2010PropOp54
 70
     1
102
RTVSPost2010Prop55
280
     0
102
RTVSPost2010PropOp55
 70
     1
102
RTVSPost2010Prop56
140
1.0
102
RTVSPost2010PropOp56
 70
     1
102
RTVSPost2010Prop57
140
1.0
102
RTVSPost2010PropOp57
 70
     1
  0
XRECORD
  5
90
102
{ACAD_REACTORS
330
8F
102
}
330
8F
100
AcDbXrecord
280
     1
102
RTVSPropertyOp0
 70
     1
102
RTVSPropertyOp1
 70
     1
102
RTVSPropertyOp2
 70
     1
102
RTVSPropertyOp3
 70
     1
102
RTVSPropertyOp4
 70
     1
102
RTVSPropertyOp5
 70
     1
102
RTVSPropertyOp6
 70
     1
102
RTVSPropertyOp7
 70
     1
102
RTVSPropertyOp8
 70
     1
102
RTVSPropertyOp9
 70
     1
102
RTVSPropertyOp10
 70
     1
102
RTVSPropertyOp11
 70
     1
102
RTVSPropertyOp12
 70
     1
102
RTVSPropertyOp13
 70
     1
102
RTVSPropertyOp14
 70
     1
102
RTVSPropertyOp15
 70
     1
102
RTVSPropertyOp16
 70
     1
102
RTVSPropertyOp17
 70
     1
102
RTVSPropertyOp18
 70
     1
102
RTVSPropertyOp19
 70
     1
102
RTVSPropertyOp20
 70
     1
102
RTVSPropertyOp21
 70
     1
102
RTVSPropertyOp22
 70
     1
102
RTVSPropertyOp23
 70
     1
102
RTVSPropertyOp24
 70
     1
102
RTVSPropertyOp25
 70
     1
102
RTVSPropertyOp26
 70
     1
102
RTVSPropertyOp27
 70
     1
102
RTVSPropertyOp28
 70
     1
102
RTVSPropertyOp29
 70
     1
102
RTVSPropertyOp30
 70
     1
102
RTVSPropertyOp31
 70
     1
102
RTVSPropertyOp32
 70
     1
102
RTVSPropertyOp33
 70
     1
102
RTVSPropertyOp34
 70
     1
102
RTVSPropertyOp35
 70
     1
102
RTVSPropertyOp36
 70
     1
102
RTVSPropertyOp37
 70
     1
102
RTVSPropertyOp38
 70
     1
102
RTVSPropertyOp39
 70
     1
102
RTVSPropertyOp40
 70
     1
102
RTVSPropertyOp41
 70
     1
102
RTVSPropertyOp42
 70
     1
102
RTVSPropertyOp43
 70
     1
102
RTVSPropertyOp44
 70
     1
102
RTVSPropertyOp45
 70
     1
102
RTVSPropertyOp46
 70
     1
102
RTVSPropertyOp47
 70
     1
102
RTVSPropertyOp48
 70
     1
102
RTVSPropertyOp49
 70
     1
102
RTVSPropertyOp50
 70
     1
102
RTVSPropertyOp51
 70
     0
102
RTVSPropertyOp52
 70
     0
102
RTVSPropertyOp53
 70
     1
102
RTVSPropertyOp54
 70
     1
102
RTVSPropertyOp55
 70
     1
102
RTVSPropertyOp56
 70
     1
102
RTVSPropertyOp57
 70
     1
102
RTVSPost2010Prop28
280
     0
102
RTVSPost2010PropOp28
 70
     1
102
RTVSPost2010Prop29
280
     1
102
RTVSPost2010PropOp29
 70
     1
102
RTVSPost2010Prop30
280
     1
102
RTVSPost2010PropOp30
 70
     1
102
RTVSPost2010Prop31
280
     0
102
RTVSPost2010PropOp31
 70
     1
102
RTVSPost2010Prop32
280
     0
102
RTVSPost2010PropOp32
 70
     1
102
RTVSPost2010Prop33
280
     0
102
RTVSPost2010PropOp33
 70
     1
102
RTVSPost2010Prop34
280
     0
102
RTVSPost2010PropOp34
 70
     1
102
RTVSPost2010Prop35
280
     0
102
RTVSPost2010PropOp35
 70
     1
102
RTVSPost2010Prop36
280
     0
102
RTVSPost2010PropOp36
 70
     1
102
RTVSPost2010Prop37
 90
       50
102
RTVSPost2010PropOp37
 70
     1
102
RTVSPost2010Prop38
140
0.0
102
RTVSPost2010PropOp38
 70
     1
102
RTVSPost2010Prop39
140
1.0
102
RTVSPost2010PropOp39
 70
     1
102
RTVSPost2010Prop40
 90
        0
102
RTVSPost2010PropOp40
 70
     1
102
RTVSPost2010Prop41ColorIndex
 90
       18
102
RTVSPost2010Prop41ColorRGB
 90
        0
102
RTVSPost2010PropOp41
 70
     1
102
RTVSPost2010Prop42
 90
       50
102
RTVSPost2010PropOp42
 70
     1
102
RTVSPost2010Prop43
 90
        3
102
RTVSPost2010PropOp43
 70
     1
102
RTVSPost2010Prop44ColorIndex
 90
        5
102
RTVSPost2010Prop44ColorRGB
 90
      255
102
RTVSPost2010PropOp44
 70
     1
102
RTVSPost2010Prop45
280
     0
102
RTVSPost2010PropOp45
 70
     1
102
RTVSPost2010Prop46
 90
       50
102
RTVSPost2010PropOp46
 70
     1
102
RTVSPost2010Prop47
 90
       50
102
RTVSPost2010PropOp47
 70
     1
102
RTVSPost2010Prop48
 90
       50
102
RTVSPost2010PropOp48
 70
     1
102
RTVSPost2010Prop49
280
     0
102
RTVSPost2010PropOp49
 70
     1
102
RTVSPost2010Prop50
 90
       50
102
RTVSPost2010PropOp50
 70
     1
102
RTVSPost2010Prop51ColorIndex
 90
      256
102
RTVSPost2010Prop51ColorRGB
 90
-16777216
102
RTVSPost2010PropOp51
 70
     0
102
RTVSPost2010Prop52
140
1.0
102
RTVSPost2010PropOp52
 70
     0
102
RTVSPost2010Prop53
 90
        2
102
RTVSPost2010PropOp53
 70
     1
102
RTVSPost2010Prop54
  1
strokes_ogs.tif
102
RTVSPost2010PropOp54
 70
     1
102
RTVSPost2010Prop55
280
     0
102
RTVSPost2010PropOp55
 70
     1
102
RTVSPost2010Prop56
140
1.0
102
RTVSPost2010PropOp56
 70
     1
102
RTVSPost2010Prop57
140
1.0
102
RTVSPost2010PropOp57
 70
     1
  0
ENDSEC
  0
EOF
