  0
SECTION
  2
HEADER
  9
$ACADVER
  1
AC1018
  9
$ACADMAINTVER
 70
     0
  9
$DWGCODEPAGE
  3
ANSI_1252
  9
$INSBASE
 10
0.0
 20
0.0
 30
0.0
  9
$EXTMIN
 10
0.0
 20
0.0
 30
0.0
  9
$EXTMAX
 10
2440.0
 20
1220.0
 30
0.0
  9
$LIMMIN
 10
0.0
 20
0.0
  9
$LIMMAX
 10
12.0
 20
9.0
  9
$ORTHOMODE
 70
     0
  9
$REGENMODE
 70
     1
  9
$FILLMODE
 70
     1
  9
$QTEXTMODE
 70
     0
  9
$MIRRTEXT
 70
     1
  9
$LTSCALE
 40
1.0
  9
$ATTMODE
 70
     1
  9
$TEXTSIZE
 40
0.2
  9
$TRACEWID
 40
0.05
  9
$TEXTSTYLE
  7
Standard
  9
$CLAYER
  8
PREDETERMINADA
  9
$CELTYPE
  6
ByLayer
  9
$CECOLOR
 62
   256
  9
$CELTSCALE
 40
1.0
  9
$DISPSILH
 70
     0
  9
$DIMSCALE
 40
1.0
  9
$DIMASZ
 40
0.18
  9
$DIMEXO
 40
0.0625
  9
$DIMDLI
 40
0.38
  9
$DIMRND
 40
0.0
  9
$DIMDLE
 40
0.0
  9
$DIMEXE
 40
0.18
  9
$DIMTP
 40
0.0
  9
$DIMTM
 40
0.0
  9
$DIMTXT
 40
0.18
  9
$DIMCEN
 40
0.09
  9
$DIMTSZ
 40
0.0
  9
$DIMTOL
 70
     0
  9
$DIMLIM
 70
     0
  9
$DIMTIH
 70
     1
  9
$DIMTOH
 70
     1
  9
$DIMSE1
 70
     0
  9
$DIMSE2
 70
     0
  9
$DIMTAD
 70
     0
  9
$DIMZIN
 70
     0
  9
$DIMBLK
  1

  9
$DIMASO
 70
     1
  9
$DIMSHO
 70
     1
  9
$DIMPOST
  1

  9
$DIMAPOST
  1

  9
$DIMALT
 70
     0
  9
$DIMALTD
 70
     2
  9
$DIMALTF
 40
25.4
  9
$DIMLFAC
 40
1.0
  9
$DIMTOFL
 70
     0
  9
$DIMTVP
 40
0.0
  9
$DIMTIX
 70
     0
  9
$DIMSOXD
 70
     0
  9
$DIMSAH
 70
     0
  9
$DIMBLK1
  1

  9
$DIMBLK2
  1

  9
$DIMSTYLE
  2
Standard
  9
$DIMCLRD
 70
     0
  9
$DIMCLRE
 70
     0
  9
$DIMCLRT
 70
     0
  9
$DIMTFAC
 40
1.0
  9
$DIMGAP
 40
0.09
  9
$DIMJUST
 70
     0
  9
$DIMSD1
 70
     0
  9
$DIMSD2
 70
     0
  9
$DIMTOLJ
 70
     1
  9
$DIMTZIN
 70
     0
  9
$DIMALTZ
 70
     0
  9
$DIMALTTZ
 70
     0
  9
$DIMUPT
 70
     0
  9
$DIMDEC
 70
     4
  9
$DIMTDEC
 70
     4
  9
$DIMALTU
 70
     2
  9
$DIMALTTD
 70
     2
  9
$DIMTXSTY
  7
Standard
  9
$DIMAUNIT
 70
     0
  9
$DIMADEC
 70
     0
  9
$DIMALTRND
 40
0.0
  9
$DIMAZIN
 70
     0
  9
$DIMDSEP
 70
    46
  9
$DIMATFIT
 70
     3
  9
$DIMFRAC
 70
     0
  9
$DIMLDRBLK
  1

  9
$DIMLUNIT
 70
     2
  9
$DIMLWD
 70
    -2
  9
$DIMLWE
 70
    -2
  9
$DIMTMOVE
 70
     0
  9
$LUNITS
 70
     2
  9
$LUPREC
 70
     2
  9
$SKETCHINC
 40
0.1
  9
$FILLETRAD
 40
0.5
  9
$AUNITS
 70
     0
  9
$AUPREC
 70
     0
  9
$MENU
  1
.
  9
$ELEVATION
 40
0.0
  9
$PELEVATION
 40
0.0
  9
$THICKNESS
 40
0.0
  9
$LIMCHECK
 70
     0
  9
$CHAMFERA
 40
0.5
  9
$CHAMFERB
 40
0.5
  9
$CHAMFERC
 40
1.0
  9
$CHAMFERD
 40
0.0
  9
$SKPOLY
 70
     0
  9
$TDCREATE
 40
2456378.571796956
  9
$TDUCREATE
 40
2456378.530130289
  9
$TDUPDATE
 40
2456378.571796968
  9
$TDUUPDATE
 40
2456378.530130301
  9
$TDINDWG
 40
0.0000000116
  9
$TDUSRTIMER
 40
0.0000000116
  9
$USRTIMER
 70
     1
  9
$ANGBASE
 50
0.0
  9
$ANGDIR
 70
     0
  9
$PDMODE
 70
     0
  9
$PDSIZE
 40
0.0
  9
$PLINEWID
 40
0.0
  9
$SPLFRAME
 70
     0
  9
$SPLINETYPE
 70
     6
  9
$SPLINESEGS
 70
     8
  9
$HANDSEED
  5
468
  9
$SURFTAB1
 70
     6
  9
$SURFTAB2
 70
     6
  9
$SURFTYPE
 70
     6
  9
$SURFU
 70
     6
  9
$SURFV
 70
     6
  9
$UCSBASE
  2

  9
$UCSNAME
  2

  9
$UCSORG
 10
0.0
 20
0.0
 30
0.0
  9
$UCSXDIR
 10
1.0
 20
0.0
 30
0.0
  9
$UCSYDIR
 10
0.0
 20
1.0
 30
0.0
  9
$UCSORTHOREF
  2

  9
$UCSORTHOVIEW
 70
     0
  9
$UCSORGTOP
 10
0.0
 20
0.0
 30
0.0
  9
$UCSORGBOTTOM
 10
0.0
 20
0.0
 30
0.0
  9
$UCSORGLEFT
 10
0.0
 20
0.0
 30
0.0
  9
$UCSORGRIGHT
 10
0.0
 20
0.0
 30
0.0
  9
$UCSORGFRONT
 10
0.0
 20
0.0
 30
0.0
  9
$UCSORGBACK
 10
0.0
 20
0.0
 30
0.0
  9
$PUCSBASE
  2

  9
$PUCSNAME
  2

  9
$PUCSORG
 10
0.0
 20
0.0
 30
0.0
  9
$PUCSXDIR
 10
1.0
 20
0.0
 30
0.0
  9
$PUCSYDIR
 10
0.0
 20
1.0
 30
0.0
  9
$PUCSORTHOREF
  2

  9
$PUCSORTHOVIEW
 70
     0
  9
$PUCSORGTOP
 10
0.0
 20
0.0
 30
0.0
  9
$PUCSORGBOTTOM
 10
0.0
 20
0.0
 30
0.0
  9
$PUCSORGLEFT
 10
0.0
 20
0.0
 30
0.0
  9
$PUCSORGRIGHT
 10
0.0
 20
0.0
 30
0.0
  9
$PUCSORGFRONT
 10
0.0
 20
0.0
 30
0.0
  9
$PUCSORGBACK
 10
0.0
 20
0.0
 30
0.0
  9
$USERI1
 70
     0
  9
$USERI2
 70
     0
  9
$USERI3
 70
     0
  9
$USERI4
 70
     0
  9
$USERI5
 70
     0
  9
$USERR1
 40
0.0
  9
$USERR2
 40
0.0
  9
$USERR3
 40
0.0
  9
$USERR4
 40
0.0
  9
$USERR5
 40
0.0
  9
$WORLDVIEW
 70
     1
  9
$SHADEDGE
 70
     3
  9
$SHADEDIF
 70
    70
  9
$TILEMODE
 70
     1
  9
$MAXACTVP
 70
    64
  9
$PINSBASE
 10
0.0
 20
0.0
 30
0.0
  9
$PLIMCHECK
 70
     0
  9
$PEXTMIN
 10
1.000000000000000E+20
 20
1.000000000000000E+20
 30
1.000000000000000E+20
  9
$PEXTMAX
 10
-1.000000000000000E+20
 20
-1.000000000000000E+20
 30
-1.000000000000000E+20
  9
$PLIMMIN
 10
0.0
 20
0.0
  9
$PLIMMAX
 10
12.0
 20
9.0
  9
$UNITMODE
 70
     0
  9
$VISRETAIN
 70
     1
  9
$PLINEGEN
 70
     0
  9
$PSLTSCALE
 70
     1
  9
$TREEDEPTH
 70
  3020
  9
$CMLSTYLE
  2
Standard
  9
$CMLJUST
 70
     0
  9
$CMLSCALE
 40
1.0
  9
$PROXYGRAPHICS
 70
     1
  9
$MEASUREMENT
 70
     0
  9
$CELWEIGHT
370
    -1
  9
$ENDCAPS
280
     0
  9
$JOINSTYLE
280
     0
  9
$LWDISPLAY
290
     0
  9
$INSUNITS
 70
     4
  9
$HYPERLINKBASE
  1

  9
$STYLESHEET
  1

  9
$XEDIT
290
     1
  9
$CEPSNTYPE
380
     0
  9
$PSTYLEMODE
290
     1
  9
$FINGERPRINTGUID
  2
{6846C61F-9B2F-4C0B-BA19-137F05C8274A}
  9
$VERSIONGUID
  2
{FAEB1C32-E019-11D5-929B-00C0DF256EC4}
  9
$EXTNAMES
290
     1
  9
$PSVPSCALE
 40
0.0
  9
$OLESTARTUP
290
     0
  9
$SORTENTS
280
   127
  9
$INDEXCTL
280
     0
  9
$HIDETEXT
280
     1
  9
$XCLIPFRAME
290
     0
  9
$HALOGAP
280
     0
  9
$OBSCOLOR
 70
   257
  9
$OBSLTYPE
280
     0
  9
$INTERSECTIONDISPLAY
280
     0
  9
$INTERSECTIONCOLOR
 70
   257
  9
$DIMASSOC
280
     2
  9
$PROJECTNAME
  1

  0
ENDSEC
  0
SECTION
  2
CLASSES
  0
CLASS
  1
ACDBDICTIONARYWDFLT
  2
AcDbDictionaryWithDefault
  3
ObjectDBX Classes
 90
        0
 91
        3
280
     0
281
     0
  0
ENDSEC
  0
SECTION
  2
TABLES
  0
TABLE
  2
VPORT
  5
8
330
0
100
AcDbSymbolTable
 70
     1
  0
VPORT
  5
29
330
8
100
AcDbSymbolTableRecord
100
AcDbViewportTableRecord
  2
*Active
 70
     0
 10
0.0
 20
0.0
 11
1.0
 21
1.0
 12
0.0
 22
0.0
 13
0.0
 23
0.0
 14
0.5
 24
0.5
 15
0.5
 25
0.5
 16
0.0
 26
0.0
 36
1.0
 17
1220.0
 27
610.0
 37
0.0
 40
1244.4
 41
2.0
 42
50.0
 43
0.0
 44
0.0
 50
0.0
 51
0.0
 71
     0
 72
   100
 73
     1
 74
     3
 75
     0
 76
     0
 77
     0
 78
     0
281
     0
 65
     1
110
0.0
120
0.0
130
0.0
111
1.0
121
0.0
131
0.0
112
0.0
122
1.0
132
0.0
 79
     0
146
0.0
  0
ENDTAB
  0
TABLE
  2
LTYPE
  5
5
330
0
100
AcDbSymbolTable
 70
     1
  0
LTYPE
  5
14
330
5
100
AcDbSymbolTableRecord
100
AcDbLinetypeTableRecord
  2
ByBlock
 70
     0
  3

 72
    65
 73
     0
 40
0.0
  0
LTYPE
  5
15
330
5
100
AcDbSymbolTableRecord
100
AcDbLinetypeTableRecord
  2
ByLayer
 70
     0
  3

 72
    65
 73
     0
 40
0.0
  0
LTYPE
  5
16
330
5
100
AcDbSymbolTableRecord
100
AcDbLinetypeTableRecord
  2
Continuous
 70
     0
  3
Solid line
 72
    65
 73
     0
 40
0.0
  0
ENDTAB
  0
TABLE
  2
LAYER
  5
2
330
0
100
AcDbSymbolTable
 70
     2
  0
LAYER
  5
10
330
2
100
AcDbSymbolTableRecord
100
AcDbLayerTableRecord
  2
0
 70
     0
 62
     7
  6
Continuous
370
    -3
390
F
  0
LAYER
  5
72
330
2
100
AcDbSymbolTableRecord
100
AcDbLayerTableRecord
  2
PREDETERMINADA
 70
     0
 62
     7
  6
Continuous
370
    -3
390
F
  0
ENDTAB
  0
TABLE
  2
STYLE
  5
3
330
0
100
AcDbSymbolTable
 70
     1
  0
STYLE
  5
11
330
3
100
AcDbSymbolTableRecord
100
AcDbTextStyleTableRecord
  2
Standard
 70
     0
 40
0.0
 41
1.0
 50
0.0
 71
     0
 42
0.2
  3
txt
  4

  0
ENDTAB
  0
TABLE
  2
VIEW
  5
6
330
0
100
AcDbSymbolTable
 70
     0
  0
ENDTAB
  0
TABLE
  2
UCS
  5
7
330
0
100
AcDbSymbolTable
 70
     0
  0
ENDTAB
  0
TABLE
  2
APPID
  5
9
330
0
100
AcDbSymbolTable
 70
     1
  0
APPID
  5
12
330
9
100
AcDbSymbolTableRecord
100
AcDbRegAppTableRecord
  2
ACAD
 70
     0
  0
ENDTAB
  0
TABLE
  2
DIMSTYLE
  5
A
330
0
100
AcDbSymbolTable
 70
     1
100
AcDbDimStyleTable
  0
DIMSTYLE
105
27
330
A
100
AcDbSymbolTableRecord
100
AcDbDimStyleTableRecord
  2
Standard
 70
     0
340
11
  0
ENDTAB
  0
TABLE
  2
BLOCK_RECORD
  5
1
330
0
100
AcDbSymbolTable
 70
     2
  0
BLOCK_RECORD
  5
1F
330
1
100
AcDbSymbolTableRecord
100
AcDbBlockTableRecord
  2
*Model_Space
340
22
  0
BLOCK_RECORD
  5
1B
330
1
100
AcDbSymbolTableRecord
100
AcDbBlockTableRecord
  2
*Paper_Space
340
1E
  0
BLOCK_RECORD
  5
23
330
1
100
AcDbSymbolTableRecord
100
AcDbBlockTableRecord
  2
*Paper_Space0
340
26
  0
BLOCK_RECORD
  5
2A
330
1
100
AcDbSymbolTableRecord
100
AcDbBlockTableRecord
  2
SCX
340
0
1001
ACAD
1000
DesignCenter Data
1002
{
1070
     1
1070
     0
1002
}
  0
ENDTAB
  0
ENDSEC
  0
SECTION
  2
BLOCKS
  0
BLOCK
  5
20
330
1F
100
AcDbEntity
  8
0
100
AcDbBlockBegin
  2
*Model_Space
 70
     0
 71
     0
 10
0.0
 20
0.0
 30
0.0
  3
*Model_Space
  1

  0
ENDBLK
  5
21
330
1F
100
AcDbEntity
  8
0
100
AcDbBlockEnd
  0
BLOCK
  5
1C
330
1B
100
AcDbEntity
 67
     1
  8
0
100
AcDbBlockBegin
  2
*Paper_Space
 70
     0
 71
     0
 10
0.0
 20
0.0
 30
0.0
  3
*Paper_Space
  1

  0
ENDBLK
  5
1D
330
1B
100
AcDbEntity
 67
     1
  8
0
100
AcDbBlockEnd
  0
BLOCK
  5
24
330
23
100
AcDbEntity
  8
0
100
AcDbBlockBegin
  2
*Paper_Space0
 70
     0
 71
     0
 10
0.0
 20
0.0
 30
0.0
  3
*Paper_Space0
  1

  0
ENDBLK
  5
25
330
23
100
AcDbEntity
  8
0
100
AcDbBlockEnd
  0
BLOCK
  5
70
330
2A
100
AcDbEntity
  8
0
100
AcDbBlockBegin
  2
SCX
 70
     0
 71
     0
 10
0.0
 20
0.0
 30
0.0
  3
SCX
  1

  0
SPLINE
  5
2B
330
2A
100
AcDbEntity
  8
0
 62
   255
100
AcDbSpline
210
0.0
220
0.0
230
1.0
 70
    24
 71
     3
 72
     8
 73
     4
 74
     0
 42
0.0000000001
 43
0.0000000001
 40
0.0
 40
0.0
 40
0.0
 40
0.0
 40
1.0
 40
1.0
 40
1.0
 40
1.0
 10
204.978808
 20
906.420038
 30
0.0
 10
1824.12328
 20
908.300578
 30
0.0
 10
1824.12328
 20
908.300578
 30
0.0
 10
1824.12328
 20
908.300578
 30
0.0
  0
LINE
  5
2C
330
2A
100
AcDbEntity
  8
0
 62
   255
100
AcDbLine
 10
1824.12328
 20
908.300578
 30
0.0
 11
1891.82272
 21
844.362232
 31
0.0
  0
LINE
  5
2D
330
2A
100
AcDbEntity
  8
0
 62
   255
100
AcDbLine
 10
1891.82272
 20
844.362232
 30
0.0
 11
1889.94216
 21
174.89016
 31
0.0
  0
LINE
  5
2E
330
2A
100
AcDbEntity
  8
0
 62
   255
100
AcDbLine
 10
1889.94216
 20
174.89016
 30
0.0
 11
1788.39304
 21
63.93832
 31
0.0
  0
LINE
  5
2F
330
2A
100
AcDbEntity
  8
0
 62
   255
100
AcDbLine
 10
1788.39304
 20
63.93832
 30
0.0
 11
1041.81888
 21
63.93832
 31
0.0
  0
LINE
  5
30
330
2A
100
AcDbEntity
  8
0
 62
   255
100
AcDbLine
 10
1041.81888
 20
63.93832
 30
0.0
 11
938.3892
 21
137.27936
 31
0.0
  0
LINE
  5
31
330
2A
100
AcDbEntity
  8
0
 62
   255
100
AcDbLine
 10
938.3892
 20
137.27936
 30
0.0
 11
932.7476
 21
250.111752
 31
0.0
  0
LINE
  5
32
330
2A
100
AcDbEntity
  8
0
 62
   255
100
AcDbLine
 10
932.7476
 20
250.111752
 30
0.0
 11
1032.41616
 21
321.572256
 31
0.0
  0
LINE
  5
33
330
2A
100
AcDbEntity
  8
0
 62
   255
100
AcDbLine
 10
1032.41616
 20
321.5722559999999
 30
0.0
 11
1581.53368
 21
325.333336
 31
0.0
  0
LINE
  5
34
330
2A
100
AcDbEntity
  8
0
 62
   255
100
AcDbLine
 10
1581.53368
 20
325.333336
 30
0.0
 11
1630.42776
 21
368.585744
 31
0.0
  0
LINE
  5
35
330
2A
100
AcDbEntity
  8
0
 62
   255
100
AcDbLine
 10
1630.42776
 20
368.585744
 30
0.0
 11
1630.42776
 21
609.2948
 31
0.0
  0
LINE
  5
36
330
2A
100
AcDbEntity
  8
0
 62
   255
100
AcDbLine
 10
1630.42776
 20
609.2948
 30
0.0
 11
1579.6532
 21
652.547208
 31
0.0
  0
LINE
  5
37
330
2A
100
AcDbEntity
  8
0
 62
   255
100
AcDbLine
 10
1579.6532
 20
652.547208
 30
0.0
 11
1244.91712
 21
646.905584
 31
0.0
  0
LINE
  5
38
330
2A
100
AcDbEntity
  8
0
 62
   255
100
AcDbLine
 10
1244.91712
 20
646.905584
 30
0.0
 11
1175.3372
 21
678.87476
 31
0.0
  0
LINE
  5
39
330
2A
100
AcDbEntity
  8
0
 62
   255
100
AcDbLine
 10
1175.3372
 20
678.87476
 30
0.0
 11
763.49904
 21
675.11368
 31
0.0
  0
LINE
  5
3A
330
2A
100
AcDbEntity
  8
0
 62
   255
100
AcDbLine
 10
763.49904
 20
675.11368
 30
0.0
 11
692.038536
 21
646.905584
 31
0.0
  0
LINE
  5
3B
330
2A
100
AcDbEntity
  8
0
 62
   255
100
AcDbLine
 10
692.038536
 20
646.905584
 30
0.0
 11
432.524088
 21
648.786128
 31
0.0
  0
LINE
  5
3C
330
2A
100
AcDbEntity
  8
0
 62
   255
100
AcDbLine
 10
432.524088
 20
648.786128
 30
0.0
 11
391.152216
 21
609.2948
 31
0.0
  0
LINE
  5
3D
330
2A
100
AcDbEntity
  8
0
 62
   255
100
AcDbLine
 10
391.152216
 20
609.2948
 30
0.0
 11
393.032752
 21
357.302504
 31
0.0
  0
LINE
  5
3E
330
2A
100
AcDbEntity
  8
0
 62
   255
100
AcDbLine
 10
393.032752
 20
357.302504
 30
0.0
 11
451.32948
 21
319.691712
 31
0.0
  0
LINE
  5
3F
330
2A
100
AcDbEntity
  8
0
 62
   255
100
AcDbLine
 10
451.32948
 20
319.691712
 30
0.0
 11
496.462424
 21
361.063584
 31
0.0
  0
LINE
  5
40
330
2A
100
AcDbEntity
  8
0
 62
   255
100
AcDbLine
 10
496.462424
 20
361.063584
 30
0.0
 11
492.701352
 21
440.04624
 31
0.0
  0
LINE
  5
41
330
2A
100
AcDbEntity
  8
0
 62
   255
100
AcDbLine
 10
492.701352
 20
440.04624
 30
0.0
 11
581.086704
 21
545.356456
 31
0.0
  0
LINE
  5
42
330
2A
100
AcDbEntity
  8
0
 62
   255
100
AcDbLine
 10
581.086704
 20
545.356456
 30
0.0
 11
718.366088
 21
545.356456
 31
0.0
  0
LINE
  5
43
330
2A
100
AcDbEntity
  8
0
 62
   255
100
AcDbLine
 10
718.366088
 20
545.356456
 30
0.0
 11
814.2736
 21
462.61272
 31
0.0
  0
LINE
  5
44
330
2A
100
AcDbEntity
  8
0
 62
   255
100
AcDbLine
 10
814.2736
 20
462.61272
 30
0.0
 11
819.9152
 21
174.89016
 31
0.0
  0
LINE
  5
45
330
2A
100
AcDbEntity
  8
0
 62
   255
100
AcDbLine
 10
819.9152
 20
174.89016
 30
0.0
 11
724.007704
 21
65.81888
 31
0.0
  0
LINE
  5
46
330
2A
100
AcDbEntity
  8
0
 62
   255
100
AcDbLine
 10
724.007704
 20
65.81888
 30
0.0
 11
195.576104
 21
54.53568
 31
0.0
  0
LINE
  5
47
330
2A
100
AcDbEntity
  8
0
 62
   255
100
AcDbLine
 10
195.576104
 20
54.53568
 30
0.0
 11
65.818882
 21
157.96528
 31
0.0
  0
LINE
  5
48
330
2A
100
AcDbEntity
  8
0
 62
   255
100
AcDbLine
 10
65.818882
 20
157.96528
 30
0.0
 11
73.341041
 21
829.31792
 31
0.0
  0
LINE
  5
49
330
2A
100
AcDbEntity
  8
0
 62
   255
100
AcDbLine
 10
73.341041
 20
829.31792
 30
0.0
 11
204.978808
 21
906.420038
 31
0.0
  0
LINE
  5
4A
330
2A
100
AcDbEntity
  8
0
 62
   255
100
AcDbLine
 10
204.978808
 20
827.437376
 30
0.0
 11
1775.22928
 21
825.55684
 31
0.0
  0
LINE
  5
4B
330
2A
100
AcDbEntity
  8
0
 62
   255
100
AcDbLine
 10
1775.22928
 20
825.55684
 30
0.0
 11
1807.19848
 21
787.946048
 31
0.0
  0
LINE
  5
4C
330
2A
100
AcDbEntity
  8
0
 62
   255
100
AcDbLine
 10
1807.19848
 20
787.946048
 30
0.0
 11
1816.60112
 21
184.292872
 31
0.0
  0
LINE
  5
4D
330
2A
100
AcDbEntity
  8
0
 62
   255
100
AcDbLine
 10
1816.60112
 20
184.292872
 30
0.0
 11
1773.34872
 21
141.04048
 31
0.0
  0
LINE
  5
4E
330
2A
100
AcDbEntity
  8
0
 62
   255
100
AcDbLine
 10
1773.34872
 20
141.04048
 30
0.0
 11
1039.93832
 21
146.68208
 31
0.0
  0
LINE
  5
4F
330
2A
100
AcDbEntity
  8
0
 62
   255
100
AcDbLine
 10
1039.93832
 20
146.68208
 30
0.0
 11
1002.32752
 21
191.815032
 31
0.0
  0
LINE
  5
50
330
2A
100
AcDbEntity
  8
0
 62
   255
100
AcDbLine
 10
1002.32752
 20
191.815032
 30
0.0
 11
1038.05784
 21
240.709056
 31
0.0
  0
LINE
  5
51
330
2A
100
AcDbEntity
  8
0
 62
   255
100
AcDbLine
 10
1038.05784
 20
240.709056
 30
0.0
 11
1622.9056
 21
250.111752
 31
0.0
  0
LINE
  5
52
330
2A
100
AcDbEntity
  8
0
 62
   255
100
AcDbLine
 10
1622.9056
 20
250.111752
 30
0.0
 11
1709.4104
 21
346.019264
 31
0.0
  0
LINE
  5
53
330
2A
100
AcDbEntity
  8
0
 62
   255
100
AcDbLine
 10
1709.4104
 20
346.019264
 30
0.0
 11
1707.52984
 21
631.861272
 31
0.0
  0
LINE
  5
54
330
2A
100
AcDbEntity
  8
0
 62
   255
100
AcDbLine
 10
1707.52984
 20
631.861272
 30
0.0
 11
1604.10016
 21
729.649328
 31
0.0
  0
LINE
  5
55
330
2A
100
AcDbEntity
  8
0
 62
   255
100
AcDbLine
 10
1604.10016
 20
729.649328
 30
0.0
 11
1248.67824
 21
727.768784
 31
0.0
  0
LINE
  5
56
330
2A
100
AcDbEntity
  8
0
 62
   255
100
AcDbLine
 10
1248.67824
 20
727.768784
 30
0.0
 11
1186.6204
 21
699.560696
 31
0.0
  0
LINE
  5
57
330
2A
100
AcDbEntity
  8
0
 62
   255
100
AcDbLine
 10
1186.6204
 20
699.560696
 30
0.0
 11
754.096336
 21
703.321776
 31
0.0
  0
LINE
  5
58
330
2A
100
AcDbEntity
  8
0
 62
   255
100
AcDbLine
 10
754.096336
 20
703.321776
 30
0.0
 11
697.680152
 21
731.529864
 31
0.0
  0
LINE
  5
59
330
2A
100
AcDbEntity
  8
0
 62
   255
100
AcDbLine
 10
697.680152
 20
731.529864
 30
0.0
 11
428.763008
 21
727.768784
 31
0.0
  0
LINE
  5
5A
330
2A
100
AcDbEntity
  8
0
 62
   255
100
AcDbLine
 10
428.763008
 20
727.768784
 30
0.0
 11
319.691712
 21
645.025048
 31
0.0
  0
LINE
  5
5B
330
2A
100
AcDbEntity
  8
0
 62
   255
100
AcDbLine
 10
319.691712
 20
645.025048
 30
0.0
 11
310.289016
 21
406.196528
 31
0.0
  0
LINE
  5
5C
330
2A
100
AcDbEntity
  8
0
 62
   255
100
AcDbLine
 10
310.289016
 20
406.196528
 30
0.0
 11
314.050096
 21
342.258192
 31
0.0
  0
LINE
  5
5D
330
2A
100
AcDbEntity
  8
0
 62
   255
100
AcDbLine
 10
314.050096
 20
342.258192
 30
0.0
 11
372.346824
 21
263.275528
 31
0.0
  0
LINE
  5
5E
330
2A
100
AcDbEntity
  8
0
 62
   255
100
AcDbLine
 10
372.346824
 20
263.275528
 30
0.0
 11
494.581888
 21
259.514448
 31
0.0
  0
LINE
  5
5F
330
2A
100
AcDbEntity
  8
0
 62
   255
100
AcDbLine
 10
494.581888
 20
259.514448
 30
0.0
 11
560.400768
 21
321.572256
 31
0.0
  0
LINE
  5
60
330
2A
100
AcDbEntity
  8
0
 62
   255
100
AcDbLine
 10
560.400768
 20
321.572256
 30
0.0
 11
571.684008
 21
406.196528
 31
0.0
  0
LINE
  5
61
330
2A
100
AcDbEntity
  8
0
 62
   255
100
AcDbLine
 10
571.684008
 20
406.196528
 30
0.0
 11
603.653176
 21
462.61272
 31
0.0
  0
LINE
  5
62
330
2A
100
AcDbEntity
  8
0
 62
   255
100
AcDbLine
 10
603.653176
 20
462.61272
 30
0.0
 11
708.963392
 21
460.732176
 31
0.0
  0
LINE
  5
63
330
2A
100
AcDbEntity
  8
0
 62
   255
100
AcDbLine
 10
708.963392
 20
460.732176
 30
0.0
 11
737.17148
 21
432.524088
 31
0.0
  0
LINE
  5
64
330
2A
100
AcDbEntity
  8
0
 62
   255
100
AcDbLine
 10
737.17148
 20
432.524088
 30
0.0
 11
739.052024
 21
191.815032
 31
0.0
  0
LINE
  5
65
330
2A
100
AcDbEntity
  8
0
 62
   255
100
AcDbLine
 10
739.052024
 20
191.815032
 30
0.0
 11
697.680152
 21
144.80152
 31
0.0
  0
LINE
  5
66
330
2A
100
AcDbEntity
  8
0
 62
   255
100
AcDbLine
 10
697.680152
 20
144.80152
 30
0.0
 11
210.620424
 21
141.04048
 31
0.0
  0
LINE
  5
67
330
2A
100
AcDbEntity
  8
0
 62
   255
100
AcDbLine
 10
210.620424
 20
141.04048
 30
0.0
 11
148.562624
 21
189.934488
 31
0.0
  0
LINE
  5
68
330
2A
100
AcDbEntity
  8
0
 62
   255
100
AcDbLine
 10
148.562624
 20
189.934488
 30
0.0
 11
152.323696
 21
791.707128
 31
0.0
  0
LINE
  5
69
330
2A
100
AcDbEntity
  8
0
 62
   255
100
AcDbLine
 10
152.323696
 20
791.707128
 30
0.0
 11
204.978808
 21
827.437376
 31
0.0
  0
LINE
  5
6A
330
2A
100
AcDbEntity
  8
0
 62
   255
100
AcDbLine
 10
737.17148
 20
325.333336
 30
0.0
 11
814.2736
 21
460.732176
 31
0.0
  0
LINE
  5
6B
330
2A
100
AcDbEntity
  8
0
 62
   255
100
AcDbLine
 10
814.2736
 20
460.732176
 30
0.0
 11
927.106
 21
509.626208
 31
0.0
  0
LINE
  5
6C
330
2A
100
AcDbEntity
  8
0
 62
   255
100
AcDbLine
 10
927.106
 20
509.626208
 30
0.0
 11
1404.76304
 21
503.984584
 31
0.0
  0
LINE
  5
6D
330
2A
100
AcDbEntity
  8
0
 62
   255
100
AcDbLine
 10
816.15416
 20
330.974952
 30
0.0
 11
863.1676
 21
394.913296
 31
0.0
  0
LINE
  5
6E
330
2A
100
AcDbEntity
  8
0
 62
   255
100
AcDbLine
 10
863.1676
 20
394.913296
 30
0.0
 11
945.91136
 21
430.643544
 31
0.0
  0
LINE
  5
6F
330
2A
100
AcDbEntity
  8
0
 62
   255
100
AcDbLine
 10
945.91136
 20
430.643544
 30
0.0
 11
1404.76304
 21
432.524088
 31
0.0
  0
ENDBLK
  5
71
330
2A
100
AcDbEntity
  8
0
100
AcDbBlockEnd
  0
ENDSEC
  0
SECTION
  2
ENTITIES
  0
SPLINE
  5
73
330
1F
100
AcDbEntity
  8
PREDETERMINADA
 62
     5
100
AcDbSpline
210
0.0
220
0.0
230
1.0
 70
    24
 71
     2
 72
     6
 73
     3
 74
     0
 42
0.0000000001
 43
0.0000000001
 40
97.2426334730869
 40
97.2426334730869
 40
97.2426334730869
 40
536.711010004152
 40
536.711010004152
 40
536.711010004152
 10
1842.729376911681
 20
722.809277647674
 30
0.0
 10
1622.995188646149
 20
722.809277647674
 30
0.0
 10
1403.261000380616
 20
722.809277647674
 30
0.0
  0
ARC
  5
74
330
1F
100
AcDbEntity
  8
PREDETERMINADA
 62
     5
100
AcDbCircle
 10
1403.260487224342
 20
387.1905116939704
 30
0.0
 40
335.6187659540959
100
AcDbArc
 50
89.99991239557586
 51
178.2440641733835
  0
SPLINE
  5
75
330
1F
100
AcDbEntity
  8
PREDETERMINADA
 62
     1
100
AcDbSpline
210
0.0
220
0.0
230
1.0
 70
    24
 71
     2
 72
     6
 73
     3
 74
     0
 42
0.0000000001
 43
0.0000000001
 40
97.24263347308693
 40
97.24263347308693
 40
97.24263347308693
 40
501.1019316534314
 40
501.1019316534314
 40
501.1019316534314
 10
1842.729376911681
 20
622.809277647674
 30
0.0
 10
1640.799727821509
 20
622.809277647674
 30
0.0
 10
1438.870078731337
 20
622.809277647674
 30
0.0
  0
ARC
  5
76
330
1F
100
AcDbEntity
  8
PREDETERMINADA
 62
     1
100
AcDbCircle
 10
1438.871054228681
 20
351.7375439829534
 30
0.0
 40
271.0717336664758
100
AcDbArc
 50
90.00020618852422
 51
180.0002061885242
  0
ARC
  5
77
330
1F
100
AcDbEntity
  8
PREDETERMINADA
100
AcDbCircle
 10
71.0
 20
1149.0
 30
0.0
 40
1.0
100
AcDbArc
 50
89.99999999999756
 51
180.0
  0
SPLINE
  5
78
330
1F
100
AcDbEntity
  8
PREDETERMINADA
 62
     1
100
AcDbSpline
210
0.0
220
0.0
230
1.0
 70
    24
 71
     2
 72
     6
 73
     3
 74
     0
 42
0.0000000001
 43
0.0000000001
 40
320.1426828342869
 40
320.1426828342869
 40
320.1426828342869
 40
417.0513473908296
 40
417.0513473908296
 40
417.0513473908296
 10
1843.124067721587
 20
500.0
 30
0.0
 10
1891.578399999859
 20
500.0
 30
0.0
 10
1940.03273227813
 20
500.0
 30
0.0
  0
ARC
  5
79
330
1F
100
AcDbEntity
  8
PREDETERMINADA
 62
     1
100
AcDbCircle
 10
1940.03273227813
 20
600.0000000000003
 30
0.0
 40
100.0000000000004
100
AcDbArc
 50
269.9999999999998
 51
0.012460160031911
  0
SPLINE
  5
7A
330
1F
100
AcDbEntity
  8
PREDETERMINADA
 62
     1
100
AcDbSpline
210
0.0
220
0.0
230
1.0
 70
    24
 71
     2
 72
     6
 73
     3
 74
     0
 42
0.0000000001
 43
0.0000000001
 40
-420.937083967276
 40
-420.937083967276
 40
-420.937083967276
 40
-275.318484929863
 40
-275.318484929863
 40
-275.318484929863
 10
2040.032729913453
 20
600.0217470816171
 30
0.0
 10
2040.016896015663
 20
672.8310448786183
 30
0.0
 10
2040.001062117874
 20
745.6403426756194
 30
0.0
  0
ARC
  5
7B
330
1F
100
AcDbEntity
  8
PREDETERMINADA
 62
     1
100
AcDbCircle
 10
1940.001064482548
 20
745.6185955939984
 30
0.0
 40
100.0000000000034
100
AcDbArc
 50
0.0124601600343207
 51
90.05143786085002
  0
SPLINE
  5
7C
330
1F
100
AcDbEntity
  8
PREDETERMINADA
 62
     1
100
AcDbSpline
210
0.0
220
0.0
230
1.0
 70
    24
 71
     2
 72
     6
 73
     3
 74
     0
 42
0.0000000001
 43
0.0000000001
 40
-1739.843161406158
 40
-1739.843161406158
 40
-1739.843161406158
 40
-1021.531478016455
 40
-1021.531478016455
 40
-1021.531478016455
 10
1939.911288491406
 20
845.6185552953508
 30
0.0
 10
1580.755591531499
 20
845.2961195786756
 30
0.0
 10
1221.599894571591
 20
844.9736838620004
 30
0.0
  0
ARC
  5
7D
330
1F
100
AcDbEntity
  8
PREDETERMINADA
 62
     1
100
AcDbCircle
 10
1221.958998536229
 20
444.9738450563927
 30
0.0
 40
400.0000000002119
100
AcDbArc
 50
90.05143786086005
 51
97.52947896548854
  0
LINE
  5
7E
330
1F
100
AcDbEntity
  8
PREDETERMINADA
 62
     1
100
AcDbLine
 10
1169.544487229165
 20
841.5248745653466
 30
0.0
 11
1030.939153903218
 21
823.204582168604
 31
0.0
  0
ARC
  5
7F
330
1F
100
AcDbEntity
  8
PREDETERMINADA
 62
     1
100
AcDbCircle
 10
978.5246425961896
 20
1219.755611677168
 30
0.0
 40
399.9999999998212
100
AcDbArc
 50
270.051437860857
 51
277.5294789654909
  0
SPLINE
  5
80
330
1F
100
AcDbEntity
  8
PREDETERMINADA
 62
     1
100
AcDbSpline
210
0.0
220
0.0
230
1.0
 70
    24
 71
     2
 72
     6
 73
     3
 74
     0
 42
0.0000000001
 43
0.0000000001
 40
-778.7927881874754
 40
-778.7927881874754
 40
-778.7927881874754
 40
-299.7713689194624
 40
-299.7713689194624
 40
-299.7713689194624
 10
978.8837465608067
 20
819.7557728719514
 30
0.0
 10
739.3731334463747
 20
819.5407497584549
 30
0.0
 10
499.8625203319427
 20
819.3257266449584
 30
0.0
  0
ARC
  5
81
330
1F
100
AcDbEntity
  8
PREDETERMINADA
 62
     1
100
AcDbCircle
 10
499.9522963230966
 20
719.325766943612
 30
0.0
 40
99.99999999999743
100
AcDbArc
 50
90.05143786085677
 51
180.0249105517118
  0
SPLINE
  5
82
330
1F
100
AcDbEntity
  8
PREDETERMINADA
 62
     1
100
AcDbSpline
210
0.0
220
0.0
230
1.0
 70
    24
 71
     2
 72
     6
 73
     3
 74
     0
 42
0.0000000001
 43
0.0000000001
 40
299.9046528854838
 40
299.9046528854838
 40
299.9046528854838
 40
519.2304405582294
 40
519.2304405582294
 40
519.2304405582294
 10
399.9523057743964
 20
719.2822898303958
 30
0.0
 10
399.9999840349023
 20
609.6194063585892
 30
0.0
 10
400.0476622954082
 20
499.9565228867826
 30
0.0
  0
ARC
  5
83
330
1F
100
AcDbEntity
  8
PREDETERMINADA
 62
     1
100
AcDbCircle
 10
500.0476528441112
 20
500.0000000000003
 30
0.0
 40
100.0000000000003
100
AcDbArc
 50
180.0249105517127
 51
269.9999999999986
  0
SPLINE
  5
84
330
1F
100
AcDbEntity
  8
PREDETERMINADA
 62
     1
100
AcDbSpline
210
0.0
220
0.0
230
1.0
 70
    24
 71
     2
 72
     6
 73
     3
 74
     0
 42
0.0000000001
 43
0.0000000001
 40
-467.751667718587
 40
-467.751667718587
 40
-467.751667718587
 40
-374.3125531900658
 40
-374.3125531900658
 40
-374.3125531900658
 10
500.0476528441088
 20
400.0
 30
0.0
 10
546.7672101083695
 20
399.9999999999999
 30
0.0
 10
593.4867673726301
 20
399.9999999999999
 30
0.0
  0
ARC
  5
85
330
1F
100
AcDbEntity
  8
PREDETERMINADA
 62
     1
100
AcDbCircle
 10
593.4867673726301
 20
499.9999999999976
 30
0.0
 40
99.99999999999773
100
AcDbArc
 50
270.0
 51
343.162462647428
  0
ARC
  5
86
330
1F
100
AcDbEntity
  8
PREDETERMINADA
 62
     1
100
AcDbCircle
 10
641.3432640125195
 20
485.5170538441532
 30
0.0
 40
50.00000000002936
100
AcDbArc
 50
343.1624626474313
 51
359.9999999999966
  0
LINE
  5
87
330
1F
100
AcDbEntity
  8
PREDETERMINADA
 62
     1
100
AcDbLine
 10
691.3432640125488
 20
485.5170538441503
 30
0.0
 11
691.3432640125477
 21
567.1843854649749
 31
0.0
  0
ARC
  5
88
330
1F
100
AcDbEntity
  8
PREDETERMINADA
 62
     1
100
AcDbCircle
 10
791.3432640124902
 20
567.1843854649862
 30
0.0
 40
99.99999999994247
100
AcDbArc
 50
163.162462647425
 51
180.0000000000065
  0
ARC
  5
89
330
1F
100
AcDbEntity
  8
PREDETERMINADA
 62
     1
100
AcDbCircle
 10
887.0562572923828
 20
538.21849315329
 30
0.0
 40
199.9999999999902
100
AcDbArc
 50
90.0
 51
163.1624626474322
  0
LINE
  5
8A
330
1F
100
AcDbEntity
  8
PREDETERMINADA
 62
     1
100
AcDbLine
 10
887.0562572923911
 20
738.2184931532853
 30
0.0
 11
955.1704091376114
 21
738.2184931532853
 31
0.0
  0
LINE
  5
8B
330
1F
100
AcDbEntity
  8
PREDETERMINADA
 62
     1
100
AcDbLine
 10
955.1704091376114
 20
738.2184931532853
 30
0.0
 11
967.7993205626947
 21
738.2184931532853
 31
0.0
  0
ARC
  5
8C
330
1F
100
AcDbEntity
  8
PREDETERMINADA
 62
     1
100
AcDbCircle
 10
967.7993205626947
 20
538.2184931532853
 30
0.0
 40
200.0
100
AcDbArc
 50
359.9999999999995
 51
90.0
  0
LINE
  5
8D
330
1F
100
AcDbEntity
  8
PREDETERMINADA
 62
     1
100
AcDbLine
 10
1167.799320562695
 20
538.2184931532837
 30
0.0
 11
1167.799320562696
 21
438.2184931532836
 31
0.0
  0
SPLINE
  5
8E
330
1F
100
AcDbEntity
  8
PREDETERMINADA
 62
     1
100
AcDbSpline
210
0.0
220
0.0
230
1.0
 70
    24
 71
     2
 72
     6
 73
     3
 74
     0
 42
0.0000000001
 43
0.0000000001
 40
-238.2184931532836
 40
-238.2184931532836
 40
-238.2184931532836
 40
-100.0
 40
-100.0
 40
-100.0
 10
1167.799320562696
 20
438.2184931532836
 30
0.0
 10
1167.799320562696
 20
369.1092465766418
 30
0.0
 10
1167.799320562696
 20
300.0
 30
0.0
  0
ARC
  5
8F
330
1F
100
AcDbEntity
  8
PREDETERMINADA
 62
     1
100
AcDbCircle
 10
967.7993205626958
 20
300.0
 30
0.0
 40
200.0
100
AcDbArc
 50
270.0
 51
0.0
  0
LINE
  5
90
330
1F
100
AcDbEntity
  8
PREDETERMINADA
 62
     1
100
AcDbLine
 10
967.7993205626958
 20
100.0
 30
0.0
 11
300.134588176164
 21
100.0000000000001
 31
0.0
  0
ARC
  5
91
330
1F
100
AcDbEntity
  8
PREDETERMINADA
 62
     1
100
AcDbCircle
 10
300.134588176164
 20
300.0000000000009
 30
0.0
 40
200.0000000000008
100
AcDbArc
 50
180.0249105517095
 51
270.0
  0
LINE
  5
92
330
1F
100
AcDbEntity
  8
PREDETERMINADA
 62
     1
100
AcDbLine
 10
100.1346070787578
 20
299.9130457735766
 30
0.0
 11
99.86542015138627
 21
919.0592632488915
 31
0.0
  0
ARC
  5
93
330
1F
100
AcDbEntity
  8
PREDETERMINADA
 62
     1
100
AcDbCircle
 10
299.8654012487949
 20
919.1462174753269
 30
0.0
 40
200.0000000000033
100
AcDbArc
 50
90.05143786085789
 51
180.0249105517127
  0
LINE
  5
94
330
1F
100
AcDbEntity
  8
PREDETERMINADA
 62
     1
100
AcDbLine
 10
299.6858492664834
 20
1119.146136878028
 30
0.0
 11
2139.783420780642
 21
1120.798103376796
 31
0.0
  0
ARC
  5
95
330
1F
100
AcDbEntity
  8
PREDETERMINADA
 62
     1
100
AcDbCircle
 10
2139.962972762915
 20
920.7981839740643
 30
0.0
 40
200.0000000000332
100
AcDbArc
 50
0.0124601600393673
 51
90.05143786084699
  0
LINE
  5
96
330
1F
100
AcDbEntity
  8
PREDETERMINADA
 62
     1
100
AcDbLine
 10
2339.962968033593
 20
920.8416781373239
 30
0.0
 11
2340.098157671604
 21
299.1967272996649
 31
0.0
  0
ARC
  5
97
330
1F
100
AcDbEntity
  8
PREDETERMINADA
 62
     1
100
AcDbCircle
 10
2140.09816240099
 20
299.1532331364001
 30
0.0
 40
199.9999999999696
100
AcDbArc
 50
269.9440425806662
 51
0.0124601600408368
  0
LINE
  5
98
330
1F
100
AcDbEntity
  8
PREDETERMINADA
 62
     1
100
AcDbLine
 10
2139.902834190383
 20
99.15332851922781
 30
0.0
 11
1842.928461710185
 21
99.44336602135743
 31
0.0
  0
ARC
  5
99
330
1F
100
AcDbEntity
  8
PREDETERMINADA
 62
     1
100
AcDbCircle
 10
1843.12405794283
 20
299.7216352547774
 30
0.0
 40
200.2783647452227
100
AcDbArc
 50
89.99999720248607
 51
269.9440436793311
  0
ARC
  5
9A
330
1F
100
AcDbEntity
  8
PREDETERMINADA
 62
     5
100
AcDbCircle
 10
2139.962972762934
 20
920.7981839740858
 30
0.0
 40
100.0000000000162
100
AcDbArc
 50
0.0124601600354916
 51
90.05143786084699
  0
SPLINE
  5
9B
330
1F
100
AcDbEntity
  8
PREDETERMINADA
 62
     5
100
AcDbSpline
210
0.0
220
0.0
230
1.0
 70
    24
 71
     2
 72
     6
 73
     3
 74
     0
 42
0.0000000001
 43
0.0000000001
 40
100.1823865715993
 40
100.1823865715993
 40
100.1823865715993
 40
721.8273521091733
 40
721.8273521091733
 40
721.8273521091733
 10
2239.962970398273
 20
920.8199310557088
 30
0.0
 10
2240.030565217277
 20
609.9974556368721
 30
0.0
 10
2240.098160036282
 20
299.1749802180354
 30
0.0
  0
ARC
  5
9C
330
1F
100
AcDbEntity
  8
PREDETERMINADA
 62
     5
100
AcDbCircle
 10
2140.098162400943
 20
299.1532331364371
 30
0.0
 40
100.0000000000166
100
AcDbArc
 50
269.9440425806902
 51
0.0124601600212915
  0
LINE
  5
9D
330
1F
100
AcDbEntity
  8
PREDETERMINADA
 62
     5
100
AcDbLine
 10
2140.000498295681
 20
199.1532808278191
 30
0.0
 11
1501.972629943787
 21
199.1532808278191
 31
0.0
  0
ARC
  5
9E
330
1F
100
AcDbEntity
  8
PREDETERMINADA
 62
     5
100
AcDbCircle
 10
1501.972629943787
 20
299.5766404139096
 30
0.0
 40
100.4233595860904
100
AcDbArc
 50
90.0
 51
270.0
  0
LINE
  5
9F
330
1F
100
AcDbEntity
  8
PREDETERMINADA
 62
     5
100
AcDbLine
 10
1501.972629943787
 20
400.0
 30
0.0
 11
1940.03273227813
 21
400.0
 31
0.0
  0
ARC
  5
A0
330
1F
100
AcDbEntity
  8
PREDETERMINADA
 62
     5
100
AcDbCircle
 10
1940.03273227813
 20
600.0000000000007
 30
0.0
 40
200.0000000000009
100
AcDbArc
 50
270.0
 51
0.0124601600313248
  0
SPLINE
  5
A1
330
1F
100
AcDbEntity
  8
PREDETERMINADA
 62
     5
100
AcDbSpline
210
0.0
220
0.0
230
1.0
 70
    24
 71
     2
 72
     6
 73
     3
 74
     0
 42
0.0000000001
 43
0.0000000001
 40
-420.937083967276
 40
-420.937083967276
 40
-420.937083967276
 40
-325.3184964997144
 40
-325.3184964997144
 40
-325.3184964997144
 10
2140.032727548775
 20
600.0434941632323
 30
0.0
 10
2140.022330422647
 20
647.8527867664773
 30
0.0
 10
2140.01193329652
 20
695.6620793697223
 30
0.0
  0
ARC
  5
A2
330
1F
100
AcDbEntity
  8
PREDETERMINADA
 62
     5
100
AcDbCircle
 10
1940.011938025898
 20
695.6185852065141
 30
0.0
 40
199.9999999999773
100
AcDbArc
 50
0.012460160024617
 51
90.05143786086005
  0
SPLINE
  5
A3
330
1F
100
AcDbEntity
  8
PREDETERMINADA
 62
     5
100
AcDbSpline
210
0.0
220
0.0
230
1.0
 70
    24
 71
     2
 72
     6
 73
     3
 74
     0
 42
0.0000000001
 43
0.0000000001
 40
-1739.809146940201
 40
-1739.809146940201
 40
-1739.809146940201
 40
-1021.582475946757
 40
-1021.582475946757
 40
-1021.582475946757
 10
1939.832386043579
 20
895.6185046091986
 30
0.0
 10
1580.719195264671
 20
895.2961070528854
 30
0.0
 10
1221.606004485763
 20
894.9737094965724
 30
0.0
  0
ARC
  5
A4
330
1F
100
AcDbEntity
  8
PREDETERMINADA
 62
     5
100
AcDbCircle
 10
1221.246900521124
 20
1294.973548301709
 30
0.0
 40
399.999999999741
100
AcDbArc
 50
262.5716538393543
 51
270.0514378608601
  0
LINE
  5
A5
330
1F
100
AcDbEntity
  8
PREDETERMINADA
 62
     5
100
AcDbLine
 10
1169.532422892659
 20
898.330619707983
 30
0.0
 11
1030.951218239739
 21
916.3988974739707
 31
0.0
  0
ARC
  5
A6
330
1F
100
AcDbEntity
  8
PREDETERMINADA
 62
     5
100
AcDbCircle
 10
979.2367406112817
 20
519.7559688803476
 30
0.0
 40
399.9999999996377
100
AcDbArc
 50
82.57165383935352
 51
90.05143786086133
  0
SPLINE
  5
A7
330
1F
100
AcDbEntity
  8
PREDETERMINADA
 62
     5
100
AcDbSpline
210
0.0
220
0.0
230
1.0
 70
    24
 71
     2
 72
     6
 73
     3
 74
     0
 42
0.0000000001
 43
0.0000000001
 40
-778.8764542981752
 40
-778.8764542981752
 40
-778.8764542981752
 40
-299.7713689194622
 40
-299.7713689194622
 40
-299.7713689194622
 10
978.877636646635
 20
919.7558076853811
 30
0.0
 10
739.3251904937111
 20
919.5407470158439
 30
0.0
 10
499.7727443407874
 20
919.3256863463066
 30
0.0
  0
ARC
  5
A8
330
1F
100
AcDbEntity
  8
PREDETERMINADA
 62
     5
100
AcDbCircle
 10
499.9522963230837
 20
719.3257669436233
 30
0.0
 40
199.9999999999853
100
AcDbArc
 50
90.05143786085355
 51
180.0249105517144
  0
SPLINE
  5
A9
330
1F
100
AcDbEntity
  8
PREDETERMINADA
 62
     5
100
AcDbSpline
210
0.0
220
0.0
230
1.0
 70
    24
 71
     2
 72
     6
 73
     3
 74
     0
 42
0.0000000001
 43
0.0000000001
 40
299.9046528854839
 40
299.9046528854839
 40
299.9046528854839
 40
519.2304405582294
 40
519.2304405582294
 40
519.2304405582294
 10
299.952315225693
 20
719.2388127171818
 30
0.0
 10
299.9999934861992
 20
609.5759292453752
 30
0.0
 10
300.0476717467055
 20
499.9130457735687
 30
0.0
  0
ARC
  5
AA
330
1F
100
AcDbEntity
  8
PREDETERMINADA
 62
     5
100
AcDbCircle
 10
500.0476528441035
 20
499.9999999999927
 30
0.0
 40
199.9999999999928
100
AcDbArc
 50
180.0249105517094
 51
270.0000000000015
  0
SPLINE
  5
AB
330
1F
100
AcDbEntity
  8
PREDETERMINADA
 62
     5
100
AcDbSpline
210
0.0
220
0.0
230
1.0
 70
    24
 71
     2
 72
     6
 73
     3
 74
     0
 42
0.0000000001
 43
0.0000000001
 40
-467.751667718587
 40
-467.751667718587
 40
-467.751667718587
 40
-374.3125531900658
 40
-374.3125531900658
 40
-374.3125531900658
 10
500.0476528441088
 20
300.0
 30
0.0
 10
546.7672101083695
 20
300.0000000000013
 30
0.0
 10
593.48676737263
 20
300.0000000000026
 30
0.0
  0
ARC
  5
AC
330
1F
100
AcDbEntity
  8
PREDETERMINADA
 62
     5
100
AcDbCircle
 10
593.48676737263
 20
500.0000000000017
 30
0.0
 40
199.9999999999991
100
AcDbArc
 50
270.0
 51
343.1624626474281
  0
ARC
  5
AD
330
1F
100
AcDbEntity
  8
PREDETERMINADA
 62
     5
100
AcDbCircle
 10
689.1997606524822
 20
471.0341076883003
 30
0.0
 40
99.99999999998867
100
AcDbArc
 50
343.1624626474262
 51
0.0000000000010422
  0
LINE
  5
AE
330
1F
100
AcDbEntity
  8
PREDETERMINADA
 62
     5
100
AcDbLine
 10
789.1997606524708
 20
471.0341076883021
 30
0.0
 11
789.1997606524706
 21
552.7014393091383
 31
0.0
  0
ARC
  5
AF
330
1F
100
AcDbEntity
  8
PREDETERMINADA
 62
     5
100
AcDbCircle
 10
839.1997606524587
 20
552.7014393091383
 30
0.0
 40
49.99999999998818
100
AcDbArc
 50
163.1624626474252
 51
180.0
  0
ARC
  5
B0
330
1F
100
AcDbEntity
  8
PREDETERMINADA
 62
     5
100
AcDbCircle
 10
887.0562572923927
 20
538.2184931532827
 30
0.0
 40
100.0000000000025
100
AcDbArc
 50
90.00000000000092
 51
163.1624626474262
  0
LINE
  5
B1
330
1F
100
AcDbEntity
  8
PREDETERMINADA
 62
     5
100
AcDbLine
 10
887.0562572923911
 20
638.2184931532852
 30
0.0
 11
955.1704091376114
 21
638.2184931532853
 31
0.0
  0
LINE
  5
B2
330
1F
100
AcDbEntity
  8
PREDETERMINADA
 62
     5
100
AcDbLine
 10
955.1704091376114
 20
638.2184931532853
 30
0.0
 11
967.7993205626947
 21
638.2184931532853
 31
0.0
  0
ARC
  5
B3
330
1F
100
AcDbEntity
  8
PREDETERMINADA
 62
     5
100
AcDbCircle
 10
967.7993205626947
 20
538.2184931532853
 30
0.0
 40
100.0
100
AcDbArc
 50
359.9999999999991
 51
90.0
  0
LINE
  5
B4
330
1F
100
AcDbEntity
  8
PREDETERMINADA
 62
     5
100
AcDbLine
 10
1067.799320562695
 20
538.2184931532837
 30
0.0
 11
1067.799320562696
 21
438.2184931532837
 31
0.0
  0
LINE
  5
B5
330
1F
100
AcDbEntity
  8
PREDETERMINADA
 62
     5
100
AcDbLine
 10
1067.799320562696
 20
438.2184931532837
 30
0.0
 11
1067.799320562696
 21
300.0
 31
0.0
  0
ARC
  5
B6
330
1F
100
AcDbEntity
  8
PREDETERMINADA
 62
     5
100
AcDbCircle
 10
967.7993205626958
 20
300.0
 30
0.0
 40
100.0
100
AcDbArc
 50
270.0
 51
0.0
  0
SPLINE
  5
B7
330
1F
100
AcDbEntity
  8
PREDETERMINADA
 62
     5
100
AcDbSpline
210
0.0
220
0.0
230
1.0
 70
    24
 71
     2
 72
     6
 73
     3
 74
     0
 42
0.0000000001
 43
0.0000000001
 40
0.0
 40
0.0
 40
0.0
 40
667.6647323865321
 40
667.6647323865321
 40
667.6647323865321
 10
967.7993205626958
 20
200.0
 30
0.0
 10
633.9669543694297
 20
200.0
 30
0.0
 10
300.1345881761637
 20
200.0
 30
0.0
  0
ARC
  5
B8
330
1F
100
AcDbEntity
  8
PREDETERMINADA
 62
     5
100
AcDbCircle
 10
300.1345881761637
 20
300.0000000000006
 30
0.0
 40
100.0000000000006
100
AcDbArc
 50
180.0249105517081
 51
270.0
  0
ARC
  5
B9
330
1F
100
AcDbEntity
  8
PREDETERMINADA
 62
     5
100
AcDbCircle
 10
299.8654012487876
 20
919.1462174753344
 30
0.0
 40
99.99999999999578
100
AcDbArc
 50
90.05143786085391
 51
180.0249105517192
  0
SPLINE
  5
BA
330
1F
100
AcDbEntity
  8
PREDETERMINADA
 62
     5
100
AcDbSpline
210
0.0
220
0.0
230
1.0
 70
    24
 71
     2
 72
     6
 73
     3
 74
     0
 42
0.0000000001
 43
0.0000000001
 40
99.86394526748265
 40
99.86394526748265
 40
99.86394526748265
 40
1939.962258316359
 40
1939.962258316359
 40
1939.962258316359
 10
299.7756252576388
 20
1019.146177176679
 30
0.0
 10
1219.824411014718
 20
1019.972160426065
 30
0.0
 10
2139.873196771798
 20
1020.798143675451
 30
0.0
  0
SPLINE
  5
BB
330
1F
100
AcDbEntity
  8
PREDETERMINADA
100
AcDbSpline
210
0.0
220
0.0
230
1.0
 70
    24
 71
     2
 72
     6
 73
     3
 74
     0
 42
0.0000000001
 43
0.0000000001
 40
99.86394526748265
 40
99.86394526748265
 40
99.86394526748265
 40
1939.962258316359
 40
1939.962258316359
 40
1939.962258316359
 10
299.7814606970638
 20
1012.646179796091
 30
0.0
 10
1219.830246454143
 20
1013.472163045477
 30
0.0
 10
2139.879032211223
 20
1014.298146294863
 30
0.0
  0
SPLINE
  5
BC
330
1F
100
AcDbEntity
  8
PREDETERMINADA
100
AcDbSpline
210
0.0
220
0.0
230
1.0
 70
    24
 71
     2
 72
     6
 73
     3
 74
     0
 42
0.0000000001
 43
0.0000000001
 40
99.86394526748265
 40
99.86394526748265
 40
99.86394526748265
 40
1939.962258316359
 40
1939.962258316359
 40
1939.962258316359
 10
299.8205132532164
 20
969.1461973260047
 30
0.0
 10
1219.869299010296
 20
969.9721805753906
 30
0.0
 10
2139.918084767376
 20
970.7981638247765
 30
0.0
  0
SPLINE
  5
BD
330
1F
100
AcDbEntity
  8
PREDETERMINADA
100
AcDbSpline
210
0.0
220
0.0
230
1.0
 70
    24
 71
     2
 72
     6
 73
     3
 74
     0
 42
0.0000000001
 43
0.0000000001
 40
99.86394526748266
 40
99.86394526748266
 40
99.86394526748266
 40
1939.962258316359
 40
1939.962258316359
 40
1939.962258316359
 10
299.6800138270583
 20
1125.646134258616
 30
0.0
 10
1219.728799584138
 20
1126.472117507999
 30
0.0
 10
2139.777585341217
 20
1127.298100757383
 30
0.0
  0
POLYLINE
  5
BE
330
1F
100
AcDbEntity
  8
PREDETERMINADA
100
AcDb2dPolyline
 66
     1
 10
0.0
 20
0.0
 30
0.0
  0
VERTEX
  5
C0
330
BE
100
AcDbEntity
  8
PREDETERMINADA
100
AcDbVertex
100
AcDb2dVertex
 10
299.8205132532163
 20
990.9003626418828
 30
0.0
  0
VERTEX
  5
C1
330
BE
100
AcDbEntity
  8
PREDETERMINADA
100
AcDbVertex
100
AcDb2dVertex
 10
2139.918084767376
 20
991.5482804623259
 30
0.0
  0
SEQEND
  5
BF
330
BE
100
AcDbEntity
  8
PREDETERMINADA
  0
POLYLINE
  5
C2
330
1F
100
AcDbEntity
  8
PREDETERMINADA
100
AcDb2dPolyline
 66
     1
 10
0.0
 20
0.0
 30
0.0
  0
VERTEX
  5
C4
330
C2
100
AcDbEntity
  8
PREDETERMINADA
100
AcDbVertex
100
AcDb2dVertex
 10
299.6800138270582
 20
1147.400299574494
 30
0.0
  0
VERTEX
  5
C5
330
C2
100
AcDbEntity
  8
PREDETERMINADA
100
AcDbVertex
100
AcDb2dVertex
 10
2139.777585341217
 20
1148.048217394937
 30
0.0
  0
SEQEND
  5
C3
330
C2
100
AcDbEntity
  8
PREDETERMINADA
  0
POLYLINE
  5
C6
330
1F
100
AcDbEntity
  8
PREDETERMINADA
100
AcDb2dPolyline
 66
     1
 10
0.0
 20
0.0
 30
0.0
  0
VERTEX
  5
C8
330
C6
100
AcDbEntity
  8
PREDETERMINADA
100
AcDbVertex
100
AcDb2dVertex
 10
299.6409612709057
 20
1169.146116728703
 30
0.0
  0
VERTEX
  5
C9
330
C6
100
AcDbEntity
  8
PREDETERMINADA
100
AcDbVertex
100
AcDb2dVertex
 10
2139.738532785065
 20
1169.794034549146
 30
0.0
  0
SEQEND
  5
C7
330
C6
100
AcDbEntity
  8
PREDETERMINADA
  0
SPLINE
  5
CA
330
1F
100
AcDbEntity
  8
PREDETERMINADA
100
AcDbSpline
210
0.0
220
0.0
230
1.0
 70
    24
 71
     2
 72
     6
 73
     3
 74
     0
 42
0.0000000001
 43
0.0000000001
 40
99.86394526748265
 40
99.86394526748265
 40
99.86394526748265
 40
1939.962258316359
 40
1939.962258316359
 40
1939.962258316359
 10
299.6019087147532
 20
1190.891933882911
 30
0.0
 10
1219.650694471833
 20
1191.717917132297
 30
0.0
 10
2139.699480228912
 20
1192.543900381683
 30
0.0
  0
SPLINE
  5
CB
330
1F
100
AcDbEntity
  8
PREDETERMINADA
100
AcDbSpline
210
0.0
220
0.0
230
1.0
 70
    24
 71
     2
 72
     6
 73
     3
 74
     0
 42
0.0000000001
 43
0.0000000001
 40
99.86394526748266
 40
99.86394526748266
 40
99.86394526748266
 40
1939.962258316359
 40
1939.962258316359
 40
1939.962258316359
 10
299.6916847059085
 20
1112.64613949744
 30
0.0
 10
1219.740470462988
 20
1113.472122746824
 30
0.0
 10
2139.789256220067
 20
1114.298105996208
 30
0.0
  0
SPLINE
  5
CC
330
1F
100
AcDbEntity
  8
PREDETERMINADA
100
AcDbSpline
210
0.0
220
0.0
230
1.0
 70
    24
 71
     2
 72
     6
 73
     3
 74
     0
 42
0.0000000001
 43
0.0000000001
 40
99.86394526748265
 40
99.86394526748265
 40
99.86394526748265
 40
1939.962258316359
 40
1939.962258316359
 40
1939.962258316359
 10
299.7697898182137
 20
1025.646174557267
 30
0.0
 10
1219.818575575293
 20
1026.472157806653
 30
0.0
 10
2139.867361332373
 20
1027.298141056039
 30
0.0
  0
POLYLINE
  5
CD
330
1F
100
AcDbEntity
  8
PREDETERMINADA
100
AcDb2dPolyline
 66
     1
 10
0.0
 20
0.0
 30
0.0
  0
VERTEX
  5
CF
330
CD
100
AcDbEntity
  8
PREDETERMINADA
100
AcDbVertex
100
AcDb2dVertex
 10
299.8205132532164
 20
969.1461973260047
 30
0.0
  0
VERTEX
  5
D0
330
CD
100
AcDbEntity
  8
PREDETERMINADA
100
AcDbVertex
100
AcDb2dVertex
 10
299.8205132532164
 20
1012.646214855925
 30
0.0
  0
SEQEND
  5
CE
330
CD
100
AcDbEntity
  8
PREDETERMINADA
  0
SPLINE
  5
D1
330
1F
100
AcDbEntity
  8
PREDETERMINADA
100
AcDbSpline
210
0.0
220
0.0
230
1.0
 70
    24
 71
     2
 72
     6
 73
     3
 74
     0
 42
0.0000000001
 43
0.0000000001
 40
0.0
 40
0.0
 40
0.0
 40
42.67407807844889
 40
42.67407807844889
 40
42.67407807844889
 10
299.8692990102959
 20
969.9721805753906
 30
0.0
 10
299.8692990102959
 20
991.3092196146151
 30
0.0
 10
299.8692990102959
 20
1012.64625865384
 30
0.0
  0
SPLINE
  5
D2
330
1F
100
AcDbEntity
  8
PREDETERMINADA
100
AcDbSpline
210
0.0
220
0.0
230
1.0
 70
    24
 71
     2
 72
     6
 73
     3
 74
     0
 42
0.0000000001
 43
0.0000000001
 40
0.0
 40
0.0
 40
0.0
 40
42.69203328391566
 40
42.69203328391566
 40
42.69203328391566
 10
319.8692990102959
 20
969.9721805753906
 30
0.0
 10
319.8692990102959
 20
991.3181972173484
 30
0.0
 10
319.8692990102959
 20
1012.664213859306
 30
0.0
  0
POLYLINE
  5
D3
330
1F
100
AcDbEntity
  8
PREDETERMINADA
100
AcDb2dPolyline
 66
     1
 10
0.0
 20
0.0
 30
0.0
  0
VERTEX
  5
D5
330
D3
100
AcDbEntity
  8
PREDETERMINADA
100
AcDbVertex
100
AcDb2dVertex
 10
339.8692990102959
 20
969.9721805753906
 30
0.0
  0
VERTEX
  5
D6
330
D3
100
AcDbEntity
  8
PREDETERMINADA
100
AcDbVertex
100
AcDb2dVertex
 10
339.8692990102959
 20
1012.682169064773
 30
0.0
  0
SEQEND
  5
D4
330
D3
100
AcDbEntity
  8
PREDETERMINADA
  0
SPLINE
  5
D7
330
1F
100
AcDbEntity
  8
PREDETERMINADA
100
AcDbSpline
210
0.0
220
0.0
230
1.0
 70
    24
 71
     2
 72
     6
 73
     3
 74
     0
 42
0.0000000001
 43
0.0000000001
 40
0.0
 40
0.0
 40
0.0
 40
42.8895405440501
 40
42.8895405440501
 40
42.8895405440501
 10
539.8692990102959
 20
969.9721805753906
 30
0.0
 10
539.8692990102959
 20
991.4169508474156
 30
0.0
 10
539.869299010296
 20
1012.861721119441
 30
0.0
  0
SPLINE
  5
D8
330
1F
100
AcDbEntity
  8
PREDETERMINADA
100
AcDbSpline
210
0.0
220
0.0
230
1.0
 70
    24
 71
     2
 72
     6
 73
     3
 74
     0
 42
0.0000000001
 43
0.0000000001
 40
0.0
 40
0.0
 40
0.0
 40
42.87158533858334
 40
42.87158533858334
 40
42.87158533858334
 10
519.8692990102959
 20
969.9721805753906
 30
0.0
 10
519.8692990102959
 20
991.4079732446821
 30
0.0
 10
519.8692990102959
 20
1012.843765913974
 30
0.0
  0
POLYLINE
  5
D9
330
1F
100
AcDbEntity
  8
PREDETERMINADA
100
AcDb2dPolyline
 66
     1
 10
0.0
 20
0.0
 30
0.0
  0
VERTEX
  5
DB
330
D9
100
AcDbEntity
  8
PREDETERMINADA
100
AcDbVertex
100
AcDb2dVertex
 10
579.8692990102959
 20
969.9721805753906
 30
0.0
  0
VERTEX
  5
DC
330
D9
100
AcDbEntity
  8
PREDETERMINADA
100
AcDbVertex
100
AcDb2dVertex
 10
579.8692990102959
 20
1012.897631530374
 30
0.0
  0
SEQEND
  5
DA
330
D9
100
AcDbEntity
  8
PREDETERMINADA
  0
SPLINE
  5
DD
330
1F
100
AcDbEntity
  8
PREDETERMINADA
100
AcDbSpline
210
0.0
220
0.0
230
1.0
 70
    24
 71
     2
 72
     6
 73
     3
 74
     0
 42
0.0000000001
 43
0.0000000001
 40
0.0
 40
0.0
 40
0.0
 40
42.76385410578273
 40
42.76385410578273
 40
42.76385410578273
 10
399.8692990102959
 20
969.9721805753906
 30
0.0
 10
399.8692990102959
 20
991.354107628282
 30
0.0
 10
399.8692990102959
 20
1012.736034681173
 30
0.0
  0
POLYLINE
  5
DE
330
1F
100
AcDbEntity
  8
PREDETERMINADA
100
AcDb2dPolyline
 66
     1
 10
0.0
 20
0.0
 30
0.0
  0
VERTEX
  5
E0
330
DE
100
AcDbEntity
  8
PREDETERMINADA
100
AcDbVertex
100
AcDb2dVertex
 10
419.8692990102959
 20
969.9721805753906
 30
0.0
  0
VERTEX
  5
E1
330
DE
100
AcDbEntity
  8
PREDETERMINADA
100
AcDbVertex
100
AcDb2dVertex
 10
419.8692990102959
 20
1012.75398988664
 30
0.0
  0
SEQEND
  5
DF
330
DE
100
AcDbEntity
  8
PREDETERMINADA
  0
SPLINE
  5
E2
330
1F
100
AcDbEntity
  8
PREDETERMINADA
100
AcDbSpline
210
0.0
220
0.0
230
1.0
 70
    24
 71
     2
 72
     6
 73
     3
 74
     0
 42
0.0000000001
 43
0.0000000001
 40
0.0
 40
0.0
 40
0.0
 40
42.72794369484919
 40
42.72794369484919
 40
42.72794369484919
 10
359.8692990102959
 20
969.9721805753906
 30
0.0
 10
359.8692990102959
 20
991.3361524228151
 30
0.0
 10
359.869299010296
 20
1012.70012427024
 30
0.0
  0
SPLINE
  5
E3
330
1F
100
AcDbEntity
  8
PREDETERMINADA
100
AcDbSpline
210
0.0
220
0.0
230
1.0
 70
    24
 71
     2
 72
     6
 73
     3
 74
     0
 42
0.0000000001
 43
0.0000000001
 40
0.0
 40
0.0
 40
0.0
 40
42.74589890031596
 40
42.74589890031596
 40
42.74589890031596
 10
379.8692990102959
 20
969.9721805753906
 30
0.0
 10
379.8692990102959
 20
991.3451300255485
 30
0.0
 10
379.8692990102959
 20
1012.718079475706
 30
0.0
  0
SPLINE
  5
E4
330
1F
100
AcDbEntity
  8
PREDETERMINADA
100
AcDbSpline
210
0.0
220
0.0
230
1.0
 70
    24
 71
     2
 72
     6
 73
     3
 74
     0
 42
0.0000000001
 43
0.0000000001
 40
0.0
 40
0.0
 40
0.0
 40
42.90749574951687
 40
42.90749574951687
 40
42.90749574951687
 10
559.8692990102959
 20
969.9721805753906
 30
0.0
 10
559.8692990102959
 20
991.4259284501491
 30
0.0
 10
559.8692990102959
 20
1012.879676324907
 30
0.0
  0
POLYLINE
  5
E5
330
1F
100
AcDbEntity
  8
PREDETERMINADA
100
AcDb2dPolyline
 66
     1
 10
0.0
 20
0.0
 30
0.0
  0
VERTEX
  5
E7
330
E5
100
AcDbEntity
  8
PREDETERMINADA
100
AcDbVertex
100
AcDb2dVertex
 10
499.8692990102959
 20
969.9721805753906
 30
0.0
  0
VERTEX
  5
E8
330
E5
100
AcDbEntity
  8
PREDETERMINADA
100
AcDbVertex
100
AcDb2dVertex
 10
499.8692990102959
 20
1012.825810708507
 30
0.0
  0
SEQEND
  5
E6
330
E5
100
AcDbEntity
  8
PREDETERMINADA
  0
SPLINE
  5
E9
330
1F
100
AcDbEntity
  8
PREDETERMINADA
100
AcDbSpline
210
0.0
220
0.0
230
1.0
 70
    24
 71
     2
 72
     6
 73
     3
 74
     0
 42
0.0000000001
 43
0.0000000001
 40
0.0
 40
0.0
 40
0.0
 40
42.81771972218304
 40
42.81771972218304
 40
42.81771972218304
 10
459.8692990102959
 20
969.9721805753906
 30
0.0
 10
459.8692990102959
 20
991.3810404364822
 30
0.0
 10
459.8692990102959
 20
1012.789900297574
 30
0.0
  0
SPLINE
  5
EA
330
1F
100
AcDbEntity
  8
PREDETERMINADA
100
AcDbSpline
210
0.0
220
0.0
230
1.0
 70
    24
 71
     2
 72
     6
 73
     3
 74
     0
 42
0.0000000001
 43
0.0000000001
 40
0.0
 40
0.0
 40
0.0
 40
42.8356749276498
 40
42.8356749276498
 40
42.8356749276498
 10
479.8692990102959
 20
969.9721805753906
 30
0.0
 10
479.8692990102959
 20
991.3900180392154
 30
0.0
 10
479.8692990102959
 20
1012.80785550304
 30
0.0
  0
SPLINE
  5
EB
330
1F
100
AcDbEntity
  8
PREDETERMINADA
100
AcDbSpline
210
0.0
220
0.0
230
1.0
 70
    24
 71
     2
 72
     6
 73
     3
 74
     0
 42
0.0000000001
 43
0.0000000001
 40
0.0
 40
0.0
 40
0.0
 40
42.79976451671627
 40
42.79976451671627
 40
42.79976451671627
 10
439.8692990102959
 20
969.9721805753906
 30
0.0
 10
439.8692990102959
 20
991.3720628337487
 30
0.0
 10
439.8692990102959
 20
1012.771945092107
 30
0.0
  0
SPLINE
  5
EC
330
1F
100
AcDbEntity
  8
PREDETERMINADA
100
AcDbSpline
210
0.0
220
0.0
230
1.0
 70
    24
 71
     2
 72
     6
 73
     3
 74
     0
 42
0.0000000001
 43
0.0000000001
 40
0.0
 40
0.0
 40
0.0
 40
42.92545095498364
 40
42.92545095498364
 40
42.92545095498364
 10
579.869299010296
 20
969.9721805753906
 30
0.0
 10
579.8692990102961
 20
991.4349060528823
 30
0.0
 10
579.8692990102961
 20
1012.897631530374
 30
0.0
  0
SPLINE
  5
ED
330
1F
100
AcDbEntity
  8
PREDETERMINADA
100
AcDbSpline
210
0.0
220
0.0
230
1.0
 70
    24
 71
     2
 72
     6
 73
     3
 74
     0
 42
0.0000000001
 43
0.0000000001
 40
0.0
 40
0.0
 40
0.0
 40
42.9434061604504
 40
42.9434061604504
 40
42.9434061604504
 10
599.869299010296
 20
969.9721805753906
 30
0.0
 10
599.869299010296
 20
991.4438836556158
 30
0.0
 10
599.869299010296
 20
1012.915586735841
 30
0.0
  0
SPLINE
  5
EE
330
1F
100
AcDbEntity
  8
PREDETERMINADA
100
AcDbSpline
210
0.0
220
0.0
230
1.0
 70
    24
 71
     2
 72
     6
 73
     3
 74
     0
 42
0.0000000001
 43
0.0000000001
 40
0.0
 40
0.0
 40
0.0
 40
42.97931657138394
 40
42.97931657138394
 40
42.97931657138394
 10
639.869299010296
 20
969.9721805753906
 30
0.0
 10
639.869299010296
 20
991.4618388610825
 30
0.0
 10
639.869299010296
 20
1012.951497146774
 30
0.0
  0
SPLINE
  5
EF
330
1F
100
AcDbEntity
  8
PREDETERMINADA
100
AcDbSpline
210
0.0
220
0.0
230
1.0
 70
    24
 71
     2
 72
     6
 73
     3
 74
     0
 42
0.0000000001
 43
0.0000000001
 40
0.0
 40
0.0
 40
0.0
 40
42.96136136591718
 40
42.96136136591718
 40
42.96136136591718
 10
619.869299010296
 20
969.9721805753906
 30
0.0
 10
619.869299010296
 20
991.4528612583492
 30
0.0
 10
619.869299010296
 20
1012.933541941308
 30
0.0
  0
SPLINE
  5
F0
330
1F
100
AcDbEntity
  8
PREDETERMINADA
100
AcDbSpline
210
0.0
220
0.0
230
1.0
 70
    24
 71
     2
 72
     6
 73
     3
 74
     0
 42
0.0000000001
 43
0.0000000001
 40
0.0
 40
0.0
 40
0.0
 40
43.17682383151838
 40
43.17682383151838
 40
43.17682383151838
 10
859.869299010296
 20
969.9721805753906
 30
0.0
 10
859.869299010296
 20
991.5605924911497
 30
0.0
 10
859.869299010296
 20
1013.149004406909
 30
0.0
  0
SPLINE
  5
F1
330
1F
100
AcDbEntity
  8
PREDETERMINADA
100
AcDbSpline
210
0.0
220
0.0
230
1.0
 70
    24
 71
     2
 72
     6
 73
     3
 74
     0
 42
0.0000000001
 43
0.0000000001
 40
0.0
 40
0.0
 40
0.0
 40
43.15886862605161
 40
43.15886862605161
 40
43.15886862605161
 10
839.869299010296
 20
969.9721805753906
 30
0.0
 10
839.8692990102961
 20
991.5516148884163
 30
0.0
 10
839.8692990102961
 20
1013.131049201442
 30
0.0
  0
POLYLINE
  5
F2
330
1F
100
AcDbEntity
  8
PREDETERMINADA
100
AcDb2dPolyline
 66
     1
 10
0.0
 20
0.0
 30
0.0
  0
VERTEX
  5
F4
330
F2
100
AcDbEntity
  8
PREDETERMINADA
100
AcDbVertex
100
AcDb2dVertex
 10
899.869299010296
 20
969.9721805753906
 30
0.0
  0
VERTEX
  5
F5
330
F2
100
AcDbEntity
  8
PREDETERMINADA
100
AcDbVertex
100
AcDb2dVertex
 10
899.869299010296
 20
1013.184914817843
 30
0.0
  0
SEQEND
  5
F3
330
F2
100
AcDbEntity
  8
PREDETERMINADA
  0
POLYLINE
  5
F6
330
1F
100
AcDbEntity
  8
PREDETERMINADA
100
AcDb2dPolyline
 66
     1
 10
0.0
 20
0.0
 30
0.0
  0
VERTEX
  5
F8
330
F6
100
AcDbEntity
  8
PREDETERMINADA
100
AcDbVertex
100
AcDb2dVertex
 10
659.869299010296
 20
969.9721805753906
 30
0.0
  0
VERTEX
  5
F9
330
F6
100
AcDbEntity
  8
PREDETERMINADA
100
AcDbVertex
100
AcDb2dVertex
 10
659.8692990102961
 20
1012.969452352241
 30
0.0
  0
SEQEND
  5
F7
330
F6
100
AcDbEntity
  8
PREDETERMINADA
  0
SPLINE
  5
FA
330
1F
100
AcDbEntity
  8
PREDETERMINADA
100
AcDbSpline
210
0.0
220
0.0
230
1.0
 70
    24
 71
     2
 72
     6
 73
     3
 74
     0
 42
0.0000000001
 43
0.0000000001
 40
0.0
 40
0.0
 40
0.0
 40
43.051137393251
 40
43.051137393251
 40
43.051137393251
 10
719.869299010296
 20
969.9721805753906
 30
0.0
 10
719.869299010296
 20
991.4977492720161
 30
0.0
 10
719.869299010296
 20
1013.023317968642
 30
0.0
  0
POLYLINE
  5
FB
330
1F
100
AcDbEntity
  8
PREDETERMINADA
100
AcDb2dPolyline
 66
     1
 10
0.0
 20
0.0
 30
0.0
  0
VERTEX
  5
FD
330
FB
100
AcDbEntity
  8
PREDETERMINADA
100
AcDbVertex
100
AcDb2dVertex
 10
739.869299010296
 20
969.9721805753906
 30
0.0
  0
VERTEX
  5
FE
330
FB
100
AcDbEntity
  8
PREDETERMINADA
100
AcDbVertex
100
AcDb2dVertex
 10
739.869299010296
 20
1013.041273174108
 30
0.0
  0
SEQEND
  5
FC
330
FB
100
AcDbEntity
  8
PREDETERMINADA
  0
SPLINE
  5
FF
330
1F
100
AcDbEntity
  8
PREDETERMINADA
100
AcDbSpline
210
0.0
220
0.0
230
1.0
 70
    24
 71
     2
 72
     6
 73
     3
 74
     0
 42
0.0000000001
 43
0.0000000001
 40
0.0
 40
0.0
 40
0.0
 40
43.01522698231747
 40
43.01522698231747
 40
43.01522698231747
 10
679.869299010296
 20
969.9721805753906
 30
0.0
 10
679.8692990102961
 20
991.4797940665494
 30
0.0
 10
679.8692990102961
 20
1012.987407557708
 30
0.0
  0
SPLINE
  5
100
330
1F
100
AcDbEntity
  8
PREDETERMINADA
100
AcDbSpline
210
0.0
220
0.0
230
1.0
 70
    24
 71
     2
 72
     6
 73
     3
 74
     0
 42
0.0000000001
 43
0.0000000001
 40
0.0
 40
0.0
 40
0.0
 40
43.03318218778424
 40
43.03318218778424
 40
43.03318218778424
 10
699.869299010296
 20
969.9721805753906
 30
0.0
 10
699.869299010296
 20
991.4887716692826
 30
0.0
 10
699.869299010296
 20
1013.005362763175
 30
0.0
  0
SPLINE
  5
101
330
1F
100
AcDbEntity
  8
PREDETERMINADA
100
AcDbSpline
210
0.0
220
0.0
230
1.0
 70
    24
 71
     2
 72
     6
 73
     3
 74
     0
 42
0.0000000001
 43
0.0000000001
 40
0.0
 40
0.0
 40
0.0
 40
43.19477903698514
 40
43.19477903698514
 40
43.19477903698514
 10
879.869299010296
 20
969.9721805753906
 30
0.0
 10
879.8692990102961
 20
991.5695700938832
 30
0.0
 10
879.8692990102961
 20
1013.166959612376
 30
0.0
  0
POLYLINE
  5
102
330
1F
100
AcDbEntity
  8
PREDETERMINADA
100
AcDb2dPolyline
 66
     1
 10
0.0
 20
0.0
 30
0.0
  0
VERTEX
  5
104
330
102
100
AcDbEntity
  8
PREDETERMINADA
100
AcDbVertex
100
AcDb2dVertex
 10
819.869299010296
 20
969.9721805753906
 30
0.0
  0
VERTEX
  5
105
330
102
100
AcDbEntity
  8
PREDETERMINADA
100
AcDbVertex
100
AcDb2dVertex
 10
819.869299010296
 20
1013.113093995975
 30
0.0
  0
SEQEND
  5
103
330
102
100
AcDbEntity
  8
PREDETERMINADA
  0
SPLINE
  5
106
330
1F
100
AcDbEntity
  8
PREDETERMINADA
100
AcDbSpline
210
0.0
220
0.0
230
1.0
 70
    24
 71
     2
 72
     6
 73
     3
 74
     0
 42
0.0000000001
 43
0.0000000001
 40
0.0
 40
0.0
 40
0.0
 40
43.10500300965131
 40
43.10500300965131
 40
43.10500300965131
 10
779.869299010296
 20
969.9721805753906
 30
0.0
 10
779.8692990102961
 20
991.5246820802163
 30
0.0
 10
779.8692990102961
 20
1013.077183585042
 30
0.0
  0
SPLINE
  5
107
330
1F
100
AcDbEntity
  8
PREDETERMINADA
100
AcDbSpline
210
0.0
220
0.0
230
1.0
 70
    24
 71
     2
 72
     6
 73
     3
 74
     0
 42
0.0000000001
 43
0.0000000001
 40
0.0
 40
0.0
 40
0.0
 40
43.12295821511807
 40
43.12295821511807
 40
43.12295821511807
 10
799.869299010296
 20
969.9721805753906
 30
0.0
 10
799.8692990102961
 20
991.5336596829496
 30
0.0
 10
799.8692990102961
 20
1013.095138790509
 30
0.0
  0
SPLINE
  5
108
330
1F
100
AcDbEntity
  8
PREDETERMINADA
100
AcDbSpline
210
0.0
220
0.0
230
1.0
 70
    24
 71
     2
 72
     6
 73
     3
 74
     0
 42
0.0000000001
 43
0.0000000001
 40
0.0
 40
0.0
 40
0.0
 40
43.08704780418454
 40
43.08704780418454
 40
43.08704780418454
 10
759.869299010296
 20
969.9721805753906
 30
0.0
 10
759.8692990102961
 20
991.5157044774828
 30
0.0
 10
759.8692990102961
 20
1013.059228379575
 30
0.0
  0
SPLINE
  5
109
330
1F
100
AcDbEntity
  8
PREDETERMINADA
100
AcDbSpline
210
0.0
220
0.0
230
1.0
 70
    24
 71
     2
 72
     6
 73
     3
 74
     0
 42
0.0000000001
 43
0.0000000001
 40
0.0
 40
0.0
 40
0.0
 40
43.32046547525251
 40
43.32046547525251
 40
43.32046547525251
 10
1019.869299010296
 20
969.9721805753906
 30
0.0
 10
1019.869299010296
 20
991.6324133130169
 30
0.0
 10
1019.869299010296
 20
1013.292646050643
 30
0.0
  0
SPLINE
  5
10A
330
1F
100
AcDbEntity
  8
PREDETERMINADA
100
AcDbSpline
210
0.0
220
0.0
230
1.0
 70
    24
 71
     2
 72
     6
 73
     3
 74
     0
 42
0.0000000001
 43
0.0000000001
 40
0.0
 40
0.0
 40
0.0
 40
43.30251026978574
 40
43.30251026978574
 40
43.30251026978574
 10
999.8692990102959
 20
969.9721805753906
 30
0.0
 10
999.8692990102959
 20
991.6234357102835
 30
0.0
 10
999.869299010296
 20
1013.274690845176
 30
0.0
  0
POLYLINE
  5
10B
330
1F
100
AcDbEntity
  8
PREDETERMINADA
100
AcDb2dPolyline
 66
     1
 10
0.0
 20
0.0
 30
0.0
  0
VERTEX
  5
10D
330
10B
100
AcDbEntity
  8
PREDETERMINADA
100
AcDbVertex
100
AcDb2dVertex
 10
979.8692990102959
 20
969.9721805753906
 30
0.0
  0
VERTEX
  5
10E
330
10B
100
AcDbEntity
  8
PREDETERMINADA
100
AcDbVertex
100
AcDb2dVertex
 10
979.869299010296
 20
1013.25673563971
 30
0.0
  0
SEQEND
  5
10C
330
10B
100
AcDbEntity
  8
PREDETERMINADA
  0
SPLINE
  5
10F
330
1F
100
AcDbEntity
  8
PREDETERMINADA
100
AcDbSpline
210
0.0
220
0.0
230
1.0
 70
    24
 71
     2
 72
     6
 73
     3
 74
     0
 42
0.0000000001
 43
0.0000000001
 40
0.0
 40
0.0
 40
0.0
 40
43.24864465338545
 40
43.24864465338545
 40
43.24864465338545
 10
939.8692990102959
 20
969.9721805753906
 30
0.0
 10
939.8692990102959
 20
991.5965029020833
 30
0.0
 10
939.8692990102959
 20
1013.220825228776
 30
0.0
  0
SPLINE
  5
110
330
1F
100
AcDbEntity
  8
PREDETERMINADA
100
AcDbSpline
210
0.0
220
0.0
230
1.0
 70
    24
 71
     2
 72
     6
 73
     3
 74
     0
 42
0.0000000001
 43
0.0000000001
 40
0.0
 40
0.0
 40
0.0
 40
43.26659985885221
 40
43.26659985885221
 40
43.26659985885221
 10
959.8692990102959
 20
969.9721805753906
 30
0.0
 10
959.8692990102959
 20
991.6054805048167
 30
0.0
 10
959.8692990102959
 20
1013.238780434243
 30
0.0
  0
SPLINE
  5
111
330
1F
100
AcDbEntity
  8
PREDETERMINADA
100
AcDbSpline
210
0.0
220
0.0
230
1.0
 70
    24
 71
     2
 72
     6
 73
     3
 74
     0
 42
0.0000000001
 43
0.0000000001
 40
0.0
 40
0.0
 40
0.0
 40
43.23068944791867
 40
43.23068944791867
 40
43.23068944791867
 10
919.8692990102959
 20
969.9721805753906
 30
0.0
 10
919.8692990102959
 20
991.5875252993499
 30
0.0
 10
919.8692990102959
 20
1013.202870023309
 30
0.0
  0
SPLINE
  5
112
330
1F
100
AcDbEntity
  8
PREDETERMINADA
100
AcDbSpline
210
0.0
220
0.0
230
1.0
 70
    24
 71
     2
 72
     6
 73
     3
 74
     0
 42
0.0000000001
 43
0.0000000001
 40
0.0
 40
0.0
 40
0.0
 40
43.60774876272078
 40
43.60774876272078
 40
43.60774876272078
 10
1339.869299010296
 20
969.9721805753906
 30
0.0
 10
1339.869299010296
 20
991.7760549567508
 30
0.0
 10
1339.869299010296
 20
1013.579929338111
 30
0.0
  0
SPLINE
  5
113
330
1F
100
AcDbEntity
  8
PREDETERMINADA
100
AcDbSpline
210
0.0
220
0.0
230
1.0
 70
    24
 71
     2
 72
     6
 73
     3
 74
     0
 42
0.0000000001
 43
0.0000000001
 40
0.0
 40
0.0
 40
0.0
 40
43.64365917365432
 40
43.64365917365432
 40
43.64365917365432
 10
1379.869299010296
 20
969.9721805753906
 30
0.0
 10
1379.869299010296
 20
991.7940101622178
 30
0.0
 10
1379.869299010296
 20
1013.615839749045
 30
0.0
  0
SPLINE
  5
114
330
1F
100
AcDbEntity
  8
PREDETERMINADA
100
AcDbSpline
210
0.0
220
0.0
230
1.0
 70
    24
 71
     2
 72
     6
 73
     3
 74
     0
 42
0.0000000001
 43
0.0000000001
 40
0.0
 40
0.0
 40
0.0
 40
43.62570396818755
 40
43.62570396818755
 40
43.62570396818755
 10
1359.869299010296
 20
969.9721805753906
 30
0.0
 10
1359.869299010296
 20
991.7850325594843
 30
0.0
 10
1359.869299010296
 20
1013.597884543578
 30
0.0
  0
POLYLINE
  5
115
330
1F
100
AcDbEntity
  8
PREDETERMINADA
100
AcDb2dPolyline
 66
     1
 10
0.0
 20
0.0
 30
0.0
  0
VERTEX
  5
117
330
115
100
AcDbEntity
  8
PREDETERMINADA
100
AcDbVertex
100
AcDb2dVertex
 10
1399.869299010296
 20
969.9721805753906
 30
0.0
  0
VERTEX
  5
118
330
115
100
AcDbEntity
  8
PREDETERMINADA
100
AcDbVertex
100
AcDb2dVertex
 10
1399.869299010296
 20
1013.633794954512
 30
0.0
  0
SEQEND
  5
116
330
115
100
AcDbEntity
  8
PREDETERMINADA
  0
SPLINE
  5
119
330
1F
100
AcDbEntity
  8
PREDETERMINADA
100
AcDbSpline
210
0.0
220
0.0
230
1.0
 70
    24
 71
     2
 72
     6
 73
     3
 74
     0
 42
0.0000000001
 43
0.0000000001
 40
0.0
 40
0.0
 40
0.0
 40
43.71547999552139
 40
43.71547999552139
 40
43.71547999552139
 10
1459.869299010296
 20
969.9721805753906
 30
0.0
 10
1459.869299010296
 20
991.8299205731512
 30
0.0
 10
1459.869299010296
 20
1013.687660570912
 30
0.0
  0
SPLINE
  5
11A
330
1F
100
AcDbEntity
  8
PREDETERMINADA
100
AcDbSpline
210
0.0
220
0.0
230
1.0
 70
    24
 71
     2
 72
     6
 73
     3
 74
     0
 42
0.0000000001
 43
0.0000000001
 40
0.0
 40
0.0
 40
0.0
 40
43.55388314632048
 40
43.55388314632048
 40
43.55388314632048
 10
1279.869299010296
 20
969.9721805753906
 30
0.0
 10
1279.869299010296
 20
991.7491221485508
 30
0.0
 10
1279.869299010296
 20
1013.526063721711
 30
0.0
  0
SPLINE
  5
11B
330
1F
100
AcDbEntity
  8
PREDETERMINADA
100
AcDbSpline
210
0.0
220
0.0
230
1.0
 70
    24
 71
     2
 72
     6
 73
     3
 74
     0
 42
0.0000000001
 43
0.0000000001
 40
0.0
 40
0.0
 40
0.0
 40
43.53592794085372
 40
43.53592794085372
 40
43.53592794085372
 10
1259.869299010296
 20
969.9721805753906
 30
0.0
 10
1259.869299010296
 20
991.7401445458174
 30
0.0
 10
1259.869299010296
 20
1013.508108516244
 30
0.0
  0
POLYLINE
  5
11C
330
1F
100
AcDbEntity
  8
PREDETERMINADA
100
AcDb2dPolyline
 66
     1
 10
0.0
 20
0.0
 30
0.0
  0
VERTEX
  5
11E
330
11C
100
AcDbEntity
  8
PREDETERMINADA
100
AcDbVertex
100
AcDb2dVertex
 10
1319.869299010296
 20
969.9721805753906
 30
0.0
  0
VERTEX
  5
11F
330
11C
100
AcDbEntity
  8
PREDETERMINADA
100
AcDbVertex
100
AcDb2dVertex
 10
1319.869299010296
 20
1013.561974132645
 30
0.0
  0
SEQEND
  5
11D
330
11C
100
AcDbEntity
  8
PREDETERMINADA
  0
SPLINE
  5
120
330
1F
100
AcDbEntity
  8
PREDETERMINADA
100
AcDbSpline
210
0.0
220
0.0
230
1.0
 70
    24
 71
     2
 72
     6
 73
     3
 74
     0
 42
0.0000000001
 43
0.0000000001
 40
0.0
 40
0.0
 40
0.0
 40
43.57183835178726
 40
43.57183835178726
 40
43.57183835178726
 10
1299.869299010296
 20
969.9721805753906
 30
0.0
 10
1299.869299010296
 20
991.7580997512841
 30
0.0
 10
1299.869299010296
 20
1013.544018927178
 30
0.0
  0
POLYLINE
  5
121
330
1F
100
AcDbEntity
  8
PREDETERMINADA
100
AcDb2dPolyline
 66
     1
 10
0.0
 20
0.0
 30
0.0
  0
VERTEX
  5
123
330
121
100
AcDbEntity
  8
PREDETERMINADA
100
AcDbVertex
100
AcDb2dVertex
 10
1239.869299010296
 20
969.9721805753906
 30
0.0
  0
VERTEX
  5
124
330
121
100
AcDbEntity
  8
PREDETERMINADA
100
AcDbVertex
100
AcDb2dVertex
 10
1239.869299010296
 20
1013.490153310778
 30
0.0
  0
SEQEND
  5
122
330
121
100
AcDbEntity
  8
PREDETERMINADA
  0
SPLINE
  5
125
330
1F
100
AcDbEntity
  8
PREDETERMINADA
100
AcDbSpline
210
0.0
220
0.0
230
1.0
 70
    24
 71
     2
 72
     6
 73
     3
 74
     0
 42
0.0000000001
 43
0.0000000001
 40
0.0
 40
0.0
 40
0.0
 40
43.50001752992018
 40
43.50001752992018
 40
43.50001752992018
 10
1219.869299010296
 20
969.9721805753906
 30
0.0
 10
1219.869299010296
 20
991.7221893403507
 30
0.0
 10
1219.869299010296
 20
1013.472198105311
 30
0.0
  0
SPLINE
  5
126
330
1F
100
AcDbEntity
  8
PREDETERMINADA
100
AcDbSpline
210
0.0
220
0.0
230
1.0
 70
    24
 71
     2
 72
     6
 73
     3
 74
     0
 42
0.0000000001
 43
0.0000000001
 40
0.0
 40
0.0
 40
0.0
 40
43.67956958458785
 40
43.67956958458785
 40
43.67956958458785
 10
1419.869299010296
 20
969.9721805753906
 30
0.0
 10
1419.869299010296
 20
991.8119653676845
 30
0.0
 10
1419.869299010296
 20
1013.651750159978
 30
0.0
  0
SPLINE
  5
127
330
1F
100
AcDbEntity
  8
PREDETERMINADA
100
AcDbSpline
210
0.0
220
0.0
230
1.0
 70
    24
 71
     2
 72
     6
 73
     3
 74
     0
 42
0.0000000001
 43
0.0000000001
 40
0.0
 40
0.0
 40
0.0
 40
43.69752479005462
 40
43.69752479005462
 40
43.69752479005462
 10
1439.869299010296
 20
969.9721805753906
 30
0.0
 10
1439.869299010296
 20
991.8209429704178
 30
0.0
 10
1439.869299010296
 20
1013.669705365445
 30
0.0
  0
POLYLINE
  5
128
330
1F
100
AcDbEntity
  8
PREDETERMINADA
100
AcDb2dPolyline
 66
     1
 10
0.0
 20
0.0
 30
0.0
  0
VERTEX
  5
12A
330
128
100
AcDbEntity
  8
PREDETERMINADA
100
AcDbVertex
100
AcDb2dVertex
 10
1059.869299010296
 20
969.9721805753906
 30
0.0
  0
VERTEX
  5
12B
330
128
100
AcDbEntity
  8
PREDETERMINADA
100
AcDbVertex
100
AcDb2dVertex
 10
1059.869299010296
 20
1013.328556461577
 30
0.0
  0
SEQEND
  5
129
330
128
100
AcDbEntity
  8
PREDETERMINADA
  0
SPLINE
  5
12C
330
1F
100
AcDbEntity
  8
PREDETERMINADA
100
AcDbSpline
210
0.0
220
0.0
230
1.0
 70
    24
 71
     2
 72
     6
 73
     3
 74
     0
 42
0.0000000001
 43
0.0000000001
 40
0.0
 40
0.0
 40
0.0
 40
43.33842068071927
 40
43.33842068071927
 40
43.33842068071927
 10
1039.869299010296
 20
969.9721805753906
 30
0.0
 10
1039.869299010296
 20
991.6413909157502
 30
0.0
 10
1039.869299010296
 20
1013.31060125611
 30
0.0
  0
SPLINE
  5
12D
330
1F
100
AcDbEntity
  8
PREDETERMINADA
100
AcDbSpline
210
0.0
220
0.0
230
1.0
 70
    24
 71
     2
 72
     6
 73
     3
 74
     0
 42
0.0000000001
 43
0.0000000001
 40
0.0
 40
0.0
 40
0.0
 40
43.39228629711958
 40
43.39228629711958
 40
43.39228629711958
 10
1099.869299010296
 20
969.9721805753906
 30
0.0
 10
1099.869299010296
 20
991.6683237239504
 30
0.0
 10
1099.869299010296
 20
1013.36446687251
 30
0.0
  0
SPLINE
  5
12E
330
1F
100
AcDbEntity
  8
PREDETERMINADA
100
AcDbSpline
210
0.0
220
0.0
230
1.0
 70
    24
 71
     2
 72
     6
 73
     3
 74
     0
 42
0.0000000001
 43
0.0000000001
 40
0.0
 40
0.0
 40
0.0
 40
43.37433109165281
 40
43.37433109165281
 40
43.37433109165281
 10
1079.869299010296
 20
969.9721805753906
 30
0.0
 10
1079.869299010296
 20
991.6593461212169
 30
0.0
 10
1079.869299010296
 20
1013.346511667043
 30
0.0
  0
POLYLINE
  5
12F
330
1F
100
AcDbEntity
  8
PREDETERMINADA
100
AcDb2dPolyline
 66
     1
 10
0.0
 20
0.0
 30
0.0
  0
VERTEX
  5
131
330
12F
100
AcDbEntity
  8
PREDETERMINADA
100
AcDbVertex
100
AcDb2dVertex
 10
1139.869299010296
 20
969.9721805753906
 30
0.0
  0
VERTEX
  5
132
330
12F
100
AcDbEntity
  8
PREDETERMINADA
100
AcDbVertex
100
AcDb2dVertex
 10
1139.869299010296
 20
1013.400377283444
 30
0.0
  0
SEQEND
  5
130
330
12F
100
AcDbEntity
  8
PREDETERMINADA
  0
SPLINE
  5
133
330
1F
100
AcDbEntity
  8
PREDETERMINADA
100
AcDbSpline
210
0.0
220
0.0
230
1.0
 70
    24
 71
     2
 72
     6
 73
     3
 74
     0
 42
0.0000000001
 43
0.0000000001
 40
0.0
 40
0.0
 40
0.0
 40
43.41024150258635
 40
43.41024150258635
 40
43.41024150258635
 10
1119.869299010296
 20
969.9721805753906
 30
0.0
 10
1119.869299010296
 20
991.6773013266837
 30
0.0
 10
1119.869299010296
 20
1013.382422077977
 30
0.0
  0
SPLINE
  5
134
330
1F
100
AcDbEntity
  8
PREDETERMINADA
100
AcDbSpline
210
0.0
220
0.0
230
1.0
 70
    24
 71
     2
 72
     6
 73
     3
 74
     0
 42
0.0000000001
 43
0.0000000001
 40
0.0
 40
0.0
 40
0.0
 40
43.44615191351988
 40
43.44615191351988
 40
43.44615191351988
 10
1159.869299010296
 20
969.9721805753906
 30
0.0
 10
1159.869299010296
 20
991.6952565321506
 30
0.0
 10
1159.869299010296
 20
1013.41833248891
 30
0.0
  0
SPLINE
  5
135
330
1F
100
AcDbEntity
  8
PREDETERMINADA
100
AcDbSpline
210
0.0
220
0.0
230
1.0
 70
    24
 71
     2
 72
     6
 73
     3
 74
     0
 42
0.0000000001
 43
0.0000000001
 40
0.0
 40
0.0
 40
0.0
 40
43.46410711898665
 40
43.46410711898665
 40
43.46410711898665
 10
1179.869299010296
 20
969.9721805753906
 30
0.0
 10
1179.869299010296
 20
991.7042341348839
 30
0.0
 10
1179.869299010296
 20
1013.436287694377
 30
0.0
  0
SPLINE
  5
136
330
1F
100
AcDbEntity
  8
PREDETERMINADA
100
AcDbSpline
210
0.0
220
0.0
230
1.0
 70
    24
 71
     2
 72
     6
 73
     3
 74
     0
 42
0.0000000001
 43
0.0000000001
 40
0.0
 40
0.0
 40
0.0
 40
43.48206232445341
 40
43.48206232445341
 40
43.48206232445341
 10
1199.869299010296
 20
969.9721805753906
 30
0.0
 10
1199.869299010296
 20
991.7132117376173
 30
0.0
 10
1199.869299010296
 20
1013.454242899844
 30
0.0
  0
SPLINE
  5
137
330
1F
100
AcDbEntity
  8
PREDETERMINADA
100
AcDbSpline
210
0.0
220
0.0
230
1.0
 70
    24
 71
     2
 72
     6
 73
     3
 74
     0
 42
0.0000000001
 43
0.0000000001
 40
0.0
 40
0.0
 40
0.0
 40
43.89503205018906
 40
43.89503205018906
 40
43.89503205018906
 10
1659.869299010296
 20
969.9721805753906
 30
0.0
 10
1659.869299010296
 20
991.9196966004852
 30
0.0
 10
1659.869299010296
 20
1013.86721262558
 30
0.0
  0
POLYLINE
  5
138
330
1F
100
AcDbEntity
  8
PREDETERMINADA
100
AcDb2dPolyline
 66
     1
 10
0.0
 20
0.0
 30
0.0
  0
VERTEX
  5
13A
330
138
100
AcDbEntity
  8
PREDETERMINADA
100
AcDbVertex
100
AcDb2dVertex
 10
1719.869299010296
 20
969.9721805753906
 30
0.0
  0
VERTEX
  5
13B
330
138
100
AcDbEntity
  8
PREDETERMINADA
100
AcDbVertex
100
AcDb2dVertex
 10
1719.869299010296
 20
1013.92107824198
 30
0.0
  0
SEQEND
  5
139
330
138
100
AcDbEntity
  8
PREDETERMINADA
  0
POLYLINE
  5
13C
330
1F
100
AcDbEntity
  8
PREDETERMINADA
100
AcDb2dPolyline
 66
     1
 10
0.0
 20
0.0
 30
0.0
  0
VERTEX
  5
13E
330
13C
100
AcDbEntity
  8
PREDETERMINADA
100
AcDbVertex
100
AcDb2dVertex
 10
1799.869299010296
 20
969.9721805753906
 30
0.0
  0
VERTEX
  5
13F
330
13C
100
AcDbEntity
  8
PREDETERMINADA
100
AcDbVertex
100
AcDb2dVertex
 10
1799.869299010296
 20
1013.992899063847
 30
0.0
  0
SEQEND
  5
13D
330
13C
100
AcDbEntity
  8
PREDETERMINADA
  0
SPLINE
  5
140
330
1F
100
AcDbEntity
  8
PREDETERMINADA
100
AcDbSpline
210
0.0
220
0.0
230
1.0
 70
    24
 71
     2
 72
     6
 73
     3
 74
     0
 42
0.0000000001
 43
0.0000000001
 40
0.0
 40
0.0
 40
0.0
 40
43.91298725565583
 40
43.91298725565583
 40
43.91298725565583
 10
1679.869299010296
 20
969.9721805753906
 30
0.0
 10
1679.869299010296
 20
991.9286742032184
 30
0.0
 10
1679.869299010296
 20
1013.885167831046
 30
0.0
  0
SPLINE
  5
141
330
1F
100
AcDbEntity
  8
PREDETERMINADA
100
AcDbSpline
210
0.0
220
0.0
230
1.0
 70
    24
 71
     2
 72
     6
 73
     3
 74
     0
 42
0.0000000001
 43
0.0000000001
 40
0.0
 40
0.0
 40
0.0
 40
43.98480807752289
 40
43.98480807752289
 40
43.98480807752289
 10
1759.869299010296
 20
969.9721805753906
 30
0.0
 10
1759.869299010296
 20
991.964584614152
 30
0.0
 10
1759.869299010296
 20
1013.956988652913
 30
0.0
  0
SPLINE
  5
142
330
1F
100
AcDbEntity
  8
PREDETERMINADA
100
AcDbSpline
210
0.0
220
0.0
230
1.0
 70
    24
 71
     2
 72
     6
 73
     3
 74
     0
 42
0.0000000001
 43
0.0000000001
 40
0.0
 40
0.0
 40
0.0
 40
43.9309424611226
 40
43.9309424611226
 40
43.9309424611226
 10
1699.869299010296
 20
969.9721805753906
 30
0.0
 10
1699.869299010296
 20
991.9376518059519
 30
0.0
 10
1699.869299010296
 20
1013.903123036513
 30
0.0
  0
SPLINE
  5
143
330
1F
100
AcDbEntity
  8
PREDETERMINADA
100
AcDbSpline
210
0.0
220
0.0
230
1.0
 70
    24
 71
     2
 72
     6
 73
     3
 74
     0
 42
0.0000000001
 43
0.0000000001
 40
0.0
 40
0.0
 40
0.0
 40
44.00276328298966
 40
44.00276328298966
 40
44.00276328298966
 10
1779.869299010296
 20
969.9721805753906
 30
0.0
 10
1779.869299010296
 20
991.9735622168854
 30
0.0
 10
1779.869299010296
 20
1013.97494385838
 30
0.0
  0
SPLINE
  5
144
330
1F
100
AcDbEntity
  8
PREDETERMINADA
100
AcDbSpline
210
0.0
220
0.0
230
1.0
 70
    24
 71
     2
 72
     6
 73
     3
 74
     0
 42
0.0000000001
 43
0.0000000001
 40
0.0
 40
0.0
 40
0.0
 40
43.96685287205614
 40
43.96685287205614
 40
43.96685287205614
 10
1739.869299010296
 20
969.9721805753906
 30
0.0
 10
1739.869299010296
 20
991.9556070114187
 30
0.0
 10
1739.869299010296
 20
1013.939033447447
 30
0.0
  0
SPLINE
  5
145
330
1F
100
AcDbEntity
  8
PREDETERMINADA
100
AcDbSpline
210
0.0
220
0.0
230
1.0
 70
    24
 71
     2
 72
     6
 73
     3
 74
     0
 42
0.0000000001
 43
0.0000000001
 40
0.0
 40
0.0
 40
0.0
 40
44.0386736939232
 40
44.0386736939232
 40
44.0386736939232
 10
1819.869299010296
 20
969.9721805753906
 30
0.0
 10
1819.869299010296
 20
991.9915174223522
 30
0.0
 10
1819.869299010296
 20
1014.010854269314
 30
0.0
  0
SPLINE
  5
146
330
1F
100
AcDbEntity
  8
PREDETERMINADA
100
AcDbSpline
210
0.0
220
0.0
230
1.0
 70
    24
 71
     2
 72
     6
 73
     3
 74
     0
 42
0.0000000001
 43
0.0000000001
 40
0.0
 40
0.0
 40
0.0
 40
44.07458410485673
 40
44.07458410485673
 40
44.07458410485673
 10
1859.869299010296
 20
969.9721805753906
 30
0.0
 10
1859.869299010296
 20
992.0094726278189
 30
0.0
 10
1859.869299010296
 20
1014.046764680247
 30
0.0
  0
SPLINE
  5
147
330
1F
100
AcDbEntity
  8
PREDETERMINADA
100
AcDbSpline
210
0.0
220
0.0
230
1.0
 70
    24
 71
     2
 72
     6
 73
     3
 74
     0
 42
0.0000000001
 43
0.0000000001
 40
0.0
 40
0.0
 40
0.0
 40
44.05662889938996
 40
44.05662889938996
 40
44.05662889938996
 10
1839.869299010296
 20
969.9721805753906
 30
0.0
 10
1839.869299010296
 20
992.0004950250856
 30
0.0
 10
1839.869299010296
 20
1014.028809474781
 30
0.0
  0
POLYLINE
  5
148
330
1F
100
AcDbEntity
  8
PREDETERMINADA
100
AcDb2dPolyline
 66
     1
 10
0.0
 20
0.0
 30
0.0
  0
VERTEX
  5
14A
330
148
100
AcDbEntity
  8
PREDETERMINADA
100
AcDbVertex
100
AcDb2dVertex
 10
1879.869299010296
 20
969.9721805753906
 30
0.0
  0
VERTEX
  5
14B
330
148
100
AcDbEntity
  8
PREDETERMINADA
100
AcDbVertex
100
AcDb2dVertex
 10
1879.869299010296
 20
1014.064719885714
 30
0.0
  0
SEQEND
  5
149
330
148
100
AcDbEntity
  8
PREDETERMINADA
  0
SPLINE
  5
14C
330
1F
100
AcDbEntity
  8
PREDETERMINADA
100
AcDbSpline
210
0.0
220
0.0
230
1.0
 70
    24
 71
     2
 72
     6
 73
     3
 74
     0
 42
0.0000000001
 43
0.0000000001
 40
0.0
 40
0.0
 40
0.0
 40
44.1464049267238
 40
44.1464049267238
 40
44.1464049267238
 10
1939.869299010296
 20
969.9721805753906
 30
0.0
 10
1939.869299010296
 20
992.0453830387524
 30
0.0
 10
1939.869299010296
 20
1014.118585502114
 30
0.0
  0
POLYLINE
  5
14D
330
1F
100
AcDbEntity
  8
PREDETERMINADA
100
AcDb2dPolyline
 66
     1
 10
0.0
 20
0.0
 30
0.0
  0
VERTEX
  5
14F
330
14D
100
AcDbEntity
  8
PREDETERMINADA
100
AcDbVertex
100
AcDb2dVertex
 10
1959.869299010296
 20
969.9721805753906
 30
0.0
  0
VERTEX
  5
150
330
14D
100
AcDbEntity
  8
PREDETERMINADA
100
AcDbVertex
100
AcDb2dVertex
 10
1959.869299010296
 20
1014.136540707581
 30
0.0
  0
SEQEND
  5
14E
330
14D
100
AcDbEntity
  8
PREDETERMINADA
  0
SPLINE
  5
151
330
1F
100
AcDbEntity
  8
PREDETERMINADA
100
AcDbSpline
210
0.0
220
0.0
230
1.0
 70
    24
 71
     2
 72
     6
 73
     3
 74
     0
 42
0.0000000001
 43
0.0000000001
 40
0.0
 40
0.0
 40
0.0
 40
44.11049451579026
 40
44.11049451579026
 40
44.11049451579026
 10
1899.869299010296
 20
969.9721805753906
 30
0.0
 10
1899.869299010296
 20
992.0274278332856
 30
0.0
 10
1899.869299010296
 20
1014.082675091181
 30
0.0
  0
SPLINE
  5
152
330
1F
100
AcDbEntity
  8
PREDETERMINADA
100
AcDbSpline
210
0.0
220
0.0
230
1.0
 70
    24
 71
     2
 72
     6
 73
     3
 74
     0
 42
0.0000000001
 43
0.0000000001
 40
0.0
 40
0.0
 40
0.0
 40
44.12844972125703
 40
44.12844972125703
 40
44.12844972125703
 10
1919.869299010296
 20
969.9721805753906
 30
0.0
 10
1919.869299010296
 20
992.0364054360191
 30
0.0
 10
1919.869299010296
 20
1014.100630296648
 30
0.0
  0
SPLINE
  5
153
330
1F
100
AcDbEntity
  8
PREDETERMINADA
100
AcDbSpline
210
0.0
220
0.0
230
1.0
 70
    24
 71
     2
 72
     6
 73
     3
 74
     0
 42
0.0000000001
 43
0.0000000001
 40
0.0
 40
0.0
 40
0.0
 40
44.18231533765734
 40
44.18231533765734
 40
44.18231533765734
 10
1979.869299010296
 20
969.9721805753906
 30
0.0
 10
1979.869299010296
 20
992.0633382442193
 30
0.0
 10
1979.869299010296
 20
1014.154495913048
 30
0.0
  0
SPLINE
  5
154
330
1F
100
AcDbEntity
  8
PREDETERMINADA
100
AcDbSpline
210
0.0
220
0.0
230
1.0
 70
    24
 71
     2
 72
     6
 73
     3
 74
     0
 42
0.0000000001
 43
0.0000000001
 40
0.0
 40
0.0
 40
0.0
 40
43.78730081738846
 40
43.78730081738846
 40
43.78730081738846
 10
1539.869299010296
 20
969.9721805753906
 30
0.0
 10
1539.869299010296
 20
991.8658309840848
 30
0.0
 10
1539.869299010296
 20
1013.759481392779
 30
0.0
  0
POLYLINE
  5
155
330
1F
100
AcDbEntity
  8
PREDETERMINADA
100
AcDb2dPolyline
 66
     1
 10
0.0
 20
0.0
 30
0.0
  0
VERTEX
  5
157
330
155
100
AcDbEntity
  8
PREDETERMINADA
100
AcDbVertex
100
AcDb2dVertex
 10
1559.869299010296
 20
969.9721805753906
 30
0.0
  0
VERTEX
  5
158
330
155
100
AcDbEntity
  8
PREDETERMINADA
100
AcDbVertex
100
AcDb2dVertex
 10
1559.869299010296
 20
1013.777436598246
 30
0.0
  0
SEQEND
  5
156
330
155
100
AcDbEntity
  8
PREDETERMINADA
  0
SPLINE
  5
159
330
1F
100
AcDbEntity
  8
PREDETERMINADA
100
AcDbSpline
210
0.0
220
0.0
230
1.0
 70
    24
 71
     2
 72
     6
 73
     3
 74
     0
 42
0.0000000001
 43
0.0000000001
 40
0.0
 40
0.0
 40
0.0
 40
43.82321122832199
 40
43.82321122832199
 40
43.82321122832199
 10
1579.869299010296
 20
969.9721805753906
 30
0.0
 10
1579.869299010296
 20
991.8837861895515
 30
0.0
 10
1579.869299010296
 20
1013.795391803713
 30
0.0
  0
SPLINE
  5
15A
330
1F
100
AcDbEntity
  8
PREDETERMINADA
100
AcDbSpline
210
0.0
220
0.0
230
1.0
 70
    24
 71
     2
 72
     6
 73
     3
 74
     0
 42
0.0000000001
 43
0.0000000001
 40
0.0
 40
0.0
 40
0.0
 40
43.84116643378876
 40
43.84116643378876
 40
43.84116643378876
 10
1599.869299010296
 20
969.9721805753906
 30
0.0
 10
1599.869299010296
 20
991.892763792285
 30
0.0
 10
1599.869299010296
 20
1013.813347009179
 30
0.0
  0
SPLINE
  5
15B
330
1F
100
AcDbEntity
  8
PREDETERMINADA
100
AcDbSpline
210
0.0
220
0.0
230
1.0
 70
    24
 71
     2
 72
     6
 73
     3
 74
     0
 42
0.0000000001
 43
0.0000000001
 40
0.0
 40
0.0
 40
0.0
 40
43.85912163925553
 40
43.85912163925553
 40
43.85912163925553
 10
1619.869299010296
 20
969.9721805753906
 30
0.0
 10
1619.869299010296
 20
991.9017413950182
 30
0.0
 10
1619.869299010296
 20
1013.831302214646
 30
0.0
  0
POLYLINE
  5
15C
330
1F
100
AcDbEntity
  8
PREDETERMINADA
100
AcDb2dPolyline
 66
     1
 10
0.0
 20
0.0
 30
0.0
  0
VERTEX
  5
15E
330
15C
100
AcDbEntity
  8
PREDETERMINADA
100
AcDbVertex
100
AcDb2dVertex
 10
1639.869299010296
 20
969.9721805753906
 30
0.0
  0
VERTEX
  5
15F
330
15C
100
AcDbEntity
  8
PREDETERMINADA
100
AcDbVertex
100
AcDb2dVertex
 10
1639.869299010296
 20
1013.849257420113
 30
0.0
  0
SEQEND
  5
15D
330
15C
100
AcDbEntity
  8
PREDETERMINADA
  0
SPLINE
  5
160
330
1F
100
AcDbEntity
  8
PREDETERMINADA
100
AcDbSpline
210
0.0
220
0.0
230
1.0
 70
    24
 71
     2
 72
     6
 73
     3
 74
     0
 42
0.0000000001
 43
0.0000000001
 40
0.0
 40
0.0
 40
0.0
 40
43.76934561192169
 40
43.76934561192169
 40
43.76934561192169
 10
1519.869299010296
 20
969.9721805753906
 30
0.0
 10
1519.869299010296
 20
991.8568533813514
 30
0.0
 10
1519.869299010296
 20
1013.741526187312
 30
0.0
  0
SPLINE
  5
161
330
1F
100
AcDbEntity
  8
PREDETERMINADA
100
AcDbSpline
210
0.0
220
0.0
230
1.0
 70
    24
 71
     2
 72
     6
 73
     3
 74
     0
 42
0.0000000001
 43
0.0000000001
 40
0.0
 40
0.0
 40
0.0
 40
43.75139040645493
 40
43.75139040645493
 40
43.75139040645493
 10
1499.869299010296
 20
969.9721805753906
 30
0.0
 10
1499.869299010296
 20
991.8478757786181
 30
0.0
 10
1499.869299010296
 20
1013.723570981846
 30
0.0
  0
SPLINE
  5
162
330
1F
100
AcDbEntity
  8
PREDETERMINADA
100
AcDbSpline
210
0.0
220
0.0
230
1.0
 70
    24
 71
     2
 72
     6
 73
     3
 74
     0
 42
0.0000000001
 43
0.0000000001
 40
0.0
 40
0.0
 40
0.0
 40
43.73343520098816
 40
43.73343520098816
 40
43.73343520098816
 10
1479.869299010296
 20
969.9721805753906
 30
0.0
 10
1479.869299010296
 20
991.8388981758847
 30
0.0
 10
1479.869299010296
 20
1013.705615776379
 30
0.0
  0
POLYLINE
  5
163
330
1F
100
AcDbEntity
  8
PREDETERMINADA
100
AcDb2dPolyline
 66
     1
 10
0.0
 20
0.0
 30
0.0
  0
VERTEX
  5
165
330
163
100
AcDbEntity
  8
PREDETERMINADA
100
AcDbVertex
100
AcDb2dVertex
 10
1479.869299010296
 20
969.9721805753906
 30
0.0
  0
VERTEX
  5
166
330
163
100
AcDbEntity
  8
PREDETERMINADA
100
AcDbVertex
100
AcDb2dVertex
 10
1479.869299010296
 20
1013.705615776379
 30
0.0
  0
SEQEND
  5
164
330
163
100
AcDbEntity
  8
PREDETERMINADA
  0
SPLINE
  5
167
330
1F
100
AcDbEntity
  8
PREDETERMINADA
100
AcDbSpline
210
0.0
220
0.0
230
1.0
 70
    24
 71
     2
 72
     6
 73
     3
 74
     0
 42
0.0000000001
 43
0.0000000001
 40
0.0
 40
0.0
 40
0.0
 40
44.2002705431241
 40
44.2002705431241
 40
44.2002705431241
 10
1999.869299010296
 20
969.9721805753906
 30
0.0
 10
1999.869299010296
 20
992.0723158469526
 30
0.0
 10
1999.869299010296
 20
1014.172451118515
 30
0.0
  0
SPLINE
  5
168
330
1F
100
AcDbEntity
  8
PREDETERMINADA
100
AcDbSpline
210
0.0
220
0.0
230
1.0
 70
    24
 71
     2
 72
     6
 73
     3
 74
     0
 42
0.0000000001
 43
0.0000000001
 40
0.0
 40
0.0
 40
0.0
 40
44.21822574859087
 40
44.21822574859087
 40
44.21822574859087
 10
2019.869299010296
 20
969.9721805753906
 30
0.0
 10
2019.869299010296
 20
992.081293449686
 30
0.0
 10
2019.869299010296
 20
1014.190406323982
 30
0.0
  0
POLYLINE
  5
169
330
1F
100
AcDbEntity
  8
PREDETERMINADA
100
AcDb2dPolyline
 66
     1
 10
0.0
 20
0.0
 30
0.0
  0
VERTEX
  5
16B
330
169
100
AcDbEntity
  8
PREDETERMINADA
100
AcDbVertex
100
AcDb2dVertex
 10
2039.869299010296
 20
969.9721805753906
 30
0.0
  0
VERTEX
  5
16C
330
169
100
AcDbEntity
  8
PREDETERMINADA
100
AcDbVertex
100
AcDb2dVertex
 10
2039.869299010296
 20
1014.208361529448
 30
0.0
  0
SEQEND
  5
16A
330
169
100
AcDbEntity
  8
PREDETERMINADA
  0
SPLINE
  5
16D
330
1F
100
AcDbEntity
  8
PREDETERMINADA
100
AcDbSpline
210
0.0
220
0.0
230
1.0
 70
    24
 71
     2
 72
     6
 73
     3
 74
     0
 42
0.0000000001
 43
0.0000000001
 40
0.0
 40
0.0
 40
0.0
 40
44.25413615952441
 40
44.25413615952441
 40
44.25413615952441
 10
2059.869299010296
 20
969.9721805753906
 30
0.0
 10
2059.869299010296
 20
992.0992486551527
 30
0.0
 10
2059.869299010296
 20
1014.226316734915
 30
0.0
  0
SPLINE
  5
16E
330
1F
100
AcDbEntity
  8
PREDETERMINADA
100
AcDbSpline
210
0.0
220
0.0
230
1.0
 70
    24
 71
     2
 72
     6
 73
     3
 74
     0
 42
0.0000000001
 43
0.0000000001
 40
0.0
 40
0.0
 40
0.0
 40
44.27209136499117
 40
44.27209136499117
 40
44.27209136499117
 10
2079.869299010296
 20
969.9721805753906
 30
0.0
 10
2079.869299010296
 20
992.1082262578861
 30
0.0
 10
2079.869299010296
 20
1014.244271940382
 30
0.0
  0
SPLINE
  5
16F
330
1F
100
AcDbEntity
  8
PREDETERMINADA
100
AcDbSpline
210
0.0
220
0.0
230
1.0
 70
    24
 71
     2
 72
     6
 73
     3
 74
     0
 42
0.0000000001
 43
0.0000000001
 40
0.0
 40
0.0
 40
0.0
 40
44.29004657045794
 40
44.29004657045794
 40
44.29004657045794
 10
2099.869299010296
 20
969.9721805753906
 30
0.0
 10
2099.869299010296
 20
992.1172038606196
 30
0.0
 10
2099.869299010296
 20
1014.262227145849
 30
0.0
  0
POLYLINE
  5
170
330
1F
100
AcDbEntity
  8
PREDETERMINADA
100
AcDb2dPolyline
 66
     1
 10
0.0
 20
0.0
 30
0.0
  0
VERTEX
  5
172
330
170
100
AcDbEntity
  8
PREDETERMINADA
100
AcDbVertex
100
AcDb2dVertex
 10
2119.869299010296
 20
969.9721805753906
 30
0.0
  0
VERTEX
  5
173
330
170
100
AcDbEntity
  8
PREDETERMINADA
100
AcDbVertex
100
AcDb2dVertex
 10
2119.869299010296
 20
1014.280182351315
 30
0.0
  0
SEQEND
  5
171
330
170
100
AcDbEntity
  8
PREDETERMINADA
  0
SPLINE
  5
174
330
1F
100
AcDbEntity
  8
PREDETERMINADA
100
AcDbSpline
210
0.0
220
0.0
230
1.0
 70
    24
 71
     2
 72
     6
 73
     3
 74
     0
 42
0.0000000001
 43
0.0000000001
 40
56.05114263207773
 40
56.05114263207773
 40
56.05114263207773
 40
143.0511776919173
 40
143.0511776919173
 40
143.0511776919173
 10
719.8692990102961
 20
1026.023323207468
 30
0.0
 10
719.8692990102961
 20
1069.523340737388
 30
0.0
 10
719.8692990102961
 20
1113.023358267308
 30
0.0
  0
POLYLINE
  5
175
330
1F
100
AcDbEntity
  8
PREDETERMINADA
100
AcDb2dPolyline
 66
     1
 10
0.0
 20
0.0
 30
0.0
  0
VERTEX
  5
177
330
175
100
AcDbEntity
  8
PREDETERMINADA
100
AcDbVertex
100
AcDb2dVertex
 10
659.8692990102961
 20
1025.969457591068
 30
0.0
  0
VERTEX
  5
178
330
175
100
AcDbEntity
  8
PREDETERMINADA
100
AcDbVertex
100
AcDb2dVertex
 10
659.8692990102961
 20
1112.969492650908
 30
0.0
  0
SEQEND
  5
176
330
175
100
AcDbEntity
  8
PREDETERMINADA
  0
SPLINE
  5
179
330
1F
100
AcDbEntity
  8
PREDETERMINADA
100
AcDbSpline
210
0.0
220
0.0
230
1.0
 70
    24
 71
     2
 72
     6
 73
     3
 74
     0
 42
0.0000000001
 43
0.0000000001
 40
55.96136660474391
 40
55.96136660474391
 40
55.96136660474391
 40
142.9614016645838
 40
142.9614016645838
 40
142.9614016645838
 10
619.8692990102961
 20
1025.933547180134
 30
0.0
 10
619.8692990102961
 20
1069.433564710054
 30
0.0
 10
619.8692990102961
 20
1112.933582239974
 30
0.0
  0
SPLINE
  5
17A
330
1F
100
AcDbEntity
  8
PREDETERMINADA
100
AcDbSpline
210
0.0
220
0.0
230
1.0
 70
    24
 71
     2
 72
     6
 73
     3
 74
     0
 42
0.0000000001
 43
0.0000000001
 40
55.97932181021066
 40
55.97932181021066
 40
55.97932181021066
 40
142.9793568700505
 40
142.9793568700505
 40
142.9793568700505
 10
639.8692990102961
 20
1025.951502385601
 30
0.0
 10
639.8692990102961
 20
1069.451519915521
 30
0.0
 10
639.8692990102961
 20
1112.951537445441
 30
0.0
  0
SPLINE
  5
17B
330
1F
100
AcDbEntity
  8
PREDETERMINADA
100
AcDbSpline
210
0.0
220
0.0
230
1.0
 70
    24
 71
     2
 72
     6
 73
     3
 74
     0
 42
0.0000000001
 43
0.0000000001
 40
99.86394526748265
 40
99.86394526748265
 40
99.86394526748265
 40
1939.962258316359
 40
1939.962258316359
 40
1939.962258316359
 10
299.7307372620611
 20
1069.146157027353
 30
0.0
 10
1219.779523019141
 20
1069.972140276739
 30
0.0
 10
2139.82830877622
 20
1070.798123526125
 30
0.0
  0
POLYLINE
  5
17C
330
1F
100
AcDbEntity
  8
PREDETERMINADA
100
AcDb2dPolyline
 66
     1
 10
0.0
 20
0.0
 30
0.0
  0
VERTEX
  5
17E
330
17C
100
AcDbEntity
  8
PREDETERMINADA
100
AcDbVertex
100
AcDb2dVertex
 10
299.7697898182136
 20
1047.400339873145
 30
0.0
  0
VERTEX
  5
17F
330
17C
100
AcDbEntity
  8
PREDETERMINADA
100
AcDbVertex
100
AcDb2dVertex
 10
2139.867361332373
 20
1048.048257693588
 30
0.0
  0
SEQEND
  5
17D
330
17C
100
AcDbEntity
  8
PREDETERMINADA
  0
POLYLINE
  5
180
330
1F
100
AcDbEntity
  8
PREDETERMINADA
100
AcDb2dPolyline
 66
     1
 10
0.0
 20
0.0
 30
0.0
  0
VERTEX
  5
182
330
180
100
AcDbEntity
  8
PREDETERMINADA
100
AcDbVertex
100
AcDb2dVertex
 10
299.730737262061
 20
1090.900322343231
 30
0.0
  0
VERTEX
  5
183
330
180
100
AcDbEntity
  8
PREDETERMINADA
100
AcDbVertex
100
AcDb2dVertex
 10
2139.82830877622
 20
1091.548240163675
 30
0.0
  0
SEQEND
  5
181
330
180
100
AcDbEntity
  8
PREDETERMINADA
  0
SPLINE
  5
184
330
1F
100
AcDbEntity
  8
PREDETERMINADA
100
AcDbSpline
210
0.0
220
0.0
230
1.0
 70
    24
 71
     2
 72
     6
 73
     3
 74
     0
 42
0.0000000001
 43
0.0000000001
 40
56.30251550861247
 40
56.30251550861247
 40
56.30251550861247
 40
143.3025505684515
 40
143.3025505684515
 40
143.3025505684515
 10
999.8692990102959
 20
1026.274696084003
 30
0.0
 10
999.869299010296
 20
1069.774713613922
 30
0.0
 10
999.8692990102961
 20
1113.274731143842
 30
0.0
  0
SPLINE
  5
185
330
1F
100
AcDbEntity
  8
PREDETERMINADA
100
AcDbSpline
210
0.0
220
0.0
230
1.0
 70
    24
 71
     2
 72
     6
 73
     3
 74
     0
 42
0.0000000001
 43
0.0000000001
 40
56.12296345394481
 40
56.12296345394481
 40
56.12296345394481
 40
143.1229985137842
 40
143.1229985137842
 40
143.1229985137842
 10
799.8692990102961
 20
1026.095144029335
 30
0.0
 10
799.8692990102961
 20
1069.595161559255
 30
0.0
 10
799.8692990102961
 20
1113.095179089175
 30
0.0
  0
SPLINE
  5
186
330
1F
100
AcDbEntity
  8
PREDETERMINADA
100
AcDbSpline
210
0.0
220
0.0
230
1.0
 70
    24
 71
     2
 72
     6
 73
     3
 74
     0
 42
0.0000000001
 43
0.0000000001
 40
56.10500824847804
 40
56.10500824847804
 40
56.10500824847804
 40
143.1050433083176
 40
143.1050433083176
 40
143.1050433083176
 10
779.869299010296
 20
1026.077188823868
 30
0.0
 10
779.8692990102961
 20
1069.577206353788
 30
0.0
 10
779.8692990102961
 20
1113.077223883708
 30
0.0
  0
POLYLINE
  5
187
330
1F
100
AcDbEntity
  8
PREDETERMINADA
100
AcDb2dPolyline
 66
     1
 10
0.0
 20
0.0
 30
0.0
  0
VERTEX
  5
189
330
187
100
AcDbEntity
  8
PREDETERMINADA
100
AcDbVertex
100
AcDb2dVertex
 10
2139.789256220067
 20
1114.298105996208
 30
0.0
  0
VERTEX
  5
18A
330
187
100
AcDbEntity
  8
PREDETERMINADA
100
AcDbVertex
100
AcDb2dVertex
 10
2139.867361332373
 20
1027.298141056039
 30
0.0
  0
SEQEND
  5
188
330
187
100
AcDbEntity
  8
PREDETERMINADA
  0
SPLINE
  5
18B
330
1F
100
AcDbEntity
  8
PREDETERMINADA
100
AcDbSpline
210
0.0
220
0.0
230
1.0
 70
    24
 71
     2
 72
     6
 73
     3
 74
     0
 42
0.0000000001
 43
0.0000000001
 40
57.20027578195083
 40
57.20027578195083
 40
57.20027578195083
 40
144.2003108417875
 40
144.2003108417875
 40
144.2003108417875
 10
1999.869299010296
 20
1027.172456357341
 30
0.0
 10
1999.869299010296
 20
1070.67247388726
 30
0.0
 10
1999.869299010296
 20
1114.172491417178
 30
0.0
  0
SPLINE
  5
18C
330
1F
100
AcDbEntity
  8
PREDETERMINADA
100
AcDbSpline
210
0.0
220
0.0
230
1.0
 70
    24
 71
     2
 72
     6
 73
     3
 74
     0
 42
0.0000000001
 43
0.0000000001
 40
57.18232057648407
 40
57.18232057648407
 40
57.18232057648407
 40
144.1823556363207
 40
144.1823556363207
 40
144.1823556363207
 10
1979.869299010296
 20
1027.154501151875
 30
0.0
 10
1979.869299010296
 20
1070.654518681793
 30
0.0
 10
1979.869299010296
 20
1114.154536211711
 30
0.0
  0
POLYLINE
  5
18D
330
1F
100
AcDbEntity
  8
PREDETERMINADA
100
AcDb2dPolyline
 66
     1
 10
0.0
 20
0.0
 30
0.0
  0
VERTEX
  5
18F
330
18D
100
AcDbEntity
  8
PREDETERMINADA
100
AcDbVertex
100
AcDb2dVertex
 10
1239.869299010296
 20
1026.490158549604
 30
0.0
  0
VERTEX
  5
190
330
18D
100
AcDbEntity
  8
PREDETERMINADA
100
AcDbVertex
100
AcDb2dVertex
 10
1239.869299010296
 20
1113.490193609442
 30
0.0
  0
SEQEND
  5
18E
330
18D
100
AcDbEntity
  8
PREDETERMINADA
  0
SPLINE
  5
191
330
1F
100
AcDbEntity
  8
PREDETERMINADA
100
AcDbSpline
210
0.0
220
0.0
230
1.0
 70
    24
 71
     2
 72
     6
 73
     3
 74
     0
 42
0.0000000001
 43
0.0000000001
 40
56.32047071407924
 40
56.32047071407924
 40
56.32047071407924
 40
143.3205057739181
 40
143.3205057739181
 40
143.3205057739181
 10
1019.869299010296
 20
1026.29265128947
 30
0.0
 10
1019.869299010296
 20
1069.792668819389
 30
0.0
 10
1019.869299010296
 20
1113.292686349309
 30
0.0
  0
SPLINE
  5
192
330
1F
100
AcDbEntity
  8
PREDETERMINADA
100
AcDbSpline
210
0.0
220
0.0
230
1.0
 70
    24
 71
     2
 72
     6
 73
     3
 74
     0
 42
0.0000000001
 43
0.0000000001
 40
56.23069468674541
 40
56.23069468674541
 40
56.23069468674541
 40
143.2307297465846
 40
143.2307297465846
 40
143.2307297465846
 10
919.8692990102959
 20
1026.202875262136
 30
0.0
 10
919.869299010296
 20
1069.702892792056
 30
0.0
 10
919.8692990102961
 20
1113.202910321975
 30
0.0
  0
SPLINE
  5
193
330
1F
100
AcDbEntity
  8
PREDETERMINADA
100
AcDbSpline
210
0.0
220
0.0
230
1.0
 70
    24
 71
     2
 72
     6
 73
     3
 74
     0
 42
0.0000000001
 43
0.0000000001
 40
57.12845496008377
 40
57.12845496008377
 40
57.12845496008377
 40
144.1284900199206
 40
144.1284900199206
 40
144.1284900199206
 10
1919.869299010296
 20
1027.100635535474
 30
0.0
 10
1919.869299010296
 20
1070.600653065393
 30
0.0
 10
1919.869299010296
 20
1114.100670595311
 30
0.0
  0
SPLINE
  5
194
330
1F
100
AcDbEntity
  8
PREDETERMINADA
100
AcDbSpline
210
0.0
220
0.0
230
1.0
 70
    24
 71
     2
 72
     6
 73
     3
 74
     0
 42
0.0000000001
 43
0.0000000001
 40
57.14641016555053
 40
57.14641016555053
 40
57.14641016555053
 40
144.1464452253873
 40
144.1464452253873
 40
144.1464452253873
 10
1939.869299010296
 20
1027.118590740941
 30
0.0
 10
1939.869299010296
 20
1070.61860827086
 30
0.0
 10
1939.869299010296
 20
1114.118625800778
 30
0.0
  0
POLYLINE
  5
195
330
1F
100
AcDbEntity
  8
PREDETERMINADA
100
AcDb2dPolyline
 66
     1
 10
0.0
 20
0.0
 30
0.0
  0
VERTEX
  5
197
330
195
100
AcDbEntity
  8
PREDETERMINADA
100
AcDbVertex
100
AcDb2dVertex
 10
1799.869299010296
 20
1026.992904302674
 30
0.0
  0
VERTEX
  5
198
330
195
100
AcDbEntity
  8
PREDETERMINADA
100
AcDbVertex
100
AcDb2dVertex
 10
1799.869299010296
 20
1113.992939362511
 30
0.0
  0
SEQEND
  5
196
330
195
100
AcDbEntity
  8
PREDETERMINADA
  0
SPLINE
  5
199
330
1F
100
AcDbEntity
  8
PREDETERMINADA
100
AcDbSpline
210
0.0
220
0.0
230
1.0
 70
    24
 71
     2
 72
     6
 73
     3
 74
     0
 42
0.0000000001
 43
0.0000000001
 40
56.75139564528166
 40
56.75139564528166
 40
56.75139564528166
 40
143.7514307051195
 40
143.7514307051195
 40
143.7514307051195
 10
1499.869299010296
 20
1026.723576220672
 30
0.0
 10
1499.869299010296
 20
1070.223593750591
 30
0.0
 10
1499.869299010296
 20
1113.72361128051
 30
0.0
  0
SPLINE
  5
19A
330
1F
100
AcDbEntity
  8
PREDETERMINADA
100
AcDbSpline
210
0.0
220
0.0
230
1.0
 70
    24
 71
     2
 72
     6
 73
     3
 74
     0
 42
0.0000000001
 43
0.0000000001
 40
56.76935085074842
 40
56.76935085074842
 40
56.76935085074842
 40
143.7693859105862
 40
143.7693859105862
 40
143.7693859105862
 10
1519.869299010296
 20
1026.741531426139
 30
0.0
 10
1519.869299010296
 20
1070.241548956058
 30
0.0
 10
1519.869299010296
 20
1113.741566485977
 30
0.0
  0
POLYLINE
  5
19B
330
1F
100
AcDbEntity
  8
PREDETERMINADA
100
AcDb2dPolyline
 66
     1
 10
0.0
 20
0.0
 30
0.0
  0
VERTEX
  5
19D
330
19B
100
AcDbEntity
  8
PREDETERMINADA
100
AcDbVertex
100
AcDb2dVertex
 10
1639.869299010296
 20
1026.84926265894
 30
0.0
  0
VERTEX
  5
19E
330
19B
100
AcDbEntity
  8
PREDETERMINADA
100
AcDbVertex
100
AcDb2dVertex
 10
1639.869299010296
 20
1113.849297718777
 30
0.0
  0
SEQEND
  5
19C
330
19B
100
AcDbEntity
  8
PREDETERMINADA
  0
SPLINE
  5
19F
330
1F
100
AcDbEntity
  8
PREDETERMINADA
100
AcDbSpline
210
0.0
220
0.0
230
1.0
 70
    24
 71
     2
 72
     6
 73
     3
 74
     0
 42
0.0000000001
 43
0.0000000001
 40
56.84117167261549
 40
56.84117167261549
 40
56.84117167261549
 40
143.841206732453
 40
143.841206732453
 40
143.841206732453
 10
1599.869299010296
 20
1026.813352248006
 30
0.0
 10
1599.869299010296
 20
1070.313369777925
 30
0.0
 10
1599.869299010296
 20
1113.813387307844
 30
0.0
  0
SPLINE
  5
1A0
330
1F
100
AcDbEntity
  8
PREDETERMINADA
100
AcDbSpline
210
0.0
220
0.0
230
1.0
 70
    24
 71
     2
 72
     6
 73
     3
 74
     0
 42
0.0000000001
 43
0.0000000001
 40
56.82321646714873
 40
56.82321646714873
 40
56.82321646714873
 40
143.8232515269864
 40
143.8232515269864
 40
143.8232515269864
 10
1579.869299010296
 20
1026.795397042539
 30
0.0
 10
1579.869299010296
 20
1070.295414572458
 30
0.0
 10
1579.869299010296
 20
1113.795432102377
 30
0.0
  0
POLYLINE
  5
1A1
330
1F
100
AcDbEntity
  8
PREDETERMINADA
100
AcDb2dPolyline
 66
     1
 10
0.0
 20
0.0
 30
0.0
  0
VERTEX
  5
1A3
330
1A1
100
AcDbEntity
  8
PREDETERMINADA
100
AcDbVertex
100
AcDb2dVertex
 10
2119.869299010296
 20
1027.280187590142
 30
0.0
  0
VERTEX
  5
1A4
330
1A1
100
AcDbEntity
  8
PREDETERMINADA
100
AcDbVertex
100
AcDb2dVertex
 10
2119.869299010296
 20
1114.280222649978
 30
0.0
  0
SEQEND
  5
1A2
330
1A1
100
AcDbEntity
  8
PREDETERMINADA
  0
SPLINE
  5
1A5
330
1F
100
AcDbEntity
  8
PREDETERMINADA
100
AcDbSpline
210
0.0
220
0.0
230
1.0
 70
    24
 71
     2
 72
     6
 73
     3
 74
     0
 42
0.0000000001
 43
0.0000000001
 40
56.19478427581187
 40
56.19478427581187
 40
56.19478427581187
 40
143.1948193356511
 40
143.1948193356511
 40
143.1948193356511
 10
879.869299010296
 20
1026.166964851202
 30
0.0
 10
879.8692990102961
 20
1069.666982381122
 30
0.0
 10
879.8692990102961
 20
1113.166999911042
 30
0.0
  0
POLYLINE
  5
1A6
330
1F
100
AcDbEntity
  8
PREDETERMINADA
100
AcDb2dPolyline
 66
     1
 10
0.0
 20
0.0
 30
0.0
  0
VERTEX
  5
1A8
330
1A6
100
AcDbEntity
  8
PREDETERMINADA
100
AcDbVertex
100
AcDb2dVertex
 10
899.8692990102961
 20
1026.184920056669
 30
0.0
  0
VERTEX
  5
1A9
330
1A6
100
AcDbEntity
  8
PREDETERMINADA
100
AcDbVertex
100
AcDb2dVertex
 10
899.8692990102961
 20
1113.184955116508
 30
0.0
  0
SEQEND
  5
1A7
330
1A6
100
AcDbEntity
  8
PREDETERMINADA
  0
SPLINE
  5
1AA
330
1F
100
AcDbEntity
  8
PREDETERMINADA
100
AcDbSpline
210
0.0
220
0.0
230
1.0
 70
    24
 71
     2
 72
     6
 73
     3
 74
     0
 42
0.0000000001
 43
0.0000000001
 40
56.17682907034511
 40
56.17682907034511
 40
56.17682907034511
 40
143.1768641301845
 40
143.1768641301845
 40
143.1768641301845
 10
859.8692990102961
 20
1026.149009645736
 30
0.0
 10
859.8692990102961
 20
1069.649027175655
 30
0.0
 10
859.8692990102961
 20
1113.149044705575
 30
0.0
  0
POLYLINE
  5
1AB
330
1F
100
AcDbEntity
  8
PREDETERMINADA
100
AcDb2dPolyline
 66
     1
 10
0.0
 20
0.0
 30
0.0
  0
VERTEX
  5
1AD
330
1AB
100
AcDbEntity
  8
PREDETERMINADA
100
AcDbVertex
100
AcDb2dVertex
 10
1319.869299010296
 20
1026.561979371471
 30
0.0
  0
VERTEX
  5
1AE
330
1AB
100
AcDbEntity
  8
PREDETERMINADA
100
AcDbVertex
100
AcDb2dVertex
 10
1319.869299010296
 20
1113.56201443131
 30
0.0
  0
SEQEND
  5
1AC
330
1AB
100
AcDbEntity
  8
PREDETERMINADA
  0
POLYLINE
  5
1AF
330
1F
100
AcDbEntity
  8
PREDETERMINADA
100
AcDb2dPolyline
 66
     1
 10
0.0
 20
0.0
 30
0.0
  0
VERTEX
  5
1B1
330
1AF
100
AcDbEntity
  8
PREDETERMINADA
100
AcDbVertex
100
AcDb2dVertex
 10
1399.869299010296
 20
1026.633800193338
 30
0.0
  0
VERTEX
  5
1B2
330
1AF
100
AcDbEntity
  8
PREDETERMINADA
100
AcDbVertex
100
AcDb2dVertex
 10
1399.869299010296
 20
1113.633835253176
 30
0.0
  0
SEQEND
  5
1B0
330
1AF
100
AcDbEntity
  8
PREDETERMINADA
  0
SPLINE
  5
1B3
330
1F
100
AcDbEntity
  8
PREDETERMINADA
100
AcDbSpline
210
0.0
220
0.0
230
1.0
 70
    24
 71
     2
 72
     6
 73
     3
 74
     0
 42
0.0000000001
 43
0.0000000001
 40
56.08705304301127
 40
56.08705304301127
 40
56.08705304301127
 40
143.0870881028509
 40
143.0870881028509
 40
143.0870881028509
 10
759.8692990102961
 20
1026.059233618402
 30
0.0
 10
759.8692990102961
 20
1069.559251148321
 30
0.0
 10
759.8692990102961
 20
1113.059268678241
 30
0.0
  0
POLYLINE
  5
1B4
330
1F
100
AcDbEntity
  8
PREDETERMINADA
100
AcDb2dPolyline
 66
     1
 10
0.0
 20
0.0
 30
0.0
  0
VERTEX
  5
1B6
330
1B4
100
AcDbEntity
  8
PREDETERMINADA
100
AcDbVertex
100
AcDb2dVertex
 10
979.869299010296
 20
1026.256740878536
 30
0.0
  0
VERTEX
  5
1B7
330
1B4
100
AcDbEntity
  8
PREDETERMINADA
100
AcDbVertex
100
AcDb2dVertex
 10
979.869299010296
 20
1113.256775938375
 30
0.0
  0
SEQEND
  5
1B5
330
1B4
100
AcDbEntity
  8
PREDETERMINADA
  0
POLYLINE
  5
1B8
330
1F
100
AcDbEntity
  8
PREDETERMINADA
100
AcDb2dPolyline
 66
     1
 10
0.0
 20
0.0
 30
0.0
  0
VERTEX
  5
1BA
330
1B8
100
AcDbEntity
  8
PREDETERMINADA
100
AcDbVertex
100
AcDb2dVertex
 10
819.869299010296
 20
1026.113099234802
 30
0.0
  0
VERTEX
  5
1BB
330
1B8
100
AcDbEntity
  8
PREDETERMINADA
100
AcDbVertex
100
AcDb2dVertex
 10
819.8692990102961
 20
1113.113134294641
 30
0.0
  0
SEQEND
  5
1B9
330
1B8
100
AcDbEntity
  8
PREDETERMINADA
  0
SPLINE
  5
1BC
330
1F
100
AcDbEntity
  8
PREDETERMINADA
100
AcDbSpline
210
0.0
220
0.0
230
1.0
 70
    24
 71
     2
 72
     6
 73
     3
 74
     0
 42
0.0000000001
 43
0.0000000001
 40
56.15887386487834
 40
56.15887386487834
 40
56.15887386487834
 40
143.1589089247177
 40
143.1589089247177
 40
143.1589089247177
 10
839.8692990102961
 20
1026.131054440269
 30
0.0
 10
839.8692990102961
 20
1069.631071970189
 30
0.0
 10
839.8692990102961
 20
1113.131089500108
 30
0.0
  0
SPLINE
  5
1BD
330
1F
100
AcDbEntity
  8
PREDETERMINADA
100
AcDbSpline
210
0.0
220
0.0
230
1.0
 70
    24
 71
     2
 72
     6
 73
     3
 74
     0
 42
0.0000000001
 43
0.0000000001
 40
57.110499754617
 40
57.110499754617
 40
57.110499754617
 40
144.110534814454
 40
144.110534814454
 40
144.110534814454
 10
1899.869299010296
 20
1027.082680330007
 30
0.0
 10
1899.869299010296
 20
1070.582697859926
 30
0.0
 10
1899.869299010296
 20
1114.082715389844
 30
0.0
  0
SPLINE
  5
1BE
330
1F
100
AcDbEntity
  8
PREDETERMINADA
100
AcDbSpline
210
0.0
220
0.0
230
1.0
 70
    24
 71
     2
 72
     6
 73
     3
 74
     0
 42
0.0000000001
 43
0.0000000001
 40
56.85912687808226
 40
56.85912687808226
 40
56.85912687808226
 40
143.8591619379197
 40
143.8591619379197
 40
143.8591619379197
 10
1619.869299010296
 20
1026.831307453473
 30
0.0
 10
1619.869299010296
 20
1070.331324983392
 30
0.0
 10
1619.869299010296
 20
1113.83134251331
 30
0.0
  0
POLYLINE
  5
1BF
330
1F
100
AcDbEntity
  8
PREDETERMINADA
100
AcDb2dPolyline
 66
     1
 10
0.0
 20
0.0
 30
0.0
  0
VERTEX
  5
1C1
330
1BF
100
AcDbEntity
  8
PREDETERMINADA
100
AcDbVertex
100
AcDb2dVertex
 10
1559.869299010296
 20
1026.777441837073
 30
0.0
  0
VERTEX
  5
1C2
330
1BF
100
AcDbEntity
  8
PREDETERMINADA
100
AcDbVertex
100
AcDb2dVertex
 10
1559.869299010296
 20
1113.77747689691
 30
0.0
  0
SEQEND
  5
1C0
330
1BF
100
AcDbEntity
  8
PREDETERMINADA
  0
SPLINE
  5
1C3
330
1F
100
AcDbEntity
  8
PREDETERMINADA
100
AcDbSpline
210
0.0
220
0.0
230
1.0
 70
    24
 71
     2
 72
     6
 73
     3
 74
     0
 42
0.0000000001
 43
0.0000000001
 40
56.26660509767893
 40
56.26660509767893
 40
56.26660509767893
 40
143.266640157518
 40
143.266640157518
 40
143.266640157518
 10
959.8692990102959
 20
1026.23878567307
 30
0.0
 10
959.8692990102959
 20
1069.738803202989
 30
0.0
 10
959.869299010296
 20
1113.238820732909
 30
0.0
  0
SPLINE
  5
1C4
330
1F
100
AcDbEntity
  8
PREDETERMINADA
100
AcDbSpline
210
0.0
220
0.0
230
1.0
 70
    24
 71
     2
 72
     6
 73
     3
 74
     0
 42
0.0000000001
 43
0.0000000001
 40
56.24864989221218
 40
56.24864989221218
 40
56.24864989221218
 40
143.2486849520513
 40
143.2486849520513
 40
143.2486849520513
 10
939.8692990102959
 20
1026.220830467603
 30
0.0
 10
939.8692990102959
 20
1069.720847997522
 30
0.0
 10
939.8692990102959
 20
1113.220865527442
 30
0.0
  0
SPLINE
  5
1C5
330
1F
100
AcDbEntity
  8
PREDETERMINADA
100
AcDbSpline
210
0.0
220
0.0
230
1.0
 70
    24
 71
     2
 72
     6
 73
     3
 74
     0
 42
0.0000000001
 43
0.0000000001
 40
56.93094769994933
 40
56.93094769994933
 40
56.93094769994933
 40
143.9309827597866
 40
143.9309827597866
 40
143.9309827597866
 10
1699.869299010296
 20
1026.90312827534
 30
0.0
 10
1699.869299010296
 20
1070.403145805259
 30
0.0
 10
1699.869299010296
 20
1113.903163335177
 30
0.0
  0
SPLINE
  5
1C6
330
1F
100
AcDbEntity
  8
PREDETERMINADA
100
AcDbSpline
210
0.0
220
0.0
230
1.0
 70
    24
 71
     2
 72
     6
 73
     3
 74
     0
 42
0.0000000001
 43
0.0000000001
 40
57.29005180928467
 40
57.29005180928467
 40
57.29005180928467
 40
144.290086869121
 40
144.290086869121
 40
144.290086869121
 10
2099.869299010296
 20
1027.262232384675
 30
0.0
 10
2099.869299010296
 20
1070.762249914593
 30
0.0
 10
2099.869299010296
 20
1114.262267444512
 30
0.0
  0
SPLINE
  5
1C7
330
1F
100
AcDbEntity
  8
PREDETERMINADA
100
AcDbSpline
210
0.0
220
0.0
230
1.0
 70
    24
 71
     2
 72
     6
 73
     3
 74
     0
 42
0.0000000001
 43
0.0000000001
 40
57.27209660381791
 40
57.27209660381791
 40
57.27209660381791
 40
144.2721316636543
 40
144.2721316636543
 40
144.2721316636543
 10
2079.869299010296
 20
1027.244277179208
 30
0.0
 10
2079.869299010296
 20
1070.744294709127
 30
0.0
 10
2079.869299010296
 20
1114.244312239045
 30
0.0
  0
SPLINE
  5
1C8
330
1F
100
AcDbEntity
  8
PREDETERMINADA
100
AcDbSpline
210
0.0
220
0.0
230
1.0
 70
    24
 71
     2
 72
     6
 73
     3
 74
     0
 42
0.0000000001
 43
0.0000000001
 40
56.44615715234661
 40
56.44615715234661
 40
56.44615715234661
 40
143.4461922121852
 40
143.4461922121852
 40
143.4461922121852
 10
1159.869299010296
 20
1026.418337727737
 30
0.0
 10
1159.869299010296
 20
1069.918355257656
 30
0.0
 10
1159.869299010296
 20
1113.418372787576
 30
0.0
  0
SPLINE
  5
1C9
330
1F
100
AcDbEntity
  8
PREDETERMINADA
100
AcDbSpline
210
0.0
220
0.0
230
1.0
 70
    24
 71
     2
 72
     6
 73
     3
 74
     0
 42
0.0000000001
 43
0.0000000001
 40
56.46411235781338
 40
56.46411235781338
 40
56.46411235781338
 40
143.4641474176519
 40
143.4641474176519
 40
143.4641474176519
 10
1179.869299010296
 20
1026.436292933204
 30
0.0
 10
1179.869299010296
 20
1069.936310463123
 30
0.0
 10
1179.869299010296
 20
1113.436327993043
 30
0.0
  0
SPLINE
  5
1CA
330
1F
100
AcDbEntity
  8
PREDETERMINADA
100
AcDbSpline
210
0.0
220
0.0
230
1.0
 70
    24
 71
     2
 72
     6
 73
     3
 74
     0
 42
0.0000000001
 43
0.0000000001
 40
56.41024674141308
 40
56.41024674141308
 40
56.41024674141308
 40
143.4102818012518
 40
143.4102818012518
 40
143.4102818012518
 10
1119.869299010296
 20
1026.382427316804
 30
0.0
 10
1119.869299010296
 20
1069.882444846723
 30
0.0
 10
1119.869299010296
 20
1113.382462376642
 30
0.0
  0
POLYLINE
  5
1CB
330
1F
100
AcDbEntity
  8
PREDETERMINADA
100
AcDb2dPolyline
 66
     1
 10
0.0
 20
0.0
 30
0.0
  0
VERTEX
  5
1CD
330
1CB
100
AcDbEntity
  8
PREDETERMINADA
100
AcDbVertex
100
AcDb2dVertex
 10
1139.869299010296
 20
1026.40038252227
 30
0.0
  0
VERTEX
  5
1CE
330
1CB
100
AcDbEntity
  8
PREDETERMINADA
100
AcDbVertex
100
AcDb2dVertex
 10
1139.869299010296
 20
1113.400417582109
 30
0.0
  0
SEQEND
  5
1CC
330
1CB
100
AcDbEntity
  8
PREDETERMINADA
  0
SPLINE
  5
1CF
330
1F
100
AcDbEntity
  8
PREDETERMINADA
100
AcDbSpline
210
0.0
220
0.0
230
1.0
 70
    24
 71
     2
 72
     6
 73
     3
 74
     0
 42
0.0000000001
 43
0.0000000001
 40
56.37433633047954
 40
56.37433633047954
 40
56.37433633047954
 40
143.3743713903184
 40
143.3743713903184
 40
143.3743713903184
 10
1079.869299010296
 20
1026.34651690587
 30
0.0
 10
1079.869299010296
 20
1069.846534435789
 30
0.0
 10
1079.869299010296
 20
1113.346551965709
 30
0.0
  0
SPLINE
  5
1D0
330
1F
100
AcDbEntity
  8
PREDETERMINADA
100
AcDbSpline
210
0.0
220
0.0
230
1.0
 70
    24
 71
     2
 72
     6
 73
     3
 74
     0
 42
0.0000000001
 43
0.0000000001
 40
56.39229153594631
 40
56.39229153594631
 40
56.39229153594631
 40
143.392326595785
 40
143.392326595785
 40
143.392326595785
 10
1099.869299010296
 20
1026.364472111337
 30
0.0
 10
1099.869299010296
 20
1069.864489641256
 30
0.0
 10
1099.869299010296
 20
1113.364507171176
 30
0.0
  0
SPLINE
  5
1D1
330
1F
100
AcDbEntity
  8
PREDETERMINADA
100
AcDbSpline
210
0.0
220
0.0
230
1.0
 70
    24
 71
     2
 72
     6
 73
     3
 74
     0
 42
0.0000000001
 43
0.0000000001
 40
55.69203852274239
 40
55.69203852274239
 40
55.69203852274239
 40
142.692073582583
 40
142.692073582583
 40
142.692073582583
 10
319.8692990102959
 20
1025.664219098133
 30
0.0
 10
319.869299010296
 20
1069.164236628053
 30
0.0
 10
319.869299010296
 20
1112.664254157974
 30
0.0
  0
SPLINE
  5
1D2
330
1F
100
AcDbEntity
  8
PREDETERMINADA
100
AcDbSpline
210
0.0
220
0.0
230
1.0
 70
    24
 71
     2
 72
     6
 73
     3
 74
     0
 42
0.0000000001
 43
0.0000000001
 40
55.799769755543
 40
55.799769755543
 40
55.799769755543
 40
142.7998048153833
 40
142.7998048153833
 40
142.7998048153833
 10
439.8692990102959
 20
1025.771950330934
 30
0.0
 10
439.869299010296
 20
1069.271967860854
 30
0.0
 10
439.869299010296
 20
1112.771985390774
 30
0.0
  0
SPLINE
  5
1D3
330
1F
100
AcDbEntity
  8
PREDETERMINADA
100
AcDbSpline
210
0.0
220
0.0
230
1.0
 70
    24
 71
     2
 72
     6
 73
     3
 74
     0
 42
0.0000000001
 43
0.0000000001
 40
55.83568016647654
 40
55.83568016647654
 40
55.83568016647654
 40
142.8357152263168
 40
142.8357152263168
 40
142.8357152263168
 10
479.8692990102959
 20
1025.807860741867
 30
0.0
 10
479.869299010296
 20
1069.307878271787
 30
0.0
 10
479.869299010296
 20
1112.807895801707
 30
0.0
  0
SPLINE
  5
1D4
330
1F
100
AcDbEntity
  8
PREDETERMINADA
100
AcDbSpline
210
0.0
220
0.0
230
1.0
 70
    24
 71
     2
 72
     6
 73
     3
 74
     0
 42
0.0000000001
 43
0.0000000001
 40
55.81772496100977
 40
55.81772496100977
 40
55.81772496100977
 40
142.81776002085
 40
142.81776002085
 40
142.81776002085
 10
459.8692990102959
 20
1025.7899055364
 30
0.0
 10
459.869299010296
 20
1069.28992306632
 30
0.0
 10
459.869299010296
 20
1112.789940596241
 30
0.0
  0
POLYLINE
  5
1D5
330
1F
100
AcDbEntity
  8
PREDETERMINADA
100
AcDb2dPolyline
 66
     1
 10
0.0
 20
0.0
 30
0.0
  0
VERTEX
  5
1D7
330
1D5
100
AcDbEntity
  8
PREDETERMINADA
100
AcDbVertex
100
AcDb2dVertex
 10
499.8692990102959
 20
1025.825815947334
 30
0.0
  0
VERTEX
  5
1D8
330
1D5
100
AcDbEntity
  8
PREDETERMINADA
100
AcDbVertex
100
AcDb2dVertex
 10
499.869299010296
 20
1112.825851007174
 30
0.0
  0
SEQEND
  5
1D6
330
1D5
100
AcDbEntity
  8
PREDETERMINADA
  0
SPLINE
  5
1D9
330
1F
100
AcDbEntity
  8
PREDETERMINADA
100
AcDbSpline
210
0.0
220
0.0
230
1.0
 70
    24
 71
     2
 72
     6
 73
     3
 74
     0
 42
0.0000000001
 43
0.0000000001
 40
55.7459041391427
 40
55.7459041391427
 40
55.7459041391427
 40
142.7459391989831
 40
142.7459391989831
 40
142.7459391989831
 10
379.8692990102959
 20
1025.718084714533
 30
0.0
 10
379.8692990102959
 20
1069.218102244453
 30
0.0
 10
379.869299010296
 20
1112.718119774373
 30
0.0
  0
SPLINE
  5
1DA
330
1F
100
AcDbEntity
  8
PREDETERMINADA
100
AcDbSpline
210
0.0
220
0.0
230
1.0
 70
    24
 71
     2
 72
     6
 73
     3
 74
     0
 42
0.0000000001
 43
0.0000000001
 40
55.72794893367593
 40
55.72794893367593
 40
55.72794893367593
 40
142.7279839935164
 40
142.7279839935164
 40
142.7279839935164
 10
359.8692990102959
 20
1025.700129509067
 30
0.0
 10
359.869299010296
 20
1069.200147038987
 30
0.0
 10
359.869299010296
 20
1112.700164568907
 30
0.0
  0
POLYLINE
  5
1DB
330
1F
100
AcDbEntity
  8
PREDETERMINADA
100
AcDb2dPolyline
 66
     1
 10
0.0
 20
0.0
 30
0.0
  0
VERTEX
  5
1DD
330
1DB
100
AcDbEntity
  8
PREDETERMINADA
100
AcDbVertex
100
AcDb2dVertex
 10
419.8692990102959
 20
1025.753995125467
 30
0.0
  0
VERTEX
  5
1DE
330
1DB
100
AcDbEntity
  8
PREDETERMINADA
100
AcDbVertex
100
AcDb2dVertex
 10
419.869299010296
 20
1112.754030185307
 30
0.0
  0
SEQEND
  5
1DC
330
1DB
100
AcDbEntity
  8
PREDETERMINADA
  0
SPLINE
  5
1DF
330
1F
100
AcDbEntity
  8
PREDETERMINADA
100
AcDbSpline
210
0.0
220
0.0
230
1.0
 70
    24
 71
     2
 72
     6
 73
     3
 74
     0
 42
0.0000000001
 43
0.0000000001
 40
55.76385934460946
 40
55.76385934460946
 40
55.76385934460946
 40
142.7638944044499
 40
142.7638944044499
 40
142.7638944044499
 10
399.8692990102959
 20
1025.73603992
 30
0.0
 10
399.8692990102959
 20
1069.23605744992
 30
0.0
 10
399.8692990102959
 20
1112.73607497984
 30
0.0
  0
SPLINE
  5
1E0
330
1F
100
AcDbEntity
  8
PREDETERMINADA
100
AcDbSpline
210
0.0
220
0.0
230
1.0
 70
    24
 71
     2
 72
     6
 73
     3
 74
     0
 42
0.0000000001
 43
0.0000000001
 40
55.87159057741006
 40
55.87159057741006
 40
55.87159057741006
 40
142.8716256372501
 40
142.8716256372501
 40
142.8716256372501
 10
519.8692990102959
 20
1025.843771152801
 30
0.0
 10
519.8692990102959
 20
1069.343788682721
 30
0.0
 10
519.869299010296
 20
1112.843806212641
 30
0.0
  0
SPLINE
  5
1E1
330
1F
100
AcDbEntity
  8
PREDETERMINADA
100
AcDbSpline
210
0.0
220
0.0
230
1.0
 70
    24
 71
     2
 72
     6
 73
     3
 74
     0
 42
0.0000000001
 43
0.0000000001
 40
55.88954578287684
 40
55.88954578287684
 40
55.88954578287684
 40
142.8895808427169
 40
142.8895808427169
 40
142.8895808427169
 10
539.8692990102959
 20
1025.861726358267
 30
0.0
 10
539.8692990102959
 20
1069.361743888187
 30
0.0
 10
539.8692990102959
 20
1112.861761418108
 30
0.0
  0
POLYLINE
  5
1E2
330
1F
100
AcDbEntity
  8
PREDETERMINADA
100
AcDb2dPolyline
 66
     1
 10
0.0
 20
0.0
 30
0.0
  0
VERTEX
  5
1E4
330
1E2
100
AcDbEntity
  8
PREDETERMINADA
100
AcDbVertex
100
AcDb2dVertex
 10
339.869299010296
 20
1025.6821743036
 30
0.0
  0
VERTEX
  5
1E5
330
1E2
100
AcDbEntity
  8
PREDETERMINADA
100
AcDbVertex
100
AcDb2dVertex
 10
339.8692990102961
 20
1112.68220936344
 30
0.0
  0
SEQEND
  5
1E3
330
1E2
100
AcDbEntity
  8
PREDETERMINADA
  0
POLYLINE
  5
1E6
330
1F
100
AcDbEntity
  8
PREDETERMINADA
100
AcDb2dPolyline
 66
     1
 10
0.0
 20
0.0
 30
0.0
  0
VERTEX
  5
1E8
330
1E6
100
AcDbEntity
  8
PREDETERMINADA
100
AcDbVertex
100
AcDb2dVertex
 10
299.8205132532164
 20
1025.646220094751
 30
0.0
  0
VERTEX
  5
1E9
330
1E6
100
AcDbEntity
  8
PREDETERMINADA
100
AcDbVertex
100
AcDb2dVertex
 10
299.8205132532164
 20
1112.646255154592
 30
0.0
  0
SEQEND
  5
1E7
330
1E6
100
AcDbEntity
  8
PREDETERMINADA
  0
SPLINE
  5
1EA
330
1F
100
AcDbEntity
  8
PREDETERMINADA
100
AcDbSpline
210
0.0
220
0.0
230
1.0
 70
    24
 71
     2
 72
     6
 73
     3
 74
     0
 42
0.0000000001
 43
0.0000000001
 40
56.55388838514722
 40
56.55388838514722
 40
56.55388838514722
 40
143.5539234449856
 40
143.5539234449856
 40
143.5539234449856
 10
1279.869299010296
 20
1026.526068960538
 30
0.0
 10
1279.869299010296
 20
1070.026086490457
 30
0.0
 10
1279.869299010296
 20
1113.526104020376
 30
0.0
  0
SPLINE
  5
1EB
330
1F
100
AcDbEntity
  8
PREDETERMINADA
100
AcDbSpline
210
0.0
220
0.0
230
1.0
 70
    24
 71
     2
 72
     6
 73
     3
 74
     0
 42
0.0000000001
 43
0.0000000001
 40
56.71548523434812
 40
56.71548523434812
 40
56.71548523434812
 40
143.7155202941859
 40
143.7155202941859
 40
143.7155202941859
 10
1459.869299010296
 20
1026.687665809739
 30
0.0
 10
1459.869299010296
 20
1070.187683339658
 30
0.0
 10
1459.869299010296
 20
1113.687700869576
 30
0.0
  0
SPLINE
  5
1EC
330
1F
100
AcDbEntity
  8
PREDETERMINADA
100
AcDbSpline
210
0.0
220
0.0
230
1.0
 70
    24
 71
     2
 72
     6
 73
     3
 74
     0
 42
0.0000000001
 43
0.0000000001
 40
57.03867893274993
 40
57.03867893274993
 40
57.03867893274993
 40
144.0387139925869
 40
144.0387139925869
 40
144.0387139925869
 10
1819.869299010296
 20
1027.010859508141
 30
0.0
 10
1819.869299010296
 20
1070.510877038059
 30
0.0
 10
1819.869299010296
 20
1114.010894567978
 30
0.0
  0
SPLINE
  5
1ED
330
1F
100
AcDbEntity
  8
PREDETERMINADA
100
AcDbSpline
210
0.0
220
0.0
230
1.0
 70
    24
 71
     2
 72
     6
 73
     3
 74
     0
 42
0.0000000001
 43
0.0000000001
 40
57.0027685218164
 40
57.0027685218164
 40
57.0027685218164
 40
144.0028035816536
 40
144.0028035816536
 40
144.0028035816536
 10
1779.869299010296
 20
1026.974949097207
 30
0.0
 10
1779.869299010296
 20
1070.474966627125
 30
0.0
 10
1779.869299010296
 20
1113.974984157044
 30
0.0
  0
POLYLINE
  5
1EE
330
1F
100
AcDbEntity
  8
PREDETERMINADA
100
AcDb2dPolyline
 66
     1
 10
0.0
 20
0.0
 30
0.0
  0
VERTEX
  5
1F0
330
1EE
100
AcDbEntity
  8
PREDETERMINADA
100
AcDbVertex
100
AcDb2dVertex
 10
1479.869299010296
 20
1026.705621015205
 30
0.0
  0
VERTEX
  5
1F1
330
1EE
100
AcDbEntity
  8
PREDETERMINADA
100
AcDbVertex
100
AcDb2dVertex
 10
1479.869299010296
 20
1113.705656075043
 30
0.0
  0
SEQEND
  5
1EF
330
1EE
100
AcDbEntity
  8
PREDETERMINADA
  0
POLYLINE
  5
1F2
330
1F
100
AcDbEntity
  8
PREDETERMINADA
100
AcDb2dPolyline
 66
     1
 10
0.0
 20
0.0
 30
0.0
  0
VERTEX
  5
1F4
330
1F2
100
AcDbEntity
  8
PREDETERMINADA
100
AcDbVertex
100
AcDb2dVertex
 10
1959.869299010296
 20
1027.136545946408
 30
0.0
  0
VERTEX
  5
1F5
330
1F2
100
AcDbEntity
  8
PREDETERMINADA
100
AcDbVertex
100
AcDb2dVertex
 10
1959.869299010296
 20
1114.136581006245
 30
0.0
  0
SEQEND
  5
1F3
330
1F2
100
AcDbEntity
  8
PREDETERMINADA
  0
POLYLINE
  5
1F6
330
1F
100
AcDbEntity
  8
PREDETERMINADA
100
AcDb2dPolyline
 66
     1
 10
0.0
 20
0.0
 30
0.0
  0
VERTEX
  5
1F8
330
1F6
100
AcDbEntity
  8
PREDETERMINADA
100
AcDbVertex
100
AcDb2dVertex
 10
2039.869299010296
 20
1027.208366768275
 30
0.0
  0
VERTEX
  5
1F9
330
1F6
100
AcDbEntity
  8
PREDETERMINADA
100
AcDbVertex
100
AcDb2dVertex
 10
2039.869299010296
 20
1114.208401828112
 30
0.0
  0
SEQEND
  5
1F7
330
1F6
100
AcDbEntity
  8
PREDETERMINADA
  0
SPLINE
  5
1FA
330
1F
100
AcDbEntity
  8
PREDETERMINADA
100
AcDbSpline
210
0.0
220
0.0
230
1.0
 70
    24
 71
     2
 72
     6
 73
     3
 74
     0
 42
0.0000000001
 43
0.0000000001
 40
56.91299249448256
 40
56.91299249448256
 40
56.91299249448256
 40
143.91302755432
 40
143.91302755432
 40
143.91302755432
 10
1679.869299010296
 20
1026.885173069873
 30
0.0
 10
1679.869299010296
 20
1070.385190599792
 30
0.0
 10
1679.869299010296
 20
1113.88520812971
 30
0.0
  0
POLYLINE
  5
1FB
330
1F
100
AcDbEntity
  8
PREDETERMINADA
100
AcDb2dPolyline
 66
     1
 10
0.0
 20
0.0
 30
0.0
  0
VERTEX
  5
1FD
330
1FB
100
AcDbEntity
  8
PREDETERMINADA
100
AcDbVertex
100
AcDb2dVertex
 10
1719.869299010296
 20
1026.921083480807
 30
0.0
  0
VERTEX
  5
1FE
330
1FB
100
AcDbEntity
  8
PREDETERMINADA
100
AcDbVertex
100
AcDb2dVertex
 10
1719.869299010296
 20
1113.921118540644
 30
0.0
  0
SEQEND
  5
1FC
330
1FB
100
AcDbEntity
  8
PREDETERMINADA
  0
SPLINE
  5
1FF
330
1F
100
AcDbEntity
  8
PREDETERMINADA
100
AcDbSpline
210
0.0
220
0.0
230
1.0
 70
    24
 71
     2
 72
     6
 73
     3
 74
     0
 42
0.0000000001
 43
0.0000000001
 40
56.53593317968045
 40
56.53593317968045
 40
56.53593317968045
 40
143.5359682395188
 40
143.5359682395188
 40
143.5359682395188
 10
1259.869299010296
 20
1026.508113755071
 30
0.0
 10
1259.869299010296
 20
1070.00813128499
 30
0.0
 10
1259.869299010296
 20
1113.508148814909
 30
0.0
  0
SPLINE
  5
200
330
1F
100
AcDbEntity
  8
PREDETERMINADA
100
AcDbSpline
210
0.0
220
0.0
230
1.0
 70
    24
 71
     2
 72
     6
 73
     3
 74
     0
 42
0.0000000001
 43
0.0000000001
 40
56.8950372890158
 40
56.8950372890158
 40
56.8950372890158
 40
143.8950723488533
 40
143.8950723488533
 40
143.8950723488533
 10
1659.869299010296
 20
1026.867217864406
 30
0.0
 10
1659.869299010296
 20
1070.367235394325
 30
0.0
 10
1659.869299010296
 20
1113.867252924244
 30
0.0
  0
SPLINE
  5
201
330
1F
100
AcDbEntity
  8
PREDETERMINADA
100
AcDbSpline
210
0.0
220
0.0
230
1.0
 70
    24
 71
     2
 72
     6
 73
     3
 74
     0
 42
0.0000000001
 43
0.0000000001
 40
56.67957482341458
 40
56.67957482341458
 40
56.67957482341458
 40
143.6796098832526
 40
143.6796098832526
 40
143.6796098832526
 10
1419.869299010296
 20
1026.651755398805
 30
0.0
 10
1419.869299010296
 20
1070.151772928724
 30
0.0
 10
1419.869299010296
 20
1113.651790458643
 30
0.0
  0
SPLINE
  5
202
330
1F
100
AcDbEntity
  8
PREDETERMINADA
100
AcDbSpline
210
0.0
220
0.0
230
1.0
 70
    24
 71
     2
 72
     6
 73
     3
 74
     0
 42
0.0000000001
 43
0.0000000001
 40
56.57184359061398
 40
56.57184359061398
 40
56.57184359061398
 40
143.5718786504523
 40
143.5718786504523
 40
143.5718786504523
 10
1299.869299010296
 20
1026.544024166004
 30
0.0
 10
1299.869299010296
 20
1070.044041695924
 30
0.0
 10
1299.869299010296
 20
1113.544059225843
 30
0.0
  0
SPLINE
  5
203
330
1F
100
AcDbEntity
  8
PREDETERMINADA
100
AcDbSpline
210
0.0
220
0.0
230
1.0
 70
    24
 71
     2
 72
     6
 73
     3
 74
     0
 42
0.0000000001
 43
0.0000000001
 40
56.69753002888135
 40
56.69753002888135
 40
56.69753002888135
 40
143.6975650887193
 40
143.6975650887193
 40
143.6975650887193
 10
1439.869299010296
 20
1026.669710604272
 30
0.0
 10
1439.869299010296
 20
1070.169728134191
 30
0.0
 10
1439.869299010296
 20
1113.66974566411
 30
0.0
  0
SPLINE
  5
204
330
1F
100
AcDbEntity
  8
PREDETERMINADA
100
AcDbSpline
210
0.0
220
0.0
230
1.0
 70
    24
 71
     2
 72
     6
 73
     3
 74
     0
 42
0.0000000001
 43
0.0000000001
 40
56.98481331634962
 40
56.98481331634962
 40
56.98481331634962
 40
143.9848483761868
 40
143.9848483761868
 40
143.9848483761868
 10
1759.869299010296
 20
1026.95699389174
 30
0.0
 10
1759.869299010296
 20
1070.457011421659
 30
0.0
 10
1759.869299010296
 20
1113.957028951577
 30
0.0
  0
SPLINE
  5
205
330
1F
100
AcDbEntity
  8
PREDETERMINADA
100
AcDbSpline
210
0.0
220
0.0
230
1.0
 70
    24
 71
     2
 72
     6
 73
     3
 74
     0
 42
0.0000000001
 43
0.0000000001
 40
56.73344043981489
 40
56.73344043981489
 40
56.73344043981489
 40
143.7334754996527
 40
143.7334754996527
 40
143.7334754996527
 10
1479.869299010296
 20
1026.705621015205
 30
0.0
 10
1479.869299010296
 20
1070.205638545124
 30
0.0
 10
1479.869299010296
 20
1113.705656075043
 30
0.0
  0
SPLINE
  5
206
330
1F
100
AcDbEntity
  8
PREDETERMINADA
100
AcDbSpline
210
0.0
220
0.0
230
1.0
 70
    24
 71
     2
 72
     6
 73
     3
 74
     0
 42
0.0000000001
 43
0.0000000001
 40
55.94341139927714
 40
55.94341139927714
 40
55.94341139927714
 40
142.9434464591171
 40
142.9434464591171
 40
142.9434464591171
 10
599.8692990102961
 20
1025.915591974668
 30
0.0
 10
599.8692990102961
 20
1069.415609504588
 30
0.0
 10
599.8692990102961
 20
1112.915627034507
 30
0.0
  0
SPLINE
  5
207
330
1F
100
AcDbEntity
  8
PREDETERMINADA
100
AcDbSpline
210
0.0
220
0.0
230
1.0
 70
    24
 71
     2
 72
     6
 73
     3
 74
     0
 42
0.0000000001
 43
0.0000000001
 40
55.92545619381037
 40
55.92545619381037
 40
55.92545619381037
 40
142.9254912536503
 40
142.9254912536503
 40
142.9254912536503
 10
579.869299010296
 20
1025.897636769201
 30
0.0
 10
579.8692990102961
 20
1069.397654299121
 30
0.0
 10
579.8692990102961
 20
1112.897671829041
 30
0.0
  0
SPLINE
  5
208
330
1F
100
AcDbEntity
  8
PREDETERMINADA
100
AcDbSpline
210
0.0
220
0.0
230
1.0
 70
    24
 71
     2
 72
     6
 73
     3
 74
     0
 42
0.0000000001
 43
0.0000000001
 40
55.9075009883436
 40
55.9075009883436
 40
55.9075009883436
 40
142.9075360481837
 40
142.9075360481837
 40
142.9075360481837
 10
559.8692990102959
 20
1025.879681563734
 30
0.0
 10
559.8692990102959
 20
1069.379699093654
 30
0.0
 10
559.869299010296
 20
1112.879716623574
 30
0.0
  0
POLYLINE
  5
209
330
1F
100
AcDbEntity
  8
PREDETERMINADA
100
AcDb2dPolyline
 66
     1
 10
0.0
 20
0.0
 30
0.0
  0
VERTEX
  5
20B
330
209
100
AcDbEntity
  8
PREDETERMINADA
100
AcDbVertex
100
AcDb2dVertex
 10
579.8692990102959
 20
1025.897636769201
 30
0.0
  0
VERTEX
  5
20C
330
209
100
AcDbEntity
  8
PREDETERMINADA
100
AcDbVertex
100
AcDb2dVertex
 10
579.8692990102959
 20
1112.897671829041
 30
0.0
  0
SEQEND
  5
20A
330
209
100
AcDbEntity
  8
PREDETERMINADA
  0
SPLINE
  5
20D
330
1F
100
AcDbEntity
  8
PREDETERMINADA
100
AcDbSpline
210
0.0
220
0.0
230
1.0
 70
    24
 71
     2
 72
     6
 73
     3
 74
     0
 42
0.0000000001
 43
0.0000000001
 40
57.07458934368346
 40
57.07458934368346
 40
57.07458934368346
 40
144.0746244035204
 40
144.0746244035204
 40
144.0746244035204
 10
1859.869299010296
 20
1027.046769919074
 30
0.0
 10
1859.869299010296
 20
1070.546787448993
 30
0.0
 10
1859.869299010296
 20
1114.046804978911
 30
0.0
  0
SPLINE
  5
20E
330
1F
100
AcDbEntity
  8
PREDETERMINADA
100
AcDbSpline
210
0.0
220
0.0
230
1.0
 70
    24
 71
     2
 72
     6
 73
     3
 74
     0
 42
0.0000000001
 43
0.0000000001
 40
56.96685811088286
 40
56.96685811088286
 40
56.96685811088286
 40
143.9668931707202
 40
143.9668931707202
 40
143.9668931707202
 10
1739.869299010296
 20
1026.939038686273
 30
0.0
 10
1739.869299010296
 20
1070.439056216192
 30
0.0
 10
1739.869299010296
 20
1113.939073746111
 30
0.0
  0
SPLINE
  5
20F
330
1F
100
AcDbEntity
  8
PREDETERMINADA
100
AcDbSpline
210
0.0
220
0.0
230
1.0
 70
    24
 71
     2
 72
     6
 73
     3
 74
     0
 42
0.0000000001
 43
0.0000000001
 40
56.78730605621519
 40
56.78730605621519
 40
56.78730605621519
 40
143.7873411160529
 40
143.7873411160529
 40
143.7873411160529
 10
1539.869299010296
 20
1026.759486631606
 30
0.0
 10
1539.869299010296
 20
1070.259504161525
 30
0.0
 10
1539.869299010296
 20
1113.759521691444
 30
0.0
  0
SPLINE
  5
210
330
1F
100
AcDbEntity
  8
PREDETERMINADA
100
AcDbSpline
210
0.0
220
0.0
230
1.0
 70
    24
 71
     2
 72
     6
 73
     3
 74
     0
 42
0.0000000001
 43
0.0000000001
 40
56.03318742661097
 40
56.03318742661097
 40
56.03318742661097
 40
143.0332224864507
 40
143.0332224864507
 40
143.0332224864507
 10
699.8692990102961
 20
1026.005368002001
 30
0.0
 10
699.8692990102961
 20
1069.505385531921
 30
0.0
 10
699.8692990102961
 20
1113.005403061841
 30
0.0
  0
SPLINE
  5
211
330
1F
100
AcDbEntity
  8
PREDETERMINADA
100
AcDbSpline
210
0.0
220
0.0
230
1.0
 70
    24
 71
     2
 72
     6
 73
     3
 74
     0
 42
0.0000000001
 43
0.0000000001
 40
56.0152322211442
 40
56.0152322211442
 40
56.0152322211442
 40
143.0152672809839
 40
143.0152672809839
 40
143.0152672809839
 10
679.869299010296
 20
1025.987412796535
 30
0.0
 10
679.8692990102961
 20
1069.487430326455
 30
0.0
 10
679.8692990102961
 20
1112.987447856375
 30
0.0
  0
POLYLINE
  5
212
330
1F
100
AcDbEntity
  8
PREDETERMINADA
100
AcDb2dPolyline
 66
     1
 10
0.0
 20
0.0
 30
0.0
  0
VERTEX
  5
214
330
212
100
AcDbEntity
  8
PREDETERMINADA
100
AcDbVertex
100
AcDb2dVertex
 10
739.8692990102961
 20
1026.041278412935
 30
0.0
  0
VERTEX
  5
215
330
212
100
AcDbEntity
  8
PREDETERMINADA
100
AcDbVertex
100
AcDb2dVertex
 10
739.8692990102961
 20
1113.041313472775
 30
0.0
  0
SEQEND
  5
213
330
212
100
AcDbEntity
  8
PREDETERMINADA
  0
POLYLINE
  5
216
330
1F
100
AcDbEntity
  8
PREDETERMINADA
100
AcDb2dPolyline
 66
     1
 10
0.0
 20
0.0
 30
0.0
  0
VERTEX
  5
218
330
216
100
AcDbEntity
  8
PREDETERMINADA
100
AcDbVertex
100
AcDb2dVertex
 10
1879.869299010296
 20
1027.064725124541
 30
0.0
  0
VERTEX
  5
219
330
216
100
AcDbEntity
  8
PREDETERMINADA
100
AcDbVertex
100
AcDb2dVertex
 10
1879.869299010296
 20
1114.064760184378
 30
0.0
  0
SEQEND
  5
217
330
216
100
AcDbEntity
  8
PREDETERMINADA
  0
SPLINE
  5
21A
330
1F
100
AcDbEntity
  8
PREDETERMINADA
100
AcDbSpline
210
0.0
220
0.0
230
1.0
 70
    24
 71
     2
 72
     6
 73
     3
 74
     0
 42
0.0000000001
 43
0.0000000001
 40
57.05663413821669
 40
57.05663413821669
 40
57.05663413821669
 40
144.0566691980537
 40
144.0566691980537
 40
144.0566691980537
 10
1839.869299010296
 20
1027.028814713607
 30
0.0
 10
1839.869299010296
 20
1070.528832243526
 30
0.0
 10
1839.869299010296
 20
1114.028849773444
 30
0.0
  0
SPLINE
  5
21B
330
1F
100
AcDbEntity
  8
PREDETERMINADA
100
AcDbSpline
210
0.0
220
0.0
230
1.0
 70
    24
 71
     2
 72
     6
 73
     3
 74
     0
 42
0.0000000001
 43
0.0000000001
 40
56.62570920701428
 40
56.62570920701428
 40
56.62570920701428
 40
143.6257442668525
 40
143.6257442668525
 40
143.6257442668525
 10
1359.869299010296
 20
1026.597889782405
 30
0.0
 10
1359.869299010296
 20
1070.097907312324
 30
0.0
 10
1359.869299010296
 20
1113.597924842243
 30
0.0
  0
SPLINE
  5
21C
330
1F
100
AcDbEntity
  8
PREDETERMINADA
100
AcDbSpline
210
0.0
220
0.0
230
1.0
 70
    24
 71
     2
 72
     6
 73
     3
 74
     0
 42
0.0000000001
 43
0.0000000001
 40
56.64366441248105
 40
56.64366441248105
 40
56.64366441248105
 40
143.643699472319
 40
143.643699472319
 40
143.643699472319
 10
1379.869299010296
 20
1026.615844987872
 30
0.0
 10
1379.869299010296
 20
1070.115862517791
 30
0.0
 10
1379.869299010296
 20
1113.61588004771
 30
0.0
  0
SPLINE
  5
21D
330
1F
100
AcDbEntity
  8
PREDETERMINADA
100
AcDbSpline
210
0.0
220
0.0
230
1.0
 70
    24
 71
     2
 72
     6
 73
     3
 74
     0
 42
0.0000000001
 43
0.0000000001
 40
56.60775400154752
 40
56.60775400154752
 40
56.60775400154752
 40
143.6077890613857
 40
143.6077890613857
 40
143.6077890613857
 10
1339.869299010296
 20
1026.579934576938
 30
0.0
 10
1339.869299010296
 20
1070.079952106857
 30
0.0
 10
1339.869299010296
 20
1113.579969636776
 30
0.0
  0
SPLINE
  5
21E
330
1F
100
AcDbEntity
  8
PREDETERMINADA
100
AcDbSpline
210
0.0
220
0.0
230
1.0
 70
    24
 71
     2
 72
     6
 73
     3
 74
     0
 42
0.0000000001
 43
0.0000000001
 40
56.48206756328014
 40
56.48206756328014
 40
56.48206756328014
 40
143.4821026231187
 40
143.4821026231187
 40
143.4821026231187
 10
1199.869299010296
 20
1026.454248138671
 30
0.0
 10
1199.869299010296
 20
1069.95426566859
 30
0.0
 10
1199.869299010296
 20
1113.454283198509
 30
0.0
  0
SPLINE
  5
21F
330
1F
100
AcDbEntity
  8
PREDETERMINADA
100
AcDbSpline
210
0.0
220
0.0
230
1.0
 70
    24
 71
     2
 72
     6
 73
     3
 74
     0
 42
0.0000000001
 43
0.0000000001
 40
57.25414139835113
 40
57.25414139835113
 40
57.25414139835113
 40
144.2541764581876
 40
144.2541764581876
 40
144.2541764581876
 10
2059.869299010296
 20
1027.226321973742
 30
0.0
 10
2059.869299010296
 20
1070.72633950366
 30
0.0
 10
2059.869299010296
 20
1114.226357033578
 30
0.0
  0
SPLINE
  5
220
330
1F
100
AcDbEntity
  8
PREDETERMINADA
100
AcDbSpline
210
0.0
220
0.0
230
1.0
 70
    24
 71
     2
 72
     6
 73
     3
 74
     0
 42
0.0000000001
 43
0.0000000001
 40
57.21823098741761
 40
57.21823098741761
 40
57.21823098741761
 40
144.2182660472542
 40
144.2182660472542
 40
144.2182660472542
 10
2019.869299010296
 20
1027.190411562808
 30
0.0
 10
2019.869299010296
 20
1070.690429092726
 30
0.0
 10
2019.869299010296
 20
1114.190446622645
 30
0.0
  0
SPLINE
  5
221
330
1F
100
AcDbEntity
  8
PREDETERMINADA
100
AcDbSpline
210
0.0
220
0.0
230
1.0
 70
    24
 71
     2
 72
     6
 73
     3
 74
     0
 42
0.0000000001
 43
0.0000000001
 40
56.33842591954601
 40
56.33842591954601
 40
56.33842591954601
 40
143.3384609793849
 40
143.3384609793849
 40
143.3384609793849
 10
1039.869299010296
 20
1026.310606494937
 30
0.0
 10
1039.869299010296
 20
1069.810624024856
 30
0.0
 10
1039.869299010296
 20
1113.310641554775
 30
0.0
  0
POLYLINE
  5
222
330
1F
100
AcDbEntity
  8
PREDETERMINADA
100
AcDb2dPolyline
 66
     1
 10
0.0
 20
0.0
 30
0.0
  0
VERTEX
  5
224
330
222
100
AcDbEntity
  8
PREDETERMINADA
100
AcDbVertex
100
AcDb2dVertex
 10
1059.869299010296
 20
1026.328561700403
 30
0.0
  0
VERTEX
  5
225
330
222
100
AcDbEntity
  8
PREDETERMINADA
100
AcDbVertex
100
AcDb2dVertex
 10
1059.869299010296
 20
1113.328596760242
 30
0.0
  0
SEQEND
  5
223
330
222
100
AcDbEntity
  8
PREDETERMINADA
  0
SPLINE
  5
226
330
1F
100
AcDbEntity
  8
PREDETERMINADA
100
AcDbSpline
210
0.0
220
0.0
230
1.0
 70
    24
 71
     2
 72
     6
 73
     3
 74
     0
 42
0.0000000001
 43
0.0000000001
 40
56.50002276874692
 40
56.50002276874692
 40
56.50002276874692
 40
143.5000578285855
 40
143.5000578285855
 40
143.5000578285855
 10
1219.869299010296
 20
1026.472203344137
 30
0.0
 10
1219.869299010296
 20
1069.972220874057
 30
0.0
 10
1219.869299010296
 20
1113.472238403976
 30
0.0
  0
POLYLINE
  5
227
330
1F
100
AcDbEntity
  8
PREDETERMINADA
100
AcDb2dPolyline
 66
     1
 10
0.0
 20
0.0
 30
0.0
  0
VERTEX
  5
229
330
227
100
AcDbEntity
  8
PREDETERMINADA
100
AcDbVertex
100
AcDb2dVertex
 10
2139.918084767376
 20
970.7981638247765
 30
0.0
  0
VERTEX
  5
22A
330
227
100
AcDbEntity
  8
PREDETERMINADA
100
AcDbVertex
100
AcDb2dVertex
 10
2139.879032211223
 20
1014.298146294863
 30
0.0
  0
SEQEND
  5
228
330
227
100
AcDbEntity
  8
PREDETERMINADA
  0
SPLINE
  5
22B
330
1F
100
AcDbEntity
  8
PREDETERMINADA
100
AcDbSpline
210
0.0
220
0.0
230
1.0
 70
    24
 71
     2
 72
     6
 73
     3
 74
     0
 42
0.0000000001
 43
0.0000000001
 40
156.6077943002126
 40
156.6077943002126
 40
156.6077943002126
 40
221.8536640441773
 40
221.8536640441773
 40
221.8536640441773
 10
1339.869299010296
 20
1126.579974875603
 30
0.0
 10
1339.869299010296
 20
1159.202909747586
 30
0.0
 10
1339.869299010296
 20
1191.825844619568
 30
0.0
  0
SPLINE
  5
22C
330
1F
100
AcDbEntity
  8
PREDETERMINADA
100
AcDbSpline
210
0.0
220
0.0
230
1.0
 70
    24
 71
     2
 72
     6
 73
     3
 74
     0
 42
0.0000000001
 43
0.0000000001
 40
155.6920788214098
 40
155.6920788214098
 40
155.6920788214098
 40
220.9379485653722
 40
220.9379485653722
 40
220.9379485653722
 10
319.8692990102961
 20
1125.6642593968
 30
0.0
 10
319.8692990102961
 20
1158.287194268782
 30
0.0
 10
319.8692990102961
 20
1190.910129140763
 30
0.0
  0
POLYLINE
  5
22D
330
1F
100
AcDbEntity
  8
PREDETERMINADA
100
AcDb2dPolyline
 66
     1
 10
0.0
 20
0.0
 30
0.0
  0
VERTEX
  5
22F
330
22D
100
AcDbEntity
  8
PREDETERMINADA
100
AcDbVertex
100
AcDb2dVertex
 10
339.8692990102961
 20
1125.682214602267
 30
0.0
  0
VERTEX
  5
230
330
22D
100
AcDbEntity
  8
PREDETERMINADA
100
AcDbVertex
100
AcDb2dVertex
 10
339.8692990102961
 20
1190.92808434623
 30
0.0
  0
SEQEND
  5
22E
330
22D
100
AcDbEntity
  8
PREDETERMINADA
  0
SPLINE
  5
231
330
1F
100
AcDbEntity
  8
PREDETERMINADA
100
AcDbSpline
210
0.0
220
0.0
230
1.0
 70
    24
 71
     2
 72
     6
 73
     3
 74
     0
 42
0.0000000001
 43
0.0000000001
 40
155.8895860815438
 40
155.8895860815438
 40
155.8895860815438
 40
221.1354558255067
 40
221.1354558255067
 40
221.1354558255067
 10
539.869299010296
 20
1125.861766656934
 30
0.0
 10
539.8692990102961
 20
1158.484701528916
 30
0.0
 10
539.8692990102961
 20
1191.107636400897
 30
0.0
  0
SPLINE
  5
232
330
1F
100
AcDbEntity
  8
PREDETERMINADA
100
AcDbSpline
210
0.0
220
0.0
230
1.0
 70
    24
 71
     2
 72
     6
 73
     3
 74
     0
 42
0.0000000001
 43
0.0000000001
 40
155.871630876077
 40
155.871630876077
 40
155.871630876077
 40
221.1175006200398
 40
221.1175006200398
 40
221.1175006200398
 10
519.869299010296
 20
1125.843811451468
 30
0.0
 10
519.8692990102961
 20
1158.466746323449
 30
0.0
 10
519.8692990102961
 20
1191.08968119543
 30
0.0
  0
SPLINE
  5
233
330
1F
100
AcDbEntity
  8
PREDETERMINADA
100
AcDbSpline
210
0.0
220
0.0
230
1.0
 70
    24
 71
     2
 72
     6
 73
     3
 74
     0
 42
0.0000000001
 43
0.0000000001
 40
155.7638996432767
 40
155.7638996432767
 40
155.7638996432767
 40
221.0097693872393
 40
221.0097693872393
 40
221.0097693872393
 10
399.869299010296
 20
1125.736080218667
 30
0.0
 10
399.8692990102961
 20
1158.359015090648
 30
0.0
 10
399.8692990102961
 20
1190.98194996263
 30
0.0
  0
POLYLINE
  5
234
330
1F
100
AcDbEntity
  8
PREDETERMINADA
100
AcDb2dPolyline
 66
     1
 10
0.0
 20
0.0
 30
0.0
  0
VERTEX
  5
236
330
234
100
AcDbEntity
  8
PREDETERMINADA
100
AcDbVertex
100
AcDb2dVertex
 10
419.869299010296
 20
1125.754035424134
 30
0.0
  0
VERTEX
  5
237
330
234
100
AcDbEntity
  8
PREDETERMINADA
100
AcDbVertex
100
AcDb2dVertex
 10
419.8692990102961
 20
1190.999905168097
 30
0.0
  0
SEQEND
  5
235
330
234
100
AcDbEntity
  8
PREDETERMINADA
  0
SPLINE
  5
238
330
1F
100
AcDbEntity
  8
PREDETERMINADA
100
AcDbSpline
210
0.0
220
0.0
230
1.0
 70
    24
 71
     2
 72
     6
 73
     3
 74
     0
 42
0.0000000001
 43
0.0000000001
 40
155.7279892323432
 40
155.7279892323432
 40
155.7279892323432
 40
220.9738589763057
 40
220.9738589763057
 40
220.9738589763057
 10
359.869299010296
 20
1125.700169807734
 30
0.0
 10
359.8692990102961
 20
1158.323104679715
 30
0.0
 10
359.8692990102961
 20
1190.946039551696
 30
0.0
  0
SPLINE
  5
239
330
1F
100
AcDbEntity
  8
PREDETERMINADA
100
AcDbSpline
210
0.0
220
0.0
230
1.0
 70
    24
 71
     2
 72
     6
 73
     3
 74
     0
 42
0.0000000001
 43
0.0000000001
 40
155.74594443781
 40
155.74594443781
 40
155.74594443781
 40
220.9918141817725
 40
220.9918141817725
 40
220.9918141817725
 10
379.869299010296
 20
1125.718125013201
 30
0.0
 10
379.8692990102961
 20
1158.341059885182
 30
0.0
 10
379.8692990102961
 20
1190.963994757163
 30
0.0
  0
POLYLINE
  5
23A
330
1F
100
AcDbEntity
  8
PREDETERMINADA
100
AcDb2dPolyline
 66
     1
 10
0.0
 20
0.0
 30
0.0
  0
VERTEX
  5
23C
330
23A
100
AcDbEntity
  8
PREDETERMINADA
100
AcDbVertex
100
AcDb2dVertex
 10
499.869299010296
 20
1125.825856246001
 30
0.0
  0
VERTEX
  5
23D
330
23A
100
AcDbEntity
  8
PREDETERMINADA
100
AcDbVertex
100
AcDb2dVertex
 10
499.8692990102961
 20
1191.071725989964
 30
0.0
  0
SEQEND
  5
23B
330
23A
100
AcDbEntity
  8
PREDETERMINADA
  0
SPLINE
  5
23E
330
1F
100
AcDbEntity
  8
PREDETERMINADA
100
AcDbSpline
210
0.0
220
0.0
230
1.0
 70
    24
 71
     2
 72
     6
 73
     3
 74
     0
 42
0.0000000001
 43
0.0000000001
 40
155.8177652596769
 40
155.8177652596769
 40
155.8177652596769
 40
221.0636350036396
 40
221.0636350036396
 40
221.0636350036396
 10
459.869299010296
 20
1125.789945835067
 30
0.0
 10
459.869299010296
 20
1158.412880707049
 30
0.0
 10
459.8692990102961
 20
1191.03581557903
 30
0.0
  0
SPLINE
  5
23F
330
1F
100
AcDbEntity
  8
PREDETERMINADA
100
AcDbSpline
210
0.0
220
0.0
230
1.0
 70
    24
 71
     2
 72
     6
 73
     3
 74
     0
 42
0.0000000001
 43
0.0000000001
 40
155.8357204651436
 40
155.8357204651436
 40
155.8357204651436
 40
221.0815902091064
 40
221.0815902091064
 40
221.0815902091064
 10
479.8692990102961
 20
1125.807901040534
 30
0.0
 10
479.8692990102961
 20
1158.430835912515
 30
0.0
 10
479.8692990102961
 20
1191.053770784497
 30
0.0
  0
SPLINE
  5
240
330
1F
100
AcDbEntity
  8
PREDETERMINADA
100
AcDbSpline
210
0.0
220
0.0
230
1.0
 70
    24
 71
     2
 72
     6
 73
     3
 74
     0
 42
0.0000000001
 43
0.0000000001
 40
155.7998100542101
 40
155.7998100542101
 40
155.7998100542101
 40
221.0456797981728
 40
221.0456797981728
 40
221.0456797981728
 10
439.869299010296
 20
1125.771990629601
 30
0.0
 10
439.8692990102961
 20
1158.394925501582
 30
0.0
 10
439.8692990102961
 20
1191.017860373563
 30
0.0
  0
POLYLINE
  5
241
330
1F
100
AcDbEntity
  8
PREDETERMINADA
100
AcDb2dPolyline
 66
     1
 10
0.0
 20
0.0
 30
0.0
  0
VERTEX
  5
243
330
241
100
AcDbEntity
  8
PREDETERMINADA
100
AcDbVertex
100
AcDb2dVertex
 10
579.869299010296
 20
1125.897677067868
 30
0.0
  0
VERTEX
  5
244
330
241
100
AcDbEntity
  8
PREDETERMINADA
100
AcDbVertex
100
AcDb2dVertex
 10
579.8692990102961
 20
1191.143546811831
 30
0.0
  0
SEQEND
  5
242
330
241
100
AcDbEntity
  8
PREDETERMINADA
  0
SPLINE
  5
245
330
1F
100
AcDbEntity
  8
PREDETERMINADA
100
AcDbSpline
210
0.0
220
0.0
230
1.0
 70
    24
 71
     2
 72
     6
 73
     3
 74
     0
 42
0.0000000001
 43
0.0000000001
 40
155.9075412870105
 40
155.9075412870105
 40
155.9075412870105
 40
221.1534110309735
 40
221.1534110309735
 40
221.1534110309735
 10
559.869299010296
 20
1125.879721862401
 30
0.0
 10
559.8692990102961
 20
1158.502656734383
 30
0.0
 10
559.8692990102961
 20
1191.125591606364
 30
0.0
  0
SPLINE
  5
246
330
1F
100
AcDbEntity
  8
PREDETERMINADA
100
AcDbSpline
210
0.0
220
0.0
230
1.0
 70
    24
 71
     2
 72
     6
 73
     3
 74
     0
 42
0.0000000001
 43
0.0000000001
 40
155.9254964924771
 40
155.9254964924771
 40
155.9254964924771
 40
221.1713662364402
 40
221.1713662364402
 40
221.1713662364402
 10
579.8692990102961
 20
1125.897677067868
 30
0.0
 10
579.8692990102961
 20
1158.520611939849
 30
0.0
 10
579.8692990102962
 20
1191.143546811831
 30
0.0
  0
SPLINE
  5
247
330
1F
100
AcDbEntity
  8
PREDETERMINADA
100
AcDbSpline
210
0.0
220
0.0
230
1.0
 70
    24
 71
     2
 72
     6
 73
     3
 74
     0
 42
0.0000000001
 43
0.0000000001
 40
155.9434516979439
 40
155.9434516979439
 40
155.9434516979439
 40
221.189321441907
 40
221.189321441907
 40
221.189321441907
 10
599.8692990102961
 20
1125.915632273334
 30
0.0
 10
599.8692990102961
 20
1158.538567145316
 30
0.0
 10
599.8692990102962
 20
1191.161502017298
 30
0.0
  0
SPLINE
  5
248
330
1F
100
AcDbEntity
  8
PREDETERMINADA
100
AcDbSpline
210
0.0
220
0.0
230
1.0
 70
    24
 71
     2
 72
     6
 73
     3
 74
     0
 42
0.0000000001
 43
0.0000000001
 40
155.9793621088774
 40
155.9793621088774
 40
155.9793621088774
 40
221.2252318528405
 40
221.2252318528405
 40
221.2252318528405
 10
639.8692990102961
 20
1125.951542684268
 30
0.0
 10
639.8692990102961
 20
1158.574477556249
 30
0.0
 10
639.8692990102961
 20
1191.197412428231
 30
0.0
  0
SPLINE
  5
249
330
1F
100
AcDbEntity
  8
PREDETERMINADA
100
AcDbSpline
210
0.0
220
0.0
230
1.0
 70
    24
 71
     2
 72
     6
 73
     3
 74
     0
 42
0.0000000001
 43
0.0000000001
 40
155.9614069034106
 40
155.9614069034106
 40
155.9614069034106
 40
221.2072766473737
 40
221.2072766473737
 40
221.2072766473737
 10
619.8692990102961
 20
1125.933587478801
 30
0.0
 10
619.8692990102961
 20
1158.556522350783
 30
0.0
 10
619.8692990102962
 20
1191.179457222764
 30
0.0
  0
POLYLINE
  5
24A
330
1F
100
AcDbEntity
  8
PREDETERMINADA
100
AcDb2dPolyline
 66
     1
 10
0.0
 20
0.0
 30
0.0
  0
VERTEX
  5
24C
330
24A
100
AcDbEntity
  8
PREDETERMINADA
100
AcDbVertex
100
AcDb2dVertex
 10
659.8692990102961
 20
1125.969497889735
 30
0.0
  0
VERTEX
  5
24D
330
24A
100
AcDbEntity
  8
PREDETERMINADA
100
AcDbVertex
100
AcDb2dVertex
 10
659.8692990102962
 20
1191.215367633698
 30
0.0
  0
SEQEND
  5
24B
330
24A
100
AcDbEntity
  8
PREDETERMINADA
  0
SPLINE
  5
24E
330
1F
100
AcDbEntity
  8
PREDETERMINADA
100
AcDbSpline
210
0.0
220
0.0
230
1.0
 70
    24
 71
     2
 72
     6
 73
     3
 74
     0
 42
0.0000000001
 43
0.0000000001
 40
156.0511829307442
 40
156.0511829307442
 40
156.0511829307442
 40
221.2970526747076
 40
221.2970526747076
 40
221.2970526747076
 10
719.8692990102961
 20
1126.023363506135
 30
0.0
 10
719.8692990102961
 20
1158.646298378116
 30
0.0
 10
719.8692990102962
 20
1191.269233250098
 30
0.0
  0
POLYLINE
  5
24F
330
1F
100
AcDbEntity
  8
PREDETERMINADA
100
AcDb2dPolyline
 66
     1
 10
0.0
 20
0.0
 30
0.0
  0
VERTEX
  5
251
330
24F
100
AcDbEntity
  8
PREDETERMINADA
100
AcDbVertex
100
AcDb2dVertex
 10
739.8692990102961
 20
1126.041318711601
 30
0.0
  0
VERTEX
  5
252
330
24F
100
AcDbEntity
  8
PREDETERMINADA
100
AcDbVertex
100
AcDb2dVertex
 10
739.8692990102962
 20
1191.287188455565
 30
0.0
  0
SEQEND
  5
250
330
24F
100
AcDbEntity
  8
PREDETERMINADA
  0
SPLINE
  5
253
330
1F
100
AcDbEntity
  8
PREDETERMINADA
100
AcDbSpline
210
0.0
220
0.0
230
1.0
 70
    24
 71
     2
 72
     6
 73
     3
 74
     0
 42
0.0000000001
 43
0.0000000001
 40
156.0152725198108
 40
156.0152725198108
 40
156.0152725198108
 40
221.261142263774
 40
221.261142263774
 40
221.261142263774
 10
679.8692990102961
 20
1125.987453095201
 30
0.0
 10
679.8692990102961
 20
1158.610387967183
 30
0.0
 10
679.8692990102961
 20
1191.233322839165
 30
0.0
  0
SPLINE
  5
254
330
1F
100
AcDbEntity
  8
PREDETERMINADA
100
AcDbSpline
210
0.0
220
0.0
230
1.0
 70
    24
 71
     2
 72
     6
 73
     3
 74
     0
 42
0.0000000001
 43
0.0000000001
 40
156.0332277252775
 40
156.0332277252775
 40
156.0332277252775
 40
221.2790974692408
 40
221.2790974692408
 40
221.2790974692408
 10
699.8692990102961
 20
1126.005408300668
 30
0.0
 10
699.8692990102961
 20
1158.62834317265
 30
0.0
 10
699.8692990102962
 20
1191.251278044631
 30
0.0
  0
SPLINE
  5
255
330
1F
100
AcDbEntity
  8
PREDETERMINADA
100
AcDbSpline
210
0.0
220
0.0
230
1.0
 70
    24
 71
     2
 72
     6
 73
     3
 74
     0
 42
0.0000000001
 43
0.0000000001
 40
156.0870933416777
 40
156.0870933416777
 40
156.0870933416777
 40
221.3329630856411
 40
221.3329630856411
 40
221.3329630856411
 10
759.8692990102961
 20
1126.059273917068
 30
0.0
 10
759.8692990102961
 20
1158.68220878905
 30
0.0
 10
759.8692990102961
 20
1191.305143661032
 30
0.0
  0
SPLINE
  5
256
330
1F
100
AcDbEntity
  8
PREDETERMINADA
100
AcDbSpline
210
0.0
220
0.0
230
1.0
 70
    24
 71
     2
 72
     6
 73
     3
 74
     0
 42
0.0000000001
 43
0.0000000001
 40
156.1768693690113
 40
156.1768693690113
 40
156.1768693690113
 40
221.4227391129749
 40
221.4227391129749
 40
221.4227391129749
 10
859.8692990102961
 20
1126.149049944402
 30
0.0
 10
859.8692990102961
 20
1158.771984816384
 30
0.0
 10
859.8692990102962
 20
1191.394919688365
 30
0.0
  0
SPLINE
  5
257
330
1F
100
AcDbEntity
  8
PREDETERMINADA
100
AcDbSpline
210
0.0
220
0.0
230
1.0
 70
    24
 71
     2
 72
     6
 73
     3
 74
     0
 42
0.0000000001
 43
0.0000000001
 40
156.1589141635446
 40
156.1589141635446
 40
156.1589141635446
 40
221.4047839075081
 40
221.4047839075081
 40
221.4047839075081
 10
839.8692990102962
 20
1126.131094738935
 30
0.0
 10
839.8692990102962
 20
1158.754029610917
 30
0.0
 10
839.8692990102962
 20
1191.376964482899
 30
0.0
  0
POLYLINE
  5
258
330
1F
100
AcDbEntity
  8
PREDETERMINADA
100
AcDb2dPolyline
 66
     1
 10
0.0
 20
0.0
 30
0.0
  0
VERTEX
  5
25A
330
258
100
AcDbEntity
  8
PREDETERMINADA
100
AcDbVertex
100
AcDb2dVertex
 10
899.8692990102961
 20
1126.184960355335
 30
0.0
  0
VERTEX
  5
25B
330
258
100
AcDbEntity
  8
PREDETERMINADA
100
AcDbVertex
100
AcDb2dVertex
 10
899.8692990102962
 20
1191.430830099299
 30
0.0
  0
SEQEND
  5
259
330
258
100
AcDbEntity
  8
PREDETERMINADA
  0
SPLINE
  5
25C
330
1F
100
AcDbEntity
  8
PREDETERMINADA
100
AcDbSpline
210
0.0
220
0.0
230
1.0
 70
    24
 71
     2
 72
     6
 73
     3
 74
     0
 42
0.0000000001
 43
0.0000000001
 40
156.194824574478
 40
156.194824574478
 40
156.194824574478
 40
221.4406943184417
 40
221.4406943184417
 40
221.4406943184417
 10
879.8692990102961
 20
1126.167005149869
 30
0.0
 10
879.8692990102961
 20
1158.78994002185
 30
0.0
 10
879.8692990102962
 20
1191.412874893832
 30
0.0
  0
POLYLINE
  5
25D
330
1F
100
AcDbEntity
  8
PREDETERMINADA
100
AcDb2dPolyline
 66
     1
 10
0.0
 20
0.0
 30
0.0
  0
VERTEX
  5
25F
330
25D
100
AcDbEntity
  8
PREDETERMINADA
100
AcDbVertex
100
AcDb2dVertex
 10
819.8692990102961
 20
1126.113139533468
 30
0.0
  0
VERTEX
  5
260
330
25D
100
AcDbEntity
  8
PREDETERMINADA
100
AcDbVertex
100
AcDb2dVertex
 10
819.8692990102962
 20
1191.359009277432
 30
0.0
  0
SEQEND
  5
25E
330
25D
100
AcDbEntity
  8
PREDETERMINADA
  0
SPLINE
  5
261
330
1F
100
AcDbEntity
  8
PREDETERMINADA
100
AcDbSpline
210
0.0
220
0.0
230
1.0
 70
    24
 71
     2
 72
     6
 73
     3
 74
     0
 42
0.0000000001
 43
0.0000000001
 40
156.1050485471444
 40
156.1050485471444
 40
156.1050485471444
 40
221.3509182911079
 40
221.3509182911079
 40
221.3509182911079
 10
779.8692990102961
 20
1126.077229122535
 30
0.0
 10
779.8692990102961
 20
1158.700163994517
 30
0.0
 10
779.8692990102962
 20
1191.323098866498
 30
0.0
  0
SPLINE
  5
262
330
1F
100
AcDbEntity
  8
PREDETERMINADA
100
AcDbSpline
210
0.0
220
0.0
230
1.0
 70
    24
 71
     2
 72
     6
 73
     3
 74
     0
 42
0.0000000001
 43
0.0000000001
 40
156.123003752611
 40
156.123003752611
 40
156.123003752611
 40
221.3688734965746
 40
221.3688734965746
 40
221.3688734965746
 10
799.8692990102962
 20
1126.095184328002
 30
0.0
 10
799.8692990102961
 20
1158.718119199983
 30
0.0
 10
799.8692990102961
 20
1191.341054071965
 30
0.0
  0
SPLINE
  5
263
330
1F
100
AcDbEntity
  8
PREDETERMINADA
100
AcDbSpline
210
0.0
220
0.0
230
1.0
 70
    24
 71
     2
 72
     6
 73
     3
 74
     0
 42
0.0000000001
 43
0.0000000001
 40
156.3025558072783
 40
156.3025558072783
 40
156.3025558072783
 40
221.5484255512423
 40
221.5484255512423
 40
221.5484255512423
 10
999.8692990102959
 20
1126.274736382669
 30
0.0
 10
999.8692990102959
 20
1158.897671254651
 30
0.0
 10
999.869299010296
 20
1191.520606126633
 30
0.0
  0
POLYLINE
  5
264
330
1F
100
AcDbEntity
  8
PREDETERMINADA
100
AcDb2dPolyline
 66
     1
 10
0.0
 20
0.0
 30
0.0
  0
VERTEX
  5
266
330
264
100
AcDbEntity
  8
PREDETERMINADA
100
AcDbVertex
100
AcDb2dVertex
 10
979.8692990102961
 20
1126.256781177202
 30
0.0
  0
VERTEX
  5
267
330
264
100
AcDbEntity
  8
PREDETERMINADA
100
AcDbVertex
100
AcDb2dVertex
 10
979.8692990102961
 20
1191.502650921166
 30
0.0
  0
SEQEND
  5
265
330
264
100
AcDbEntity
  8
PREDETERMINADA
  0
SPLINE
  5
268
330
1F
100
AcDbEntity
  8
PREDETERMINADA
100
AcDbSpline
210
0.0
220
0.0
230
1.0
 70
    24
 71
     2
 72
     6
 73
     3
 74
     0
 42
0.0000000001
 43
0.0000000001
 40
156.2486901908782
 40
156.2486901908782
 40
156.2486901908782
 40
221.494559934842
 40
221.494559934842
 40
221.494559934842
 10
939.8692990102961
 20
1126.220870766269
 30
0.0
 10
939.8692990102961
 20
1158.843805638251
 30
0.0
 10
939.8692990102961
 20
1191.466740510233
 30
0.0
  0
SPLINE
  5
269
330
1F
100
AcDbEntity
  8
PREDETERMINADA
100
AcDbSpline
210
0.0
220
0.0
230
1.0
 70
    24
 71
     2
 72
     6
 73
     3
 74
     0
 42
0.0000000001
 43
0.0000000001
 40
156.2666453963448
 40
156.2666453963448
 40
156.2666453963448
 40
221.5125151403088
 40
221.5125151403088
 40
221.5125151403088
 10
959.869299010296
 20
1126.238825971735
 30
0.0
 10
959.8692990102961
 20
1158.861760843717
 30
0.0
 10
959.8692990102961
 20
1191.484695715699
 30
0.0
  0
SPLINE
  5
26A
330
1F
100
AcDbEntity
  8
PREDETERMINADA
100
AcDbSpline
210
0.0
220
0.0
230
1.0
 70
    24
 71
     2
 72
     6
 73
     3
 74
     0
 42
0.0000000001
 43
0.0000000001
 40
156.2307349854114
 40
156.2307349854114
 40
156.2307349854114
 40
221.4766047293752
 40
221.4766047293752
 40
221.4766047293752
 10
919.869299010296
 20
1126.202915560802
 30
0.0
 10
919.8692990102961
 20
1158.825850432784
 30
0.0
 10
919.8692990102961
 20
1191.448785304766
 30
0.0
  0
SPLINE
  5
26B
330
1F
100
AcDbEntity
  8
PREDETERMINADA
100
AcDbSpline
210
0.0
220
0.0
230
1.0
 70
    24
 71
     2
 72
     6
 73
     3
 74
     0
 42
0.0000000001
 43
0.0000000001
 40
156.320511012745
 40
156.320511012745
 40
156.320511012745
 40
221.5663807567091
 40
221.5663807567091
 40
221.5663807567091
 10
1019.869299010296
 20
1126.292691588136
 30
0.0
 10
1019.869299010296
 20
1158.915626460117
 30
0.0
 10
1019.869299010296
 20
1191.5385613321
 30
0.0
  0
POLYLINE
  5
26C
330
1F
100
AcDbEntity
  8
PREDETERMINADA
100
AcDb2dPolyline
 66
     1
 10
0.0
 20
0.0
 30
0.0
  0
VERTEX
  5
26E
330
26C
100
AcDbEntity
  8
PREDETERMINADA
100
AcDbVertex
100
AcDb2dVertex
 10
1239.869299010296
 20
1126.49019884827
 30
0.0
  0
VERTEX
  5
26F
330
26C
100
AcDbEntity
  8
PREDETERMINADA
100
AcDbVertex
100
AcDb2dVertex
 10
1239.869299010296
 20
1191.736068592234
 30
0.0
  0
SEQEND
  5
26D
330
26C
100
AcDbEntity
  8
PREDETERMINADA
  0
SPLINE
  5
270
330
1F
100
AcDbEntity
  8
PREDETERMINADA
100
AcDbSpline
210
0.0
220
0.0
230
1.0
 70
    24
 71
     2
 72
     6
 73
     3
 74
     0
 42
0.0000000001
 43
0.0000000001
 40
156.5000630674122
 40
156.5000630674122
 40
156.5000630674122
 40
221.7459328113767
 40
221.7459328113767
 40
221.7459328113767
 10
1219.869299010296
 20
1126.472243642803
 30
0.0
 10
1219.869299010296
 20
1159.095178514785
 30
0.0
 10
1219.869299010296
 20
1191.718113386767
 30
0.0
  0
POLYLINE
  5
271
330
1F
100
AcDbEntity
  8
PREDETERMINADA
100
AcDb2dPolyline
 66
     1
 10
0.0
 20
0.0
 30
0.0
  0
VERTEX
  5
273
330
271
100
AcDbEntity
  8
PREDETERMINADA
100
AcDbVertex
100
AcDb2dVertex
 10
1059.869299010296
 20
1126.328601999069
 30
0.0
  0
VERTEX
  5
274
330
271
100
AcDbEntity
  8
PREDETERMINADA
100
AcDbVertex
100
AcDb2dVertex
 10
1059.869299010296
 20
1191.574471743033
 30
0.0
  0
SEQEND
  5
272
330
271
100
AcDbEntity
  8
PREDETERMINADA
  0
SPLINE
  5
275
330
1F
100
AcDbEntity
  8
PREDETERMINADA
100
AcDbSpline
210
0.0
220
0.0
230
1.0
 70
    24
 71
     2
 72
     6
 73
     3
 74
     0
 42
0.0000000001
 43
0.0000000001
 40
156.3384662182117
 40
156.3384662182117
 40
156.3384662182117
 40
221.5843359621758
 40
221.5843359621758
 40
221.5843359621758
 10
1039.869299010296
 20
1126.310646793602
 30
0.0
 10
1039.869299010296
 20
1158.933581665584
 30
0.0
 10
1039.869299010296
 20
1191.556516537566
 30
0.0
  0
SPLINE
  5
276
330
1F
100
AcDbEntity
  8
PREDETERMINADA
100
AcDbSpline
210
0.0
220
0.0
230
1.0
 70
    24
 71
     2
 72
     6
 73
     3
 74
     0
 42
0.0000000001
 43
0.0000000001
 40
156.3923318346119
 40
156.3923318346119
 40
156.3923318346119
 40
221.6382015785761
 40
221.6382015785761
 40
221.6382015785761
 10
1099.869299010296
 20
1126.364512410002
 30
0.0
 10
1099.869299010296
 20
1158.987447281985
 30
0.0
 10
1099.869299010296
 20
1191.610382153967
 30
0.0
  0
SPLINE
  5
277
330
1F
100
AcDbEntity
  8
PREDETERMINADA
100
AcDbSpline
210
0.0
220
0.0
230
1.0
 70
    24
 71
     2
 72
     6
 73
     3
 74
     0
 42
0.0000000001
 43
0.0000000001
 40
156.3743766291452
 40
156.3743766291452
 40
156.3743766291452
 40
221.6202463731094
 40
221.6202463731094
 40
221.6202463731094
 10
1079.869299010296
 20
1126.346557204536
 30
0.0
 10
1079.869299010296
 20
1158.969492076518
 30
0.0
 10
1079.869299010296
 20
1191.5924269485
 30
0.0
  0
POLYLINE
  5
278
330
1F
100
AcDbEntity
  8
PREDETERMINADA
100
AcDb2dPolyline
 66
     1
 10
0.0
 20
0.0
 30
0.0
  0
VERTEX
  5
27A
330
278
100
AcDbEntity
  8
PREDETERMINADA
100
AcDbVertex
100
AcDb2dVertex
 10
1139.869299010296
 20
1126.400422820936
 30
0.0
  0
VERTEX
  5
27B
330
278
100
AcDbEntity
  8
PREDETERMINADA
100
AcDbVertex
100
AcDb2dVertex
 10
1139.869299010296
 20
1191.6462925649
 30
0.0
  0
SEQEND
  5
279
330
278
100
AcDbEntity
  8
PREDETERMINADA
  0
SPLINE
  5
27C
330
1F
100
AcDbEntity
  8
PREDETERMINADA
100
AcDbSpline
210
0.0
220
0.0
230
1.0
 70
    24
 71
     2
 72
     6
 73
     3
 74
     0
 42
0.0000000001
 43
0.0000000001
 40
156.4102870400786
 40
156.4102870400786
 40
156.4102870400786
 40
221.6561567840429
 40
221.6561567840429
 40
221.6561567840429
 10
1119.869299010296
 20
1126.382467615469
 30
0.0
 10
1119.869299010296
 20
1159.005402487451
 30
0.0
 10
1119.869299010296
 20
1191.628337359433
 30
0.0
  0
SPLINE
  5
27D
330
1F
100
AcDbEntity
  8
PREDETERMINADA
100
AcDbSpline
210
0.0
220
0.0
230
1.0
 70
    24
 71
     2
 72
     6
 73
     3
 74
     0
 42
0.0000000001
 43
0.0000000001
 40
156.446197451012
 40
156.446197451012
 40
156.446197451012
 40
221.6920671949764
 40
221.6920671949764
 40
221.6920671949764
 10
1159.869299010296
 20
1126.418378026403
 30
0.0
 10
1159.869299010296
 20
1159.041312898385
 30
0.0
 10
1159.869299010296
 20
1191.664247770367
 30
0.0
  0
SPLINE
  5
27E
330
1F
100
AcDbEntity
  8
PREDETERMINADA
100
AcDbSpline
210
0.0
220
0.0
230
1.0
 70
    24
 71
     2
 72
     6
 73
     3
 74
     0
 42
0.0000000001
 43
0.0000000001
 40
156.4641526564788
 40
156.4641526564788
 40
156.4641526564788
 40
221.7100224004432
 40
221.7100224004432
 40
221.7100224004432
 10
1179.869299010296
 20
1126.436333231869
 30
0.0
 10
1179.869299010296
 20
1159.059268103852
 30
0.0
 10
1179.869299010296
 20
1191.682202975834
 30
0.0
  0
SPLINE
  5
27F
330
1F
100
AcDbEntity
  8
PREDETERMINADA
100
AcDbSpline
210
0.0
220
0.0
230
1.0
 70
    24
 71
     2
 72
     6
 73
     3
 74
     0
 42
0.0000000001
 43
0.0000000001
 40
156.4821078619455
 40
156.4821078619455
 40
156.4821078619455
 40
221.7279776059099
 40
221.7279776059099
 40
221.7279776059099
 10
1199.869299010296
 20
1126.454288437336
 30
0.0
 10
1199.869299010296
 20
1159.077223309318
 30
0.0
 10
1199.869299010296
 20
1191.700158181301
 30
0.0
  0
SPLINE
  5
280
330
1F
100
AcDbEntity
  8
PREDETERMINADA
100
AcDbSpline
210
0.0
220
0.0
230
1.0
 70
    24
 71
     2
 72
     6
 73
     3
 74
     0
 42
0.0000000001
 43
0.0000000001
 40
156.5539286838124
 40
156.5539286838124
 40
156.5539286838124
 40
221.7997984277771
 40
221.7997984277771
 40
221.7997984277771
 10
1279.869299010296
 20
1126.526109259203
 30
0.0
 10
1279.869299010296
 20
1159.149044131185
 30
0.0
 10
1279.869299010296
 20
1191.771979003168
 30
0.0
  0
SPLINE
  5
281
330
1F
100
AcDbEntity
  8
PREDETERMINADA
100
AcDbSpline
210
0.0
220
0.0
230
1.0
 70
    24
 71
     2
 72
     6
 73
     3
 74
     0
 42
0.0000000001
 43
0.0000000001
 40
156.5359734783457
 40
156.5359734783457
 40
156.5359734783457
 40
221.7818432223103
 40
221.7818432223103
 40
221.7818432223103
 10
1259.869299010296
 20
1126.508154053736
 30
0.0
 10
1259.869299010296
 20
1159.131088925719
 30
0.0
 10
1259.869299010296
 20
1191.754023797701
 30
0.0
  0
POLYLINE
  5
282
330
1F
100
AcDbEntity
  8
PREDETERMINADA
100
AcDb2dPolyline
 66
     1
 10
0.0
 20
0.0
 30
0.0
  0
VERTEX
  5
284
330
282
100
AcDbEntity
  8
PREDETERMINADA
100
AcDbVertex
100
AcDb2dVertex
 10
1319.869299010296
 20
1126.562019670136
 30
0.0
  0
VERTEX
  5
285
330
282
100
AcDbEntity
  8
PREDETERMINADA
100
AcDbVertex
100
AcDb2dVertex
 10
1319.869299010296
 20
1191.807889414101
 30
0.0
  0
SEQEND
  5
283
330
282
100
AcDbEntity
  8
PREDETERMINADA
  0
SPLINE
  5
286
330
1F
100
AcDbEntity
  8
PREDETERMINADA
100
AcDbSpline
210
0.0
220
0.0
230
1.0
 70
    24
 71
     2
 72
     6
 73
     3
 74
     0
 42
0.0000000001
 43
0.0000000001
 40
156.5718838892791
 40
156.5718838892791
 40
156.5718838892791
 40
221.8177536332438
 40
221.8177536332438
 40
221.8177536332438
 10
1299.869299010296
 20
1126.54406446467
 30
0.0
 10
1299.869299010296
 20
1159.166999336652
 30
0.0
 10
1299.869299010296
 20
1191.789934208634
 30
0.0
  0
SPLINE
  5
287
330
1F
100
AcDbEntity
  8
PREDETERMINADA
100
AcDbSpline
210
0.0
220
0.0
230
1.0
 70
    24
 71
     2
 72
     6
 73
     3
 74
     0
 42
0.0000000001
 43
0.0000000001
 40
155.6741236159431
 40
155.6741236159431
 40
155.6741236159431
 40
220.9199933599054
 40
220.9199933599054
 40
220.9199933599054
 10
299.8692990102961
 20
1125.646304191334
 30
0.0
 10
299.8692990102961
 20
1158.269239063315
 30
0.0
 10
299.8692990102961
 20
1190.892173935296
 30
0.0
  0
SPLINE
  5
288
330
1F
100
AcDbEntity
  8
PREDETERMINADA
100
AcDbSpline
210
0.0
220
0.0
230
1.0
 70
    24
 71
     2
 72
     6
 73
     3
 74
     0
 42
0.0000000001
 43
0.0000000001
 40
156.6437047111459
 40
156.6437047111459
 40
156.6437047111459
 40
221.8895744551109
 40
221.8895744551109
 40
221.8895744551109
 10
1379.869299010296
 20
1126.615885286536
 30
0.0
 10
1379.869299010296
 20
1159.238820158519
 30
0.0
 10
1379.869299010296
 20
1191.861755030501
 30
0.0
  0
SPLINE
  5
289
330
1F
100
AcDbEntity
  8
PREDETERMINADA
100
AcDbSpline
210
0.0
220
0.0
230
1.0
 70
    24
 71
     2
 72
     6
 73
     3
 74
     0
 42
0.0000000001
 43
0.0000000001
 40
156.6257495056793
 40
156.6257495056793
 40
156.6257495056793
 40
221.8716192496441
 40
221.8716192496441
 40
221.8716192496441
 10
1359.869299010296
 20
1126.59793008107
 30
0.0
 10
1359.869299010296
 20
1159.220864953052
 30
0.0
 10
1359.869299010296
 20
1191.843799825035
 30
0.0
  0
POLYLINE
  5
28A
330
1F
100
AcDbEntity
  8
PREDETERMINADA
100
AcDb2dPolyline
 66
     1
 10
0.0
 20
0.0
 30
0.0
  0
VERTEX
  5
28C
330
28A
100
AcDbEntity
  8
PREDETERMINADA
100
AcDbVertex
100
AcDb2dVertex
 10
1399.869299010296
 20
1126.633840492003
 30
0.0
  0
VERTEX
  5
28D
330
28A
100
AcDbEntity
  8
PREDETERMINADA
100
AcDbVertex
100
AcDb2dVertex
 10
1399.869299010296
 20
1191.879710235968
 30
0.0
  0
SEQEND
  5
28B
330
28A
100
AcDbEntity
  8
PREDETERMINADA
  0
SPLINE
  5
28E
330
1F
100
AcDbEntity
  8
PREDETERMINADA
100
AcDbSpline
210
0.0
220
0.0
230
1.0
 70
    24
 71
     2
 72
     6
 73
     3
 74
     0
 42
0.0000000001
 43
0.0000000001
 40
156.7155255330128
 40
156.7155255330128
 40
156.7155255330128
 40
221.961395276978
 40
221.961395276978
 40
221.961395276978
 10
1459.869299010296
 20
1126.687706108403
 30
0.0
 10
1459.869299010296
 20
1159.310640980386
 30
0.0
 10
1459.869299010296
 20
1191.933575852368
 30
0.0
  0
SPLINE
  5
28F
330
1F
100
AcDbEntity
  8
PREDETERMINADA
100
AcDbSpline
210
0.0
220
0.0
230
1.0
 70
    24
 71
     2
 72
     6
 73
     3
 74
     0
 42
0.0000000001
 43
0.0000000001
 40
156.6796151220794
 40
156.6796151220794
 40
156.6796151220794
 40
221.9254848660444
 40
221.9254848660444
 40
221.9254848660444
 10
1419.869299010296
 20
1126.65179569747
 30
0.0
 10
1419.869299010296
 20
1159.274730569452
 30
0.0
 10
1419.869299010296
 20
1191.897665441435
 30
0.0
  0
SPLINE
  5
290
330
1F
100
AcDbEntity
  8
PREDETERMINADA
100
AcDbSpline
210
0.0
220
0.0
230
1.0
 70
    24
 71
     2
 72
     6
 73
     3
 74
     0
 42
0.0000000001
 43
0.0000000001
 40
156.6975703275462
 40
156.6975703275462
 40
156.6975703275462
 40
221.9434400715111
 40
221.9434400715111
 40
221.9434400715111
 10
1439.869299010296
 20
1126.669750902937
 30
0.0
 10
1439.869299010296
 20
1159.292685774919
 30
0.0
 10
1439.869299010296
 20
1191.915620646902
 30
0.0
  0
SPLINE
  5
291
330
1F
100
AcDbEntity
  8
PREDETERMINADA
100
AcDbSpline
210
0.0
220
0.0
230
1.0
 70
    24
 71
     2
 72
     6
 73
     3
 74
     0
 42
0.0000000001
 43
0.0000000001
 40
156.7334807384796
 40
156.7334807384796
 40
156.7334807384796
 40
221.9793504824447
 40
221.9793504824447
 40
221.9793504824447
 10
1479.869299010296
 20
1126.70566131387
 30
0.0
 10
1479.869299010296
 20
1159.328596185853
 30
0.0
 10
1479.869299010296
 20
1191.951531057835
 30
0.0
  0
POLYLINE
  5
292
330
1F
100
AcDbEntity
  8
PREDETERMINADA
100
AcDb2dPolyline
 66
     1
 10
0.0
 20
0.0
 30
0.0
  0
VERTEX
  5
294
330
292
100
AcDbEntity
  8
PREDETERMINADA
100
AcDbVertex
100
AcDb2dVertex
 10
1479.869299010296
 20
1126.70566131387
 30
0.0
  0
VERTEX
  5
295
330
292
100
AcDbEntity
  8
PREDETERMINADA
100
AcDbVertex
100
AcDb2dVertex
 10
1479.869299010296
 20
1191.951531057835
 30
0.0
  0
SEQEND
  5
293
330
292
100
AcDbEntity
  8
PREDETERMINADA
  0
SPLINE
  5
296
330
1F
100
AcDbEntity
  8
PREDETERMINADA
100
AcDbSpline
210
0.0
220
0.0
230
1.0
 70
    24
 71
     2
 72
     6
 73
     3
 74
     0
 42
0.0000000001
 43
0.0000000001
 40
156.8950775876801
 40
156.8950775876801
 40
156.8950775876801
 40
222.1409473316456
 40
222.1409473316456
 40
222.1409473316456
 10
1659.869299010296
 20
1126.867258163071
 30
0.0
 10
1659.869299010296
 20
1159.490193035053
 30
0.0
 10
1659.869299010296
 20
1192.113127907036
 30
0.0
  0
POLYLINE
  5
297
330
1F
100
AcDbEntity
  8
PREDETERMINADA
100
AcDb2dPolyline
 66
     1
 10
0.0
 20
0.0
 30
0.0
  0
VERTEX
  5
299
330
297
100
AcDbEntity
  8
PREDETERMINADA
100
AcDbVertex
100
AcDb2dVertex
 10
1719.869299010296
 20
1126.921123779471
 30
0.0
  0
VERTEX
  5
29A
330
297
100
AcDbEntity
  8
PREDETERMINADA
100
AcDbVertex
100
AcDb2dVertex
 10
1719.869299010296
 20
1192.166993523437
 30
0.0
  0
SEQEND
  5
298
330
297
100
AcDbEntity
  8
PREDETERMINADA
  0
SPLINE
  5
29B
330
1F
100
AcDbEntity
  8
PREDETERMINADA
100
AcDbSpline
210
0.0
220
0.0
230
1.0
 70
    24
 71
     2
 72
     6
 73
     3
 74
     0
 42
0.0000000001
 43
0.0000000001
 40
156.9130327931468
 40
156.9130327931468
 40
156.9130327931468
 40
222.1589025371124
 40
222.1589025371124
 40
222.1589025371124
 10
1679.869299010296
 20
1126.885213368537
 30
0.0
 10
1679.869299010296
 20
1159.50814824052
 30
0.0
 10
1679.869299010296
 20
1192.131083112503
 30
0.0
  0
SPLINE
  5
29C
330
1F
100
AcDbEntity
  8
PREDETERMINADA
100
AcDbSpline
210
0.0
220
0.0
230
1.0
 70
    24
 71
     2
 72
     6
 73
     3
 74
     0
 42
0.0000000001
 43
0.0000000001
 40
156.9309879986135
 40
156.9309879986135
 40
156.9309879986135
 40
222.1768577425792
 40
222.1768577425792
 40
222.1768577425792
 10
1699.869299010296
 20
1126.903168574004
 30
0.0
 10
1699.869299010296
 20
1159.526103445987
 30
0.0
 10
1699.869299010296
 20
1192.14903831797
 30
0.0
  0
SPLINE
  5
29D
330
1F
100
AcDbEntity
  8
PREDETERMINADA
100
AcDbSpline
210
0.0
220
0.0
230
1.0
 70
    24
 71
     2
 72
     6
 73
     3
 74
     0
 42
0.0000000001
 43
0.0000000001
 40
156.7873463548797
 40
156.7873463548797
 40
156.7873463548797
 40
222.0332160988451
 40
222.0332160988451
 40
222.0332160988451
 10
1539.869299010296
 20
1126.75952693027
 30
0.0
 10
1539.869299010296
 20
1159.382461802253
 30
0.0
 10
1539.869299010296
 20
1192.005396674235
 30
0.0
  0
POLYLINE
  5
29E
330
1F
100
AcDbEntity
  8
PREDETERMINADA
100
AcDb2dPolyline
 66
     1
 10
0.0
 20
0.0
 30
0.0
  0
VERTEX
  5
2A0
330
29E
100
AcDbEntity
  8
PREDETERMINADA
100
AcDbVertex
100
AcDb2dVertex
 10
1559.869299010296
 20
1126.777482135737
 30
0.0
  0
VERTEX
  5
2A1
330
29E
100
AcDbEntity
  8
PREDETERMINADA
100
AcDbVertex
100
AcDb2dVertex
 10
1559.869299010296
 20
1192.023351879702
 30
0.0
  0
SEQEND
  5
29F
330
29E
100
AcDbEntity
  8
PREDETERMINADA
  0
SPLINE
  5
2A2
330
1F
100
AcDbEntity
  8
PREDETERMINADA
100
AcDbSpline
210
0.0
220
0.0
230
1.0
 70
    24
 71
     2
 72
     6
 73
     3
 74
     0
 42
0.0000000001
 43
0.0000000001
 40
156.8232567658132
 40
156.8232567658132
 40
156.8232567658132
 40
222.0691265097786
 40
222.0691265097786
 40
222.0691265097786
 10
1579.869299010296
 20
1126.795437341204
 30
0.0
 10
1579.869299010296
 20
1159.418372213187
 30
0.0
 10
1579.869299010296
 20
1192.041307085169
 30
0.0
  0
SPLINE
  5
2A3
330
1F
100
AcDbEntity
  8
PREDETERMINADA
100
AcDbSpline
210
0.0
220
0.0
230
1.0
 70
    24
 71
     2
 72
     6
 73
     3
 74
     0
 42
0.0000000001
 43
0.0000000001
 40
156.8412119712798
 40
156.8412119712798
 40
156.8412119712798
 40
222.0870817152453
 40
222.0870817152453
 40
222.0870817152453
 10
1599.869299010296
 20
1126.81339254667
 30
0.0
 10
1599.869299010296
 20
1159.436327418653
 30
0.0
 10
1599.869299010296
 20
1192.059262290636
 30
0.0
  0
SPLINE
  5
2A4
330
1F
100
AcDbEntity
  8
PREDETERMINADA
100
AcDbSpline
210
0.0
220
0.0
230
1.0
 70
    24
 71
     2
 72
     6
 73
     3
 74
     0
 42
0.0000000001
 43
0.0000000001
 40
156.8591671767466
 40
156.8591671767466
 40
156.8591671767466
 40
222.1050369207121
 40
222.1050369207121
 40
222.1050369207121
 10
1619.869299010296
 20
1126.831347752137
 30
0.0
 10
1619.869299010296
 20
1159.45428262412
 30
0.0
 10
1619.869299010296
 20
1192.077217496103
 30
0.0
  0
POLYLINE
  5
2A5
330
1F
100
AcDbEntity
  8
PREDETERMINADA
100
AcDb2dPolyline
 66
     1
 10
0.0
 20
0.0
 30
0.0
  0
VERTEX
  5
2A7
330
2A5
100
AcDbEntity
  8
PREDETERMINADA
100
AcDbVertex
100
AcDb2dVertex
 10
1639.869299010296
 20
1126.849302957604
 30
0.0
  0
VERTEX
  5
2A8
330
2A5
100
AcDbEntity
  8
PREDETERMINADA
100
AcDbVertex
100
AcDb2dVertex
 10
1639.869299010296
 20
1192.095172701569
 30
0.0
  0
SEQEND
  5
2A6
330
2A5
100
AcDbEntity
  8
PREDETERMINADA
  0
SPLINE
  5
2A9
330
1F
100
AcDbEntity
  8
PREDETERMINADA
100
AcDbSpline
210
0.0
220
0.0
230
1.0
 70
    24
 71
     2
 72
     6
 73
     3
 74
     0
 42
0.0000000001
 43
0.0000000001
 40
156.7693911494131
 40
156.7693911494131
 40
156.7693911494131
 40
222.0152608933782
 40
222.0152608933782
 40
222.0152608933782
 10
1519.869299010296
 20
1126.741571724804
 30
0.0
 10
1519.869299010296
 20
1159.364506596786
 30
0.0
 10
1519.869299010296
 20
1191.987441468769
 30
0.0
  0
SPLINE
  5
2AA
330
1F
100
AcDbEntity
  8
PREDETERMINADA
100
AcDbSpline
210
0.0
220
0.0
230
1.0
 70
    24
 71
     2
 72
     6
 73
     3
 74
     0
 42
0.0000000001
 43
0.0000000001
 40
156.7514359439463
 40
156.7514359439463
 40
156.7514359439463
 40
221.9973056879115
 40
221.9973056879115
 40
221.9973056879115
 10
1499.869299010296
 20
1126.723616519337
 30
0.0
 10
1499.869299010296
 20
1159.346551391319
 30
0.0
 10
1499.869299010296
 20
1191.969486263302
 30
0.0
  0
POLYLINE
  5
2AB
330
1F
100
AcDbEntity
  8
PREDETERMINADA
100
AcDb2dPolyline
 66
     1
 10
0.0
 20
0.0
 30
0.0
  0
VERTEX
  5
2AD
330
2AB
100
AcDbEntity
  8
PREDETERMINADA
100
AcDbVertex
100
AcDb2dVertex
 10
1799.869299010296
 20
1126.992944601338
 30
0.0
  0
VERTEX
  5
2AE
330
2AB
100
AcDbEntity
  8
PREDETERMINADA
100
AcDbVertex
100
AcDb2dVertex
 10
1799.869299010296
 20
1192.238814345304
 30
0.0
  0
SEQEND
  5
2AC
330
2AB
100
AcDbEntity
  8
PREDETERMINADA
  0
SPLINE
  5
2AF
330
1F
100
AcDbEntity
  8
PREDETERMINADA
100
AcDbSpline
210
0.0
220
0.0
230
1.0
 70
    24
 71
     2
 72
     6
 73
     3
 74
     0
 42
0.0000000001
 43
0.0000000001
 40
156.9848536150137
 40
156.9848536150137
 40
156.9848536150137
 40
222.2307233589794
 40
222.2307233589794
 40
222.2307233589794
 10
1759.869299010296
 20
1126.957034190404
 30
0.0
 10
1759.869299010296
 20
1159.579969062387
 30
0.0
 10
1759.869299010296
 20
1192.20290393437
 30
0.0
  0
SPLINE
  5
2B0
330
1F
100
AcDbEntity
  8
PREDETERMINADA
100
AcDbSpline
210
0.0
220
0.0
230
1.0
 70
    24
 71
     2
 72
     6
 73
     3
 74
     0
 42
0.0000000001
 43
0.0000000001
 40
157.0028088204804
 40
157.0028088204804
 40
157.0028088204804
 40
222.2486785644462
 40
222.2486785644462
 40
222.2486785644462
 10
1779.869299010296
 20
1126.974989395871
 30
0.0
 10
1779.869299010296
 20
1159.597924267854
 30
0.0
 10
1779.869299010296
 20
1192.220859139837
 30
0.0
  0
SPLINE
  5
2B1
330
1F
100
AcDbEntity
  8
PREDETERMINADA
100
AcDbSpline
210
0.0
220
0.0
230
1.0
 70
    24
 71
     2
 72
     6
 73
     3
 74
     0
 42
0.0000000001
 43
0.0000000001
 40
156.966898409547
 40
156.966898409547
 40
156.966898409547
 40
222.2127681535127
 40
222.2127681535127
 40
222.2127681535127
 10
1739.869299010296
 20
1126.939078984938
 30
0.0
 10
1739.869299010296
 20
1159.56201385692
 30
0.0
 10
1739.869299010296
 20
1192.184948728903
 30
0.0
  0
SPLINE
  5
2B2
330
1F
100
AcDbEntity
  8
PREDETERMINADA
100
AcDbSpline
210
0.0
220
0.0
230
1.0
 70
    24
 71
     2
 72
     6
 73
     3
 74
     0
 42
0.0000000001
 43
0.0000000001
 40
157.0387192314138
 40
157.0387192314138
 40
157.0387192314138
 40
222.2845889753797
 40
222.2845889753797
 40
222.2845889753797
 10
1819.869299010296
 20
1127.010899806804
 30
0.0
 10
1819.869299010296
 20
1159.633834678787
 30
0.0
 10
1819.869299010296
 20
1192.25676955077
 30
0.0
  0
SPLINE
  5
2B3
330
1F
100
AcDbEntity
  8
PREDETERMINADA
100
AcDbSpline
210
0.0
220
0.0
230
1.0
 70
    24
 71
     2
 72
     6
 73
     3
 74
     0
 42
0.0000000001
 43
0.0000000001
 40
157.0746296423473
 40
157.0746296423473
 40
157.0746296423473
 40
222.3204993863133
 40
222.3204993863133
 40
222.3204993863133
 10
1859.869299010296
 20
1127.046810217738
 30
0.0
 10
1859.869299010296
 20
1159.669745089721
 30
0.0
 10
1859.869299010296
 20
1192.292679961704
 30
0.0
  0
SPLINE
  5
2B4
330
1F
100
AcDbEntity
  8
PREDETERMINADA
100
AcDbSpline
210
0.0
220
0.0
230
1.0
 70
    24
 71
     2
 72
     6
 73
     3
 74
     0
 42
0.0000000001
 43
0.0000000001
 40
157.0566744368805
 40
157.0566744368805
 40
157.0566744368805
 40
222.3025441808465
 40
222.3025441808465
 40
222.3025441808465
 10
1839.869299010296
 20
1127.028855012271
 30
0.0
 10
1839.869299010296
 20
1159.651789884254
 30
0.0
 10
1839.869299010296
 20
1192.274724756237
 30
0.0
  0
POLYLINE
  5
2B5
330
1F
100
AcDbEntity
  8
PREDETERMINADA
100
AcDb2dPolyline
 66
     1
 10
0.0
 20
0.0
 30
0.0
  0
VERTEX
  5
2B7
330
2B5
100
AcDbEntity
  8
PREDETERMINADA
100
AcDbVertex
100
AcDb2dVertex
 10
1879.869299010296
 20
1127.064765423204
 30
0.0
  0
VERTEX
  5
2B8
330
2B5
100
AcDbEntity
  8
PREDETERMINADA
100
AcDbVertex
100
AcDb2dVertex
 10
1879.869299010296
 20
1192.310635167171
 30
0.0
  0
SEQEND
  5
2B6
330
2B5
100
AcDbEntity
  8
PREDETERMINADA
  0
SPLINE
  5
2B9
330
1F
100
AcDbEntity
  8
PREDETERMINADA
100
AcDbSpline
210
0.0
220
0.0
230
1.0
 70
    24
 71
     2
 72
     6
 73
     3
 74
     0
 42
0.0000000001
 43
0.0000000001
 40
157.1464504642142
 40
157.1464504642142
 40
157.1464504642142
 40
222.3923202081804
 40
222.3923202081804
 40
222.3923202081804
 10
1939.869299010296
 20
1127.118631039605
 30
0.0
 10
1939.869299010296
 20
1159.741565911588
 30
0.0
 10
1939.869299010296
 20
1192.364500783571
 30
0.0
  0
SPLINE
  5
2BA
330
1F
100
AcDbEntity
  8
PREDETERMINADA
100
AcDbSpline
210
0.0
220
0.0
230
1.0
 70
    24
 71
     2
 72
     6
 73
     3
 74
     0
 42
0.0000000001
 43
0.0000000001
 40
157.1105400532808
 40
157.1105400532808
 40
157.1105400532808
 40
222.3564097972468
 40
222.3564097972468
 40
222.3564097972468
 10
1899.869299010296
 20
1127.082720628671
 30
0.0
 10
1899.869299010296
 20
1159.705655500654
 30
0.0
 10
1899.869299010296
 20
1192.328590372637
 30
0.0
  0
SPLINE
  5
2BB
330
1F
100
AcDbEntity
  8
PREDETERMINADA
100
AcDbSpline
210
0.0
220
0.0
230
1.0
 70
    24
 71
     2
 72
     6
 73
     3
 74
     0
 42
0.0000000001
 43
0.0000000001
 40
157.1284952587474
 40
157.1284952587474
 40
157.1284952587474
 40
222.3743650027136
 40
222.3743650027136
 40
222.3743650027136
 10
1919.869299010296
 20
1127.100675834138
 30
0.0
 10
1919.869299010296
 20
1159.723610706121
 30
0.0
 10
1919.869299010296
 20
1192.346545578104
 30
0.0
  0
POLYLINE
  5
2BC
330
1F
100
AcDbEntity
  8
PREDETERMINADA
100
AcDb2dPolyline
 66
     1
 10
0.0
 20
0.0
 30
0.0
  0
VERTEX
  5
2BE
330
2BC
100
AcDbEntity
  8
PREDETERMINADA
100
AcDbVertex
100
AcDb2dVertex
 10
1959.869299010296
 20
1127.136586245071
 30
0.0
  0
VERTEX
  5
2BF
330
2BC
100
AcDbEntity
  8
PREDETERMINADA
100
AcDbVertex
100
AcDb2dVertex
 10
1959.869299010296
 20
1192.382455989038
 30
0.0
  0
SEQEND
  5
2BD
330
2BC
100
AcDbEntity
  8
PREDETERMINADA
  0
SPLINE
  5
2C0
330
1F
100
AcDbEntity
  8
PREDETERMINADA
100
AcDbSpline
210
0.0
220
0.0
230
1.0
 70
    24
 71
     2
 72
     6
 73
     3
 74
     0
 42
0.0000000001
 43
0.0000000001
 40
157.1823608751476
 40
157.1823608751476
 40
157.1823608751476
 40
222.4282306191138
 40
222.4282306191138
 40
222.4282306191138
 10
1979.869299010296
 20
1127.154541450538
 30
0.0
 10
1979.869299010296
 20
1159.777476322521
 30
0.0
 10
1979.869299010296
 20
1192.400411194504
 30
0.0
  0
SPLINE
  5
2C1
330
1F
100
AcDbEntity
  8
PREDETERMINADA
100
AcDbSpline
210
0.0
220
0.0
230
1.0
 70
    24
 71
     2
 72
     6
 73
     3
 74
     0
 42
0.0000000001
 43
0.0000000001
 40
157.2003160806143
 40
157.2003160806143
 40
157.2003160806143
 40
222.4461858245807
 40
222.4461858245807
 40
222.4461858245807
 10
1999.869299010296
 20
1127.172496656005
 30
0.0
 10
1999.869299010296
 20
1159.795431527988
 30
0.0
 10
1999.869299010296
 20
1192.418366399971
 30
0.0
  0
SPLINE
  5
2C2
330
1F
100
AcDbEntity
  8
PREDETERMINADA
100
AcDbSpline
210
0.0
220
0.0
230
1.0
 70
    24
 71
     2
 72
     6
 73
     3
 74
     0
 42
0.0000000001
 43
0.0000000001
 40
157.2182712860811
 40
157.2182712860811
 40
157.2182712860811
 40
222.4641410300475
 40
222.4641410300475
 40
222.4641410300475
 10
2019.869299010296
 20
1127.190451861472
 30
0.0
 10
2019.869299010296
 20
1159.813386733455
 30
0.0
 10
2019.869299010296
 20
1192.436321605438
 30
0.0
  0
POLYLINE
  5
2C3
330
1F
100
AcDbEntity
  8
PREDETERMINADA
100
AcDb2dPolyline
 66
     1
 10
0.0
 20
0.0
 30
0.0
  0
VERTEX
  5
2C5
330
2C3
100
AcDbEntity
  8
PREDETERMINADA
100
AcDbVertex
100
AcDb2dVertex
 10
2039.869299010296
 20
1127.208407066938
 30
0.0
  0
VERTEX
  5
2C6
330
2C3
100
AcDbEntity
  8
PREDETERMINADA
100
AcDbVertex
100
AcDb2dVertex
 10
2039.869299010296
 20
1192.454276810905
 30
0.0
  0
SEQEND
  5
2C4
330
2C3
100
AcDbEntity
  8
PREDETERMINADA
  0
SPLINE
  5
2C7
330
1F
100
AcDbEntity
  8
PREDETERMINADA
100
AcDbSpline
210
0.0
220
0.0
230
1.0
 70
    24
 71
     2
 72
     6
 73
     3
 74
     0
 42
0.0000000001
 43
0.0000000001
 40
157.2541816970144
 40
157.2541816970144
 40
157.2541816970144
 40
222.5000514409809
 40
222.5000514409809
 40
222.5000514409809
 10
2059.869299010296
 20
1127.226362272405
 30
0.0
 10
2059.869299010296
 20
1159.849297144388
 30
0.0
 10
2059.869299010296
 20
1192.472232016371
 30
0.0
  0
SPLINE
  5
2C8
330
1F
100
AcDbEntity
  8
PREDETERMINADA
100
AcDbSpline
210
0.0
220
0.0
230
1.0
 70
    24
 71
     2
 72
     6
 73
     3
 74
     0
 42
0.0000000001
 43
0.0000000001
 40
157.2721369024812
 40
157.2721369024812
 40
157.2721369024812
 40
222.5180066464478
 40
222.5180066464478
 40
222.5180066464478
 10
2079.869299010296
 20
1127.244317477872
 30
0.0
 10
2079.869299010296
 20
1159.867252349855
 30
0.0
 10
2079.869299010296
 20
1192.490187221838
 30
0.0
  0
SPLINE
  5
2C9
330
1F
100
AcDbEntity
  8
PREDETERMINADA
100
AcDbSpline
210
0.0
220
0.0
230
1.0
 70
    24
 71
     2
 72
     6
 73
     3
 74
     0
 42
0.0000000001
 43
0.0000000001
 40
157.2900921079479
 40
157.2900921079479
 40
157.2900921079479
 40
222.5359618519145
 40
222.5359618519145
 40
222.5359618519145
 10
2099.869299010296
 20
1127.262272683339
 30
0.0
 10
2099.869299010296
 20
1159.885207555322
 30
0.0
 10
2099.869299010296
 20
1192.508142427305
 30
0.0
  0
POLYLINE
  5
2CA
330
1F
100
AcDbEntity
  8
PREDETERMINADA
100
AcDb2dPolyline
 66
     1
 10
0.0
 20
0.0
 30
0.0
  0
VERTEX
  5
2CC
330
2CA
100
AcDbEntity
  8
PREDETERMINADA
100
AcDbVertex
100
AcDb2dVertex
 10
2119.869299010296
 20
1127.280227888805
 30
0.0
  0
VERTEX
  5
2CD
330
2CA
100
AcDbEntity
  8
PREDETERMINADA
100
AcDbVertex
100
AcDb2dVertex
 10
2119.869299010296
 20
1192.526097632772
 30
0.0
  0
SEQEND
  5
2CB
330
2CA
100
AcDbEntity
  8
PREDETERMINADA
  0
POLYLINE
  5
2CE
330
1F
100
AcDbEntity
  8
PREDETERMINADA
100
AcDb2dPolyline
 66
     1
 10
0.0
 20
0.0
 30
0.0
  0
VERTEX
  5
2D0
330
2CE
100
AcDbEntity
  8
PREDETERMINADA
100
AcDbVertex
100
AcDb2dVertex
 10
2139.699480228912
 20
1192.543900381683
 30
0.0
  0
VERTEX
  5
2D1
330
2CE
100
AcDbEntity
  8
PREDETERMINADA
100
AcDbVertex
100
AcDb2dVertex
 10
2139.777585341217
 20
1127.298100757383
 30
0.0
  0
SEQEND
  5
2CF
330
2CE
100
AcDbEntity
  8
PREDETERMINADA
  0
SPLINE
  5
2D2
330
1F
100
AcDbEntity
  8
PREDETERMINADA
100
AcDbSpline
210
0.0
220
0.0
230
1.0
 70
    24
 71
     2
 72
     6
 73
     3
 74
     0
 42
0.0000000001
 43
0.0000000001
 40
-467.751667718587
 40
-467.751667718587
 40
-467.751667718587
 40
-374.3125531900658
 40
-374.3125531900658
 40
-374.3125531900658
 10
500.0476528441087
 20
306.5
 30
0.0
 10
546.7672101083692
 20
306.5000000000013
 30
0.0
 10
593.4867673726297
 20
306.5000000000026
 30
0.0
  0
SPLINE
  5
2D3
330
1F
100
AcDbEntity
  8
PREDETERMINADA
100
AcDbSpline
210
0.0
220
0.0
230
1.0
 70
    24
 71
     2
 72
     6
 73
     3
 74
     0
 42
0.0000000001
 43
0.0000000001
 40
-467.751667718587
 40
-467.751667718587
 40
-467.751667718587
 40
-374.3125531900658
 40
-374.3125531900658
 40
-374.3125531900658
 10
500.0476528441088
 20
393.5
 30
0.0
 10
546.7672101083695
 20
393.4999999999999
 30
0.0
 10
593.4867673726301
 20
393.4999999999999
 30
0.0
  0
SPLINE
  5
2D4
330
1F
100
AcDbEntity
  8
PREDETERMINADA
100
AcDbSpline
210
0.0
220
0.0
230
1.0
 70
    24
 71
     2
 72
     6
 73
     3
 74
     0
 42
0.0000000001
 43
0.0000000001
 40
-467.751667718587
 40
-467.751667718587
 40
-467.751667718587
 40
-374.3125531900658
 40
-374.3125531900658
 40
-374.3125531900658
 10
500.0476528441088
 20
406.5
 30
0.0
 10
546.7672101083695
 20
406.4999999999999
 30
0.0
 10
593.4867673726301
 20
406.4999999999999
 30
0.0
  0
SPLINE
  5
2D5
330
1F
100
AcDbEntity
  8
PREDETERMINADA
100
AcDbSpline
210
0.0
220
0.0
230
1.0
 70
    12
 71
     2
 72
     6
 73
     3
 74
     0
 42
0.0000000001
 43
0.0000000001
 40
-136.3373805689452
 40
-136.3373805689452
 40
-136.3373805689452
 40
-8.644794362449751
 40
-8.644794362449751
 40
-8.644794362449751
 10
593.4867673726301
 20
393.4999999999999
 30
0.0
 41
1.0
 10
672.5265320855051
 20
393.4999999999999
 30
0.0
 41
0.8030127405953833
 10
695.4211052156586
 20
469.151324688036
 30
0.0
 41
1.0
  0
SPLINE
  5
2D6
330
1F
100
AcDbEntity
  8
PREDETERMINADA
100
AcDbSpline
210
0.0
220
0.0
230
1.0
 70
    12
 71
     2
 72
     6
 73
     3
 74
     0
 42
0.0000000001
 43
0.0000000001
 40
-136.3373805689452
 40
-136.3373805689452
 40
-136.3373805689452
 40
-8.644794362449751
 40
-8.644794362449751
 40
-8.644794362449751
 10
593.4867673726301
 20
406.4999999999999
 30
0.0
 41
1.0
 10
662.8784856886281
 20
406.4999999999999
 30
0.0
 41
0.8030127405953833
 10
682.9784160892793
 20
472.9168906885572
 30
0.0
 41
1.0
  0
SPLINE
  5
2D7
330
1F
100
AcDbEntity
  8
PREDETERMINADA
100
AcDbSpline
210
0.0
220
0.0
230
1.0
 70
    12
 71
     2
 72
     6
 73
     3
 74
     0
 42
0.0000000001
 43
0.0000000001
 40
-157.0361555649025
 40
-157.0361555649025
 40
-157.0361555649025
 40
0.0
 40
0.0
 40
0.0
 10
406.5476616810739
 20
499.9593488991418
 30
0.0
 41
1.0
 10
406.5882951118477
 20
406.5000000000023
 30
0.0
 41
0.70726047929041
 10
500.047652844109
 20
406.5
 30
0.0
 41
1.0
  0
SPLINE
  5
2D8
330
1F
100
AcDbEntity
  8
PREDETERMINADA
100
AcDbSpline
210
0.0
220
0.0
230
1.0
 70
    12
 71
     2
 72
     6
 73
     3
 74
     0
 42
0.0000000001
 43
0.0000000001
 40
-157.0361555649025
 40
-157.0361555649025
 40
-157.0361555649025
 40
0.0
 40
0.0
 40
0.0
 10
393.5476629097425
 20
499.9536968744235
 30
0.0
 41
1.0
 10
393.5939459084314
 20
393.5000000000027
 30
0.0
 41
0.70726047929041
 10
500.0476528441087
 20
393.5
 30
0.0
 41
1.0
  0
SPLINE
  5
2D9
330
1F
100
AcDbEntity
  8
PREDETERMINADA
100
AcDbSpline
210
0.0
220
0.0
230
1.0
 70
    12
 71
     2
 72
     6
 73
     3
 74
     0
 42
0.0000000001
 43
0.0000000001
 40
-272.6747611378929
 40
-272.6747611378929
 40
-272.6747611378929
 40
-17.28958872489882
 40
-17.28958872489882
 40
-17.28958872489882
 10
593.48676737263
 20
306.5000000000026
 30
0.0
 41
1.0
 10
737.0942272030672
 20
306.5000000000026
 30
0.0
 41
0.8030127405953827
 10
778.6914093691217
 20
443.9509983768596
 30
0.0
 41
1.0
  0
SPLINE
  5
2DA
330
1F
100
AcDbEntity
  8
PREDETERMINADA
100
AcDbSpline
210
0.0
220
0.0
230
1.0
 70
    12
 71
     2
 72
     6
 73
     3
 74
     0
 42
0.0000000001
 43
0.0000000001
 40
-272.6747611378929
 40
-272.6747611378929
 40
-272.6747611378929
 40
-17.28958872489882
 40
-17.28958872489882
 40
-17.28958872489882
 10
593.48676737263
 20
293.5000000000026
 30
0.0
 41
1.0
 10
746.7422735999443
 20
293.5000000000027
 30
0.0
 41
0.8030127405953827
 10
791.134098495501
 20
440.1854323763384
 30
0.0
 41
1.0
  0
SPLINE
  5
2DB
330
1F
100
AcDbEntity
  8
PREDETERMINADA
100
AcDbSpline
210
0.0
220
0.0
230
1.0
 70
    12
 71
     2
 72
     6
 73
     3
 74
     0
 42
0.0000000001
 43
0.0000000001
 40
-314.0723111298086
 40
-314.0723111298086
 40
-314.0723111298086
 40
0.0
 40
0.0
 40
0.0
 10
306.5476711323711
 20
499.9158717859274
 30
0.0
 41
1.0
 10
306.6317627778652
 20
306.4999999999949
 30
0.0
 41
0.7072604792903721
 10
500.0476528441087
 20
306.5
 30
0.0
 41
1.0
  0
SPLINE
  5
2DC
330
1F
100
AcDbEntity
  8
PREDETERMINADA
100
AcDbSpline
210
0.0
220
0.0
230
1.0
 70
    12
 71
     2
 72
     6
 73
     3
 74
     0
 42
0.0000000001
 43
0.0000000001
 40
-314.0723111298086
 40
-314.0723111298086
 40
-314.0723111298086
 40
0.0
 40
0.0
 40
0.0
 10
293.5476723610398
 20
499.9102197612099
 30
0.0
 41
1.0
 10
293.6374135744482
 20
293.4999999999945
 30
0.0
 41
0.7072604792903721
 10
500.047652844109
 20
293.5
 30
0.0
 41
1.0
  0
SPLINE
  5
2DD
330
1F
100
AcDbEntity
  8
PREDETERMINADA
100
AcDbSpline
210
0.0
220
0.0
230
1.0
 70
    24
 71
     2
 72
     6
 73
     3
 74
     0
 42
0.0000000001
 43
0.0000000001
 40
55.92545619381037
 40
55.92545619381037
 40
55.92545619381037
 40
142.9254912536503
 40
142.9254912536503
 40
142.9254912536503
 10
359.1002514603883
 20
249.5689857333982
 30
0.0
 10
359.1002514603884
 20
293.0690032633182
 30
0.0
 10
359.1002514603884
 20
336.5690207932382
 30
0.0
  0
SPLINE
  5
2DE
330
1F
100
AcDbEntity
  8
PREDETERMINADA
100
AcDbSpline
210
0.0
220
0.0
230
1.0
 70
    24
 71
     2
 72
     6
 73
     3
 74
     0
 42
0.0000000001
 43
0.0000000001
 40
55.9075009883436
 40
55.9075009883436
 40
55.9075009883436
 40
142.9075360481837
 40
142.9075360481837
 40
142.9075360481837
 10
339.1002514603882
 20
249.5510305279313
 30
0.0
 10
339.1002514603883
 20
293.0510480578513
 30
0.0
 10
339.1002514603883
 20
336.5510655877713
 30
0.0
  0
POLYLINE
  5
2DF
330
1F
100
AcDbEntity
  8
PREDETERMINADA
100
AcDb2dPolyline
 66
     1
 10
0.0
 20
0.0
 30
0.0
  0
VERTEX
  5
2E1
330
2DF
100
AcDbEntity
  8
PREDETERMINADA
100
AcDbVertex
100
AcDb2dVertex
 10
359.1002514603882
 20
249.5689857333982
 30
0.0
  0
VERTEX
  5
2E2
330
2DF
100
AcDbEntity
  8
PREDETERMINADA
100
AcDbVertex
100
AcDb2dVertex
 10
359.1002514603882
 20
336.5690207932382
 30
0.0
  0
SEQEND
  5
2E0
330
2DF
100
AcDbEntity
  8
PREDETERMINADA
  0
SPLINE
  5
2E3
330
1F
100
AcDbEntity
  8
PREDETERMINADA
100
AcDbSpline
210
0.0
220
0.0
230
1.0
 70
    24
 71
     2
 72
     6
 73
     3
 74
     0
 42
0.0000000001
 43
0.0000000001
 40
55.7459041391427
 40
55.7459041391427
 40
55.7459041391427
 40
142.7459391989831
 40
142.7459391989831
 40
142.7459391989831
 10
539.1723789751682
 20
423.7307174554976
 30
0.0
 10
539.1723789751683
 20
467.2307349854177
 30
0.0
 10
539.1723789751684
 20
510.7307525153378
 30
0.0
  0
SPLINE
  5
2E4
330
1F
100
AcDbEntity
  8
PREDETERMINADA
100
AcDbSpline
210
0.0
220
0.0
230
1.0
 70
    24
 71
     2
 72
     6
 73
     3
 74
     0
 42
0.0000000001
 43
0.0000000001
 40
55.76385934460946
 40
55.76385934460946
 40
55.76385934460946
 40
142.7638944044499
 40
142.7638944044499
 40
142.7638944044499
 10
559.1723789751682
 20
423.7486726609643
 30
0.0
 10
559.1723789751682
 20
467.2486901908845
 30
0.0
 10
559.1723789751683
 20
510.7487077208048
 30
0.0
  0
SPLINE
  5
2E5
330
1F
100
AcDbEntity
  8
PREDETERMINADA
100
AcDbSpline
210
0.0
220
0.0
230
1.0
 70
    24
 71
     2
 72
     6
 73
     3
 74
     0
 42
0.0000000001
 43
0.0000000001
 40
56.0152322211442
 40
56.0152322211442
 40
56.0152322211442
 40
143.0152672809839
 40
143.0152672809839
 40
143.0152672809839
 10
839.1723789751684
 20
424.0000455374991
 30
0.0
 10
839.1723789751684
 20
467.500063067419
 30
0.0
 10
839.1723789751684
 20
511.0000805973389
 30
0.0
  0
SPLINE
  5
2E6
330
1F
100
AcDbEntity
  8
PREDETERMINADA
100
AcDbSpline
210
0.0
220
0.0
230
1.0
 70
    24
 71
     2
 72
     6
 73
     3
 74
     0
 42
0.0000000001
 43
0.0000000001
 40
55.94341139927714
 40
55.94341139927714
 40
55.94341139927714
 40
142.9434464591171
 40
142.9434464591171
 40
142.9434464591171
 10
759.1723789751684
 20
423.928224715632
 30
0.0
 10
759.1723789751684
 20
467.4282422455519
 30
0.0
 10
759.1723789751684
 20
510.9282597754718
 30
0.0
  0
POLYLINE
  5
2E7
330
1F
100
AcDbEntity
  8
PREDETERMINADA
100
AcDb2dPolyline
 66
     1
 10
0.0
 20
0.0
 30
0.0
  0
VERTEX
  5
2E9
330
2E7
100
AcDbEntity
  8
PREDETERMINADA
100
AcDbVertex
100
AcDb2dVertex
 10
819.1216555401656
 20
336.9820097347069
 30
0.0
  0
VERTEX
  5
2EA
330
2E7
100
AcDbEntity
  8
PREDETERMINADA
100
AcDbVertex
100
AcDb2dVertex
 10
819.1216555401656
 20
423.9820447945467
 30
0.0
  0
SEQEND
  5
2E8
330
2E7
100
AcDbEntity
  8
PREDETERMINADA
  0
SPLINE
  5
2EB
330
1F
100
AcDbEntity
  8
PREDETERMINADA
100
AcDbSpline
210
0.0
220
0.0
230
1.0
 70
    24
 71
     2
 72
     6
 73
     3
 74
     0
 42
0.0000000001
 43
0.0000000001
 40
55.97932181021066
 40
55.97932181021066
 40
55.97932181021066
 40
142.9793568700505
 40
142.9793568700505
 40
142.9793568700505
 10
799.1216555401656
 20
336.96405452924
 30
0.0
 10
799.1216555401656
 20
380.4640720591599
 30
0.0
 10
799.1216555401656
 20
423.9640895890798
 30
0.0
  0
POLYLINE
  5
2EC
330
1F
100
AcDbEntity
  8
PREDETERMINADA
100
AcDb2dPolyline
 66
     1
 10
0.0
 20
0.0
 30
0.0
  0
VERTEX
  5
2EE
330
2EC
100
AcDbEntity
  8
PREDETERMINADA
100
AcDbVertex
100
AcDb2dVertex
 10
739.1997606524707
 20
249.9102239726662
 30
0.0
  0
VERTEX
  5
2EF
330
2EC
100
AcDbEntity
  8
PREDETERMINADA
100
AcDbVertex
100
AcDb2dVertex
 10
739.1997606524707
 20
336.9102590325062
 30
0.0
  0
SEQEND
  5
2ED
330
2EC
100
AcDbEntity
  8
PREDETERMINADA
  0
SPLINE
  5
2F0
330
1F
100
AcDbEntity
  8
PREDETERMINADA
100
AcDbSpline
210
0.0
220
0.0
230
1.0
 70
    24
 71
     2
 72
     6
 73
     3
 74
     0
 42
0.0000000001
 43
0.0000000001
 40
55.9075009883436
 40
55.9075009883436
 40
55.9075009883436
 40
142.9075360481837
 40
142.9075360481837
 40
142.9075360481837
 10
719.1997606524707
 20
249.8922687671993
 30
0.0
 10
719.1997606524708
 20
293.3922862971193
 30
0.0
 10
719.1997606524708
 20
336.8923038270393
 30
0.0
  0
SPLINE
  5
2F1
330
1F
100
AcDbEntity
  8
PREDETERMINADA
100
AcDbSpline
210
0.0
220
0.0
230
1.0
 70
    24
 71
     2
 72
     6
 73
     3
 74
     0
 42
0.0000000001
 43
0.0000000001
 40
55.92545619381037
 40
55.92545619381037
 40
55.92545619381037
 40
142.9254912536503
 40
142.9254912536503
 40
142.9254912536503
 10
739.1997606524708
 20
249.9102239726662
 30
0.0
 10
739.1997606524708
 20
293.4102415025862
 30
0.0
 10
739.1997606524709
 20
336.9102590325062
 30
0.0
  0
SPLINE
  5
2F2
330
1F
100
AcDbEntity
  8
PREDETERMINADA
100
AcDbSpline
210
0.0
220
0.0
230
1.0
 70
    24
 71
     2
 72
     6
 73
     3
 74
     0
 42
0.0000000001
 43
0.0000000001
 40
55.87159057741006
 40
55.87159057741006
 40
55.87159057741006
 40
142.8716256372501
 40
142.8716256372501
 40
142.8716256372501
 10
679.1216555401654
 20
336.8563232964395
 30
0.0
 10
679.1216555401655
 20
380.3563408263595
 30
0.0
 10
679.1216555401656
 20
423.8563583562795
 30
0.0
  0
SPLINE
  5
2F3
330
1F
100
AcDbEntity
  8
PREDETERMINADA
100
AcDbSpline
210
0.0
220
0.0
230
1.0
 70
    24
 71
     2
 72
     6
 73
     3
 74
     0
 42
0.0000000001
 43
0.0000000001
 40
55.88954578287684
 40
55.88954578287684
 40
55.88954578287684
 40
142.8895808427169
 40
142.8895808427169
 40
142.8895808427169
 10
699.1216555401654
 20
336.8742785019062
 30
0.0
 10
699.1216555401654
 20
380.3742960318264
 30
0.0
 10
699.1216555401654
 20
423.8743135617465
 30
0.0
  0
POLYLINE
  5
2F4
330
1F
100
AcDbEntity
  8
PREDETERMINADA
100
AcDb2dPolyline
 66
     1
 10
0.0
 20
0.0
 30
0.0
  0
VERTEX
  5
2F6
330
2F4
100
AcDbEntity
  8
PREDETERMINADA
100
AcDbVertex
100
AcDb2dVertex
 10
579.1723789751682
 20
423.7666278664312
 30
0.0
  0
VERTEX
  5
2F7
330
2F4
100
AcDbEntity
  8
PREDETERMINADA
100
AcDbVertex
100
AcDb2dVertex
 10
579.1723789751684
 20
510.7666629262715
 30
0.0
  0
SEQEND
  5
2F5
330
2F4
100
AcDbEntity
  8
PREDETERMINADA
  0
SPLINE
  5
2F8
330
1F
100
AcDbEntity
  8
PREDETERMINADA
100
AcDbSpline
210
0.0
220
0.0
230
1.0
 70
    24
 71
     2
 72
     6
 73
     3
 74
     0
 42
0.0000000001
 43
0.0000000001
 40
55.97932181021066
 40
55.97932181021066
 40
55.97932181021066
 40
142.9793568700505
 40
142.9793568700505
 40
142.9793568700505
 10
419.0221463480833
 20
336.622816289972
 30
0.0
 10
419.0221463480833
 20
380.1228338198919
 30
0.0
 10
419.0221463480833
 20
423.6228513498118
 30
0.0
  0
SPLINE
  5
2F9
330
1F
100
AcDbEntity
  8
PREDETERMINADA
100
AcDbSpline
210
0.0
220
0.0
230
1.0
 70
    24
 71
     2
 72
     6
 73
     3
 74
     0
 42
0.0000000001
 43
0.0000000001
 40
55.96136660474391
 40
55.96136660474391
 40
55.96136660474391
 40
142.9614016645838
 40
142.9614016645838
 40
142.9614016645838
 10
399.0221463480833
 20
336.6048610845053
 30
0.0
 10
399.0221463480833
 20
380.1048786144253
 30
0.0
 10
399.0221463480833
 20
423.6048961443453
 30
0.0
  0
POLYLINE
  5
2FA
330
1F
100
AcDbEntity
  8
PREDETERMINADA
100
AcDb2dPolyline
 66
     1
 10
0.0
 20
0.0
 30
0.0
  0
VERTEX
  5
2FC
330
2FA
100
AcDbEntity
  8
PREDETERMINADA
100
AcDbVertex
100
AcDb2dVertex
 10
279.022146348083
 20
336.4971298517046
 30
0.0
  0
VERTEX
  5
2FD
330
2FA
100
AcDbEntity
  8
PREDETERMINADA
100
AcDbVertex
100
AcDb2dVertex
 10
279.0221463480831
 20
423.497164911545
 30
0.0
  0
SEQEND
  5
2FB
330
2FA
100
AcDbEntity
  8
PREDETERMINADA
  0
SPLINE
  5
2FE
330
1F
100
AcDbEntity
  8
PREDETERMINADA
100
AcDbSpline
210
0.0
220
0.0
230
1.0
 70
    24
 71
     2
 72
     6
 73
     3
 74
     0
 42
0.0000000001
 43
0.0000000001
 40
55.83568016647654
 40
55.83568016647654
 40
55.83568016647654
 40
142.8357152263168
 40
142.8357152263168
 40
142.8357152263168
 10
259.0221463480831
 20
336.4791746462379
 30
0.0
 10
259.0221463480831
 20
379.979192176158
 30
0.0
 10
259.0221463480831
 20
423.4792097060781
 30
0.0
  0
SPLINE
  5
2FF
330
1F
100
AcDbEntity
  8
PREDETERMINADA
100
AcDbSpline
210
0.0
220
0.0
230
1.0
 70
    24
 71
     2
 72
     6
 73
     3
 74
     0
 42
0.0000000001
 43
0.0000000001
 40
55.94341139927714
 40
55.94341139927714
 40
55.94341139927714
 40
142.9434464591171
 40
142.9434464591171
 40
142.9434464591171
 10
379.072869783086
 20
423.586986476364
 30
0.0
 10
379.072869783086
 20
467.0870040062839
 30
0.0
 10
379.072869783086
 20
510.5870215362038
 30
0.0
  0
SPLINE
  5
300
330
1F
100
AcDbEntity
  8
PREDETERMINADA
100
AcDbSpline
210
0.0
220
0.0
230
1.0
 70
    24
 71
     2
 72
     6
 73
     3
 74
     0
 42
0.0000000001
 43
0.0000000001
 40
56.0152322211442
 40
56.0152322211442
 40
56.0152322211442
 40
143.0152672809839
 40
143.0152672809839
 40
143.0152672809839
 10
459.0728697830859
 20
423.6588072982311
 30
0.0
 10
459.0728697830859
 20
467.158824828151
 30
0.0
 10
459.072869783086
 20
510.6588423580708
 30
0.0
  0
POLYLINE
  5
301
330
1F
100
AcDbEntity
  8
PREDETERMINADA
100
AcDb2dPolyline
 66
     1
 10
0.0
 20
0.0
 30
0.0
  0
VERTEX
  5
303
330
301
100
AcDbEntity
  8
PREDETERMINADA
100
AcDbVertex
100
AcDb2dVertex
 10
279.0728697830858
 20
423.49721044903
 30
0.0
  0
VERTEX
  5
304
330
301
100
AcDbEntity
  8
PREDETERMINADA
100
AcDbVertex
100
AcDb2dVertex
 10
279.0728697830859
 20
510.4972455088705
 30
0.0
  0
SEQEND
  5
302
330
301
100
AcDbEntity
  8
PREDETERMINADA
  0
SPLINE
  5
305
330
1F
100
AcDbEntity
  8
PREDETERMINADA
100
AcDbSpline
210
0.0
220
0.0
230
1.0
 70
    24
 71
     2
 72
     6
 73
     3
 74
     0
 42
0.0000000001
 43
0.0000000001
 40
55.83568016647654
 40
55.83568016647654
 40
55.83568016647654
 40
142.8357152263168
 40
142.8357152263168
 40
142.8357152263168
 10
259.0728697830858
 20
423.4792552435633
 30
0.0
 10
259.0728697830858
 20
466.9792727734834
 30
0.0
 10
259.0728697830859
 20
510.4792903034036
 30
0.0
  0
POLYLINE
  5
306
330
1F
100
AcDbEntity
  8
PREDETERMINADA
100
AcDb2dPolyline
 66
     1
 10
0.0
 20
0.0
 30
0.0
  0
VERTEX
  5
308
330
306
100
AcDbEntity
  8
PREDETERMINADA
100
AcDbVertex
100
AcDb2dVertex
 10
439.072869783086
 20
423.6408520927644
 30
0.0
  0
VERTEX
  5
309
330
306
100
AcDbEntity
  8
PREDETERMINADA
100
AcDbVertex
100
AcDb2dVertex
 10
439.072869783086
 20
510.6408871526041
 30
0.0
  0
SEQEND
  5
307
330
306
100
AcDbEntity
  8
PREDETERMINADA
  0
POLYLINE
  5
30A
330
1F
100
AcDbEntity
  8
PREDETERMINADA
100
AcDb2dPolyline
 66
     1
 10
0.0
 20
0.0
 30
0.0
  0
VERTEX
  5
30C
330
30A
100
AcDbEntity
  8
PREDETERMINADA
100
AcDbVertex
100
AcDb2dVertex
 10
359.0728697830858
 20
423.5690312708973
 30
0.0
  0
VERTEX
  5
30D
330
30A
100
AcDbEntity
  8
PREDETERMINADA
100
AcDbVertex
100
AcDb2dVertex
 10
359.0728697830858
 20
510.5690663307373
 30
0.0
  0
SEQEND
  5
30B
330
30A
100
AcDbEntity
  8
PREDETERMINADA
  0
SPLINE
  5
30E
330
1F
100
AcDbEntity
  8
PREDETERMINADA
100
AcDbSpline
210
0.0
220
0.0
230
1.0
 70
    24
 71
     2
 72
     6
 73
     3
 74
     0
 42
0.0000000001
 43
0.0000000001
 40
55.9075009883436
 40
55.9075009883436
 40
55.9075009883436
 40
142.9075360481837
 40
142.9075360481837
 40
142.9075360481837
 10
339.0728697830858
 20
423.5510760654304
 30
0.0
 10
339.0728697830858
 20
467.0510935953504
 30
0.0
 10
339.0728697830859
 20
510.5511111252704
 30
0.0
  0
SPLINE
  5
30F
330
1F
100
AcDbEntity
  8
PREDETERMINADA
100
AcDbSpline
210
0.0
220
0.0
230
1.0
 70
    24
 71
     2
 72
     6
 73
     3
 74
     0
 42
0.0000000001
 43
0.0000000001
 40
55.92545619381037
 40
55.92545619381037
 40
55.92545619381037
 40
142.9254912536503
 40
142.9254912536503
 40
142.9254912536503
 10
359.0728697830859
 20
423.5690312708973
 30
0.0
 10
359.0728697830859
 20
467.0690488008173
 30
0.0
 10
359.072869783086
 20
510.5690663307373
 30
0.0
  0
SPLINE
  5
310
330
1F
100
AcDbEntity
  8
PREDETERMINADA
100
AcDbSpline
210
0.0
220
0.0
230
1.0
 70
    24
 71
     2
 72
     6
 73
     3
 74
     0
 42
0.0000000001
 43
0.0000000001
 40
55.87159057741006
 40
55.87159057741006
 40
55.87159057741006
 40
142.8716256372501
 40
142.8716256372501
 40
142.8716256372501
 10
299.022146348083
 20
336.5150850571715
 30
0.0
 10
299.0221463480831
 20
380.0151025870915
 30
0.0
 10
299.0221463480831
 20
423.5151201170115
 30
0.0
  0
SPLINE
  5
311
330
1F
100
AcDbEntity
  8
PREDETERMINADA
100
AcDbSpline
210
0.0
220
0.0
230
1.0
 70
    24
 71
     2
 72
     6
 73
     3
 74
     0
 42
0.0000000001
 43
0.0000000001
 40
55.92545619381037
 40
55.92545619381037
 40
55.92545619381037
 40
142.9254912536503
 40
142.9254912536503
 40
142.9254912536503
 10
739.1723789751684
 20
423.9102695101653
 30
0.0
 10
739.1723789751684
 20
467.4102870400853
 30
0.0
 10
739.1723789751684
 20
510.9103045700053
 30
0.0
  0
SPLINE
  5
312
330
1F
100
AcDbEntity
  8
PREDETERMINADA
100
AcDbSpline
210
0.0
220
0.0
230
1.0
 70
    24
 71
     2
 72
     6
 73
     3
 74
     0
 42
0.0000000001
 43
0.0000000001
 40
55.9075009883436
 40
55.9075009883436
 40
55.9075009883436
 40
142.9075360481837
 40
142.9075360481837
 40
142.9075360481837
 10
719.1723789751682
 20
423.8923143046984
 30
0.0
 10
719.1723789751683
 20
467.3923318346184
 30
0.0
 10
719.1723789751684
 20
510.8923493645384
 30
0.0
  0
POLYLINE
  5
313
330
1F
100
AcDbEntity
  8
PREDETERMINADA
100
AcDb2dPolyline
 66
     1
 10
0.0
 20
0.0
 30
0.0
  0
VERTEX
  5
315
330
313
100
AcDbEntity
  8
PREDETERMINADA
100
AcDbVertex
100
AcDb2dVertex
 10
739.1723789751682
 20
423.9102695101653
 30
0.0
  0
VERTEX
  5
316
330
313
100
AcDbEntity
  8
PREDETERMINADA
100
AcDbVertex
100
AcDb2dVertex
 10
739.1723789751682
 20
510.9103045700053
 30
0.0
  0
SEQEND
  5
314
330
313
100
AcDbEntity
  8
PREDETERMINADA
  0
POLYLINE
  5
317
330
1F
100
AcDbEntity
  8
PREDETERMINADA
100
AcDb2dPolyline
 66
     1
 10
0.0
 20
0.0
 30
0.0
  0
VERTEX
  5
319
330
317
100
AcDbEntity
  8
PREDETERMINADA
100
AcDbVertex
100
AcDb2dVertex
 10
819.1723789751684
 20
423.9820903320324
 30
0.0
  0
VERTEX
  5
31A
330
317
100
AcDbEntity
  8
PREDETERMINADA
100
AcDbVertex
100
AcDb2dVertex
 10
819.1723789751684
 20
510.9821253918722
 30
0.0
  0
SEQEND
  5
318
330
317
100
AcDbEntity
  8
PREDETERMINADA
  0
SPLINE
  5
31B
330
1F
100
AcDbEntity
  8
PREDETERMINADA
100
AcDbSpline
210
0.0
220
0.0
230
1.0
 70
    24
 71
     2
 72
     6
 73
     3
 74
     0
 42
0.0000000001
 43
0.0000000001
 40
55.88954578287684
 40
55.88954578287684
 40
55.88954578287684
 40
142.8895808427169
 40
142.8895808427169
 40
142.8895808427169
 10
699.1723789751682
 20
423.8743590992317
 30
0.0
 10
699.1723789751682
 20
467.3743766291518
 30
0.0
 10
699.1723789751682
 20
510.8743941590719
 30
0.0
  0
POLYLINE
  5
31C
330
1F
100
AcDbEntity
  8
PREDETERMINADA
100
AcDb2dPolyline
 66
     1
 10
0.0
 20
0.0
 30
0.0
  0
VERTEX
  5
31E
330
31C
100
AcDbEntity
  8
PREDETERMINADA
100
AcDbVertex
100
AcDb2dVertex
 10
499.1723789751683
 20
423.6948070445642
 30
0.0
  0
VERTEX
  5
31F
330
31C
100
AcDbEntity
  8
PREDETERMINADA
100
AcDbVertex
100
AcDb2dVertex
 10
499.1723789751684
 20
510.6948421044046
 30
0.0
  0
SEQEND
  5
31D
330
31C
100
AcDbEntity
  8
PREDETERMINADA
  0
SPLINE
  5
320
330
1F
100
AcDbEntity
  8
PREDETERMINADA
100
AcDbSpline
210
0.0
220
0.0
230
1.0
 70
    24
 71
     2
 72
     6
 73
     3
 74
     0
 42
0.0000000001
 43
0.0000000001
 40
55.69203852274239
 40
55.69203852274239
 40
55.69203852274239
 40
142.692073582583
 40
142.692073582583
 40
142.692073582583
 10
479.1723789751683
 20
423.6768518390973
 30
0.0
 10
479.1723789751683
 20
467.1768693690176
 30
0.0
 10
479.1723789751683
 20
510.6768868989379
 30
0.0
  0
SPLINE
  5
321
330
1F
100
AcDbEntity
  8
PREDETERMINADA
100
AcDbSpline
210
0.0
220
0.0
230
1.0
 70
    24
 71
     2
 72
     6
 73
     3
 74
     0
 42
0.0000000001
 43
0.0000000001
 40
55.83568016647654
 40
55.83568016647654
 40
55.83568016647654
 40
142.8357152263168
 40
142.8357152263168
 40
142.8357152263168
 10
639.1723789751683
 20
423.8204934828314
 30
0.0
 10
639.1723789751684
 20
467.3205110127515
 30
0.0
 10
639.1723789751684
 20
510.8205285426716
 30
0.0
  0
SPLINE
  5
322
330
1F
100
AcDbEntity
  8
PREDETERMINADA
100
AcDbSpline
210
0.0
220
0.0
230
1.0
 70
    24
 71
     2
 72
     6
 73
     3
 74
     0
 42
0.0000000001
 43
0.0000000001
 40
55.97932181021066
 40
55.97932181021066
 40
55.97932181021066
 40
142.9793568700505
 40
142.9793568700505
 40
142.9793568700505
 10
799.1723789751684
 20
423.9641351265655
 30
0.0
 10
799.1723789751684
 20
467.4641526564853
 30
0.0
 10
799.1723789751684
 20
510.9641701864052
 30
0.0
  0
SPLINE
  5
323
330
1F
100
AcDbEntity
  8
PREDETERMINADA
100
AcDbSpline
210
0.0
220
0.0
230
1.0
 70
    24
 71
     2
 72
     6
 73
     3
 74
     0
 42
0.0000000001
 43
0.0000000001
 40
55.799769755543
 40
55.799769755543
 40
55.799769755543
 40
142.7998048153833
 40
142.7998048153833
 40
142.7998048153833
 10
599.1723789751683
 20
423.7845830718979
 30
0.0
 10
599.1723789751684
 20
467.2846006018181
 30
0.0
 10
599.1723789751684
 20
510.7846181317382
 30
0.0
  0
SPLINE
  5
324
330
1F
100
AcDbEntity
  8
PREDETERMINADA
100
AcDbSpline
210
0.0
220
0.0
230
1.0
 70
    24
 71
     2
 72
     6
 73
     3
 74
     0
 42
0.0000000001
 43
0.0000000001
 40
55.81772496100977
 40
55.81772496100977
 40
55.81772496100977
 40
142.81776002085
 40
142.81776002085
 40
142.81776002085
 10
619.1723789751683
 20
423.8025382773646
 30
0.0
 10
619.1723789751684
 20
467.3025558072848
 30
0.0
 10
619.1723789751684
 20
510.8025733372049
 30
0.0
  0
SPLINE
  5
325
330
1F
100
AcDbEntity
  8
PREDETERMINADA
100
AcDbSpline
210
0.0
220
0.0
230
1.0
 70
    24
 71
     2
 72
     6
 73
     3
 74
     0
 42
0.0000000001
 43
0.0000000001
 40
55.72794893367593
 40
55.72794893367593
 40
55.72794893367593
 40
142.7279839935164
 40
142.7279839935164
 40
142.7279839935164
 10
519.1723789751683
 20
423.7127622500309
 30
0.0
 10
519.1723789751684
 20
467.2127797799511
 30
0.0
 10
519.1723789751684
 20
510.7127973098713
 30
0.0
  0
ARC
  5
326
330
1F
100
AcDbEntity
  8
PREDETERMINADA
100
AcDbCircle
 10
350.1128543431524
 20
350.0
 30
0.0
 40
100.0
100
AcDbArc
 50
180.0249105517069
 51
270.0
  0
POLYLINE
  5
327
330
1F
100
AcDbEntity
  8
PREDETERMINADA
100
AcDb2dPolyline
 66
     1
 10
0.0
 20
0.0
 30
0.0
  0
VERTEX
  5
329
330
327
100
AcDbEntity
  8
PREDETERMINADA
100
AcDbVertex
100
AcDb2dVertex
 10
288.6151532115852
 20
271.1454962888458
 30
0.0
  0
VERTEX
  5
32A
330
327
100
AcDbEntity
  8
PREDETERMINADA
100
AcDbVertex
100
AcDb2dVertex
 10
459.1002514603883
 20
271.2055258954197
 30
0.0
  0
SEQEND
  5
328
330
327
100
AcDbEntity
  8
PREDETERMINADA
  0
SPLINE
  5
32B
330
1F
100
AcDbEntity
  8
PREDETERMINADA
100
AcDbSpline
210
0.0
220
0.0
230
1.0
 70
    24
 71
     2
 72
     6
 73
     3
 74
     0
 42
0.0000000001
 43
0.0000000001
 40
114.9233180760682
 40
114.9233180760682
 40
114.9233180760682
 40
142.8357152263168
 40
142.8357152263168
 40
142.8357152263168
 10
259.1002514603883
 20
308.5668476156559
 30
0.0
 10
259.1002514603883
 20
322.5230461907802
 30
0.0
 10
259.1002514603883
 20
336.4792447659045
 30
0.0
  0
POLYLINE
  5
32C
330
1F
100
AcDbEntity
  8
PREDETERMINADA
100
AcDb2dPolyline
 66
     1
 10
0.0
 20
0.0
 30
0.0
  0
VERTEX
  5
32E
330
32C
100
AcDbEntity
  8
PREDETERMINADA
100
AcDbVertex
100
AcDb2dVertex
 10
250.0525717078715
 20
488.6319693957454
 30
0.0
  0
VERTEX
  5
32F
330
32C
100
AcDbEntity
  8
PREDETERMINADA
100
AcDbVertex
100
AcDb2dVertex
 10
293.8599511086743
 20
488.6473944374498
 30
0.0
  0
SEQEND
  5
32D
330
32C
100
AcDbEntity
  8
PREDETERMINADA
  0
SPLINE
  5
330
330
1F
100
AcDbEntity
  8
PREDETERMINADA
100
AcDbSpline
210
0.0
220
0.0
230
1.0
 70
    24
 71
     2
 72
     6
 73
     3
 74
     0
 42
0.0000000001
 43
0.0000000001
 40
270.9916953881141
 40
270.9916953881141
 40
270.9916953881141
 40
317.1291947206823
 40
317.1291947206823
 40
317.1291947206823
 10
250.0619891933151
 20
466.9711831628624
 30
0.0
 10
273.1307295632053
 20
466.9918933615224
 30
0.0
 10
296.1994699330955
 20
467.0126035601825
 30
0.0
  0
POLYLINE
  5
331
330
1F
100
AcDbEntity
  8
PREDETERMINADA
100
AcDb2dPolyline
 66
     1
 10
0.0
 20
0.0
 30
0.0
  0
VERTEX
  5
333
330
331
100
AcDbEntity
  8
PREDETERMINADA
100
AcDbVertex
100
AcDb2dVertex
 10
250.0714842493686
 20
445.1319798341465
 30
0.0
  0
VERTEX
  5
334
330
331
100
AcDbEntity
  8
PREDETERMINADA
100
AcDbVertex
100
AcDb2dVertex
 10
300.9654674387143
 20
445.1499001440106
 30
0.0
  0
SEQEND
  5
332
330
331
100
AcDbEntity
  8
PREDETERMINADA
  0
SPLINE
  5
335
330
1F
100
AcDbEntity
  8
PREDETERMINADA
100
AcDbSpline
210
0.0
220
0.0
230
1.0
 70
    24
 71
     2
 72
     6
 73
     3
 74
     0
 42
0.0000000001
 43
0.0000000001
 40
55.88954578287684
 40
55.88954578287684
 40
55.88954578287684
 40
119.9984862270901
 40
119.9984862270901
 40
119.9984862270901
 10
319.022146348083
 20
336.5330402626382
 30
0.0
 10
319.022146348083
 20
368.5875104847449
 30
0.0
 10
319.022146348083
 20
400.6419807068516
 30
0.0
  0
SPLINE
  5
336
330
1F
100
AcDbEntity
  8
PREDETERMINADA
100
AcDbSpline
210
0.0
220
0.0
230
1.0
 70
    24
 71
     2
 72
     6
 73
     3
 74
     0
 42
0.0000000001
 43
0.0000000001
 40
271.1003839693445
 40
271.1003839693445
 40
271.1003839693445
 40
329.2506374451822
 40
329.2506374451822
 40
329.2506374451822
 10
250.08090173959
 20
423.4711826118745
 30
0.0
 10
279.1560167606262
 20
423.497285095083
 30
0.0
 10
308.2311317816625
 20
423.5233875782916
 30
0.0
  0
SPLINE
  5
337
330
1F
100
AcDbEntity
  8
PREDETERMINADA
100
AcDbSpline
210
0.0
220
0.0
230
1.0
 70
    24
 71
     2
 72
     6
 73
     3
 74
     0
 42
0.0000000001
 43
0.0000000001
 40
63.87009127877815
 40
63.87009127877815
 40
63.87009127877815
 40
142.8895808427169
 40
142.8895808427169
 40
142.8895808427169
 10
319.0728697830858
 20
431.513666355865
 30
0.0
 10
319.0728697830858
 20
471.0234111378344
 30
0.0
 10
319.0728697830858
 20
510.5331559198039
 30
0.0
  0
POLYLINE
  5
338
330
1F
100
AcDbEntity
  8
PREDETERMINADA
100
AcDb2dPolyline
 66
     1
 10
0.0
 20
0.0
 30
0.0
  0
VERTEX
  5
33A
330
338
100
AcDbEntity
  8
PREDETERMINADA
100
AcDbVertex
100
AcDb2dVertex
 10
250.0903968214281
 20
401.6319199773006
 30
0.0
  0
VERTEX
  5
33B
330
338
100
AcDbEntity
  8
PREDETERMINADA
100
AcDbVertex
100
AcDb2dVertex
 10
318.4692756759193
 20
401.6559969038928
 30
0.0
  0
SEQEND
  5
339
330
338
100
AcDbEntity
  8
PREDETERMINADA
  0
POLYLINE
  5
33C
330
1F
100
AcDbEntity
  8
PREDETERMINADA
100
AcDb2dPolyline
 66
     1
 10
0.0
 20
0.0
 30
0.0
  0
VERTEX
  5
33E
330
33C
100
AcDbEntity
  8
PREDETERMINADA
100
AcDbVertex
100
AcDb2dVertex
 10
333.3990974766645
 20
401.6612538520843
 30
0.0
  0
VERTEX
  5
33F
330
33C
100
AcDbEntity
  8
PREDETERMINADA
100
AcDbVertex
100
AcDb2dVertex
 10
459.0221463480831
 20
401.7054870564982
 30
0.0
  0
SEQEND
  5
33D
330
33C
100
AcDbEntity
  8
PREDETERMINADA
  0
SPLINE
  5
340
330
1F
100
AcDbEntity
  8
PREDETERMINADA
100
AcDbSpline
210
0.0
220
0.0
230
1.0
 70
    24
 71
     2
 72
     6
 73
     3
 74
     0
 42
0.0000000001
 43
0.0000000001
 40
271.0802439513506
 40
271.0802439513506
 40
271.0802439513506
 40
352.9419179397563
 40
352.9419179397563
 40
352.9419179397563
 10
250.099814285865
 20
379.9711820608873
 30
0.0
 10
291.0306347854944
 20
380.007928125487
 30
0.0
 10
331.9614552851239
 20
380.0446741900867
 30
0.0
  0
SPLINE
  5
341
330
1F
100
AcDbEntity
  8
PREDETERMINADA
100
AcDbSpline
210
0.0
220
0.0
230
1.0
 70
    24
 71
     2
 72
     6
 73
     3
 74
     0
 42
0.0000000001
 43
0.0000000001
 40
369.1845578995919
 40
369.1845578995919
 40
369.1845578995919
 40
480.0026602064751
 40
480.0026602064751
 40
480.0026602064751
 10
348.2040886993955
 20
380.0592561811004
 30
0.0
 10
403.6131175237393
 20
380.1090002059632
 30
0.0
 10
459.0221463480831
 20
380.158744230826
 30
0.0
  0
SPLINE
  5
342
330
1F
100
AcDbEntity
  8
PREDETERMINADA
100
AcDbSpline
210
0.0
220
0.0
230
1.0
 70
    24
 71
     2
 72
     6
 73
     3
 74
     0
 42
0.0000000001
 43
0.0000000001
 40
55.9075009883436
 40
55.9075009883436
 40
55.9075009883436
 40
90.07759673114447
 40
90.07759673114447
 40
90.07759673114447
 10
339.022146348083
 20
336.5509954681049
 30
0.0
 10
339.0221463480831
 20
353.6360433395054
 30
0.0
 10
339.0221463480831
 20
370.7210912109058
 30
0.0
  0
SPLINE
  5
343
330
1F
100
AcDbEntity
  8
PREDETERMINADA
100
AcDbSpline
210
0.0
220
0.0
230
1.0
 70
    24
 71
     2
 72
     6
 73
     3
 74
     0
 42
0.0000000001
 43
0.0000000001
 40
112.0576879233107
 40
112.0576879233107
 40
112.0576879233107
 40
142.9075360481837
 40
142.9075360481837
 40
142.9075360481837
 10
339.0221463480831
 20
392.701182403072
 30
0.0
 10
339.0221463480831
 20
408.1261064655084
 30
0.0
 10
339.0221463480831
 20
423.5510305279449
 30
0.0
  0
POLYLINE
  5
344
330
1F
100
AcDbEntity
  8
PREDETERMINADA
100
AcDb2dPolyline
 66
     1
 10
0.0
 20
0.0
 30
0.0
  0
VERTEX
  5
346
330
344
100
AcDbEntity
  8
PREDETERMINADA
100
AcDbVertex
100
AcDb2dVertex
 10
250.1093093629252
 20
358.1319304157017
 30
0.0
  0
VERTEX
  5
347
330
344
100
AcDbEntity
  8
PREDETERMINADA
100
AcDbVertex
100
AcDb2dVertex
 10
349.9620921198784
 20
358.1670896368053
 30
0.0
  0
SEQEND
  5
345
330
344
100
AcDbEntity
  8
PREDETERMINADA
  0
POLYLINE
  5
348
330
1F
100
AcDbEntity
  8
PREDETERMINADA
100
AcDb2dPolyline
 66
     1
 10
0.0
 20
0.0
 30
0.0
  0
VERTEX
  5
34A
330
348
100
AcDbEntity
  8
PREDETERMINADA
100
AcDbVertex
100
AcDb2dVertex
 10
368.4136205181609
 20
358.1735866151442
 30
0.0
  0
VERTEX
  5
34B
330
348
100
AcDbEntity
  8
PREDETERMINADA
100
AcDbVertex
100
AcDb2dVertex
 10
459.0221463480831
 20
358.2054908355933
 30
0.0
  0
SEQEND
  5
349
330
348
100
AcDbEntity
  8
PREDETERMINADA
  0
POLYLINE
  5
34C
330
1F
100
AcDbEntity
  8
PREDETERMINADA
100
AcDb2dPolyline
 66
     1
 10
0.0
 20
0.0
 30
0.0
  0
VERTEX
  5
34E
330
34C
100
AcDbEntity
  8
PREDETERMINADA
100
AcDbVertex
100
AcDb2dVertex
 10
359.022146348083
 20
336.5689506735719
 30
0.0
  0
VERTEX
  5
34F
330
34C
100
AcDbEntity
  8
PREDETERMINADA
100
AcDbVertex
100
AcDb2dVertex
 10
359.022146348083
 20
349.1555220846979
 30
0.0
  0
SEQEND
  5
34D
330
34C
100
AcDbEntity
  8
PREDETERMINADA
  0
POLYLINE
  5
350
330
1F
100
AcDbEntity
  8
PREDETERMINADA
100
AcDb2dPolyline
 66
     1
 10
0.0
 20
0.0
 30
0.0
  0
VERTEX
  5
352
330
350
100
AcDbEntity
  8
PREDETERMINADA
100
AcDbVertex
100
AcDb2dVertex
 10
359.022146348083
 20
367.5082775508597
 30
0.0
  0
VERTEX
  5
353
330
350
100
AcDbEntity
  8
PREDETERMINADA
100
AcDbVertex
100
AcDb2dVertex
 10
359.022146348083
 20
423.5689857334119
 30
0.0
  0
SEQEND
  5
351
330
350
100
AcDbEntity
  8
PREDETERMINADA
  0
SPLINE
  5
354
330
1F
100
AcDbEntity
  8
PREDETERMINADA
100
AcDbSpline
210
0.0
220
0.0
230
1.0
 70
    24
 71
     2
 72
     6
 73
     3
 74
     0
 42
0.0000000001
 43
0.0000000001
 40
55.92545619381037
 40
55.92545619381037
 40
55.92545619381037
 40
68.5120276049362
 40
68.5120276049362
 40
68.5120276049362
 10
359.0221463480831
 20
336.5689506735719
 30
0.0
 10
359.0221463480831
 20
342.8622363791347
 30
0.0
 10
359.0221463480831
 20
349.1555220846977
 30
0.0
  0
SPLINE
  5
355
330
1F
100
AcDbEntity
  8
PREDETERMINADA
100
AcDbSpline
210
0.0
220
0.0
230
1.0
 70
    24
 71
     2
 72
     6
 73
     3
 74
     0
 42
0.0000000001
 43
0.0000000001
 40
86.86478307109819
 40
86.86478307109819
 40
86.86478307109819
 40
142.9254912536503
 40
142.9254912536503
 40
142.9254912536503
 10
359.0221463480832
 20
367.5082775508597
 30
0.0
 10
359.0221463480832
 20
395.5386316421358
 30
0.0
 10
359.0221463480833
 20
423.5689857334119
 30
0.0
  0
SPLINE
  5
356
330
1F
100
AcDbEntity
  8
PREDETERMINADA
100
AcDbSpline
210
0.0
220
0.0
230
1.0
 70
    24
 71
     2
 72
     6
 73
     3
 74
     0
 42
0.0000000001
 43
0.0000000001
 40
68.37612011411663
 40
68.37612011411663
 40
68.37612011411663
 40
142.9434464591171
 40
142.9434464591171
 40
142.9434464591171
 10
379.0221463480833
 20
349.019614593878
 30
0.0
 10
379.0221463480833
 20
386.3032777663782
 30
0.0
 10
379.0221463480833
 20
423.5869409388783
 30
0.0
  0
SPLINE
  5
357
330
1F
100
AcDbEntity
  8
PREDETERMINADA
100
AcDbSpline
210
0.0
220
0.0
230
1.0
 70
    24
 71
     2
 72
     6
 73
     3
 74
     0
 42
0.0000000001
 43
0.0000000001
 40
271.9734907125446
 40
271.9734907125446
 40
271.9734907125446
 40
394.7477226322671
 40
394.7477226322671
 40
394.7477226322671
 10
251.0321132432451
 20
336.4720015119334
 30
0.0
 10
312.4192044649294
 20
336.5271124037279
 30
0.0
 10
373.8062956866137
 20
336.5822232955224
 30
0.0
  0
SPLINE
  5
358
330
1F
100
AcDbEntity
  8
PREDETERMINADA
100
AcDbSpline
210
0.0
220
0.0
230
1.0
 70
    24
 71
     2
 72
     6
 73
     3
 74
     0
 42
0.0000000001
 43
0.0000000001
 40
417.3381924280049
 40
417.3381924280049
 40
417.3381924280049
 40
480.0417127783658
 40
480.0417127783658
 40
480.0417127783658
 10
396.3967563786978
 20
336.602504113688
 30
0.0
 10
427.7485039195432
 20
336.6306504671299
 30
0.0
 10
459.1002514603886
 20
336.6587968205718
 30
0.0
  0
SPLINE
  5
359
330
1F
100
AcDbEntity
  8
PREDETERMINADA
100
AcDbSpline
210
0.0
220
0.0
230
1.0
 70
    24
 71
     2
 72
     6
 73
     3
 74
     0
 42
0.0000000001
 43
0.0000000001
 40
55.94341139927714
 40
55.94341139927714
 40
55.94341139927714
 40
138.98270878157
 40
138.98270878157
 40
138.98270878157
 10
379.1002514603884
 20
249.5869409388649
 30
0.0
 10
379.1002514603884
 20
291.1065896300113
 30
0.0
 10
379.1002514603884
 20
332.6262383211576
 30
0.0
  0
SPLINE
  5
35A
330
1F
100
AcDbEntity
  8
PREDETERMINADA
100
AcDbSpline
210
0.0
220
0.0
230
1.0
 70
    24
 71
     2
 72
     6
 73
     3
 74
     0
 42
0.0000000001
 43
0.0000000001
 40
55.96136660474391
 40
55.96136660474391
 40
55.96136660474391
 40
126.2124387694491
 40
126.2124387694491
 40
126.2124387694491
 10
399.1002514603884
 20
249.6048961443316
 30
0.0
 10
399.1002514603884
 20
284.7304322266842
 30
0.0
 10
399.1002514603884
 20
319.8559683090369
 30
0.0
  0
SPLINE
  5
35B
330
1F
100
AcDbEntity
  8
PREDETERMINADA
100
AcDbSpline
210
0.0
220
0.0
230
1.0
 70
    24
 71
     2
 72
     6
 73
     3
 74
     0
 42
0.0000000001
 43
0.0000000001
 40
141.2750597750332
 40
141.2750597750332
 40
141.2750597750332
 40
142.9614016645838
 40
142.9614016645838
 40
142.9614016645838
 10
399.1002514603884
 20
334.918589314621
 30
0.0
 10
399.1002514603884
 20
335.7617602593963
 30
0.0
 10
399.1002514603884
 20
336.6049312041716
 30
0.0
  0
POLYLINE
  5
35C
330
1F
100
AcDbEntity
  8
PREDETERMINADA
100
AcDb2dPolyline
 66
     1
 10
0.0
 20
0.0
 30
0.0
  0
VERTEX
  5
35E
330
35C
100
AcDbEntity
  8
PREDETERMINADA
100
AcDbVertex
100
AcDb2dVertex
 10
256.5753700611683
 20
314.6342109631699
 30
0.0
  0
VERTEX
  5
35F
330
35C
100
AcDbEntity
  8
PREDETERMINADA
100
AcDbVertex
100
AcDb2dVertex
 10
408.9342066776972
 20
314.687858121274
 30
0.0
  0
SEQEND
  5
35D
330
35C
100
AcDbEntity
  8
PREDETERMINADA
  0
POLYLINE
  5
360
330
1F
100
AcDbEntity
  8
PREDETERMINADA
100
AcDb2dPolyline
 66
     1
 10
0.0
 20
0.0
 30
0.0
  0
VERTEX
  5
362
330
360
100
AcDbEntity
  8
PREDETERMINADA
100
AcDbVertex
100
AcDb2dVertex
 10
444.3136689310973
 20
314.7003156041958
 30
0.0
  0
VERTEX
  5
363
330
360
100
AcDbEntity
  8
PREDETERMINADA
100
AcDbVertex
100
AcDb2dVertex
 10
459.1002514603883
 20
314.7055221163246
 30
0.0
  0
SEQEND
  5
361
330
360
100
AcDbEntity
  8
PREDETERMINADA
  0
SPLINE
  5
364
330
1F
100
AcDbEntity
  8
PREDETERMINADA
100
AcDbSpline
210
0.0
220
0.0
230
1.0
 70
    24
 71
     2
 72
     6
 73
     3
 74
     0
 42
0.0000000001
 43
0.0000000001
 40
55.97932181021066
 40
55.97932181021066
 40
55.97932181021066
 40
116.3833981337706
 40
116.3833981337706
 40
116.3833981337706
 10
419.1002514603884
 20
249.6228513497983
 30
0.0
 10
419.1002514603884
 20
279.8248895115782
 30
0.0
 10
419.1002514603884
 20
310.0269276733582
 30
0.0
  0
SPLINE
  5
365
330
1F
100
AcDbEntity
  8
PREDETERMINADA
100
AcDbSpline
210
0.0
220
0.0
230
1.0
 70
    24
 71
     2
 72
     6
 73
     3
 74
     0
 42
0.0000000001
 43
0.0000000001
 40
130.6016178695849
 40
130.6016178695849
 40
130.6016178695849
 40
142.9793568700505
 40
142.9793568700505
 40
142.9793568700505
 10
419.1002514603884
 20
324.2451474091725
 30
0.0
 10
419.1002514603884
 20
330.4340169094053
 30
0.0
 10
419.1002514603884
 20
336.6228864096381
 30
0.0
  0
POLYLINE
  5
366
330
1F
100
AcDbEntity
  8
PREDETERMINADA
100
AcDb2dPolyline
 66
     1
 10
0.0
 20
0.0
 30
0.0
  0
VERTEX
  5
368
330
366
100
AcDbEntity
  8
PREDETERMINADA
100
AcDbVertex
100
AcDb2dVertex
 10
306.8806980524763
 20
488.651979180189
 30
0.0
  0
VERTEX
  5
369
330
366
100
AcDbEntity
  8
PREDETERMINADA
100
AcDbVertex
100
AcDb2dVertex
 10
394.1506798056556
 20
488.6827078639517
 30
0.0
  0
SEQEND
  5
367
330
366
100
AcDbEntity
  8
PREDETERMINADA
  0
POLYLINE
  5
36A
330
1F
100
AcDbEntity
  8
PREDETERMINADA
100
AcDb2dPolyline
 66
     1
 10
0.0
 20
0.0
 30
0.0
  0
VERTEX
  5
36C
330
36A
100
AcDbEntity
  8
PREDETERMINADA
100
AcDbVertex
100
AcDb2dVertex
 10
407.2345441025834
 20
488.6873148309787
 30
0.0
  0
VERTEX
  5
36D
330
36A
100
AcDbEntity
  8
PREDETERMINADA
100
AcDbVertex
100
AcDb2dVertex
 10
459.0728697830859
 20
488.7055676538237
 30
0.0
  0
SEQEND
  5
36B
330
36A
100
AcDbEntity
  8
PREDETERMINADA
  0
SPLINE
  5
36E
330
1F
100
AcDbEntity
  8
PREDETERMINADA
100
AcDbSpline
210
0.0
220
0.0
230
1.0
 70
    24
 71
     2
 72
     6
 73
     3
 74
     0
 42
0.0000000001
 43
0.0000000001
 40
330.3078727869301
 40
330.3078727869301
 40
330.3078727869301
 40
419.6850326095811
 40
419.6850326095811
 40
419.6850326095811
 10
309.3781426885144
 20
467.0244348490376
 30
0.0
 10
354.0667045909469
 20
467.0645544645863
 30
0.0
 10
398.7552664933795
 20
467.1046740801349
 30
0.0
  0
SPLINE
  5
36F
330
1F
100
AcDbEntity
  8
PREDETERMINADA
100
AcDbSpline
210
0.0
220
0.0
230
1.0
 70
    24
 71
     2
 72
     6
 73
     3
 74
     0
 42
0.0000000001
 43
0.0000000001
 40
433.4505119203366
 40
433.4505119203366
 40
433.4505119203366
 40
480.0026602064751
 40
480.0026602064751
 40
480.0026602064751
 10
412.5207402568331
 20
467.1170321756234
 30
0.0
 10
435.7968050199595
 20
467.1379285018874
 30
0.0
 10
459.0728697830859
 20
467.1588248281514
 30
0.0
  0
SPLINE
  5
370
330
1F
100
AcDbEntity
  8
PREDETERMINADA
100
AcDbSpline
210
0.0
220
0.0
230
1.0
 70
    24
 71
     2
 72
     6
 73
     3
 74
     0
 42
0.0000000001
 43
0.0000000001
 40
55.97932181021066
 40
55.97932181021066
 40
55.97932181021066
 40
63.18031265704572
 40
63.18031265704572
 40
63.18031265704572
 10
419.072869783086
 20
423.6228968872974
 30
0.0
 10
419.072869783086
 20
427.223392310715
 30
0.0
 10
419.072869783086
 20
430.8238877341325
 30
0.0
  0
SPLINE
  5
371
330
1F
100
AcDbEntity
  8
PREDETERMINADA
100
AcDbSpline
210
0.0
220
0.0
230
1.0
 70
    24
 71
     2
 72
     6
 73
     3
 74
     0
 42
0.0000000001
 43
0.0000000001
 40
85.6088634012691
 40
85.6088634012691
 40
85.6088634012691
 40
142.9793568700505
 40
142.9793568700505
 40
142.9793568700505
 10
419.072869783086
 20
453.2524384783558
 30
0.0
 10
419.072869783086
 20
481.9376852127465
 30
0.0
 10
419.072869783086
 20
510.6229319471372
 30
0.0
  0
POLYLINE
  5
372
330
1F
100
AcDbEntity
  8
PREDETERMINADA
100
AcDb2dPolyline
 66
     1
 10
0.0
 20
0.0
 30
0.0
  0
VERTEX
  5
374
330
372
100
AcDbEntity
  8
PREDETERMINADA
100
AcDbVertex
100
AcDb2dVertex
 10
314.4830046493437
 20
445.154659811858
 30
0.0
  0
VERTEX
  5
375
330
372
100
AcDbEntity
  8
PREDETERMINADA
100
AcDbVertex
100
AcDb2dVertex
 10
408.7356716890235
 20
445.1878471729766
 30
0.0
  0
SEQEND
  5
373
330
372
100
AcDbEntity
  8
PREDETERMINADA
  0
POLYLINE
  5
376
330
1F
100
AcDbEntity
  8
PREDETERMINADA
100
AcDb2dPolyline
 66
     1
 10
0.0
 20
0.0
 30
0.0
  0
VERTEX
  5
378
330
376
100
AcDbEntity
  8
PREDETERMINADA
100
AcDbVertex
100
AcDb2dVertex
 10
424.2949073028184
 20
445.19332574443
 30
0.0
  0
VERTEX
  5
379
330
376
100
AcDbEntity
  8
PREDETERMINADA
100
AcDbVertex
100
AcDb2dVertex
 10
459.0728697830859
 20
445.2055714329188
 30
0.0
  0
SEQEND
  5
377
330
376
100
AcDbEntity
  8
PREDETERMINADA
  0
SPLINE
  5
37A
330
1F
100
AcDbEntity
  8
PREDETERMINADA
100
AcDbSpline
210
0.0
220
0.0
230
1.0
 70
    24
 71
     2
 72
     6
 73
     3
 74
     0
 42
0.0000000001
 43
0.0000000001
 40
343.3159082882885
 40
343.3159082882885
 40
343.3159082882885
 40
446.8397622432378
 40
446.8397622432378
 40
446.8397622432378
 10
322.296396956655
 20
423.5360148145996
 30
0.0
 10
374.0583030747736
 20
423.5824845975847
 30
0.0
 10
425.8202091928922
 20
423.6289543805697
 30
0.0
  0
SPLINE
  5
37B
330
1F
100
AcDbEntity
  8
PREDETERMINADA
100
AcDbSpline
210
0.0
220
0.0
230
1.0
 70
    24
 71
     2
 72
     6
 73
     3
 74
     0
 42
0.0000000001
 43
0.0000000001
 40
467.099712536545
 40
467.099712536545
 40
467.099712536545
 40
480.0417127783658
 40
480.0417127783658
 40
480.0417127783658
 10
446.0801513217136
 20
423.6471429517529
 30
0.0
 10
452.5511488348985
 20
423.6529523562492
 30
0.0
 10
459.0221463480834
 20
423.6587617607454
 30
0.0
  0
POLYLINE
  5
37C
330
1F
100
AcDbEntity
  8
PREDETERMINADA
100
AcDb2dPolyline
 66
     1
 10
0.0
 20
0.0
 30
0.0
  0
VERTEX
  5
37E
330
37C
100
AcDbEntity
  8
PREDETERMINADA
100
AcDbVertex
100
AcDb2dVertex
 10
439.0221463480833
 20
336.6407714954389
 30
0.0
  0
VERTEX
  5
37F
330
37C
100
AcDbEntity
  8
PREDETERMINADA
100
AcDbVertex
100
AcDb2dVertex
 10
439.0221463480833
 20
412.7180570971105
 30
0.0
  0
SEQEND
  5
37D
330
37C
100
AcDbEntity
  8
PREDETERMINADA
  0
POLYLINE
  5
380
330
1F
100
AcDbEntity
  8
PREDETERMINADA
100
AcDb2dPolyline
 66
     1
 10
0.0
 20
0.0
 30
0.0
  0
VERTEX
  5
382
330
380
100
AcDbEntity
  8
PREDETERMINADA
100
AcDbVertex
100
AcDb2dVertex
 10
459.072869783086
 20
336.6587722383904
 30
0.0
  0
VERTEX
  5
383
330
380
100
AcDbEntity
  8
PREDETERMINADA
100
AcDbVertex
100
AcDb2dVertex
 10
459.072869783086
 20
401.6978273225769
 30
0.0
  0
SEQEND
  5
381
330
380
100
AcDbEntity
  8
PREDETERMINADA
  0
POLYLINE
  5
384
330
1F
100
AcDbEntity
  8
PREDETERMINADA
100
AcDb2dPolyline
 66
     1
 10
0.0
 20
0.0
 30
0.0
  0
VERTEX
  5
386
330
384
100
AcDbEntity
  8
PREDETERMINADA
100
AcDbVertex
100
AcDb2dVertex
 10
459.072869783086
 20
415.9564568030243
 30
0.0
  0
VERTEX
  5
387
330
384
100
AcDbEntity
  8
PREDETERMINADA
100
AcDbVertex
100
AcDb2dVertex
 10
459.072869783086
 20
423.6588072982311
 30
0.0
  0
SEQEND
  5
385
330
384
100
AcDbEntity
  8
PREDETERMINADA
  0
SPLINE
  5
388
330
1F
100
AcDbEntity
  8
PREDETERMINADA
100
AcDbSpline
210
0.0
220
0.0
230
1.0
 70
    24
 71
     2
 72
     6
 73
     3
 74
     0
 42
0.0000000001
 43
0.0000000001
 40
55.69203852274239
 40
55.69203852274239
 40
55.69203852274239
 40
114.59135892261
 40
114.59135892261
 40
114.59135892261
 10
479.1216555401655
 20
336.6767712417718
 30
0.0
 10
479.1216555401655
 20
366.1264314417057
 30
0.0
 10
479.1216555401655
 20
395.5760916416396
 30
0.0
  0
SPLINE
  5
389
330
1F
100
AcDbEntity
  8
PREDETERMINADA
100
AcDbSpline
210
0.0
220
0.0
230
1.0
 70
    24
 71
     2
 72
     6
 73
     3
 74
     0
 42
0.0000000001
 43
0.0000000001
 40
127.8870464224722
 40
127.8870464224722
 40
127.8870464224722
 40
142.692073582583
 40
142.692073582583
 40
142.692073582583
 10
479.1216555401656
 20
408.8717791415017
 30
0.0
 10
479.1216555401656
 20
416.2742927215571
 30
0.0
 10
479.1216555401656
 20
423.6768063016125
 30
0.0
  0
POLYLINE
  5
38A
330
1F
100
AcDbEntity
  8
PREDETERMINADA
100
AcDb2dPolyline
 66
     1
 10
0.0
 20
0.0
 30
0.0
  0
VERTEX
  5
38C
330
38A
100
AcDbEntity
  8
PREDETERMINADA
100
AcDbVertex
100
AcDb2dVertex
 10
499.1216555401656
 20
336.6947264472387
 30
0.0
  0
VERTEX
  5
38D
330
38A
100
AcDbEntity
  8
PREDETERMINADA
100
AcDbVertex
100
AcDb2dVertex
 10
499.1216555401656
 20
393.5040257615666
 30
0.0
  0
SEQEND
  5
38B
330
38A
100
AcDbEntity
  8
PREDETERMINADA
  0
POLYLINE
  5
38E
330
1F
100
AcDbEntity
  8
PREDETERMINADA
100
AcDb2dPolyline
 66
     1
 10
0.0
 20
0.0
 30
0.0
  0
VERTEX
  5
390
330
38E
100
AcDbEntity
  8
PREDETERMINADA
100
AcDbVertex
100
AcDb2dVertex
 10
499.1216555401656
 20
406.5045855188978
 30
0.0
  0
VERTEX
  5
391
330
38E
100
AcDbEntity
  8
PREDETERMINADA
100
AcDbVertex
100
AcDb2dVertex
 10
499.1216555401656
 20
423.6947615070792
 30
0.0
  0
SEQEND
  5
38F
330
38E
100
AcDbEntity
  8
PREDETERMINADA
  0
SPLINE
  5
392
330
1F
100
AcDbEntity
  8
PREDETERMINADA
100
AcDbSpline
210
0.0
220
0.0
230
1.0
 70
    24
 71
     2
 72
     6
 73
     3
 74
     0
 42
0.0000000001
 43
0.0000000001
 40
55.72794893367593
 40
55.72794893367593
 40
55.72794893367593
 40
112.5152672809705
 40
112.5152672809705
 40
112.5152672809705
 10
519.1216555401655
 20
336.7126816527054
 30
0.0
 10
519.1216555401656
 20
365.1063408263527
 30
0.0
 10
519.1216555401656
 20
393.4999999999999
 30
0.0
  0
SPLINE
  5
393
330
1F
100
AcDbEntity
  8
PREDETERMINADA
100
AcDbSpline
210
0.0
220
0.0
230
1.0
 70
    24
 71
     2
 72
     6
 73
     3
 74
     0
 42
0.0000000001
 43
0.0000000001
 40
125.5152672809704
 40
125.5152672809704
 40
125.5152672809704
 40
142.7279839935164
 40
142.7279839935164
 40
142.7279839935164
 10
519.1216555401656
 20
406.4999999999999
 30
0.0
 10
519.1216555401656
 20
415.1063583562729
 30
0.0
 10
519.1216555401656
 20
423.7127167125459
 30
0.0
  0
SPLINE
  5
394
330
1F
100
AcDbEntity
  8
PREDETERMINADA
100
AcDbSpline
210
0.0
220
0.0
230
1.0
 70
    24
 71
     2
 72
     6
 73
     3
 74
     0
 42
0.0000000001
 43
0.0000000001
 40
55.7459041391427
 40
55.7459041391427
 40
55.7459041391427
 40
112.5152672809706
 40
112.5152672809706
 40
112.5152672809706
 10
539.1216555401654
 20
336.7306368581721
 30
0.0
 10
539.1216555401654
 20
365.115318429086
 30
0.0
 10
539.1216555401655
 20
393.4999999999999
 30
0.0
  0
SPLINE
  5
395
330
1F
100
AcDbEntity
  8
PREDETERMINADA
100
AcDbSpline
210
0.0
220
0.0
230
1.0
 70
    24
 71
     2
 72
     6
 73
     3
 74
     0
 42
0.0000000001
 43
0.0000000001
 40
125.5152672809707
 40
125.5152672809707
 40
125.5152672809707
 40
142.7459391989831
 40
142.7459391989831
 40
142.7459391989831
 10
539.1216555401656
 20
406.4999999999999
 30
0.0
 10
539.1216555401656
 20
415.1153359590062
 30
0.0
 10
539.1216555401656
 20
423.7306719180124
 30
0.0
  0
SPLINE
  5
396
330
1F
100
AcDbEntity
  8
PREDETERMINADA
100
AcDbSpline
210
0.0
220
0.0
230
1.0
 70
    24
 71
     2
 72
     6
 73
     3
 74
     0
 42
0.0000000001
 43
0.0000000001
 40
55.76385934460946
 40
55.76385934460946
 40
55.76385934460946
 40
112.5152672809705
 40
112.5152672809705
 40
112.5152672809705
 10
559.1216555401654
 20
336.7485920636389
 30
0.0
 10
559.1216555401654
 20
365.1242960318194
 30
0.0
 10
559.1216555401655
 20
393.4999999999999
 30
0.0
  0
SPLINE
  5
397
330
1F
100
AcDbEntity
  8
PREDETERMINADA
100
AcDbSpline
210
0.0
220
0.0
230
1.0
 70
    24
 71
     2
 72
     6
 73
     3
 74
     0
 42
0.0000000001
 43
0.0000000001
 40
125.5152672809705
 40
125.5152672809705
 40
125.5152672809705
 40
142.7638944044499
 40
142.7638944044499
 40
142.7638944044499
 10
559.1216555401655
 20
406.4999999999999
 30
0.0
 10
559.1216555401655
 20
415.1243135617397
 30
0.0
 10
559.1216555401655
 20
423.7486271234793
 30
0.0
  0
POLYLINE
  5
398
330
1F
100
AcDbEntity
  8
PREDETERMINADA
100
AcDb2dPolyline
 66
     1
 10
0.0
 20
0.0
 30
0.0
  0
VERTEX
  5
39A
330
398
100
AcDbEntity
  8
PREDETERMINADA
100
AcDbVertex
100
AcDb2dVertex
 10
579.1216555401654
 20
336.7665472691058
 30
0.0
  0
VERTEX
  5
39B
330
398
100
AcDbEntity
  8
PREDETERMINADA
100
AcDbVertex
100
AcDb2dVertex
 10
579.1216555401655
 20
393.4999999999999
 30
0.0
  0
SEQEND
  5
399
330
398
100
AcDbEntity
  8
PREDETERMINADA
  0
POLYLINE
  5
39C
330
1F
100
AcDbEntity
  8
PREDETERMINADA
100
AcDb2dPolyline
 66
     1
 10
0.0
 20
0.0
 30
0.0
  0
VERTEX
  5
39E
330
39C
100
AcDbEntity
  8
PREDETERMINADA
100
AcDbVertex
100
AcDb2dVertex
 10
579.1216555401656
 20
406.4999999999999
 30
0.0
  0
VERTEX
  5
39F
330
39C
100
AcDbEntity
  8
PREDETERMINADA
100
AcDbVertex
100
AcDb2dVertex
 10
579.1216555401656
 20
423.766582328946
 30
0.0
  0
SEQEND
  5
39D
330
39C
100
AcDbEntity
  8
PREDETERMINADA
  0
SPLINE
  5
3A0
330
1F
100
AcDbEntity
  8
PREDETERMINADA
100
AcDbSpline
210
0.0
220
0.0
230
1.0
 70
    24
 71
     2
 72
     6
 73
     3
 74
     0
 42
0.0000000001
 43
0.0000000001
 40
55.799769755543
 40
55.799769755543
 40
55.799769755543
 40
112.664442012243
 40
112.664442012243
 40
112.664442012243
 10
599.1216555401655
 20
336.7845024745725
 30
0.0
 10
599.1216555401656
 20
365.2168386029225
 30
0.0
 10
599.1216555401656
 20
393.6491747312725
 30
0.0
  0
SPLINE
  5
3A1
330
1F
100
AcDbEntity
  8
PREDETERMINADA
100
AcDbSpline
210
0.0
220
0.0
230
1.0
 70
    24
 71
     2
 72
     6
 73
     3
 74
     0
 42
0.0000000001
 43
0.0000000001
 40
125.6852183399173
 40
125.6852183399173
 40
125.6852183399173
 40
142.7998048153833
 40
142.7998048153833
 40
142.7998048153833
 10
599.1216555401656
 20
406.6699510589467
 30
0.0
 10
599.1216555401656
 20
415.2272442966797
 30
0.0
 10
599.1216555401656
 20
423.7845375344127
 30
0.0
  0
SPLINE
  5
3A2
330
1F
100
AcDbEntity
  8
PREDETERMINADA
100
AcDbSpline
210
0.0
220
0.0
230
1.0
 70
    24
 71
     2
 72
     6
 73
     3
 74
     0
 42
0.0000000001
 43
0.0000000001
 40
55.81772496100977
 40
55.81772496100977
 40
55.81772496100977
 40
115.6464977776145
 40
115.6464977776145
 40
115.6464977776145
 10
619.1216555401655
 20
336.8024576800392
 30
0.0
 10
619.1216555401656
 20
366.7168440883415
 30
0.0
 10
619.1216555401656
 20
396.6312304966439
 30
0.0
  0
SPLINE
  5
3A3
330
1F
100
AcDbEntity
  8
PREDETERMINADA
100
AcDbSpline
210
0.0
220
0.0
230
1.0
 70
    24
 71
     2
 72
     6
 73
     3
 74
     0
 42
0.0000000001
 43
0.0000000001
 40
129.098069211647
 40
129.098069211647
 40
129.098069211647
 40
142.81776002085
 40
142.81776002085
 40
142.81776002085
 10
619.1216555401656
 20
410.0828019306765
 30
0.0
 10
619.1216555401656
 20
416.9426473352779
 30
0.0
 10
619.1216555401656
 20
423.8024927398794
 30
0.0
  0
SPLINE
  5
3A4
330
1F
100
AcDbEntity
  8
PREDETERMINADA
100
AcDbSpline
210
0.0
220
0.0
230
1.0
 70
    24
 71
     2
 72
     6
 73
     3
 74
     0
 42
0.0000000001
 43
0.0000000001
 40
55.83568016647654
 40
55.83568016647654
 40
55.83568016647654
 40
122.7878960088814
 40
122.7878960088814
 40
122.7878960088814
 10
639.1216555401655
 20
336.8204128855059
 30
0.0
 10
639.1216555401656
 20
370.2965208067084
 30
0.0
 10
639.1216555401656
 20
403.7726287279108
 30
0.0
  0
SPLINE
  5
3A5
330
1F
100
AcDbEntity
  8
PREDETERMINADA
100
AcDbSpline
210
0.0
220
0.0
230
1.0
 70
    24
 71
     2
 72
     6
 73
     3
 74
     0
 42
0.0000000001
 43
0.0000000001
 40
137.4082395080117
 40
137.4082395080117
 40
137.4082395080117
 40
142.8357152263168
 40
142.8357152263168
 40
142.8357152263168
 10
639.1216555401656
 20
418.392972227041
 30
0.0
 10
639.1216555401656
 20
421.1067100861936
 30
0.0
 10
639.1216555401656
 20
423.8204479453461
 30
0.0
  0
SPLINE
  5
3A6
330
1F
100
AcDbEntity
  8
PREDETERMINADA
100
AcDbSpline
210
0.0
220
0.0
230
1.0
 70
    24
 71
     2
 72
     6
 73
     3
 74
     0
 42
0.0000000001
 43
0.0000000001
 40
99.86394526748266
 40
99.86394526748266
 40
99.86394526748266
 40
288.6294405651123
 40
288.6294405651123
 40
288.6294405651123
 10
458.9440412357781
 20
423.6586916410793
 30
0.0
 10
553.3267508496228
 20
423.7434246882603
 30
0.0
 10
647.7094604634676
 20
423.8281577354415
 30
0.0
  0
POLYLINE
  5
3A7
330
1F
100
AcDbEntity
  8
PREDETERMINADA
100
AcDb2dPolyline
 66
     1
 10
0.0
 20
0.0
 30
0.0
  0
VERTEX
  5
3A9
330
3A7
100
AcDbEntity
  8
PREDETERMINADA
100
AcDbVertex
100
AcDb2dVertex
 10
659.1723789751682
 20
433.4594076641902
 30
0.0
  0
VERTEX
  5
3AA
330
3A7
100
AcDbEntity
  8
PREDETERMINADA
100
AcDbVertex
100
AcDb2dVertex
 10
659.1723789751684
 20
510.8384837481385
 30
0.0
  0
SEQEND
  5
3A8
330
3A7
100
AcDbEntity
  8
PREDETERMINADA
  0
POLYLINE
  5
3AB
330
1F
100
AcDbEntity
  8
PREDETERMINADA
100
AcDb2dPolyline
 66
     1
 10
0.0
 20
0.0
 30
0.0
  0
VERTEX
  5
3AD
330
3AB
100
AcDbEntity
  8
PREDETERMINADA
100
AcDbVertex
100
AcDb2dVertex
 10
459.0728697830859
 20
445.4129726141091
 30
0.0
  0
VERTEX
  5
3AE
330
3AB
100
AcDbEntity
  8
PREDETERMINADA
100
AcDbVertex
100
AcDb2dVertex
 10
669.451154929936
 20
445.4870490338006
 30
0.0
  0
SEQEND
  5
3AC
330
3AB
100
AcDbEntity
  8
PREDETERMINADA
  0
SPLINE
  5
3AF
330
1F
100
AcDbEntity
  8
PREDETERMINADA
100
AcDbSpline
210
0.0
220
0.0
230
1.0
 70
    24
 71
     2
 72
     6
 73
     3
 74
     0
 42
0.0000000001
 43
0.0000000001
 40
55.87159057741006
 40
55.87159057741006
 40
55.87159057741006
 40
68.76784710087044
 40
68.76784710087044
 40
68.76784710087044
 10
679.1723789751682
 20
423.856403893765
 30
0.0
 10
679.1723789751682
 20
430.3045321554952
 30
0.0
 10
679.1723789751682
 20
436.7526604172253
 30
0.0
  0
SPLINE
  5
3B0
330
1F
100
AcDbEntity
  8
PREDETERMINADA
100
AcDbSpline
210
0.0
220
0.0
230
1.0
 70
    24
 71
     2
 72
     6
 73
     3
 74
     0
 42
0.0000000001
 43
0.0000000001
 40
94.59559336278257
 40
94.59559336278257
 40
94.59559336278257
 40
142.8716256372501
 40
142.8716256372501
 40
142.8716256372501
 10
679.1723789751683
 20
462.5804066791375
 30
0.0
 10
679.1723789751684
 20
486.7184228163712
 30
0.0
 10
679.1723789751684
 20
510.856438953605
 30
0.0
  0
SPLINE
  5
3B1
330
1F
100
AcDbEntity
  8
PREDETERMINADA
100
AcDbSpline
210
0.0
220
0.0
230
1.0
 70
    24
 71
     2
 72
     6
 73
     3
 74
     0
 42
0.0000000001
 43
0.0000000001
 40
99.86394526748265
 40
99.86394526748265
 40
99.86394526748265
 40
321.9341064321609
 40
321.9341064321609
 40
321.9341064321609
 10
459.0338172269334
 20
467.1587897683178
 30
0.0
 10
570.0688530636378
 20
467.2584726124407
 30
0.0
 10
681.1038889003421
 20
467.3581554565636
 30
0.0
  0
POLYLINE
  5
3B2
330
1F
100
AcDbEntity
  8
PREDETERMINADA
100
AcDb2dPolyline
 66
     1
 10
0.0
 20
0.0
 30
0.0
  0
VERTEX
  5
3B4
330
3B2
100
AcDbEntity
  8
PREDETERMINADA
100
AcDbVertex
100
AcDb2dVertex
 10
659.1216555401654
 20
336.8383680909726
 30
0.0
  0
VERTEX
  5
3B5
330
3B2
100
AcDbEntity
  8
PREDETERMINADA
100
AcDbVertex
100
AcDb2dVertex
 10
659.1216555401656
 20
416.1291978383715
 30
0.0
  0
SEQEND
  5
3B3
330
3B2
100
AcDbEntity
  8
PREDETERMINADA
  0
SPLINE
  5
3B6
330
1F
100
AcDbEntity
  8
PREDETERMINADA
100
AcDbSpline
210
0.0
220
0.0
230
1.0
 70
    24
 71
     2
 72
     6
 73
     3
 74
     0
 42
0.0000000001
 43
0.0000000001
 40
99.86394526748265
 40
99.86394526748265
 40
99.86394526748265
 40
386.4924357494758
 40
386.4924357494758
 40
386.4924357494758
 10
458.9830937919307
 20
380.1587091709923
 30
0.0
 10
602.2972812792259
 20
380.2873709551242
 30
0.0
 10
745.6114687665212
 20
380.4160327392561
 30
0.0
  0
SPLINE
  5
3B7
330
1F
100
AcDbEntity
  8
PREDETERMINADA
100
AcDbSpline
210
0.0
220
0.0
230
1.0
 70
    24
 71
     2
 72
     6
 73
     3
 74
     0
 42
0.0000000001
 43
0.0000000001
 40
402.7286946148885
 40
402.7286946148885
 40
402.7286946148885
 40
480.0026602064751
 40
480.0026602064751
 40
480.0026602064751
 10
761.8477210889414
 20
380.4306090015791
 30
0.0
 10
800.4846883145535
 20
380.4652957358365
 30
0.0
 10
839.1216555401656
 20
380.499982470094
 30
0.0
  0
SPLINE
  5
3B8
330
1F
100
AcDbEntity
  8
PREDETERMINADA
100
AcDbSpline
210
0.0
220
0.0
230
1.0
 70
    24
 71
     2
 72
     6
 73
     3
 74
     0
 42
0.0000000001
 43
0.0000000001
 40
55.94341139927714
 40
55.94341139927714
 40
55.94341139927714
 40
95.69724823376407
 40
95.69724823376407
 40
95.69724823376407
 10
759.1216555401656
 20
336.9281441183066
 30
0.0
 10
759.1216555401656
 20
356.80506253555
 30
0.0
 10
759.1216555401656
 20
376.6819809527934
 30
0.0
  0
SPLINE
  5
3B9
330
1F
100
AcDbEntity
  8
PREDETERMINADA
100
AcDbSpline
210
0.0
220
0.0
230
1.0
 70
    24
 71
     2
 72
     6
 73
     3
 74
     0
 42
0.0000000001
 43
0.0000000001
 40
118.9786048929878
 40
118.9786048929878
 40
118.9786048929878
 40
142.9434464591171
 40
142.9434464591171
 40
142.9434464591171
 10
759.1216555401656
 20
399.9633376120172
 30
0.0
 10
759.1216555401656
 20
411.9457583950818
 30
0.0
 10
759.1216555401656
 20
423.9281791781464
 30
0.0
  0
SPLINE
  5
3BA
330
1F
100
AcDbEntity
  8
PREDETERMINADA
100
AcDbSpline
210
0.0
220
0.0
230
1.0
 70
    24
 71
     2
 72
     6
 73
     3
 74
     0
 42
0.0000000001
 43
0.0000000001
 40
55.92545619381037
 40
55.92545619381037
 40
55.92545619381037
 40
72.61605502752776
 40
72.61605502752776
 40
72.61605502752776
 10
739.1216555401656
 20
336.9101889128399
 30
0.0
 10
739.1216555401656
 20
345.2554883296986
 30
0.0
 10
739.1216555401656
 20
353.6007877465573
 30
0.0
  0
SPLINE
  5
3BB
330
1F
100
AcDbEntity
  8
PREDETERMINADA
100
AcDbSpline
210
0.0
220
0.0
230
1.0
 70
    24
 71
     2
 72
     6
 73
     3
 74
     0
 42
0.0000000001
 43
0.0000000001
 40
91.6075385184318
 40
91.6075385184318
 40
91.6075385184318
 40
142.9254912536503
 40
142.9254912536503
 40
142.9254912536503
 10
739.1216555401656
 20
372.5922712374613
 30
0.0
 10
739.1216555401656
 20
398.2512476050706
 30
0.0
 10
739.1216555401656
 20
423.9102239726799
 30
0.0
  0
POLYLINE
  5
3BC
330
1F
100
AcDbEntity
  8
PREDETERMINADA
100
AcDb2dPolyline
 66
     1
 10
0.0
 20
0.0
 30
0.0
  0
VERTEX
  5
3BE
330
3BC
100
AcDbEntity
  8
PREDETERMINADA
100
AcDbVertex
100
AcDb2dVertex
 10
739.1216555401654
 20
336.9101889128399
 30
0.0
  0
VERTEX
  5
3BF
330
3BC
100
AcDbEntity
  8
PREDETERMINADA
100
AcDbVertex
100
AcDb2dVertex
 10
739.1216555401654
 20
353.6007877465573
 30
0.0
  0
SEQEND
  5
3BD
330
3BC
100
AcDbEntity
  8
PREDETERMINADA
  0
POLYLINE
  5
3C0
330
1F
100
AcDbEntity
  8
PREDETERMINADA
100
AcDb2dPolyline
 66
     1
 10
0.0
 20
0.0
 30
0.0
  0
VERTEX
  5
3C2
330
3C0
100
AcDbEntity
  8
PREDETERMINADA
100
AcDbVertex
100
AcDb2dVertex
 10
739.1216555401654
 20
372.5922712374611
 30
0.0
  0
VERTEX
  5
3C3
330
3C0
100
AcDbEntity
  8
PREDETERMINADA
100
AcDbVertex
100
AcDb2dVertex
 10
739.1216555401654
 20
423.9102239726799
 30
0.0
  0
SEQEND
  5
3C1
330
3C0
100
AcDbEntity
  8
PREDETERMINADA
  0
POLYLINE
  5
3C4
330
1F
100
AcDbEntity
  8
PREDETERMINADA
100
AcDb2dPolyline
 66
     1
 10
0.0
 20
0.0
 30
0.0
  0
VERTEX
  5
3C6
330
3C4
100
AcDbEntity
  8
PREDETERMINADA
100
AcDbVertex
100
AcDb2dVertex
 10
459.0221463480832
 20
358.4128920167836
 30
0.0
  0
VERTEX
  5
3C7
330
3C4
100
AcDbEntity
  8
PREDETERMINADA
100
AcDbVertex
100
AcDb2dVertex
 10
725.4788128957741
 20
358.5067142277929
 30
0.0
  0
SEQEND
  5
3C5
330
3C4
100
AcDbEntity
  8
PREDETERMINADA
  0
POLYLINE
  5
3C8
330
1F
100
AcDbEntity
  8
PREDETERMINADA
100
AcDb2dPolyline
 66
     1
 10
0.0
 20
0.0
 30
0.0
  0
VERTEX
  5
3CA
330
3C8
100
AcDbEntity
  8
PREDETERMINADA
100
AcDbVertex
100
AcDb2dVertex
 10
743.8986533373834
 20
358.5132000484671
 30
0.0
  0
VERTEX
  5
3CB
330
3C8
100
AcDbEntity
  8
PREDETERMINADA
100
AcDbVertex
100
AcDb2dVertex
 10
839.1216555401656
 20
358.5467290748613
 30
0.0
  0
SEQEND
  5
3C9
330
3C8
100
AcDbEntity
  8
PREDETERMINADA
  0
SPLINE
  5
3CC
330
1F
100
AcDbEntity
  8
PREDETERMINADA
100
AcDbSpline
210
0.0
220
0.0
230
1.0
 70
    24
 71
     2
 72
     6
 73
     3
 74
     0
 42
0.0000000001
 43
0.0000000001
 40
71.84827072559479
 40
71.84827072559479
 40
71.84827072559479
 40
142.9075360481837
 40
142.9075360481837
 40
142.9075360481837
 10
719.1216555401654
 20
352.8330034446241
 30
0.0
 10
719.1216555401655
 20
388.3626361059186
 30
0.0
 10
719.1216555401656
 20
423.892268767213
 30
0.0
  0
SPLINE
  5
3CD
330
1F
100
AcDbEntity
  8
PREDETERMINADA
100
AcDbSpline
210
0.0
220
0.0
230
1.0
 70
    24
 71
     2
 72
     6
 73
     3
 74
     0
 42
0.0000000001
 43
0.0000000001
 40
99.86394526748266
 40
99.86394526748266
 40
99.86394526748266
 40
338.4045595447064
 40
338.4045595447064
 40
338.4045595447064
 10
459.0221463480833
 20
336.6587267009056
 30
0.0
 10
578.2924054223754
 20
336.765802801293
 30
0.0
 10
697.5626644966676
 20
336.8728789016804
 30
0.0
  0
SPLINE
  5
3CE
330
1F
100
AcDbEntity
  8
PREDETERMINADA
100
AcDbSpline
210
0.0
220
0.0
230
1.0
 70
    24
 71
     2
 72
     6
 73
     3
 74
     0
 42
0.0000000001
 43
0.0000000001
 40
55.88954578287684
 40
55.88954578287684
 40
55.88954578287684
 40
128.6257932688339
 40
128.6257932688339
 40
128.6257932688339
 10
699.1997606524707
 20
249.8743135617326
 30
0.0
 10
699.1997606524707
 20
286.2424373047112
 30
0.0
 10
699.1997606524707
 20
322.6105610476898
 30
0.0
  0
SPLINE
  5
3CF
330
1F
100
AcDbEntity
  8
PREDETERMINADA
100
AcDbSpline
210
0.0
220
0.0
230
1.0
 70
    24
 71
     2
 72
     6
 73
     3
 74
     0
 42
0.0000000001
 43
0.0000000001
 40
55.87159057741006
 40
55.87159057741006
 40
55.87159057741006
 40
118.1441786151963
 40
118.1441786151963
 40
118.1441786151963
 10
679.1997606524707
 20
249.8563583562659
 30
0.0
 10
679.1997606524708
 20
280.992652375159
 30
0.0
 10
679.1997606524708
 20
312.1289463940521
 30
0.0
  0
SPLINE
  5
3D0
330
1F
100
AcDbEntity
  8
PREDETERMINADA
100
AcDbSpline
210
0.0
220
0.0
230
1.0
 70
    24
 71
     2
 72
     6
 73
     3
 74
     0
 42
0.0000000001
 43
0.0000000001
 40
132.5345912752189
 40
132.5345912752189
 40
132.5345912752189
 40
142.8716256372501
 40
142.8716256372501
 40
142.8716256372501
 10
679.1997606524708
 20
326.5193590540747
 30
0.0
 10
679.1997606524708
 20
331.6878762350903
 30
0.0
 10
679.1997606524708
 20
336.8563934161059
 30
0.0
  0
POLYLINE
  5
3D1
330
1F
100
AcDbEntity
  8
PREDETERMINADA
100
AcDb2dPolyline
 66
     1
 10
0.0
 20
0.0
 30
0.0
  0
VERTEX
  5
3D3
330
3D1
100
AcDbEntity
  8
PREDETERMINADA
100
AcDbVertex
100
AcDb2dVertex
 10
459.0611989042358
 20
314.9129095466967
 30
0.0
  0
VERTEX
  5
3D4
330
3D1
100
AcDbEntity
  8
PREDETERMINADA
100
AcDbVertex
100
AcDb2dVertex
 10
650.1429271623147
 20
314.9801914445787
 30
0.0
  0
SEQEND
  5
3D2
330
3D1
100
AcDbEntity
  8
PREDETERMINADA
  0
POLYLINE
  5
3D5
330
1F
100
AcDbEntity
  8
PREDETERMINADA
100
AcDb2dPolyline
 66
     1
 10
0.0
 20
0.0
 30
0.0
  0
VERTEX
  5
3D7
330
3D5
100
AcDbEntity
  8
PREDETERMINADA
100
AcDbVertex
100
AcDb2dVertex
 10
659.1997606524707
 20
249.838403150799
 30
0.0
  0
VERTEX
  5
3D8
330
3D5
100
AcDbEntity
  8
PREDETERMINADA
100
AcDbVertex
100
AcDb2dVertex
 10
659.1997606524708
 20
304.234700433906
 30
0.0
  0
SEQEND
  5
3D6
330
3D5
100
AcDbEntity
  8
PREDETERMINADA
  0
POLYLINE
  5
3D9
330
1F
100
AcDbEntity
  8
PREDETERMINADA
100
AcDb2dPolyline
 66
     1
 10
0.0
 20
0.0
 30
0.0
  0
VERTEX
  5
3DB
330
3D9
100
AcDbEntity
  8
PREDETERMINADA
100
AcDbVertex
100
AcDb2dVertex
 10
659.1997606524708
 20
317.9998557302698
 30
0.0
  0
VERTEX
  5
3DC
330
3D9
100
AcDbEntity
  8
PREDETERMINADA
100
AcDbVertex
100
AcDb2dVertex
 10
659.1997606524708
 20
336.8384382106394
 30
0.0
  0
SEQEND
  5
3DA
330
3D9
100
AcDbEntity
  8
PREDETERMINADA
  0
SPLINE
  5
3DD
330
1F
100
AcDbEntity
  8
PREDETERMINADA
100
AcDbSpline
210
0.0
220
0.0
230
1.0
 70
    24
 71
     2
 72
     6
 73
     3
 74
     0
 42
0.0000000001
 43
0.0000000001
 40
55.83568016647654
 40
55.83568016647654
 40
55.83568016647654
 40
104.6385398126231
 40
104.6385398126231
 40
104.6385398126231
 10
639.1997606524708
 20
249.8204479453323
 30
0.0
 10
639.1997606524708
 20
274.2218777684055
 30
0.0
 10
639.1997606524708
 20
298.6233075914789
 30
0.0
  0
SPLINE
  5
3DE
330
1F
100
AcDbEntity
  8
PREDETERMINADA
100
AcDbSpline
210
0.0
220
0.0
230
1.0
 70
    24
 71
     2
 72
     6
 73
     3
 74
     0
 42
0.0000000001
 43
0.0000000001
 40
117.992435078361
 40
117.992435078361
 40
117.992435078361
 40
142.8357152263168
 40
142.8357152263168
 40
142.8357152263168
 10
639.1997606524708
 20
311.9772028572168
 30
0.0
 10
639.1997606524708
 20
324.3988429311946
 30
0.0
 10
639.1997606524708
 20
336.8204830051725
 30
0.0
  0
SPLINE
  5
3DF
330
1F
100
AcDbEntity
  8
PREDETERMINADA
100
AcDbSpline
210
0.0
220
0.0
230
1.0
 70
    24
 71
     2
 72
     6
 73
     3
 74
     0
 42
0.0000000001
 43
0.0000000001
 40
55.81772496100977
 40
55.81772496100977
 40
55.81772496100977
 40
101.1223529486088
 40
101.1223529486088
 40
101.1223529486088
 10
619.1997606524708
 20
249.8024927398656
 30
0.0
 10
619.1997606524708
 20
272.4548067336651
 30
0.0
 10
619.1997606524708
 20
295.1071207274646
 30
0.0
  0
SPLINE
  5
3E0
330
1F
100
AcDbEntity
  8
PREDETERMINADA
100
AcDbSpline
210
0.0
220
0.0
230
1.0
 70
    24
 71
     2
 72
     6
 73
     3
 74
     0
 42
0.0000000001
 43
0.0000000001
 40
114.2312600634328
 40
114.2312600634328
 40
114.2312600634328
 40
142.81776002085
 40
142.81776002085
 40
142.81776002085
 10
619.1997606524708
 20
308.2160278422886
 30
0.0
 10
619.1997606524708
 20
322.5092778209972
 30
0.0
 10
619.1997606524708
 20
336.8025277997058
 30
0.0
  0
SPLINE
  5
3E1
330
1F
100
AcDbEntity
  8
PREDETERMINADA
100
AcDbSpline
210
0.0
220
0.0
230
1.0
 70
    24
 71
     2
 72
     6
 73
     3
 74
     0
 42
0.0000000001
 43
0.0000000001
 40
55.799769755543
 40
55.799769755543
 40
55.799769755543
 40
99.59427469070494
 40
99.59427469070494
 40
99.59427469070494
 10
599.1997606524708
 20
249.7845375343989
 30
0.0
 10
599.1997606524708
 20
271.6817900019798
 30
0.0
 10
599.1997606524708
 20
293.5790424695608
 30
0.0
  0
SPLINE
  5
3E2
330
1F
100
AcDbEntity
  8
PREDETERMINADA
100
AcDbSpline
210
0.0
220
0.0
230
1.0
 70
    24
 71
     2
 72
     6
 73
     3
 74
     0
 42
0.0000000001
 43
0.0000000001
 40
112.5995872805565
 40
112.5995872805565
 40
112.5995872805565
 40
142.7998048153833
 40
142.7998048153833
 40
142.7998048153833
 10
599.1997606524708
 20
306.5843550594124
 30
0.0
 10
599.1997606524708
 20
321.6844638268257
 30
0.0
 10
599.1997606524708
 20
336.7845725942391
 30
0.0
  0
POLYLINE
  5
3E3
330
1F
100
AcDbEntity
  8
PREDETERMINADA
100
AcDb2dPolyline
 66
     1
 10
0.0
 20
0.0
 30
0.0
  0
VERTEX
  5
3E5
330
3E3
100
AcDbEntity
  8
PREDETERMINADA
100
AcDbVertex
100
AcDb2dVertex
 10
579.1997606524707
 20
249.7665823289321
 30
0.0
  0
VERTEX
  5
3E6
330
3E3
100
AcDbEntity
  8
PREDETERMINADA
100
AcDbVertex
100
AcDb2dVertex
 10
579.1997606524708
 20
293.5000000000022
 30
0.0
  0
SEQEND
  5
3E4
330
3E3
100
AcDbEntity
  8
PREDETERMINADA
  0
POLYLINE
  5
3E7
330
1F
100
AcDbEntity
  8
PREDETERMINADA
100
AcDb2dPolyline
 66
     1
 10
0.0
 20
0.0
 30
0.0
  0
VERTEX
  5
3E9
330
3E7
100
AcDbEntity
  8
PREDETERMINADA
100
AcDbVertex
100
AcDb2dVertex
 10
579.1997606524708
 20
306.5000000000022
 30
0.0
  0
VERTEX
  5
3EA
330
3E7
100
AcDbEntity
  8
PREDETERMINADA
100
AcDbVertex
100
AcDb2dVertex
 10
579.1997606524708
 20
336.7666173887724
 30
0.0
  0
SEQEND
  5
3E8
330
3E7
100
AcDbEntity
  8
PREDETERMINADA
  0
SPLINE
  5
3EB
330
1F
100
AcDbEntity
  8
PREDETERMINADA
100
AcDbSpline
210
0.0
220
0.0
230
1.0
 70
    24
 71
     2
 72
     6
 73
     3
 74
     0
 42
0.0000000001
 43
0.0000000001
 40
55.76385934460946
 40
55.76385934460946
 40
55.76385934460946
 40
99.5152322211459
 40
99.5152322211459
 40
99.5152322211459
 10
559.1997606524707
 20
249.7486271234652
 30
0.0
 10
559.1997606524708
 20
271.6243135617334
 30
0.0
 10
559.1997606524708
 20
293.5000000000016
 30
0.0
  0
SPLINE
  5
3EC
330
1F
100
AcDbEntity
  8
PREDETERMINADA
100
AcDbSpline
210
0.0
220
0.0
230
1.0
 70
    24
 71
     2
 72
     6
 73
     3
 74
     0
 42
0.0000000001
 43
0.0000000001
 40
112.5152322211459
 40
112.5152322211459
 40
112.5152322211459
 40
142.7638944044499
 40
142.7638944044499
 40
142.7638944044499
 10
559.1997606524708
 20
306.5000000000016
 30
0.0
 10
559.1997606524708
 20
321.6243310916536
 30
0.0
 10
559.1997606524708
 20
336.7486621833057
 30
0.0
  0
SPLINE
  5
3ED
330
1F
100
AcDbEntity
  8
PREDETERMINADA
100
AcDbSpline
210
0.0
220
0.0
230
1.0
 70
    24
 71
     2
 72
     6
 73
     3
 74
     0
 42
0.0000000001
 43
0.0000000001
 40
55.7459041391427
 40
55.7459041391427
 40
55.7459041391427
 40
99.51523222114538
 40
99.51523222114538
 40
99.51523222114538
 10
539.1997606524707
 20
249.7306719179985
 30
0.0
 10
539.1997606524708
 20
271.6153359589998
 30
0.0
 10
539.1997606524708
 20
293.5000000000011
 30
0.0
  0
SPLINE
  5
3EE
330
1F
100
AcDbEntity
  8
PREDETERMINADA
100
AcDbSpline
210
0.0
220
0.0
230
1.0
 70
    24
 71
     2
 72
     6
 73
     3
 74
     0
 42
0.0000000001
 43
0.0000000001
 40
112.5152322211454
 40
112.5152322211454
 40
112.5152322211454
 40
142.7459391989831
 40
142.7459391989831
 40
142.7459391989831
 10
539.1997606524708
 20
306.5000000000011
 30
0.0
 10
539.1997606524708
 20
321.6153534889199
 30
0.0
 10
539.1997606524708
 20
336.7307069778387
 30
0.0
  0
SPLINE
  5
3EF
330
1F
100
AcDbEntity
  8
PREDETERMINADA
100
AcDbSpline
210
0.0
220
0.0
230
1.0
 70
    24
 71
     2
 72
     6
 73
     3
 74
     0
 42
0.0000000001
 43
0.0000000001
 40
55.72794893367593
 40
55.72794893367593
 40
55.72794893367593
 40
99.51523222114466
 40
99.51523222114466
 40
99.51523222114466
 10
519.1997606524708
 20
249.7127167125318
 30
0.0
 10
519.1997606524708
 20
271.6063583562661
 30
0.0
 10
519.1997606524708
 20
293.5000000000005
 30
0.0
  0
SPLINE
  5
3F0
330
1F
100
AcDbEntity
  8
PREDETERMINADA
100
AcDbSpline
210
0.0
220
0.0
230
1.0
 70
    24
 71
     2
 72
     6
 73
     3
 74
     0
 42
0.0000000001
 43
0.0000000001
 40
112.5152322211447
 40
112.5152322211447
 40
112.5152322211447
 40
142.7279839935164
 40
142.7279839935164
 40
142.7279839935164
 10
519.1997606524708
 20
306.5000000000006
 30
0.0
 10
519.1997606524708
 20
321.6063758861864
 30
0.0
 10
519.1997606524708
 20
336.7127517723723
 30
0.0
  0
POLYLINE
  5
3F1
330
1F
100
AcDbEntity
  8
PREDETERMINADA
100
AcDb2dPolyline
 66
     1
 10
0.0
 20
0.0
 30
0.0
  0
VERTEX
  5
3F3
330
3F1
100
AcDbEntity
  8
PREDETERMINADA
100
AcDbVertex
100
AcDb2dVertex
 10
499.1997606524708
 20
249.6947615070651
 30
0.0
  0
VERTEX
  5
3F4
330
3F1
100
AcDbEntity
  8
PREDETERMINADA
100
AcDbVertex
100
AcDb2dVertex
 10
499.1997606524708
 20
293.5017407365588
 30
0.0
  0
SEQEND
  5
3F2
330
3F1
100
AcDbEntity
  8
PREDETERMINADA
  0
POLYLINE
  5
3F5
330
1F
100
AcDbEntity
  8
PREDETERMINADA
100
AcDb2dPolyline
 66
     1
 10
0.0
 20
0.0
 30
0.0
  0
VERTEX
  5
3F7
330
3F5
100
AcDbEntity
  8
PREDETERMINADA
100
AcDbVertex
100
AcDb2dVertex
 10
499.1997606524708
 20
306.5018576863557
 30
0.0
  0
VERTEX
  5
3F8
330
3F5
100
AcDbEntity
  8
PREDETERMINADA
100
AcDbVertex
100
AcDb2dVertex
 10
499.1997606524708
 20
336.6947965669056
 30
0.0
  0
SEQEND
  5
3F6
330
3F5
100
AcDbEntity
  8
PREDETERMINADA
  0
SPLINE
  5
3F9
330
1F
100
AcDbEntity
  8
PREDETERMINADA
100
AcDbSpline
210
0.0
220
0.0
230
1.0
 70
    24
 71
     2
 72
     6
 73
     3
 74
     0
 42
0.0000000001
 43
0.0000000001
 40
55.69203852274239
 40
55.69203852274239
 40
55.69203852274239
 40
100.570311643472
 40
100.570311643472
 40
100.570311643472
 10
479.1997606524707
 20
249.6768063015982
 30
0.0
 10
479.1997606524708
 20
272.115942861963
 30
0.0
 10
479.1997606524708
 20
294.5550794223278
 30
0.0
  0
SPLINE
  5
3FA
330
1F
100
AcDbEntity
  8
PREDETERMINADA
100
AcDbSpline
210
0.0
220
0.0
230
1.0
 70
    24
 71
     2
 72
     6
 73
     3
 74
     0
 42
0.0000000001
 43
0.0000000001
 40
113.6415973561606
 40
113.6415973561606
 40
113.6415973561606
 40
142.692073582583
 40
142.692073582583
 40
142.692073582583
 10
479.1997606524708
 20
307.6263651350164
 30
0.0
 10
479.1997606524708
 20
322.1516032482276
 30
0.0
 10
479.1997606524708
 20
336.6768413614388
 30
0.0
  0
POLYLINE
  5
3FB
330
1F
100
AcDbEntity
  8
PREDETERMINADA
100
AcDb2dPolyline
 66
     1
 10
0.0
 20
0.0
 30
0.0
  0
VERTEX
  5
3FD
330
3FB
100
AcDbEntity
  8
PREDETERMINADA
100
AcDbVertex
100
AcDb2dVertex
 10
459.1509748953912
 20
249.6588072982167
 30
0.0
  0
VERTEX
  5
3FE
330
3FB
100
AcDbEntity
  8
PREDETERMINADA
100
AcDbVertex
100
AcDb2dVertex
 10
459.1509748953912
 20
297.5902380497441
 30
0.0
  0
SEQEND
  5
3FC
330
3FB
100
AcDbEntity
  8
PREDETERMINADA
  0
POLYLINE
  5
3FF
330
1F
100
AcDbEntity
  8
PREDETERMINADA
100
AcDb2dPolyline
 66
     1
 10
0.0
 20
0.0
 30
0.0
  0
VERTEX
  5
401
330
3FF
100
AcDbEntity
  8
PREDETERMINADA
100
AcDbVertex
100
AcDb2dVertex
 10
459.1509748953912
 20
310.8711768852795
 30
0.0
  0
VERTEX
  5
402
330
3FF
100
AcDbEntity
  8
PREDETERMINADA
100
AcDbVertex
100
AcDb2dVertex
 10
459.1509748953912
 20
336.6588423580574
 30
0.0
  0
SEQEND
  5
400
330
3FF
100
AcDbEntity
  8
PREDETERMINADA
  0
POLYLINE
  5
403
330
1F
100
AcDbEntity
  8
PREDETERMINADA
100
AcDb2dPolyline
 66
     1
 10
0.0
 20
0.0
 30
0.0
  0
VERTEX
  5
405
330
403
100
AcDbEntity
  8
PREDETERMINADA
100
AcDbVertex
100
AcDb2dVertex
 10
439.1002514603884
 20
249.6408065552653
 30
0.0
  0
VERTEX
  5
406
330
403
100
AcDbEntity
  8
PREDETERMINADA
100
AcDbVertex
100
AcDb2dVertex
 10
439.1002514603884
 20
302.699051536562
 30
0.0
  0
SEQEND
  5
404
330
403
100
AcDbEntity
  8
PREDETERMINADA
  0
POLYLINE
  5
407
330
1F
100
AcDbEntity
  8
PREDETERMINADA
100
AcDb2dPolyline
 66
     1
 10
0.0
 20
0.0
 30
0.0
  0
VERTEX
  5
409
330
407
100
AcDbEntity
  8
PREDETERMINADA
100
AcDbVertex
100
AcDb2dVertex
 10
439.1002514603884
 20
316.3490695243496
 30
0.0
  0
VERTEX
  5
40A
330
407
100
AcDbEntity
  8
PREDETERMINADA
100
AcDbVertex
100
AcDb2dVertex
 10
439.1002514603884
 20
336.640841615105
 30
0.0
  0
SEQEND
  5
408
330
407
100
AcDbEntity
  8
PREDETERMINADA
  0
SPLINE
  5
40B
330
1F
100
AcDbEntity
  8
PREDETERMINADA
 62
     5
100
AcDbSpline
210
0.0
220
0.0
230
1.0
 70
    24
 71
     2
 72
     6
 73
     3
 74
     0
 42
0.0000000001
 43
0.0000000001
 40
-719.1435052261714
 40
-719.1435052261714
 40
-719.1435052261714
 40
-99.99722923350136
 40
-99.99722923350136
 40
-99.99722923350136
 10
200.1345976274604
 20
299.9565228867908
 30
0.0
 10
200.0000041637747
 20
609.529631624448
 30
0.0
 10
199.865410700089
 20
919.1027403621054
 30
0.0
  0
ARC
  5
40C
330
1F
100
AcDbEntity
  8
PREDETERMINADA
100
AcDbCircle
 10
739.1997606524708
 20
349.9102642713353
 30
0.0
 40
100.0
100
AcDbArc
 50
270.0514378608594
 51
0.0
  0
POLYLINE
  5
40D
330
1F
100
AcDbEntity
  8
PREDETERMINADA
100
AcDb2dPolyline
 66
     1
 10
0.0
 20
0.0
 30
0.0
  0
VERTEX
  5
40F
330
40D
100
AcDbEntity
  8
PREDETERMINADA
100
AcDbVertex
100
AcDb2dVertex
 10
279.1002514603882
 20
279.5925413623326
 30
0.0
  0
VERTEX
  5
410
330
40D
100
AcDbEntity
  8
PREDETERMINADA
100
AcDbVertex
100
AcDb2dVertex
 10
279.1002514603883
 20
336.4971999713714
 30
0.0
  0
SEQEND
  5
40E
330
40D
100
AcDbEntity
  8
PREDETERMINADA
  0
SPLINE
  5
411
330
1F
100
AcDbEntity
  8
PREDETERMINADA
100
AcDbSpline
210
0.0
220
0.0
230
1.0
 70
    24
 71
     2
 72
     6
 73
     3
 74
     0
 42
0.0000000001
 43
0.0000000001
 40
70.34650390347528
 40
70.34650390347528
 40
70.34650390347528
 40
142.8716256372501
 40
142.8716256372501
 40
142.8716256372501
 10
299.1002514603882
 20
263.9900334430631
 30
0.0
 10
299.1002514603883
 20
300.2525943099505
 30
0.0
 10
299.1002514603883
 20
336.5151551768379
 30
0.0
  0
SPLINE
  5
412
330
1F
100
AcDbEntity
  8
PREDETERMINADA
100
AcDbSpline
210
0.0
220
0.0
230
1.0
 70
    24
 71
     2
 72
     6
 73
     3
 74
     0
 42
0.0000000001
 43
0.0000000001
 40
61.28692506107858
 40
61.28692506107858
 40
61.28692506107858
 40
142.8895808427169
 40
142.8895808427169
 40
142.8895808427169
 10
319.1002514603882
 20
254.9304546006663
 30
0.0
 10
319.1002514603882
 20
295.7317824914855
 30
0.0
 10
319.1002514603882
 20
336.5331103823048
 30
0.0
  0
SPLINE
  5
413
330
1F
100
AcDbEntity
  8
PREDETERMINADA
100
AcDbSpline
210
0.0
220
0.0
230
1.0
 70
    24
 71
     2
 72
     6
 73
     3
 74
     0
 42
0.0000000001
 43
0.0000000001
 40
288.8596128460517
 40
288.8596128460517
 40
288.8596128460517
 40
480.0026602064751
 40
480.0026602064751
 40
480.0026602064751
 10
267.9572811280262
 20
292.98717872536
 30
0.0
 10
363.5287662942073
 20
293.0729790080061
 30
0.0
 10
459.1002514603883
 20
293.1587792906523
 30
0.0
  0
SPLINE
  5
414
330
1F
100
AcDbEntity
  8
PREDETERMINADA
100
AcDbSpline
210
0.0
220
0.0
230
1.0
 70
    24
 71
     2
 72
     6
 73
     3
 74
     0
 42
0.0000000001
 43
0.0000000001
 40
224.3641032368606
 40
224.3641032368606
 40
224.3641032368606
 40
617.6864662195434
 40
617.6864662195434
 40
617.6864662195434
 10
743.4352173258352
 20
250.0
 30
0.0
 10
546.7740358344938
 20
250.0
 30
0.0
 10
350.1128543431524
 20
250.0
 30
0.0
  0
POLYLINE
  5
415
330
1F
100
AcDbEntity
  8
PREDETERMINADA
100
AcDb2dPolyline
 66
     1
 10
0.0
 20
0.0
 30
0.0
  0
VERTEX
  5
417
330
415
100
AcDbEntity
  8
PREDETERMINADA
100
AcDbVertex
100
AcDb2dVertex
 10
459.1002514603884
 20
271.41292707661
 30
0.0
  0
VERTEX
  5
418
330
415
100
AcDbEntity
  8
PREDETERMINADA
100
AcDbVertex
100
AcDb2dVertex
 10
801.3050779879187
 20
271.5334210160518
 30
0.0
  0
SEQEND
  5
416
330
415
100
AcDbEntity
  8
PREDETERMINADA
  0
POLYLINE
  5
419
330
1F
100
AcDbEntity
  8
PREDETERMINADA
100
AcDb2dPolyline
 66
     1
 10
0.0
 20
0.0
 30
0.0
  0
VERTEX
  5
41B
330
419
100
AcDbEntity
  8
PREDETERMINADA
100
AcDbVertex
100
AcDb2dVertex
 10
819.1997606524709
 20
289.9102642713356
 30
0.0
  0
VERTEX
  5
41C
330
419
100
AcDbEntity
  8
PREDETERMINADA
100
AcDbVertex
100
AcDb2dVertex
 10
819.1997606524709
 20
336.9820798543731
 30
0.0
  0
SEQEND
  5
41A
330
419
100
AcDbEntity
  8
PREDETERMINADA
  0
SPLINE
  5
41D
330
1F
100
AcDbEntity
  8
PREDETERMINADA
100
AcDbSpline
210
0.0
220
0.0
230
1.0
 70
    24
 71
     2
 72
     6
 73
     3
 74
     0
 42
0.0000000001
 43
0.0000000001
 40
75.92549649247971
 40
75.92549649247971
 40
75.92549649247971
 40
142.9793568700505
 40
142.9793568700505
 40
142.9793568700505
 10
799.1997606524709
 20
269.9102642713354
 30
0.0
 10
799.1997606524709
 20
303.4371944601207
 30
0.0
 10
799.1997606524709
 20
336.9641246489061
 30
0.0
  0
SPLINE
  5
41E
330
1F
100
AcDbEntity
  8
PREDETERMINADA
100
AcDbSpline
210
0.0
220
0.0
230
1.0
 70
    24
 71
     2
 72
     6
 73
     3
 74
     0
 42
0.0000000001
 43
0.0000000001
 40
64.2739825933629
 40
64.2739825933629
 40
64.2739825933629
 40
142.9614016645838
 40
142.9614016645838
 40
142.9614016645838
 10
779.1997606524709
 20
258.2587503722186
 30
0.0
 10
779.1997606524709
 20
297.6024599078291
 30
0.0
 10
779.1997606524709
 20
336.9461694434397
 30
0.0
  0
SPLINE
  5
41F
330
1F
100
AcDbEntity
  8
PREDETERMINADA
100
AcDbSpline
210
0.0
220
0.0
230
1.0
 70
    24
 71
     2
 72
     6
 73
     3
 74
     0
 42
0.0000000001
 43
0.0000000001
 40
57.94590678115242
 40
57.94590678115242
 40
57.94590678115242
 40
142.9434464591171
 40
142.9434464591171
 40
142.9434464591171
 10
759.1997606524709
 20
251.9306745600082
 30
0.0
 10
759.1997606524709
 20
294.4294443989905
 30
0.0
 10
759.1997606524709
 20
336.9282142379727
 30
0.0
  0
SPLINE
  5
420
330
1F
100
AcDbEntity
  8
PREDETERMINADA
100
AcDbSpline
210
0.0
220
0.0
230
1.0
 70
    24
 71
     2
 72
     6
 73
     3
 74
     0
 42
0.0000000001
 43
0.0000000001
 40
99.86394526748265
 40
99.86394526748265
 40
99.86394526748265
 40
462.5624337715207
 40
462.5624337715207
 40
462.5624337715207
 10
459.0611989042359
 20
293.1587442308187
 30
0.0
 10
640.4103700749637
 20
293.3215523122986
 30
0.0
 10
821.7595412456915
 20
293.4843603937786
 30
0.0
  0
POLYLINE
  5
421
330
1F
100
AcDbEntity
  8
PREDETERMINADA
100
AcDb2dPolyline
 66
     1
 10
0.0
 20
0.0
 30
0.0
  0
VERTEX
  5
423
330
421
100
AcDbEntity
  8
PREDETERMINADA
100
AcDbVertex
100
AcDb2dVertex
 10
685.217298276973
 20
314.9925415016833
 30
0.0
  0
VERTEX
  5
424
330
421
100
AcDbEntity
  8
PREDETERMINADA
100
AcDbVertex
100
AcDb2dVertex
 10
832.9247948177186
 20
315.0445508737423
 30
0.0
  0
SEQEND
  5
422
330
421
100
AcDbEntity
  8
PREDETERMINADA
  0
SPLINE
  5
425
330
1F
100
AcDbEntity
  8
PREDETERMINADA
100
AcDbSpline
210
0.0
220
0.0
230
1.0
 70
    24
 71
     2
 72
     6
 73
     3
 74
     0
 42
0.0000000001
 43
0.0000000001
 40
360.9714832258463
 40
360.9714832258463
 40
360.9714832258463
 40
479.2047427482321
 40
479.2047427482321
 40
479.2047427482321
 10
720.1295790836426
 20
336.8931385810884
 30
0.0
 10
779.2461850216339
 20
336.946211121394
 30
0.0
 10
838.362790959625
 20
336.9992836616995
 30
0.0
  0
SPLINE
  5
426
330
1F
100
AcDbEntity
  8
PREDETERMINADA
100
AcDbSpline
210
0.0
220
0.0
230
1.0
 70
    12
 71
     2
 72
     6
 73
     3
 74
     0
 42
0.0000000001
 43
0.0000000001
 40
-29.3870464729927
 40
-29.3870464729927
 40
-29.3870464729927
 40
0.0
 40
0.0
 40
0.0
 10
791.1340984955011
 20
440.1854323763382
 30
0.0
 41
1.0
 10
795.699760652471
 20
455.2719067250504
 30
0.0
 41
0.9892244267097322
 10
795.6997606524709
 20
471.0341076883022
 30
0.0
 41
1.0
  0
SPLINE
  5
427
330
1F
100
AcDbEntity
  8
PREDETERMINADA
100
AcDbSpline
210
0.0
220
0.0
230
1.0
 70
    12
 71
     2
 72
     6
 73
     3
 74
     0
 42
0.0000000001
 43
0.0000000001
 40
-29.3870464729927
 40
-29.3870464729927
 40
-29.3870464729927
 40
0.0
 40
0.0
 40
0.0
 10
778.6914093691219
 20
443.9509983768597
 30
0.0
 41
1.0
 10
782.699760652471
 20
457.1959312557759
 30
0.0
 41
0.9892244267097322
 10
782.6997606524709
 20
471.0341076883021
 30
0.0
 41
1.0
  0
SPLINE
  5
428
330
1F
100
AcDbEntity
  8
PREDETERMINADA
100
AcDbSpline
210
0.0
220
0.0
230
1.0
 70
    12
 71
     2
 72
     6
 73
     3
 74
     0
 42
0.0000000001
 43
0.0000000001
 40
-14.6935232364984
 40
-14.6935232364984
 40
-14.6935232364984
 40
0.0
 40
0.0
 40
0.0
 10
695.4211052156587
 20
469.1513246880364
 30
0.0
 41
1.0
 10
697.8432640125484
 20
477.1549472298422
 30
0.0
 41
0.9892244267097442
 10
697.8432640125488
 20
485.5170538441499
 30
0.0
 41
1.0
  0
SPLINE
  5
429
330
1F
100
AcDbEntity
  8
PREDETERMINADA
100
AcDbSpline
210
0.0
220
0.0
230
1.0
 70
    12
 71
     2
 72
     6
 73
     3
 74
     0
 42
0.0000000001
 43
0.0000000001
 40
-14.6935232364984
 40
-14.6935232364984
 40
-14.6935232364984
 40
0.0
 40
0.0
 40
0.0
 10
682.9784160892792
 20
472.9168906885569
 30
0.0
 41
1.0
 10
684.8432640125485
 20
479.0789717605676
 30
0.0
 41
0.9892244267097442
 10
684.8432640125488
 20
485.5170538441507
 30
0.0
 41
1.0
  0
SPLINE
  5
42A
330
1F
100
AcDbEntity
  8
PREDETERMINADA
100
AcDbSpline
210
0.0
220
0.0
230
1.0
 70
    24
 71
     2
 72
     6
 73
     3
 74
     0
 42
0.0000000001
 43
0.0000000001
 40
12.22177891944375
 40
12.22177891944375
 40
12.22177891944375
 40
52.14872383877241
 40
52.14872383877241
 40
52.14872383877241
 10
795.6997606524708
 20
471.0341076883021
 30
0.0
 10
795.6997606524708
 20
490.9975801479665
 30
0.0
 10
795.6997606524707
 20
510.9610526076308
 30
0.0
  0
SPLINE
  5
42B
330
1F
100
AcDbEntity
  8
PREDETERMINADA
100
AcDbSpline
210
0.0
220
0.0
230
1.0
 70
    24
 71
     2
 72
     6
 73
     3
 74
     0
 42
0.0000000001
 43
0.0000000001
 40
12.22177891944375
 40
12.22177891944375
 40
12.22177891944375
 40
52.13705295521905
 40
52.13705295521905
 40
52.13705295521905
 10
782.6997606524708
 20
471.0341076883021
 30
0.0
 10
782.6997606524708
 20
490.9917447061898
 30
0.0
 10
782.6997606524707
 20
510.9493817240775
 30
0.0
  0
SPLINE
  5
42C
330
1F
100
AcDbEntity
  8
PREDETERMINADA
100
AcDbSpline
210
0.0
220
0.0
230
1.0
 70
    24
 71
     2
 72
     6
 73
     3
 74
     0
 42
0.0000000001
 43
0.0000000001
 40
6.110889459723694
 40
6.110889459723694
 40
6.110889459723694
 40
31.46703654803299
 40
31.46703654803299
 40
31.46703654803299
 10
697.8432640125488
 20
485.5170538441504
 30
0.0
 10
697.8432640125486
 20
498.195127388305
 30
0.0
 10
697.8432640125484
 20
510.8732009324596
 30
0.0
  0
SPLINE
  5
42D
330
1F
100
AcDbEntity
  8
PREDETERMINADA
100
AcDbSpline
210
0.0
220
0.0
230
1.0
 70
    24
 71
     2
 72
     6
 73
     3
 74
     0
 42
0.0000000001
 43
0.0000000001
 40
6.110889459723694
 40
6.110889459723694
 40
6.110889459723694
 40
31.45536566447985
 40
31.45536566447985
 40
31.45536566447985
 10
684.8432640125488
 20
485.5170538441502
 30
0.0
 10
684.8432640125486
 20
498.1892919465282
 30
0.0
 10
684.8432640125485
 20
510.8615300489063
 30
0.0
  0
POLYLINE
  5
42E
330
1F
100
AcDbEntity
  8
PREDETERMINADA
100
AcDb2dPolyline
 66
     1
 10
0.0
 20
0.0
 30
0.0
  0
VERTEX
  5
430
330
42E
100
AcDbEntity
  8
PREDETERMINADA
100
AcDbVertex
100
AcDb2dVertex
 10
839.1997606524708
 20
349.9102642713353
 30
0.0
  0
VERTEX
  5
431
330
42E
100
AcDbEntity
  8
PREDETERMINADA
100
AcDbVertex
100
AcDb2dVertex
 10
839.1216555401659
 20
424.0000000000134
 30
0.0
  0
SEQEND
  5
42F
330
42E
100
AcDbEntity
  8
PREDETERMINADA
  0
POLYLINE
  5
432
330
1F
100
AcDbEntity
  8
PREDETERMINADA
100
AcDb2dPolyline
 66
     1
 10
0.0
 20
0.0
 30
0.0
  0
VERTEX
  5
434
330
432
100
AcDbEntity
  8
PREDETERMINADA
100
AcDbVertex
100
AcDb2dVertex
 10
459.0338172269334
 20
488.9129550841958
 30
0.0
  0
VERTEX
  5
435
330
432
100
AcDbEntity
  8
PREDETERMINADA
100
AcDbVertex
100
AcDb2dVertex
 10
684.8432640125488
 20
488.9924649791394
 30
0.0
  0
SEQEND
  5
433
330
432
100
AcDbEntity
  8
PREDETERMINADA
  0
SPLINE
  5
436
330
1F
100
AcDbEntity
  8
PREDETERMINADA
100
AcDbSpline
210
0.0
220
0.0
230
1.0
 70
    24
 71
     2
 72
     6
 73
     3
 74
     0
 42
0.0000000001
 43
0.0000000001
 40
99.86394526748266
 40
99.86394526748266
 40
99.86394526748266
 40
325.7125356231758
 40
325.7125356231758
 40
325.7125356231758
 10
458.9947646707808
 20
510.6587722384047
 30
0.0
 10
571.9190143416647
 20
510.7601511436555
 30
0.0
 10
684.8432640125485
 20
510.8615300489063
 30
0.0
  0
SPLINE
  5
437
330
1F
100
AcDbEntity
  8
PREDETERMINADA
100
AcDbSpline
210
0.0
220
0.0
230
1.0
 70
    24
 71
     2
 72
     6
 73
     3
 74
     0
 42
0.0000000001
 43
0.0000000001
 40
338.7125408620018
 40
338.7125408620018
 40
338.7125408620018
 40
423.5690716979577
 40
423.5690716979577
 40
423.5690716979577
 10
697.8432640125484
 20
510.8732009324597
 30
0.0
 10
740.2715123325096
 20
510.9112913282686
 30
0.0
 10
782.6997606524708
 20
510.9493817240775
 30
0.0
  0
SPLINE
  5
438
330
1F
100
AcDbEntity
  8
PREDETERMINADA
100
AcDbSpline
210
0.0
220
0.0
230
1.0
 70
    24
 71
     2
 72
     6
 73
     3
 74
     0
 42
0.0000000001
 43
0.0000000001
 40
436.5690769367839
 40
436.5690769367839
 40
436.5690769367839
 40
480.0417127783658
 40
480.0417127783658
 40
480.0417127783658
 10
795.6997606524706
 20
510.9610526076308
 30
0.0
 10
817.4360698138196
 20
510.9805666024848
 30
0.0
 10
839.1723789751686
 20
511.0000805973389
 30
0.0
  0
POLYLINE
  5
439
330
1F
100
AcDbEntity
  8
PREDETERMINADA
100
AcDb2dPolyline
 66
     1
 10
0.0
 20
0.0
 30
0.0
  0
VERTEX
  5
43B
330
439
100
AcDbEntity
  8
PREDETERMINADA
100
AcDbVertex
100
AcDb2dVertex
 10
697.8432640125488
 20
488.9970424166601
 30
0.0
  0
VERTEX
  5
43C
330
439
100
AcDbEntity
  8
PREDETERMINADA
100
AcDbVertex
100
AcDb2dVertex
 10
782.6997606524708
 20
489.0269212867834
 30
0.0
  0
SEQEND
  5
43A
330
439
100
AcDbEntity
  8
PREDETERMINADA
  0
POLYLINE
  5
43D
330
1F
100
AcDbEntity
  8
PREDETERMINADA
100
AcDb2dPolyline
 66
     1
 10
0.0
 20
0.0
 30
0.0
  0
VERTEX
  5
43F
330
43D
100
AcDbEntity
  8
PREDETERMINADA
100
AcDbVertex
100
AcDb2dVertex
 10
795.6997606524708
 20
489.0314987243042
 30
0.0
  0
VERTEX
  5
440
330
43D
100
AcDbEntity
  8
PREDETERMINADA
100
AcDbVertex
100
AcDb2dVertex
 10
839.1723789751684
 20
489.0468058930917
 30
0.0
  0
SEQEND
  5
43E
330
43D
100
AcDbEntity
  8
PREDETERMINADA
  0
SPLINE
  5
441
330
1F
100
AcDbEntity
  8
PREDETERMINADA
100
AcDbSpline
210
0.0
220
0.0
230
1.0
 70
    24
 71
     2
 72
     6
 73
     3
 74
     0
 42
0.0000000001
 43
0.0000000001
 40
335.6953232653715
 40
335.6953232653715
 40
335.6953232653715
 40
423.4612728178406
 40
423.4612728178406
 40
423.4612728178406
 10
694.8651001879687
 20
467.3705097253707
 30
0.0
 10
738.7480572799582
 20
467.4099061009244
 30
0.0
 10
782.6310143719478
 20
467.4493024764783
 30
0.0
  0
SPLINE
  5
442
330
1F
100
AcDbEntity
  8
PREDETERMINADA
100
AcDbSpline
210
0.0
220
0.0
230
1.0
 70
    24
 71
     2
 72
     6
 73
     3
 74
     0
 42
0.0000000001
 43
0.0000000001
 40
436.470067404709
 40
436.470067404709
 40
436.470067404709
 40
480.0026602064751
 40
480.0026602064751
 40
480.0026602064751
 10
795.639803716448
 20
467.460981250756
 30
0.0
 10
817.4060913458081
 20
467.4805221590877
 30
0.0
 10
839.1723789751684
 20
467.5000630674194
 30
0.0
  0
POLYLINE
  5
443
330
1F
100
AcDbEntity
  8
PREDETERMINADA
100
AcDb2dPolyline
 66
     1
 10
0.0
 20
0.0
 30
0.0
  0
VERTEX
  5
445
330
443
100
AcDbEntity
  8
PREDETERMINADA
100
AcDbVertex
100
AcDb2dVertex
 10
684.9809438147059
 20
445.4925172367492
 30
0.0
  0
VERTEX
  5
446
330
443
100
AcDbEntity
  8
PREDETERMINADA
100
AcDbVertex
100
AcDb2dVertex
 10
779.1529146949225
 20
445.5256761838965
 30
0.0
  0
SEQEND
  5
444
330
443
100
AcDbEntity
  8
PREDETERMINADA
  0
POLYLINE
  5
447
330
1F
100
AcDbEntity
  8
PREDETERMINADA
100
AcDb2dPolyline
 66
     1
 10
0.0
 20
0.0
 30
0.0
  0
VERTEX
  5
449
330
447
100
AcDbEntity
  8
PREDETERMINADA
100
AcDbVertex
100
AcDb2dVertex
 10
792.6009766756
 20
445.5304113887805
 30
0.0
  0
VERTEX
  5
44A
330
447
100
AcDbEntity
  8
PREDETERMINADA
100
AcDbVertex
100
AcDb2dVertex
 10
839.1723789751684
 20
445.5468096721868
 30
0.0
  0
SEQEND
  5
448
330
447
100
AcDbEntity
  8
PREDETERMINADA
  0
SPLINE
  5
44B
330
1F
100
AcDbEntity
  8
PREDETERMINADA
100
AcDbSpline
210
0.0
220
0.0
230
1.0
 70
    24
 71
     2
 72
     6
 73
     3
 74
     0
 42
0.0000000001
 43
0.0000000001
 40
77.60960191786675
 40
77.60960191786675
 40
77.60960191786675
 40
142.9614016645838
 40
142.9614016645838
 40
142.9614016645838
 10
779.1723789751684
 20
445.5944152342216
 30
0.0
 10
779.1723789751684
 20
478.2703151075802
 30
0.0
 10
779.1723789751684
 20
510.9462149809387
 30
0.0
  0
SPLINE
  5
44C
330
1F
100
AcDbEntity
  8
PREDETERMINADA
100
AcDbSpline
210
0.0
220
0.0
230
1.0
 70
    24
 71
     2
 72
     6
 73
     3
 74
     0
 42
0.0000000001
 43
0.0000000001
 40
308.8571862870203
 40
308.8571862870203
 40
308.8571862870203
 40
412.3309568093918
 40
412.3309568093918
 40
412.3309568093918
 10
667.9371980338678
 20
423.8463173946517
 30
0.0
 10
719.674062445789
 20
423.8927646961877
 30
0.0
 10
771.4109268577101
 20
423.9392119977236
 30
0.0
  0
SPLINE
  5
44D
330
1F
100
AcDbEntity
  8
PREDETERMINADA
100
AcDbSpline
210
0.0
220
0.0
230
1.0
 70
    24
 71
     2
 72
     6
 73
     3
 74
     0
 42
0.0000000001
 43
0.0000000001
 40
426.3935912975616
 40
426.3935912975616
 40
426.3935912975616
 40
480.0417127783658
 40
480.0417127783658
 40
480.0417127783658
 10
785.4735556788287
 20
423.951836867218
 30
0.0
 10
812.2976056094973
 20
423.9759184336157
 30
0.0
 10
839.1216555401659
 20
424.0000000000134
 30
0.0
  0
SPLINE
  5
44E
330
1F
100
AcDbEntity
  8
PREDETERMINADA
100
AcDbSpline
210
0.0
220
0.0
230
1.0
 70
    24
 71
     2
 72
     6
 73
     3
 74
     0
 42
0.0000000001
 43
0.0000000001
 40
55.96136660474391
 40
55.96136660474391
 40
55.96136660474391
 40
128.5611999593412
 40
128.5611999593412
 40
128.5611999593412
 10
779.1216555401656
 20
336.9460993237733
 30
0.0
 10
779.1216555401656
 20
373.246016001072
 30
0.0
 10
779.1216555401656
 20
409.5459326783707
 30
0.0
  0
POLYLINE
  5
44F
330
1F
100
AcDbEntity
  8
PREDETERMINADA
100
AcDb2dPolyline
 66
     1
 10
0.0
 20
0.0
 30
0.0
  0
VERTEX
  5
451
330
44F
100
AcDbEntity
  8
PREDETERMINADA
100
AcDbVertex
100
AcDb2dVertex
 10
635.1200308306926
 20
401.9748941656702
 30
0.0
  0
VERTEX
  5
452
330
44F
100
AcDbEntity
  8
PREDETERMINADA
100
AcDbVertex
100
AcDb2dVertex
 10
760.3459031530757
 20
402.0189875200197
 30
0.0
  0
SEQEND
  5
450
330
44F
100
AcDbEntity
  8
PREDETERMINADA
  0
POLYLINE
  5
453
330
1F
100
AcDbEntity
  8
PREDETERMINADA
100
AcDb2dPolyline
 66
     1
 10
0.0
 20
0.0
 30
0.0
  0
VERTEX
  5
455
330
453
100
AcDbEntity
  8
PREDETERMINADA
100
AcDbVertex
100
AcDb2dVertex
 10
775.2641051412497
 20
402.0242403767522
 30
0.0
  0
VERTEX
  5
456
330
453
100
AcDbEntity
  8
PREDETERMINADA
100
AcDbVertex
100
AcDb2dVertex
 10
839.1216555401656
 20
402.0467252957662
 30
0.0
  0
SEQEND
  5
454
330
453
100
AcDbEntity
  8
PREDETERMINADA
  0
SPLINE
  5
457
330
1F
100
AcDbEntity
  8
PREDETERMINADA
100
AcDbSpline
210
0.0
220
0.0
230
1.0
 70
    24
 71
     2
 72
     6
 73
     3
 74
     0
 42
0.0000000001
 43
0.0000000001
 40
55.87159057741006
 40
55.87159057741006
 40
55.87159057741006
 40
84.90764650265727
 40
84.90764650265727
 40
84.90764650265727
 10
299.0728697830858
 20
423.515165654497
 30
0.0
 10
299.0728697830858
 20
438.0331936171206
 30
0.0
 10
299.0728697830858
 20
452.5512215797442
 30
0.0
  0
SPLINE
  5
458
330
1F
100
AcDbEntity
  8
PREDETERMINADA
100
AcDbSpline
210
0.0
220
0.0
230
1.0
 70
    24
 71
     2
 72
     6
 73
     3
 74
     0
 42
0.0000000001
 43
0.0000000001
 40
55.96136660474391
 40
55.96136660474391
 40
55.96136660474391
 40
98.49873472144
 40
98.49873472144
 40
98.49873472144
 10
399.072869783086
 20
423.6049416818307
 30
0.0
 10
399.072869783086
 20
444.8736257401788
 30
0.0
 10
399.072869783086
 20
466.1423097985269
 30
0.0
  0
SPLINE
  5
459
330
1F
100
AcDbEntity
  8
PREDETERMINADA
100
AcDbSpline
210
0.0
220
0.0
230
1.0
 70
    24
 71
     2
 72
     6
 73
     3
 74
     0
 42
0.0000000001
 43
0.0000000001
 40
-669.1652390591823
 40
-669.1652390591823
 40
-669.1652390591823
 40
-508.6505630614055
 40
-508.6505630614055
 40
-508.6505630614055
 10
250.1128637944481
 20
349.9565228867922
 30
0.0
 10
250.0779702207441
 20
430.2138533003209
 30
0.0
 10
250.04307664704
 20
510.4711837138497
 30
0.0
  0
SPLINE
  5
45A
330
1F
100
AcDbEntity
  8
PREDETERMINADA
100
AcDbSpline
210
0.0
220
0.0
230
1.0
 70
    24
 71
     2
 72
     6
 73
     3
 74
     0
 42
0.0000000001
 43
0.0000000001
 40
508.6304230434123
 40
508.6304230434123
 40
508.6304230434123
 40
519.2304405582294
 40
519.2304405582294
 40
519.2304405582294
 10
293.5430637794242
 20
510.5102362741877
 30
0.0
 10
293.545368070232
 20
505.2102280176988
 30
0.0
 10
293.5476723610398
 20
499.9102197612098
 30
0.0
  0
SPLINE
  5
45B
330
1F
100
AcDbEntity
  8
PREDETERMINADA
100
AcDbSpline
210
0.0
220
0.0
230
1.0
 70
    24
 71
     2
 72
     6
 73
     3
 74
     0
 42
0.0000000001
 43
0.0000000001
 40
508.6244041874601
 40
508.6244041874601
 40
508.6244041874601
 40
519.2304405582294
 40
519.2304405582294
 40
519.2304405582294
 10
306.5430599339307
 20
510.5219071542887
 30
0.0
 10
306.545365533151
 20
505.2188894701081
 30
0.0
 10
306.5476711323711
 20
499.9158717859275
 30
0.0
  0
SPLINE
  5
45C
330
1F
100
AcDbEntity
  8
PREDETERMINADA
100
AcDbSpline
210
0.0
220
0.0
230
1.0
 70
    24
 71
     2
 72
     6
 73
     3
 74
     0
 42
0.0000000001
 43
0.0000000001
 40
508.5841241514732
 40
508.5841241514732
 40
508.5841241514732
 40
519.2304405582294
 40
519.2304405582294
 40
519.2304405582294
 10
393.5430341987054
 20
510.6000122749649
 30
0.0
 10
393.5453485542239
 20
505.2768545746944
 30
0.0
 10
393.5476629097425
 20
499.9536968744238
 30
0.0
  0
SPLINE
  5
45D
330
1F
100
AcDbEntity
  8
PREDETERMINADA
100
AcDbSpline
210
0.0
220
0.0
230
1.0
 70
    24
 71
     2
 72
     6
 73
     3
 74
     0
 42
0.0000000001
 43
0.0000000001
 40
508.5781052955209
 40
508.5781052955209
 40
508.5781052955209
 40
519.2304405582294
 40
519.2304405582294
 40
519.2304405582294
 10
406.5430303532119
 20
510.611683155066
 30
0.0
 10
406.5453460171428
 20
505.2855160271038
 30
0.0
 10
406.5476616810739
 20
499.9593488991414
 30
0.0
  0
SPLINE
  5
45E
330
1F
100
AcDbEntity
  8
PREDETERMINADA
100
AcDbSpline
210
0.0
220
0.0
230
1.0
 70
    24
 71
     2
 72
     6
 73
     3
 74
     0
 42
0.0000000001
 43
0.0000000001
 40
427.5118521796686
 40
427.5118521796686
 40
427.5118521796686
 40
480.0417127783658
 40
480.0417127783658
 40
480.0417127783658
 10
406.5430303532119
 20
510.611683155066
 30
0.0
 10
432.807950068149
 20
510.6352627565684
 30
0.0
 10
459.0728697830861
 20
510.6588423580708
 30
0.0
  0
SPLINE
  5
45F
330
1F
100
AcDbEntity
  8
PREDETERMINADA
100
AcDbSpline
210
0.0
220
0.0
230
1.0
 70
    24
 71
     2
 72
     6
 73
     3
 74
     0
 42
0.0000000001
 43
0.0000000001
 40
271.0118354061079
 40
271.0118354061079
 40
271.0118354061079
 40
314.5118400684054
 40
314.5118400684054
 40
314.5118400684054
 10
250.04307664704
 20
510.4711837138497
 30
0.0
 10
271.7930702132322
 20
510.4907099940187
 30
0.0
 10
293.5430637794243
 20
510.5102362741877
 30
0.0
  0
SPLINE
  5
460
330
1F
100
AcDbEntity
  8
PREDETERMINADA
100
AcDbSpline
210
0.0
220
0.0
230
1.0
 70
    24
 71
     2
 72
     6
 73
     3
 74
     0
 42
0.0000000001
 43
0.0000000001
 40
327.5118414617365
 40
327.5118414617365
 40
327.5118414617365
 40
414.5118507863374
 40
414.5118507863374
 40
414.5118507863374
 10
306.5430599339307
 20
510.5219071542888
 30
0.0
 10
350.043047066318
 20
510.5609597146268
 30
0.0
 10
393.5430341987053
 20
510.6000122749649
 30
0.0
  0
POLYLINE
  5
461
330
1F
100
AcDbEntity
  8
PREDETERMINADA
100
AcDb2dPolyline
 66
     1
 10
0.0
 20
0.0
 30
0.0
  0
VERTEX
  5
463
330
461
100
AcDbEntity
  8
PREDETERMINADA
100
AcDbVertex
100
AcDb2dVertex
 10
0.0
 20
0.0
 30
0.0
  0
VERTEX
  5
464
330
461
100
AcDbEntity
  8
PREDETERMINADA
100
AcDbVertex
100
AcDb2dVertex
 10
2440.0
 20
0.0
 30
0.0
  0
VERTEX
  5
465
330
461
100
AcDbEntity
  8
PREDETERMINADA
100
AcDbVertex
100
AcDb2dVertex
 10
2440.0
 20
1220.0
 30
0.0
  0
VERTEX
  5
466
330
461
100
AcDbEntity
  8
PREDETERMINADA
100
AcDbVertex
100
AcDb2dVertex
 10
0.0
 20
1220.0
 30
0.0
  0
VERTEX
  5
467
330
461
100
AcDbEntity
  8
PREDETERMINADA
100
AcDbVertex
100
AcDb2dVertex
 10
0.0
 20
0.0
 30
0.0
  0
SEQEND
  5
462
330
461
100
AcDbEntity
  8
PREDETERMINADA
  0
ENDSEC
  0
SECTION
  2
OBJECTS
  0
DICTIONARY
  5
C
330
0
100
AcDbDictionary
281
     1
  3
ACAD_GROUP
350
D
  3
ACAD_LAYOUT
350
1A
  3
ACAD_MLINESTYLE
350
17
  3
ACAD_PLOTSETTINGS
350
19
  3
ACAD_PLOTSTYLENAME
350
E
  0
DICTIONARY
  5
D
102
{ACAD_REACTORS
330
C
102
}
330
C
100
AcDbDictionary
281
     1
  0
DICTIONARY
  5
1A
102
{ACAD_REACTORS
330
C
102
}
330
C
100
AcDbDictionary
281
     1
  3
Layout1
350
1E
  3
Layout2
350
26
  3
Model
350
22
  0
DICTIONARY
  5
17
102
{ACAD_REACTORS
330
C
102
}
330
C
100
AcDbDictionary
281
     1
  3
Standard
350
18
  0
DICTIONARY
  5
19
102
{ACAD_REACTORS
330
C
102
}
330
C
100
AcDbDictionary
281
     1
  0
ACDBDICTIONARYWDFLT
  5
E
102
{ACAD_REACTORS
330
C
102
}
330
C
100
AcDbDictionary
281
     1
  3
Normal
350
F
100
AcDbDictionaryWithDefault
340
F
  0
LAYOUT
  5
1E
102
{ACAD_REACTORS
330
1A
102
}
330
1A
100
AcDbPlotSettings
  1

  2
none_device
  4

  6

 40
0.0
 41
0.0
 42
0.0
 43
0.0
 44
0.0
 45
0.0
 46
0.0
 47
0.0
 48
0.0
 49
0.0
140
0.0
141
0.0
142
1.0
143
1.0
 70
   688
 72
     0
 73
     0
 74
     5
  7

 75
    16
 76
     0
 77
     2
 78
   300
147
1.0
148
0.0
149
0.0
100
AcDbLayout
  1
Layout1
 70
     1
 71
     1
 10
0.0
 20
0.0
 11
12.0
 21
9.0
 12
0.0
 22
0.0
 32
0.0
 14
1.000000000000000E+20
 24
1.000000000000000E+20
 34
1.000000000000000E+20
 15
-1.000000000000000E+20
 25
-1.000000000000000E+20
 35
-1.000000000000000E+20
146
0.0
 13
0.0
 23
0.0
 33
0.0
 16
1.0
 26
0.0
 36
0.0
 17
0.0
 27
1.0
 37
0.0
 76
     0
330
1B
  0
LAYOUT
  5
26
102
{ACAD_REACTORS
330
1A
102
}
330
1A
100
AcDbPlotSettings
  1

  2
none_device
  4

  6

 40
0.0
 41
0.0
 42
0.0
 43
0.0
 44
0.0
 45
0.0
 46
0.0
 47
0.0
 48
0.0
 49
0.0
140
0.0
141
0.0
142
1.0
143
1.0
 70
   688
 72
     0
 73
     0
 74
     5
  7

 75
    16
 76
     0
 77
     2
 78
   300
147
1.0
148
0.0
149
0.0
100
AcDbLayout
  1
Layout2
 70
     1
 71
     2
 10
0.0
 20
0.0
 11
0.0
 21
0.0
 12
0.0
 22
0.0
 32
0.0
 14
0.0
 24
0.0
 34
0.0
 15
0.0
 25
0.0
 35
0.0
146
0.0
 13
0.0
 23
0.0
 33
0.0
 16
1.0
 26
0.0
 36
0.0
 17
0.0
 27
1.0
 37
0.0
 76
     0
330
23
  0
LAYOUT
  5
22
102
{ACAD_REACTORS
330
1A
102
}
330
1A
100
AcDbPlotSettings
  1

  2
none_device
  4

  6

 40
0.0
 41
0.0
 42
0.0
 43
0.0
 44
0.0
 45
0.0
 46
0.0
 47
0.0
 48
0.0
 49
0.0
140
0.0
141
0.0
142
1.0
143
1.0
 70
  1712
 72
     0
 73
     0
 74
     0
  7

 75
     0
 76
     0
 77
     2
 78
   300
147
1.0
148
0.0
149
0.0
100
AcDbLayout
  1
Model
 70
     1
 71
     0
 10
0.0
 20
0.0
 11
12.0
 21
9.0
 12
0.0
 22
0.0
 32
0.0
 14
0.0
 24
0.0
 34
0.0
 15
2440.0
 25
1220.0
 35
0.0
146
0.0
 13
0.0
 23
0.0
 33
0.0
 16
1.0
 26
0.0
 36
0.0
 17
0.0
 27
1.0
 37
0.0
 76
     0
330
1F
  0
MLINESTYLE
  5
18
102
{ACAD_REACTORS
330
17
102
}
330
17
100
AcDbMlineStyle
  2
Standard
 70
     0
  3

 62
   256
 51
90.0
 52
90.0
 71
     2
 49
0.5
 62
   256
  6
BYLAYER
 49
-0.5
 62
   256
  6
BYLAYER
  0
ACDBPLACEHOLDER
  5
F
102
{ACAD_REACTORS
330
E
102
}
330
E
  0
ENDSEC
  0
EOF
