0
SECTION
2
HEADER
9
$INSUNITS
70
4
9
$ACADVER
1
AC1014
9
$HANDSEED
5
FFFF
0
ENDSEC
0
SECTION
2
TABLES
0
TABLE
2
VPORT
5
8
100
AcDbSymbolTable
0
ENDTAB
0
TABLE
2
LTYPE
5
5
100
AcDbSymbolTable
0
LTYPE
5
14
100
AcDbSymbolTableRecord
100
AcDbLinetypeTableRecord
2
BYBLOCK
70
0
0
LTYPE
5
15
100
AcDbSymbolTableRecord
100
AcDbLinetypeTableRecord
2
BYLAYER
70
0
0
ENDTAB
0
TABLE
2
LAYER
5
2
100
AcDbSymbolTable
70
2
0
LAYER
5
50
100
AcDbSymbolTableRecord
100
AcDbLayerTableRecord
2
0
70
0
6
CONTINUOUS
0
ENDTAB
0
TABLE
2
STYLE
5
3
100
AcDbSymbolTable
70
1
0
STYLE
5
11
100
AcDbSymbolTableRecord
100
AcDbTextStyleTableRecord
2
STANDARD
70
0
0
ENDTAB
0
TABLE
2
VIEW
5
6
100
AcDbSymbolTable
70
0
0
ENDTAB
0
TABLE
2
UCS
5
7
100
AcDbSymbolTable
70
0
0
ENDTAB
0
TABLE
2
APPID
5
9
100
AcDbSymbolTable
70
2
0
APPID
5
12
100
AcDbSymbolTableRecord
100
AcDbRegAppTableRecord
2
ACAD
70
0
0
ENDTAB
0
TABLE
2
DIMSTYLE
5
A
100
AcDbSymbolTable
70
1
0
ENDTAB
0
TABLE
2
BLOCK_RECORD
5
1
100
AcDbSymbolTable
70
1
0
BLOCK_RECORD
5
1F
100
AcDbSymbolTableRecord
100
AcDbBlockTableRecord
2
*MODEL_SPACE
0
BLOCK_RECORD
5
1B
100
AcDbSymbolTableRecord
100
AcDbBlockTableRecord
2
*PAPER_SPACE
0
ENDTAB
0
ENDSEC
0
SECTION
2
BLOCKS
0
BLOCK
5
20
100
AcDbEntity
100
AcDbBlockBegin
2
*MODEL_SPACE
0
ENDBLK
5
21
100
AcDbEntity
100
AcDbBlockEnd
0
BLOCK
5
1C
100
AcDbEntity
100
AcDbBlockBegin
2
*PAPER_SPACE
0
ENDBLK
5
1D
100
AcDbEntity
100
AcDbBlockEnd
0
ENDSEC
0
SECTION
2
ENTITIES
0
LINE
5
100
100
AcDbEntity
8
0
100
AcDbLine
10
255.02731647067412
20
-31.194975070227567
30
0
11
255.02731647067412
21
-39.341185650731191
31
0
0
LINE
5
101
100
AcDbEntity
8
0
100
AcDbLine
10
256.1829903538644
20
-22.944981233627239
30
0
11
234.38299035386444
21
-22.944981233627594
31
0
0
LINE
5
102
100
AcDbEntity
8
0
100
AcDbLine
10
254.70194147934149
20
-64.185918855573149
30
0
11
254.70194147934149
21
-72.475643288084228
31
0
0
SPLINE
5
103
100
AcDbEntity
8
0
100
AcDbSpline
70
0
71
3
72
8
73
4
74
0
42
0.000000001
43
0.0000000001
44
0.0000000001
40
46
40
46
40
46
40
46
40
47
40
47
40
47
40
47
10
233.65912407564321
20
-72.475643288084186
30
0
10
231.3809513442601
20
-72.474790258172931
30
0
10
229.53343592911926
20
-74.320922638566941
30
0
10
229.53258289920998
20
-76.599095369948188
30
0
0
LINE
5
104
100
AcDbEntity
8
0
100
AcDbLine
10
233.65588664078251
20
-80.725784770300194
30
0
11
255.45588664078252
21
-80.725784770300194
31
0
0
LINE
5
105
100
AcDbEntity
8
0
100
AcDbLine
10
233.82694147935428
20
-64.185918855573135
30
0
11
254.70194147934149
21
-64.185918855573149
31
0
0
LINE
5
106
100
AcDbEntity
8
0
100
AcDbLine
10
255.17675305120636
20
-55.93592501897546
30
0
11
233.82694764272318
21
-55.935925018975439
31
0
0
SPLINE
5
107
100
AcDbEntity
8
0
100
AcDbSpline
70
0
71
3
72
8
73
4
74
0
42
0.000000001
43
0.0000000001
44
0.0000000001
40
49
40
49
40
49
40
49
40
50
40
50
40
50
40
50
10
229.53258289921001
20
-76.599095369948202
30
0
10
229.53164797535487
20
-78.877268069195395
30
0
10
231.37771394160654
20
-80.72484967304645
30
0
10
233.65588664078243
20
-80.72578477030018
30
0
0
LINE
5
108
100
AcDbEntity
8
0
100
AcDbLine
10
233.56888664078264
20
-111.99995492283267
30
0
11
236.56888664078264
21
-111.9999549228328
31
0
0
LINE
5
109
100
AcDbEntity
8
0
100
AcDbLine
10
255.17675305120636
20
-47.740106543499614
30
0
11
255.17675305120636
21
-55.93592501897546
31
0
0
SPLINE
5
110
100
AcDbEntity
8
0
100
AcDbSpline
70
0
71
3
72
8
73
4
74
0
42
0.000000001
43
0.0000000001
44
0.0000000001
40
61
40
61
40
61
40
61
40
62
40
62
40
62
40
62
10
229.44530991638783
20
-107.87353829938445
30
0
10
229.44452569991961
20
-110.15171105549456
30
0
10
231.29071388474608
20
-111.99917049356668
30
0
10
233.56888664078275
20
-111.99995492283271
30
0
0
SPLINE
5
111
100
AcDbEntity
8
0
100
AcDbSpline
70
0
71
3
72
8
73
4
74
0
42
0.000000001
43
0.0000000001
44
0.0000000001
40
29
40
29
40
29
40
29
40
30
40
30
40
30
40
30
10
229.25420060722701
20
-43.612666598584298
30
0
10
229.25285096111202
20
-45.890839089888061
30
0
10
231.09858055998217
20
-47.738756763386277
30
0
10
233.37675305120632
20
-47.740106543499643
30
0
0
SPLINE
5
112
100
AcDbEntity
8
0
100
AcDbSpline
70
0
71
3
72
10
73
6
74
0
42
0.000000001
43
0.0000000001
44
0.0000000001
40
4
40
4
40
4
40
4
40
5
40
5
40
6
40
6
40
6
40
6
10
-40.17280787518969
20
-105.95734857729261
30
0
10
-42.450855790623258
20
-105.93332418522975
30
0
10
-44.278102887275651
20
-104.06712585298399
30
0
10
-44.230054103149811
20
-99.511030022113147
30
0
10
-42.363855770904202
20
-97.683782925464456
30
0
10
-40.08580785547062
20
-97.70780731752734
30
0
0
SPLINE
5
113
100
AcDbEntity
8
0
100
AcDbSpline
70
0
71
3
72
8
73
4
74
0
42
0.000000001
43
0.0000000001
44
0.0000000001
40
106
40
106
40
106
40
106
40
107
40
107
40
107
40
107
10
22.615593743517216
20
-43.200897914138096
30
0
10
22.615595445483713
20
-40.92272502305309
30
0
10
20.768772797971259
20
-39.075899616106568
30
0
10
18.490599906886253
20
-39.075897914138082
30
0
0
LINE
5
114
100
AcDbEntity
8
0
100
AcDbLine
10
-3.1208252870940569
20
-47.506220708965259
30
0
11
18.679174712905954
21
-47.506220708965259
31
0
0
SPLINE
5
115
100
AcDbEntity
8
0
100
AcDbSpline
70
0
71
3
72
8
73
4
74
0
42
0.000000001
43
0.0000000001
44
0.0000000001
40
116
40
116
40
116
40
116
40
117
40
117
40
117
40
117
10
22.395173782603553
20
-26.466131328120859
30
0
10
22.139772943876956
20
-24.202319910786162
30
0
10
20.097547903630691
20
-22.574181446127966
30
0
10
17.83373648629571
20
-22.829582284852684
30
0
0
SPLINE
5
116
100
AcDbEntity
8
0
100
AcDbSpline
70
0
71
3
72
8
73
4
74
0
42
0.000000001
43
0.0000000001
44
0.0000000001
40
113
40
113
40
113
40
113
40
114
40
114
40
114
40
114
10
18.490599906885787
20
-30.800355826377192
30
0
10
20.765681256325152
20
-30.681711083085908
30
0
10
22.513818392080999
20
-28.741212684536208
30
0
10
22.395173782603543
20
-26.466131328120387
30
0
0
LINE
5
117
100
AcDbEntity
8
0
100
AcDbLine
10
18.679174712905947
20
-55.722377666758845
30
0
11
-3.1208252870940569
21
-55.722377666758845
31
0
0
LINE
5
118
100
AcDbEntity
8
0
100
AcDbLine
10
255.02731647067412
20
-39.341185650731191
30
0
11
233.22731647067417
21
-39.341185650731944
31
0
0
LINE
5
119
100
AcDbEntity
8
0
100
AcDbLine
10
-18.285807875195342
20
-97.707807317319322
30
0
11
-18.285807875195349
21
-72.897774034760886
31
0
0
LINE
5
120
100
AcDbEntity
8
0
100
AcDbLine
10
-40.08580787519535
20
-97.707807317319322
30
0
11
-18.285807875195342
21
-97.707807317319322
31
0
0
LINE
5
121
100
AcDbEntity
8
0
100
AcDbLine
10
18.396268148491103
20
-72.291211609078204
30
0
11
-2.9763022162294801
21
-72.291211609078204
31
0
0
LINE
5
122
100
AcDbEntity
8
0
100
AcDbLine
10
-18.261278090872576
20
-23.402445275079522
30
0
11
-40.061278090872577
21
-23.402445275079518
31
0
0
LINE
5
123
100
AcDbEntity
8
0
100
AcDbLine
10
-37.14827809087258
20
-64.648010554992368
30
0
11
-37.14827809087258
21
-56.466728518767454
31
0
0
SPLINE
5
124
100
AcDbEntity
8
0
100
AcDbSpline
70
0
71
3
72
11
73
7
74
0
42
0.000000001
43
0.0000000001
44
0.0000000001
40
13
40
13
40
13
40
13
40
14
40
14
40
14
40
15
40
15
40
15
40
15
10
-44.230610748996639
20
-239.89177548849005
30
0
10
-46.383985544982345
20
-239.82277567505542
30
0
10
-48.256418620527164
20
-238.18689391929172
30
0
10
-48.392181025189686
20
-236.03673107222119
30
0
10
-48.547918501609871
20
-233.57020923557772
30
0
10
-46.554238767868874
20
-231.56308613441456
30
0
10
-44.143610748996608
20
-231.64032902026645
30
0
0
LINE
5
125
100
AcDbEntity
8
0
100
AcDbLine
10
-37.172807875195339
20
-130.69596890858634
30
0
11
-37.172807875195346
21
-105.95734857729255
31
0
0
LINE
5
126
100
AcDbEntity
8
0
100
AcDbLine
10
18.490599906886253
20
-39.075897914138082
30
0
11
-3.3094000931137497
21
-39.075897914138075
31
0
0
LINE
5
127
100
AcDbEntity
8
0
100
AcDbLine
10
-22.343610748996724
20
-206.77134152549795
30
0
11
-44.143610748996728
21
-206.77134152549792
31
0
0
LINE
5
128
100
AcDbEntity
8
0
100
AcDbLine
10
254.70194147934149
20
-72.475643288084228
30
0
11
233.65912407564338
21
-72.475643288084228
31
0
0
LINE
5
129
100
AcDbEntity
8
0
100
AcDbLine
10
-40.148278090872573
20
-64.648010554992368
30
0
11
-37.14827809087258
21
-64.648010554992368
31
0
0
LINE
5
130
100
AcDbEntity
8
0
100
AcDbLine
10
-2.9763022162294801
20
-64.112005626512129
30
0
11
18.823697783770523
21
-64.112005626512129
31
0
0
SPLINE
5
131
100
AcDbEntity
8
0
100
AcDbSpline
70
0
71
3
72
10
73
6
74
0
42
0.000000001
43
0.0000000001
44
0.0000000001
40
13
40
13
40
13
40
13
40
14
40
14
40
15
40
15
40
15
40
15
10
-40.085807875195343
20
-72.897774034760857
30
0
10
-42.363917154988897
20
-72.915024708479464
30
0
10
-44.224674049200573
20
-71.082236682507954
30
0
10
-44.259175396637744
20
-66.526018122920703
30
0
10
-42.426387370666127
20
-64.665261228710975
30
0
10
-40.148278090872573
20
-64.648010554992354
30
0
0
LINE
5
132
100
AcDbEntity
8
0
100
AcDbLine
10
17.83373648629571
20
-22.829582284852687
30
0
11
-3.9662635137042934
21
-22.829582284852677
31
0
0
SPLINE
5
133
100
AcDbEntity
8
0
100
AcDbSpline
70
0
71
3
72
8
73
4
74
0
42
0.000000001
43
0.0000000001
44
0.0000000001
40
96
40
96
40
96
40
96
40
97
40
97
40
97
40
97
10
22.804168549536911
20
-59.84737766675886
30
0
10
22.804170251503407
20
-57.569204775673853
30
0
10
20.957347603990954
20
-55.722379368725413
30
0
10
18.679174712905947
20
-55.722377666758845
30
0
0
SPLINE
5
134
100
AcDbEntity
8
0
100
AcDbSpline
70
0
71
3
72
11
73
7
74
0
42
0.000000001
43
0.0000000001
44
0.0000000001
40
3
40
3
40
3
40
3
40
4
40
4
40
4
40
5
40
5
40
5
40
5
10
-44.242969881051621
20
-289.39211011384987
30
0
10
-46.396344674575673
20
-289.32311022359147
30
0
10
-48.2687776917588
20
-287.6872284010268
30
0
10
-48.404540019712137
20
-285.53706554911298
30
0
10
-48.560277408136727
20
-283.07054370691327
30
0
10
-46.566597602789642
20
-281.06342067687666
30
0
10
-44.155969586673081
20
-281.14066364873003
30
0
0
LINE
5
135
100
AcDbEntity
8
0
100
AcDbLine
10
-37.14827809087258
20
-56.466728518767454
30
0
11
-40.14827809087258
21
-56.466728518767468
31
0
0
LINE
5
136
100
AcDbEntity
8
0
100
AcDbLine
10
-44.23061074899671
20
-248.02093539275089
30
0
11
-41.230610748996725
21
-248.02093539275089
31
0
0
LINE
5
137
100
AcDbEntity
8
0
100
AcDbLine
10
-37.172807875195346
20
-105.95734857729255
30
0
11
-40.172807875195353
21
-105.95734857729256
31
0
0
LINE
5
138
100
AcDbEntity
8
0
100
AcDbLine
10
-3.3094000931137497
20
-39.075897914138075
30
0
11
-3.3094000931137488
21
-30.800355826377157
31
0
0
SPLINE
5
139
100
AcDbEntity
8
0
100
AcDbSpline
70
0
71
3
72
8
73
4
74
0
42
0.000000001
43
0.0000000001
44
0.0000000001
40
93
40
93
40
93
40
93
40
94
40
94
40
94
40
94
10
18.823697783770143
20
-64.112005626512158
30
0
10
21.100518927247801
20
-64.033537784114188
30
0
10
22.882636258015854
20
-62.124198814850672
30
0
10
22.804168549536868
20
-59.847377666757701
30
0
0
SPLINE
5
140
100
AcDbEntity
8
0
100
AcDbSpline
70
0
71
3
72
8
73
4
74
0
42
0.000000001
43
0.0000000001
44
0.0000000001
40
103
40
103
40
103
40
103
40
104
40
104
40
104
40
104
10
18.679174712905564
20
-47.506220708965287
30
0
10
20.955068874022935
20
-47.404350747399711
30
0
10
22.717463571220975
20
-45.476792081244433
30
0
10
22.615593743517181
20
-43.200897914137322
30
0
0
LINE
5
141
100
AcDbEntity
8
0
100
AcDbLine
10
-3.1208252870940569
20
-55.722377666758845
30
0
11
-3.1208252870940569
21
-47.506220708965259
31
0
0
LINE
5
142
100
AcDbEntity
8
0
100
AcDbLine
10
-40.198616348064355
20
-15.153588493493835
30
0
11
-37.198616348064363
21
-15.153588493493835
31
0
0
SPLINE
5
143
100
AcDbEntity
8
0
100
AcDbSpline
70
0
71
3
72
10
73
6
74
0
42
0.000000001
43
0.0000000001
44
0.0000000001
40
22
40
22
40
22
40
22
40
23
40
23
40
24
40
24
40
24
40
24
10
-40.148278090867535
20
-56.466728518767539
30
0
10
-42.426326006358543
20
-56.442704132151292
30
0
10
-44.25357310747291
20
-54.576505804274404
30
0
10
-44.205524334240437
20
-50.020409973292232
30
0
10
-42.339326006363613
20
-48.1931628721781
30
0
10
-40.061278090872591
20
-48.21718725879434
30
0
0
LINE
5
144
100
AcDbEntity
8
0
100
AcDbLine
10
-41.230610748996725
20
-248.02093539275089
30
0
11
-41.23061074899671
21
-239.89177548849003
31
0
0
LINE
5
145
100
AcDbEntity
8
0
100
AcDbLine
10
-2.9763022162294801
20
-72.291211609078204
30
0
11
-2.9763022162294801
21
-64.112005626512129
31
0
0
LINE
5
146
100
AcDbEntity
8
0
100
AcDbLine
10
15.95227301116012
20
-114.5334642490343
30
0
11
18.95227301116012
21
-114.53346424903431
31
0
0
SPLINE
5
147
100
AcDbEntity
8
0
100
AcDbSpline
70
0
71
3
72
8
73
4
74
0
42
0.000000001
43
0.0000000001
44
0.0000000001
40
86
40
86
40
86
40
86
40
87
40
87
40
87
40
87
10
22.527812017379809
20
-76.409651169359705
30
0
10
22.52419336247852
20
-74.131481152215628
30
0
10
20.674438165635177
20
-72.287592954176986
30
0
10
18.396268148491103
20
-72.291211609078204
30
0
0
LINE
5
148
100
AcDbEntity
8
0
100
AcDbLine
10
-2.9347269888399641
20
-105.06468057068673
30
0
11
-2.9347269888399614
21
-80.950246634730419
31
0
0
LINE
5
149
100
AcDbEntity
8
0
100
AcDbLine
10
-3.3094000931137488
20
-30.800355826377157
30
0
11
18.490599906886263
21
-30.800355826377157
31
0
0
LINE
5
150
100
AcDbEntity
8
0
100
AcDbLine
10
15.952273011160136
20
-134.2569591445957
30
0
11
15.95227301116012
21
-114.5334642490343
31
0
0
SPLINE
5
151
100
AcDbEntity
8
0
100
AcDbSpline
70
0
71
3
72
8
73
4
74
0
42
0.000000001
43
0.0000000001
44
0.0000000001
40
83
40
83
40
83
40
83
40
84
40
84
40
84
40
84
10
18.865273011159658
20
-80.950246634730433
30
0
10
21.130506045895796
20
-80.707778038789385
30
0
10
22.770280480083333
20
-78.6748842183558
30
0
10
22.527812017379652
20
-76.409651169358156
30
0
0
LINE
5
152
100
AcDbEntity
8
0
100
AcDbLine
10
-18.285807875195349
20
-72.897774034760886
30
0
11
-40.08580787519535
21
-72.897774034760886
31
0
0
LINE
5
153
100
AcDbEntity
8
0
100
AcDbLine
10
-2.9347269888399614
20
-80.950246634730419
30
0
11
18.865273011160046
21
-80.950246634730405
31
0
0
LINE
5
154
100
AcDbEntity
8
0
100
AcDbLine
10
-18.261278090872576
20
-48.21718725879434
30
0
11
-18.261278090872576
21
-23.402445275079522
31
0
0
LINE
5
155
100
AcDbEntity
8
0
100
AcDbLine
10
18.865273011160038
20
-105.06468057068673
30
0
11
-2.9347269888399641
21
-105.06468057068673
31
0
0
LINE
5
156
100
AcDbEntity
8
0
100
AcDbLine
10
-40.061278090872577
20
-48.217187258794318
30
0
11
-18.261278090872576
21
-48.21718725879434
31
0
0
SPLINE
5
157
100
AcDbEntity
8
0
100
AcDbSpline
70
0
71
3
72
10
73
6
74
0
42
0.000000001
43
0.0000000001
44
0.0000000001
40
31
40
31
40
31
40
31
40
32
40
32
40
33
40
33
40
33
40
33
10
-40.061278090872577
20
-23.402445275079522
30
0
10
-42.339136992876057
20
-23.440370187587177
30
0
10
-44.216450697753601
20
-21.624544914886002
30
0
10
-44.292300522768933
20
-17.068827110878967
30
0
10
-42.476475250067843
20
-15.191513406001512
30
0
10
-40.198616348064355
20
-15.153588493493832
30
0
0
SPLINE
5
158
100
AcDbEntity
8
0
100
AcDbSpline
70
0
71
3
72
8
73
4
74
0
42
0.000000001
43
0.0000000001
44
0.0000000001
40
36
40
36
40
36
40
36
40
37
40
37
40
37
40
37
10
233.82694764272321
20
-55.93592501897546
30
0
10
231.54877475163823
20
-55.93592331699837
30
0
10
229.70194934468276
20
-57.782745964505715
30
0
10
229.70194764270764
20
-60.060918855588874
30
0
0
SPLINE
5
159
100
AcDbEntity
8
0
100
AcDbSpline
70
0
71
3
72
8
73
4
74
0
42
0.000000001
43
0.0000000001
44
0.0000000001
40
58
40
58
40
58
40
58
40
59
40
59
40
59
40
59
10
233.65588664078246
20
-105.20165728613108
30
0
10
231.38299840742107
20
-105.3567404906544
30
0
10
229.66617821894775
20
-107.32500023356737
30
0
10
229.82126142347278
20
-109.59788846692676
30
0
0
SPLINE
5
160
100
AcDbEntity
8
0
100
AcDbSpline
70
0
71
3
72
8
73
4
74
0
42
0.000000001
43
0.0000000001
44
0.0000000001
40
16
40
16
40
16
40
16
40
17
40
17
40
17
40
17
10
234.38299035386456
20
-22.944981233627537
30
0
10
232.1238535767107
20
-22.651088831908087
30
0
10
230.05421450400578
20
-24.244234174884717
30
0
10
229.76032210228641
20
-26.503370952038445
30
0
0
SPLINE
5
161
100
AcDbEntity
8
0
100
AcDbSpline
70
0
71
3
72
8
73
4
74
0
42
0.000000001
43
0.0000000001
44
0.0000000001
40
26
40
26
40
26
40
26
40
27
40
27
40
27
40
27
10
233.22731647067417
20
-39.341185650731951
30
0
10
230.95063392698162
20
-39.423576893732282
30
0
10
229.17180936422659
20
-41.335984054891895
30
0
10
229.25420060722703
20
-43.612666598584291
30
0
0
LINE
5
162
100
AcDbEntity
8
0
100
AcDbLine
10
236.56888664078264
20
-111.9999549228328
30
0
11
236.56888664078252
21
-134.25695914459573
31
0
0
LINE
5
163
100
AcDbEntity
8
0
100
AcDbLine
10
255.45588664078252
20
-105.20165728613114
30
0
11
233.65588664078251
21
-105.20165728613114
31
0
0
SPLINE
5
164
100
AcDbEntity
8
0
100
AcDbSpline
70
0
71
3
72
8
73
4
74
0
42
0.000000001
43
0.0000000001
44
0.0000000001
40
39
40
39
40
39
40
39
40
40
40
40
40
40
40
40
10
229.70194764270764
20
-60.060918855588874
30
0
10
229.70194594074985
20
-62.339091746674022
30
0
10
231.5487685882695
20
-64.185917019616085
30
0
10
233.82694147935428
20
-64.185918855573135
30
0
0
LINE
5
165
100
AcDbEntity
8
0
100
AcDbLine
10
255.45588664078252
20
-80.725784770300194
30
0
11
255.45588664078252
21
-105.20165728613114
31
0
0
SPLINE
5
166
100
AcDbEntity
8
0
100
AcDbSpline
70
0
71
3
72
8
73
4
74
0
42
0.000000001
43
0.0000000001
44
0.0000000001
40
19
40
19
40
19
40
19
40
20
40
20
40
20
40
20
10
229.76032210228624
20
-26.503370952038424
30
0
10
229.42215545763233
20
-28.756305714103533
30
0
10
230.97438173434784
20
-30.856808254097015
30
0
10
233.22731647067405
20
-31.194975070227585
30
0
0
SPLINE
5
167
100
AcDbEntity
8
0
100
AcDbSpline
70
0
71
3
72
8
73
4
74
0
42
0.000000001
43
0.0000000001
44
0.0000000001
40
6
40
6
40
6
40
6
40
7
40
7
40
7
40
7
10
150.87919147314358
20
210.93165397503427
30
0
10
150.87919317511017
20
213.20982686611913
30
0
10
149.03237052759687
20
215.05665154807915
30
0
10
146.75419763651263
20
215.05665397503407
30
0
0
LINE
5
168
100
AcDbEntity
8
0
100
AcDbLine
10
237.29599035386431
20
30.700158956628819
30
0
11
237.29599035386431
21
10.083219119320912
31
0
0
LINE
5
169
100
AcDbEntity
8
0
100
AcDbLine
10
9.6764138722747504
20
101.72532762318498
30
0
11
9.6764138722747504
21
68.754806696121577
31
0
0
SPLINE
5
170
100
AcDbEntity
8
0
100
AcDbSpline
70
0
71
3
72
8
73
4
74
0
42
0.000000001
43
0.0000000001
44
0.0000000001
40
15
40
15
40
15
40
15
40
16
40
16
40
16
40
16
10
142.62919147314349
20
184.18165397503415
30
0
10
142.62918977117346
20
181.90348108394915
30
0
10
144.47601241868961
20
180.05665585039736
30
0
10
146.75418530977083
20
180.05665397503407
30
0
0
SPLINE
5
171
100
AcDbEntity
8
0
100
AcDbSpline
70
0
71
3
72
8
73
4
74
0
42
0.000000001
43
0.0000000001
44
0.0000000001
40
1
40
1
40
1
40
1
40
2
40
2
40
2
40
2
10
163.25419147314363
20
180.05665397503407
30
0
10
165.5323643642285
20
180.05665227306565
30
0
10
167.37918977117346
20
181.90347492057995
30
0
10
167.37919147314358
20
184.18164781166325
30
0
0
LINE
5
172
100
AcDbEntity
8
0
100
AcDbLine
10
250.84531883369613
20
126.53868577531489
30
0
11
229.04531883369617
21
126.53868577531486
31
0
0
SPLINE
5
173
100
AcDbEntity
8
0
100
AcDbSpline
70
0
71
3
72
8
73
4
74
0
42
0.000000001
43
0.0000000001
44
0.0000000001
40
37
40
37
40
37
40
37
40
38
40
38
40
38
40
38
10
159.12919147314346
20
184.18165397503415
30
0
10
159.12918977117343
20
181.90348108394915
30
0
10
160.97601241868958
20
180.05665585039736
30
0
10
163.25418530977083
20
180.05665397503407
30
0
0
LINE
5
174
100
AcDbEntity
8
0
100
AcDbLine
10
231.95831883369601
20
68.754806696121605
30
0
11
231.95831883369596
21
93.494054090579809
31
0
0
LINE
5
175
100
AcDbEntity
8
0
100
AcDbLine
10
231.95831883369596
20
93.494054090579809
30
0
11
228.95831883369596
21
93.494054090579795
31
0
0
LINE
5
176
100
AcDbEntity
8
0
100
AcDbLine
10
167.37919147314358
20
205.05665397503421
30
0
11
167.37919147314358
21
210.93165397503427
31
0
0
LINE
5
177
100
AcDbEntity
8
0
100
AcDbLine
10
234.38299035386433
20
1.8332252827209112
30
0
11
256.18299035386434
21
1.8332252827209099
31
0
0
LINE
5
178
100
AcDbEntity
8
0
100
AcDbLine
10
229.02989045289044
20
200.6997473728498
30
0
11
250.82989045289042
21
200.69974737284974
31
0
0
LINE
5
179
100
AcDbEntity
8
0
100
AcDbLine
10
9.6943325481100509
20
126.46791209903158
30
0
11
31.494332548110052
21
126.46791209903158
31
0
0
LINE
5
180
100
AcDbEntity
8
0
100
AcDbLine
10
28.581332548110062
20
109.9746604490238
30
0
11
31.581332548110062
21
109.97466044902374
31
0
0
LINE
5
181
100
AcDbEntity
8
0
100
AcDbLine
10
250.83787320327704
20
176.04133806979081
30
0
11
229.03787320327706
21
176.04133806979087
31
0
0
LINE
5
182
100
AcDbEntity
8
0
100
AcDbLine
10
142.62919147314349
20
210.93165397503427
30
0
11
142.62919147314349
21
184.18165397503415
31
0
0
LINE
5
183
100
AcDbEntity
8
0
100
AcDbLine
10
150.87919147314358
20
184.18165397503415
30
0
11
150.87919147314358
21
210.93165397503427
31
0
0
SPLINE
5
184
100
AcDbEntity
8
0
100
AcDbSpline
70
0
71
3
72
10
73
6
74
0
42
0.000000001
43
0.0000000001
44
0.0000000001
40
31
40
31
40
31
40
31
40
32
40
32
40
33
40
33
40
33
40
33
10
229.03787320327709
20
176.04133806979092
30
0
10
226.75984960189447
20
176.01510930752318
30
0
10
224.89188398495293
20
177.84054969861356
30
0
10
224.83942646041743
20
182.39659690137847
30
0
10
226.66486685150778
20
184.26456251832013
30
0
10
228.94289045289037
20
184.29079128058794
30
0
0
LINE
5
185
100
AcDbEntity
8
0
100
AcDbLine
10
231.94289045289031
20
184.29079128058788
30
0
11
231.94289045288502
21
192.45020611287669
31
0
0
SPLINE
5
186
100
AcDbEntity
8
0
100
AcDbSpline
70
0
71
3
72
8
73
4
74
0
42
0.000000001
43
0.0000000001
44
0.0000000001
40
28
40
28
40
28
40
28
40
29
40
29
40
29
40
29
10
167.37919147314358
20
210.93165397503427
30
0
10
167.37919317511015
20
213.20982686611913
30
0
10
165.53237052759684
20
215.05665154807915
30
0
10
163.25419763651269
20
215.05665397503407
30
0
0
SPLINE
5
187
100
AcDbEntity
8
0
100
AcDbSpline
70
0
71
3
72
8
73
4
74
0
42
0.000000001
43
0.0000000001
44
0.0000000001
40
8
40
8
40
8
40
8
40
9
40
9
40
9
40
9
10
175.62919147314346
20
184.18165397503415
30
0
10
175.6291897711734
20
181.90348108394915
30
0
10
177.47601241868963
20
180.05665585039736
30
0
10
179.7541853097708
20
180.05665397503407
30
0
0
LINE
5
188
100
AcDbEntity
8
0
100
AcDbLine
10
175.62919147314346
20
190.05665397503407
30
0
11
175.62919147314346
21
184.18165397503415
31
0
0
LINE
5
189
100
AcDbEntity
8
0
100
AcDbLine
10
167.37919147314358
20
184.18165397503415
30
0
11
167.37919147314358
21
190.05665397503407
31
0
0
LINE
5
190
100
AcDbEntity
8
0
100
AcDbLine
10
159.12919147314346
20
210.93165397503427
30
0
11
159.12919147314346
21
184.18165397503415
31
0
0
SPLINE
5
191
100
AcDbEntity
8
0
100
AcDbSpline
70
0
71
3
72
8
73
4
74
0
42
0.000000001
43
0.0000000001
44
0.0000000001
40
12
40
12
40
12
40
12
40
13
40
13
40
13
40
13
10
179.75419147314363
20
180.05665397503407
30
0
10
182.0323643642285
20
180.05665227306565
30
0
10
183.87918977117346
20
181.90347492057995
30
0
10
183.87919147314363
20
184.18164781166325
30
0
0
LINE
5
192
100
AcDbEntity
8
0
100
AcDbLine
10
167.37919147314358
20
190.05665397503407
30
0
11
175.62919147314346
21
190.05665397503407
31
0
0
LINE
5
193
100
AcDbEntity
8
0
100
AcDbLine
10
175.62919147314346
20
205.05665397503421
30
0
11
167.37919147314358
21
205.05665397503421
31
0
0
LINE
5
194
100
AcDbEntity
8
0
100
AcDbLine
10
250.82989045289042
20
200.69974737284974
30
0
11
250.82989045289051
21
233.72834072202366
31
0
0
LINE
5
195
100
AcDbEntity
8
0
100
AcDbLine
10
231.94289045288502
20
192.45020611287669
30
0
11
228.942890452885
21
192.45020611287674
31
0
0
SPLINE
5
196
100
AcDbEntity
8
0
100
AcDbSpline
70
0
71
3
72
8
73
4
74
0
42
0.000000001
43
0.0000000001
44
0.0000000001
40
1
40
1
40
1
40
1
40
2
40
2
40
2
40
2
10
146.75419147314358
20
180.05665397503407
30
0
10
149.03236436422844
20
180.05665227306565
30
0
10
150.8791897711734
20
181.90347492057995
30
0
10
150.87919147314358
20
184.18164781166325
30
0
0
LINE
5
197
100
AcDbEntity
8
0
100
AcDbLine
10
175.62919147314346
20
210.93165397503427
30
0
11
175.62919147314346
21
205.05665397503421
31
0
0
SPLINE
5
198
100
AcDbEntity
8
0
100
AcDbSpline
70
0
71
3
72
8
73
4
74
0
42
0.000000001
43
0.0000000001
44
0.0000000001
40
10
40
10
40
10
40
10
40
11
40
11
40
11
40
11
10
146.75419147314358
20
215.05665397503407
30
0
10
144.47601858205866
20
215.05665567700248
30
0
10
142.62919317511012
20
213.20983302948804
30
0
10
142.62919147314349
20
210.93166013840502
30
0
0
SPLINE
5
199
100
AcDbEntity
8
0
100
AcDbSpline
70
0
71
3
72
10
73
6
74
0
42
0.000000001
43
0.0000000001
44
0.0000000001
40
40
40
40
40
40
40
40
40
41
40
41
40
42
40
42
40
42
40
42
10
228.94289045288508
20
192.45020611287663
30
0
10
226.66484253739398
20
192.47423049949586
30
0
10
224.83759543628219
20
194.34042882737484
30
0
10
224.88564420952036
20
198.89652465835695
30
0
10
226.75184253739943
20
200.72377175946895
30
0
10
229.02989045289053
20
200.6997473728498
30
0
0
LINE
5
200
100
AcDbEntity
8
0
100
AcDbLine
10
228.94289045289031
20
184.29079128058791
30
0
11
231.94289045289031
21
184.29079128058788
31
0
0
SPLINE
5
201
100
AcDbEntity
8
0
100
AcDbSpline
70
0
71
3
72
8
73
4
74
0
42
0.000000001
43
0.0000000001
44
0.0000000001
40
17
40
17
40
17
40
17
40
18
40
18
40
18
40
18
10
183.87919147314363
20
210.93165397503427
30
0
10
183.87919317511012
20
213.20982686611913
30
0
10
182.03237052759681
20
215.05665154807915
30
0
10
179.75419763651269
20
215.05665397503407
30
0
0
LINE
5
202
100
AcDbEntity
8
0
100
AcDbLine
10
183.87919147314363
20
184.18165397503415
30
0
11
183.87919147314363
21
210.93165397503427
31
0
0
SPLINE
5
203
100
AcDbEntity
8
0
100
AcDbSpline
70
0
71
3
72
8
73
4
74
0
42
0.000000001
43
0.0000000001
44
0.0000000001
40
21
40
21
40
21
40
21
40
22
40
22
40
22
40
22
10
179.75419147314363
20
215.05665397503407
30
0
10
177.4760185820586
20
215.05665567700248
30
0
10
175.62919317511017
20
213.20983302948804
30
0
10
175.62919147314346
20
210.93166013840502
30
0
0
SPLINE
5
204
100
AcDbEntity
8
0
100
AcDbSpline
70
0
71
3
72
8
73
4
74
0
42
0.000000001
43
0.0000000001
44
0.0000000001
40
32
40
32
40
32
40
32
40
33
40
33
40
33
40
33
10
163.25419147314363
20
215.05665397503407
30
0
10
160.97601858205863
20
215.05665567700248
30
0
10
159.12919317511012
20
213.20983302948804
30
0
10
159.12919147314346
20
210.93166013840502
30
0
0
LINE
5
205
100
AcDbEntity
8
0
100
AcDbLine
10
9.7127400330295028
20
175.96915259566754
30
0
11
31.512740033029509
21
175.96915259566754
31
0
0
SPLINE
5
206
100
AcDbEntity
8
0
100
AcDbSpline
70
0
71
3
72
8
73
4
74
0
42
0.000000001
43
0.0000000001
44
0.0000000001
40
17
40
17
40
17
40
17
40
18
40
18
40
18
40
18
10
101.37919147314363
20
210.93165397503427
30
0
10
101.37919317511013
20
213.20982686611913
30
0
10
99.532370527596896
20
215.05665154807915
30
0
10
97.254197636512671
20
215.05665397503407
30
0
0
LINE
5
207
100
AcDbEntity
8
0
100
AcDbLine
10
93.129191473143607
20
205.05665397503421
30
0
11
84.879191473143507
21
205.05665397503421
31
0
0
LINE
5
208
100
AcDbEntity
8
0
100
AcDbLine
10
126.12919147314358
20
210.93165397503427
30
0
11
126.12919147314358
21
184.18165397503415
31
0
0
SPLINE
5
209
100
AcDbEntity
8
0
100
AcDbSpline
70
0
71
3
72
8
73
4
74
0
42
0.000000001
43
0.0000000001
44
0.0000000001
40
12
40
12
40
12
40
12
40
13
40
13
40
13
40
13
10
97.254191473143621
20
180.05665397503407
30
0
10
99.532364364228485
20
180.05665227306565
30
0
10
101.379189771177
20
181.90347492057995
30
0
10
101.37919147314363
20
184.18164781166325
30
0
0
SPLINE
5
210
100
AcDbEntity
8
0
100
AcDbSpline
70
0
71
3
72
8
73
4
74
0
42
0.000000001
43
0.0000000001
44
0.0000000001
40
6
40
6
40
6
40
6
40
7
40
7
40
7
40
7
10
134.37919147314361
20
210.93165397503427
30
0
10
134.37919317511017
20
213.20982686611913
30
0
10
132.53237052759687
20
215.05665154807915
30
0
10
130.25419763651263
20
215.05665397503407
30
0
0
LINE
5
211
100
AcDbEntity
8
0
100
AcDbLine
10
93.129191473143607
20
190.05665397503407
30
0
11
93.129191473143607
21
184.18165397503415
31
0
0
SPLINE
5
212
100
AcDbEntity
8
0
100
AcDbSpline
70
0
71
3
72
8
73
4
74
0
42
0.000000001
43
0.0000000001
44
0.0000000001
40
10
40
10
40
10
40
10
40
11
40
11
40
11
40
11
10
130.25419147314358
20
215.05665397503407
30
0
10
127.97601858205866
20
215.05665567700248
30
0
10
126.12919317511015
20
213.20983302948804
30
0
10
126.12919147314358
20
210.93166013840502
30
0
0
LINE
5
213
100
AcDbEntity
8
0
100
AcDbLine
10
31.512740033029498
20
200.72342461153147
30
0
11
9.7127400330294975
21
200.72342461153147
31
0
0
LINE
5
214
100
AcDbEntity
8
0
100
AcDbLine
10
76.629191473143621
20
210.93165397503427
30
0
11
76.629191473143621
21
184.18165397503415
31
0
0
LINE
5
215
100
AcDbEntity
8
0
100
AcDbLine
10
84.879191473143507
20
184.18165397503415
30
0
11
84.879191473143507
21
190.05665397503407
31
0
0
LINE
5
216
100
AcDbEntity
8
0
100
AcDbLine
10
84.879191473143507
20
205.05665397503421
30
0
11
84.879191473143507
21
210.93165397503427
31
0
0
LINE
5
217
100
AcDbEntity
8
0
100
AcDbLine
10
31.599740033029505
20
167.71961133569422
30
0
11
28.599740033029505
21
167.7196113356942
31
0
0
SPLINE
5
218
100
AcDbEntity
8
0
100
AcDbSpline
70
0
71
3
72
8
73
4
74
0
42
0.000000001
43
0.0000000001
44
0.0000000001
40
28
40
28
40
28
40
28
40
29
40
29
40
29
40
29
10
84.879191473143507
20
210.93165397503427
30
0
10
84.879193175110146
20
213.20982686611913
30
0
10
83.03237052759691
20
215.05665154807915
30
0
10
80.754197636512686
20
215.05665397503407
30
0
0
SPLINE
5
219
100
AcDbEntity
8
0
100
AcDbSpline
70
0
71
3
72
10
73
6
74
0
42
0.000000001
43
0.0000000001
44
0.0000000001
40
61
40
61
40
61
40
61
40
62
40
62
40
63
40
63
40
63
40
63
10
31.512740013100302
20
175.96915259545736
30
0
10
33.790787928533327
20
175.99317698757827
30
0
10
35.656986260825484
20
174.16592989097529
30
0
10
35.705035045067383
20
169.60983406010641
30
0
10
33.87778794846249
20
167.74363572781525
30
0
10
31.599740033029498
20
167.71961133569425
30
0
0
LINE
5
220
100
AcDbEntity
8
0
100
AcDbLine
10
93.129191473143607
20
210.93165397503427
30
0
11
93.129191473143607
21
205.05665397503421
31
0
0
SPLINE
5
221
100
AcDbEntity
8
0
100
AcDbSpline
70
0
71
3
72
8
73
4
74
0
42
0.000000001
43
0.0000000001
44
0.0000000001
40
37
40
37
40
37
40
37
40
38
40
38
40
38
40
38
10
76.629191473143621
20
184.18165397503415
30
0
10
76.629189771177124
20
181.90348108394915
30
0
10
78.476012418689578
20
180.05665585039921
30
0
10
80.754185309774513
20
180.05665397503407
30
0
0
LINE
5
222
100
AcDbEntity
8
0
100
AcDbLine
10
28.599740033029498
20
233.72834072202366
30
0
11
28.599740033029491
21
208.97296587150453
31
0
0
LINE
5
223
100
AcDbEntity
8
0
100
AcDbLine
10
109.62919147314359
20
210.93165397503427
30
0
11
109.62919147314359
21
184.18165397503415
31
0
0
LINE
5
224
100
AcDbEntity
8
0
100
AcDbLine
10
134.37919147314361
20
184.18165397503415
30
0
11
134.37919147314361
21
210.93165397503427
31
0
0
LINE
5
225
100
AcDbEntity
8
0
100
AcDbLine
10
84.879191473143507
20
190.05665397503407
30
0
11
93.129191473143607
21
190.05665397503407
31
0
0
SPLINE
5
226
100
AcDbEntity
8
0
100
AcDbSpline
70
0
71
3
72
8
73
4
74
0
42
0.000000001
43
0.0000000001
44
0.0000000001
40
8
40
8
40
8
40
8
40
9
40
9
40
9
40
9
10
93.129191473143607
20
184.18165397503415
30
0
10
93.129189771177039
20
181.90348108394915
30
0
10
94.976012418689635
20
180.05665585039921
30
0
10
97.254185309774499
20
180.05665397503407
30
0
0
SPLINE
5
227
100
AcDbEntity
8
0
100
AcDbSpline
70
0
71
3
72
8
73
4
74
0
42
0.000000001
43
0.0000000001
44
0.0000000001
40
1
40
1
40
1
40
1
40
2
40
2
40
2
40
2
10
130.25419147314358
20
180.05665397503407
30
0
10
132.53236436422844
20
180.05665227306565
30
0
10
134.3791897711734
20
181.90347492057995
30
0
10
134.37919147314361
20
184.18164781166325
30
0
0
SPLINE
5
228
100
AcDbEntity
8
0
100
AcDbSpline
70
0
71
3
72
8
73
4
74
0
42
0.000000001
43
0.0000000001
44
0.0000000001
40
15
40
15
40
15
40
15
40
16
40
16
40
16
40
16
10
126.12919147314358
20
184.18165397503415
30
0
10
126.12918977117701
20
181.90348108394915
30
0
10
127.97601241868961
20
180.05665585039921
30
0
10
130.25418530977447
20
180.05665397503407
30
0
0
SPLINE
5
229
100
AcDbEntity
8
0
100
AcDbSpline
70
0
71
3
72
8
73
4
74
0
42
0.000000001
43
0.0000000001
44
0.0000000001
40
10
40
10
40
10
40
10
40
11
40
11
40
11
40
11
10
113.75419147314361
20
215.05665397503407
30
0
10
111.4760185820586
20
215.05665567700248
30
0
10
109.62919317511016
20
213.20983302948804
30
0
10
109.62919147314359
20
210.93166013840502
30
0
0
SPLINE
5
230
100
AcDbEntity
8
0
100
AcDbSpline
70
0
71
3
72
8
73
4
74
0
42
0.000000001
43
0.0000000001
44
0.0000000001
40
1
40
1
40
1
40
1
40
2
40
2
40
2
40
2
10
80.754191473143635
20
180.05665397503407
30
0
10
83.032364364228641
20
180.05665227306565
30
0
10
84.87918977117701
20
181.90347492057995
30
0
10
84.879191473143507
20
184.18164781166325
30
0
0
SPLINE
5
231
100
AcDbEntity
8
0
100
AcDbSpline
70
0
71
3
72
8
73
4
74
0
42
0.000000001
43
0.0000000001
44
0.0000000001
40
15
40
15
40
15
40
15
40
16
40
16
40
16
40
16
10
109.62919147314359
20
184.18165397503415
30
0
10
109.62918977117702
20
181.90348108394915
30
0
10
111.47601241868962
20
180.05665585039921
30
0
10
113.75418530977448
20
180.05665397503407
30
0
0
LINE
5
232
100
AcDbEntity
8
0
100
AcDbLine
10
9.7127400330294975
20
200.72342461153147
30
0
11
9.7127400330295028
21
175.96915259566754
31
0
0
SPLINE
5
233
100
AcDbEntity
8
0
100
AcDbSpline
70
0
71
3
72
8
73
4
74
0
42
0.000000001
43
0.0000000001
44
0.0000000001
40
1
40
1
40
1
40
1
40
2
40
2
40
2
40
2
10
113.75419147314361
20
180.05665397503407
30
0
10
116.03236436422847
20
180.05665227306565
30
0
10
117.87918977117698
20
181.90347492057995
30
0
10
117.87919147314362
20
184.18164781166325
30
0
0
SPLINE
5
234
100
AcDbEntity
8
0
100
AcDbSpline
70
0
71
3
72
8
73
4
74
0
42
0.000000001
43
0.0000000001
44
0.0000000001
40
21
40
21
40
21
40
21
40
22
40
22
40
22
40
22
10
97.254191473143621
20
215.05665397503407
30
0
10
94.976018582058614
20
215.05665567700248
30
0
10
93.129193175110174
20
213.20983302948804
30
0
10
93.129191473143607
20
210.93166013840502
30
0
0
SPLINE
5
235
100
AcDbEntity
8
0
100
AcDbSpline
70
0
71
3
72
10
73
6
74
0
42
0.000000001
43
0.0000000001
44
0.0000000001
40
52
40
52
40
52
40
52
40
53
40
53
40
54
40
54
40
54
40
54
10
31.599740033029498
20
208.97296587150453
30
0
10
33.877787948462775
20
208.94894147941062
30
0
10
35.705035045089765
20
207.08274314714188
30
0
10
35.65698626090181
20
202.52664731627252
30
0
10
33.790787928631268
20
200.69940021964669
30
0
10
31.512740013197977
20
200.72342461174063
30
0
0
SPLINE
5
236
100
AcDbEntity
8
0
100
AcDbSpline
70
0
71
3
72
8
73
4
74
0
42
0.000000001
43
0.0000000001
44
0.0000000001
40
32
40
32
40
32
40
32
40
33
40
33
40
33
40
33
10
80.754191473143635
20
215.05665397503407
30
0
10
78.476018582058629
20
215.05665567700248
30
0
10
76.629193175110188
20
213.20983302948804
30
0
10
76.629191473143621
20
210.93166013840502
30
0
0
LINE
5
237
100
AcDbEntity
8
0
100
AcDbLine
10
101.37919147314363
20
184.18165397503415
30
0
11
101.37919147314363
21
210.93165397503427
31
0
0
LINE
5
238
100
AcDbEntity
8
0
100
AcDbLine
10
117.87919147314362
20
184.18165397503415
30
0
11
117.87919147314362
21
210.93165397503427
31
0
0
SPLINE
5
239
100
AcDbEntity
8
0
100
AcDbSpline
70
0
71
3
72
8
73
4
74
0
42
0.000000001
43
0.0000000001
44
0.0000000001
40
6
40
6
40
6
40
6
40
7
40
7
40
7
40
7
10
117.87919147314362
20
210.93165397503427
30
0
10
117.87919317511012
20
213.20982686611913
30
0
10
116.03237052759688
20
215.05665154807915
30
0
10
113.75419763651266
20
215.05665397503407
30
0
0
LINE
5
240
100
AcDbEntity
8
0
100
AcDbLine
10
28.599740033029491
20
208.97296587150453
30
0
11
31.599740033029494
21
208.97296587150453
31
0
0
SPLINE
5
241
100
AcDbEntity
8
0
100
AcDbSpline
70
0
71
3
72
10
73
6
74
0
42
0.000000001
43
0.0000000001
44
0.0000000001
40
40
40
40
40
40
40
40
40
41
40
41
40
42
40
42
40
42
40
42
10
-40.19861634806243
20
-7.0305681429413225
30
0
10
-42.476664263553431
20
-7.0065437563236808
30
0
10
-44.303911364666639
20
-5.1403454284456673
30
0
10
-44.255862591431352
20
-0.58424959746361083
30
0
10
-42.389664263553414
20
1.2429975036495322
30
0
10
-40.111616348062434
20
1.2189731170319029
30
0
0
LINE
5
242
100
AcDbEntity
8
0
100
AcDbLine
10
-18.311616348064366
20
1.2189731170311127
30
0
11
-18.311616348064369
21
34.282557589494544
31
0
0
LINE
5
243
100
AcDbEntity
8
0
100
AcDbLine
10
-93.460624483636892
20
5.6108708425050224
30
0
11
-101.71062448363688
21
5.6108708425050224
31
0
0
LINE
5
244
100
AcDbEntity
8
0
100
AcDbLine
10
-37.19861634806437
20
-7.0305681429413038
30
0
11
-40.198616348064363
21
-7.0305681429413021
31
0
0
LINE
5
245
100
AcDbEntity
8
0
100
AcDbLine
10
-101.71062448363688
20
5.6108708425050224
30
0
11
-101.71062448363688
21
11.485870842505079
31
0
0
LINE
5
246
100
AcDbEntity
8
0
100
AcDbLine
10
250.82989045289051
20
233.72834072202366
30
0
11
28.599740033029498
21
233.72834072202366
31
0
0
SPLINE
5
247
100
AcDbEntity
8
0
100
AcDbSpline
70
0
71
3
72
8
73
4
74
0
42
0.000000001
43
0.0000000001
44
0.0000000001
40
6
40
6
40
6
40
6
40
7
40
7
40
7
40
7
10
-118.21062448363691
20
11.485870842505079
30
0
10
-118.21062278167037
20
13.764043733590157
30
0
10
-120.05744542918305
20
15.61086896713995
30
0
10
-122.3356183202678
20
15.610870842505022
30
0
0
SPLINE
5
248
100
AcDbEntity
8
0
100
AcDbSpline
70
0
71
3
72
8
73
4
74
0
42
0.000000001
43
0.0000000001
44
0.0000000001
40
28
40
28
40
28
40
28
40
29
40
29
40
29
40
29
10
-101.71062448363688
20
11.485870842505079
30
0
10
-101.71062278167039
20
13.764043733590157
30
0
10
-103.55744542918291
20
15.61086896713995
30
0
10
-105.83561832026781
20
15.610870842505022
30
0
0
SPLINE
5
249
100
AcDbEntity
8
0
100
AcDbSpline
70
0
71
3
72
8
73
4
74
0
42
0.000000001
43
0.0000000001
44
0.0000000001
40
32
40
32
40
32
40
32
40
33
40
33
40
33
40
33
10
-105.83562448363691
20
15.610870842505022
30
0
10
-108.11379737472187
20
15.610872544473509
30
0
10
-109.96062278167038
20
13.764049896959278
30
0
10
-109.96062448363688
20
11.485877005876048
30
0
0
SPLINE
5
250
100
AcDbEntity
8
0
100
AcDbSpline
70
0
71
3
72
8
73
4
74
0
42
0.000000001
43
0.0000000001
44
0.0000000001
40
10
40
10
40
10
40
10
40
11
40
11
40
11
40
11
10
-122.33562448363688
20
15.610870842505022
30
0
10
-124.61379737472186
20
15.610872544473509
30
0
10
-126.46062278167039
20
13.764049896959278
30
0
10
-126.46062448363691
20
11.485877005876048
30
0
0
LINE
5
251
100
AcDbEntity
8
0
100
AcDbLine
10
-101.71062448363688
20
-9.3891291574949776
30
0
11
-93.460624483636892
21
-9.3891291574949776
31
0
0
LINE
5
252
100
AcDbEntity
8
0
100
AcDbLine
10
250.83787320327707
20
151.24611157173231
30
0
11
250.83787320327704
21
176.04133806979081
31
0
0
SPLINE
5
253
100
AcDbEntity
8
0
100
AcDbSpline
70
0
71
3
72
8
73
4
74
0
42
0.000000001
43
0.0000000001
44
0.0000000001
40
17
40
17
40
17
40
17
40
18
40
18
40
18
40
18
10
-85.210624483636906
20
11.485870842505079
30
0
10
-85.210622781670367
20
13.764043733590157
30
0
10
-87.057445429182934
20
15.61086896713995
30
0
10
-89.335618320267827
20
15.610870842505022
30
0
0
LINE
5
254
100
AcDbEntity
8
0
100
AcDbLine
10
-93.460624483636892
20
11.485870842505079
30
0
11
-93.460624483636892
21
5.6108708425050224
31
0
0
LINE
5
255
100
AcDbEntity
8
0
100
AcDbLine
10
28.599740033029505
20
167.7196113356942
30
0
11
28.599740033029537
21
159.47304292327109
31
0
0
SPLINE
5
256
100
AcDbEntity
8
0
100
AcDbSpline
70
0
71
3
72
8
73
4
74
0
42
0.000000001
43
0.0000000001
44
0.0000000001
40
21
40
21
40
21
40
21
40
22
40
22
40
22
40
22
10
-89.335624483636877
20
15.610870842505022
30
0
10
-91.613797374721884
20
15.610872544473509
30
0
10
-93.460622781670395
20
13.764049896959278
30
0
10
-93.460624483636892
20
11.485877005876048
30
0
0
LINE
5
257
100
AcDbEntity
8
0
100
AcDbLine
10
-40.111616348064373
20
1.2189731170319205
30
0
11
-18.311616348064366
21
1.2189731170311127
31
0
0
LINE
5
258
100
AcDbEntity
8
0
100
AcDbLine
10
-118.21062448363691
20
-15.264129157494963
30
0
11
-118.21062448363691
21
11.485870842505079
31
0
0
SPLINE
5
259
100
AcDbEntity
8
0
100
AcDbSpline
70
0
71
3
72
8
73
4
74
0
42
0.000000001
43
0.0000000001
44
0.0000000001
40
6
40
6
40
6
40
6
40
7
40
7
40
7
40
7
10
-134.71062448363688
20
11.485870842505079
30
0
10
-134.71062278167039
20
13.764043733590157
30
0
10
-136.55744542918291
20
15.61086896713995
30
0
10
-138.83561832026783
20
15.610870842505022
30
0
0
SPLINE
5
260
100
AcDbEntity
8
0
100
AcDbSpline
70
0
71
3
72
11
73
7
74
0
42
0.000000001
43
0.0000000001
44
0.0000000001
40
15
40
15
40
15
40
15
40
16
40
16
40
16
40
17
40
17
40
17
40
17
10
-32.818146851603565
20
126.30242049097269
30
0
10
-34.972525776318705
20
126.31970939558713
30
0
10
-36.883754967896152
20
127.91022899152871
30
0
10
-37.071032604357377
20
130.05652220177933
30
0
10
-37.285865790304193
20
132.51861547169003
30
0
10
-35.340923318094887
20
134.57293454472671
30
0
10
-32.92917409901591
20
134.55357991998201
30
0
0
LINE
5
261
100
AcDbEntity
8
0
100
AcDbLine
10
-184.21062448363693
20
5.6108708425050224
30
0
11
-184.21062448363693
21
11.485870842505079
31
0
0
SPLINE
5
262
100
AcDbEntity
8
0
100
AcDbSpline
70
0
71
3
72
10
73
6
74
0
42
0.000000001
43
0.0000000001
44
0.0000000001
40
52
40
52
40
52
40
52
40
53
40
53
40
54
40
54
40
54
40
54
10
-237.52547272951358
20
9.5275952302846711
30
0
10
-235.24742481402257
20
9.5035708436670419
30
0
10
-233.42017771290938
20
7.6373725157900552
30
0
10
-233.46822648614463
20
3.0812766848061379
30
0
10
-235.33442481402261
20
1.2540295836938853
30
0
10
-237.61247272951357
20
1.2780539703114968
30
0
0
LINE
5
263
100
AcDbEntity
8
0
100
AcDbLine
10
-29.94962876711314
20
184.0543537738132
30
0
11
-29.949628767113154
21
192.29719716602381
31
0
0
LINE
5
264
100
AcDbEntity
8
0
100
AcDbLine
10
-230.8719723378529
20
122.99889936034756
30
0
11
-233.87197233785281
21
122.99889936034756
31
0
0
LINE
5
265
100
AcDbEntity
8
0
100
AcDbLine
10
-237.07341885477203
20
233.56111833800074
30
0
11
-237.02879292645534
21
204.89941945647044
31
0
0
LINE
5
266
100
AcDbEntity
8
0
100
AcDbLine
10
-252.35903270528996
20
68.592385347195773
30
0
11
-160.26387874779999
21
68.592385347195773
31
0
0
LINE
5
267
100
AcDbEntity
8
0
100
AcDbLine
10
-175.96062448363688
20
11.485870842505079
30
0
11
-175.96062448363688
21
5.6108708425050224
31
0
0
LINE
5
268
100
AcDbEntity
8
0
100
AcDbLine
10
-233.87197233785281
20
122.99889936034756
30
0
11
-233.87197233785312
21
110.28708224906512
31
0
0
LINE
5
269
100
AcDbEntity
8
0
100
AcDbLine
10
-237.02879292645534
20
204.89941945647044
30
0
11
-234.02879292645534
21
204.89941945647044
31
0
0
LINE
5
270
100
AcDbEntity
8
0
100
AcDbLine
10
-108.87725750157287
20
168.62453587609124
30
0
11
-108.87725750157294
21
68.562192797778948
31
0
0
LINE
5
271
100
AcDbEntity
8
0
100
AcDbLine
10
-147.60926360323089
20
179.87284282505584
30
0
11
-120.12822268686442
21
179.88250563831713
31
0
0
LINE
5
272
100
AcDbEntity
8
0
100
AcDbLine
10
-32.929174099016009
20
134.55357991998201
30
0
11
-29.929174099016006
21
134.55357991998201
31
0
0
LINE
5
273
100
AcDbEntity
8
0
100
AcDbLine
10
-11.062628767113145
20
200.54864438090104
30
0
11
-11.062628767113136
21
233.56111833800074
31
0
0
LINE
5
274
100
AcDbEntity
8
0
100
AcDbLine
10
-108.87725750157294
20
68.562192797778948
30
0
11
-108.90242972805129
21
68.561149251066666
31
0
0
SPLINE
5
275
100
AcDbEntity
8
0
100
AcDbSpline
70
0
71
3
72
8
73
4
74
0
42
0.000000001
43
0.0000000001
44
0.0000000001
40
10
40
10
40
10
40
10
40
11
40
11
40
11
40
11
10
-155.33562448363688
20
15.610870842505022
30
0
10
-157.61379737472191
20
15.610872544473509
30
0
10
-159.46062278167039
20
13.764049896959278
30
0
10
-159.46062448363691
20
11.485877005876048
30
0
0
LINE
5
276
100
AcDbEntity
8
0
100
AcDbLine
10
-240.52547272951361
20
9.5275952302846676
30
0
11
-237.52547272951361
21
9.5275952302846534
31
0
0
SPLINE
5
277
100
AcDbEntity
8
0
100
AcDbSpline
70
0
71
3
72
11
73
7
74
0
42
0.000000001
43
0.0000000001
44
0.0000000001
40
25
40
25
40
25
40
25
40
26
40
26
40
26
40
27
40
27
40
27
40
27
10
-32.842174078803332
20
175.80314704615378
30
0
10
-34.996545315912464
20
175.82136874213884
30
0
10
-36.907085672549648
20
177.4127157041429
30
0
10
-37.093433999378689
20
179.55908979981641
30
0
10
-37.307201139467658
20
182.02127585642071
30
0
10
-35.36136938002435
20
184.07475262473068
30
0
10
-32.949628767083475
20
184.05435377381292
30
0
0
LINE
5
278
100
AcDbEntity
8
0
100
AcDbLine
10
-29.905146871786492
20
93.290328713325223
30
0
11
-32.905146871786492
21
93.290328713325223
31
0
0
SPLINE
5
279
100
AcDbEntity
8
0
100
AcDbSpline
70
0
71
3
72
11
73
7
74
0
42
0.000000001
43
0.0000000001
44
0.0000000001
40
30
40
30
40
30
40
30
40
31
40
31
40
31
40
32
40
32
40
32
40
32
10
-32.949628767113168
20
192.29719716602381
30
0
10
-35.102972553890325
20
192.36617732815768
30
0
10
-36.97548537613055
20
194.00210094792314
30
0
10
-37.111206365454365
20
196.15227013658722
30
0
10
-37.266896989351039
20
198.61880964632945
30
0
10
-35.273218815539437
20
200.62586610022908
30
0
10
-32.862628472459875
20
200.54864437146199
30
0
0
LINE
5
280
100
AcDbEntity
8
0
100
AcDbLine
10
-32.818146871786503
20
101.5417759218701
30
0
11
-11.018146871786493
21
101.54177592187011
31
0
0
SPLINE
5
281
100
AcDbEntity
8
0
100
AcDbSpline
70
0
71
3
72
8
73
4
74
0
42
0.000000001
43
0.0000000001
44
0.0000000001
40
17
40
17
40
17
40
17
40
18
40
18
40
18
40
18
10
-167.71062448363691
20
11.485870842505079
30
0
10
-167.71062278167037
20
13.764043733590157
30
0
10
-169.55744542918302
20
15.61086896713995
30
0
10
-171.83561832026783
20
15.610870842505022
30
0
0
LINE
5
282
100
AcDbEntity
8
0
100
AcDbLine
10
-29.929174099015992
20
142.79520663407894
30
0
11
-32.929174099015995
21
142.79520663407899
31
0
0
LINE
5
283
100
AcDbEntity
8
0
100
AcDbLine
10
-32.94962876711314
20
184.0543537738132
30
0
11
-29.94962876711314
21
184.0543537738132
31
0
0
LINE
5
284
100
AcDbEntity
8
0
100
AcDbLine
10
-11.042174099016007
20
151.0466538426239
30
0
11
-11.042174099016007
21
175.80314704632474
31
0
0
LINE
5
285
100
AcDbEntity
8
0
100
AcDbLine
10
-233.87197233785312
20
110.28708224906512
30
0
11
-230.87197233785318
21
110.28708224906512
31
0
0
LINE
5
286
100
AcDbEntity
8
0
100
AcDbLine
10
-252.75897233785281
20
131.25034763218156
30
0
11
-230.9589723378528
21
131.25034763218162
31
0
0
SPLINE
5
287
100
AcDbEntity
8
0
100
AcDbSpline
70
0
71
3
72
11
73
7
74
0
42
0.000000001
43
0.0000000001
44
0.0000000001
40
42
40
42
40
42
40
42
40
43
40
43
40
43
40
44
40
44
40
44
40
44
10
-234.11579426950252
20
180.47943312483443
30
0
10
-231.96149580947048
20
180.45586461839667
30
0
10
-230.05490835817471
20
178.85982564786175
30
0
10
-229.87384960079731
20
176.71301986815845
30
0
10
-229.66614852959015
20
174.25031733680839
30
0
10
-231.61707758620202
20
172.20159984558779
30
0
10
-234.02879292645537
20
172.22798486716096
30
0
0
LINE
5
288
100
AcDbEntity
8
0
100
AcDbLine
10
-252.35903270529002
20
102.04111187421989
30
0
11
-252.35903270528996
21
68.592385347195773
31
0
0
LINE
5
289
100
AcDbEntity
8
0
100
AcDbLine
10
-255.91579292645534
20
196.64797170003271
30
0
11
-255.91579292645534
21
180.47943311014103
31
0
0
SPLINE
5
290
100
AcDbEntity
8
0
100
AcDbSpline
70
0
71
3
72
8
73
4
74
0
42
0.000000001
43
0.0000000001
44
0.0000000001
40
3
40
3
40
3
40
3
40
4
40
4
40
4
40
4
10
-120.12822268686442
20
179.88250563831713
30
0
10
-113.91084450613303
20
179.88469177691769
30
0
10
-108.87120178007731
20
174.84191149202871
30
0
10
-108.87725750157287
20
168.62453587609124
30
0
0
SPLINE
5
291
100
AcDbEntity
8
0
100
AcDbSpline
70
0
71
3
72
8
73
4
74
0
42
0.000000001
43
0.0000000001
44
0.0000000001
40
1
40
1
40
1
40
1
40
2
40
2
40
2
40
2
10
-160.26387874779999
20
167.21377731482661
30
0
10
-160.26387874779999
20
174.20344835717401
30
0
10
-154.59893421349452
20
179.87038513496714
30
0
10
-147.60926360323089
20
179.87284282505584
30
0
0
LINE
5
292
100
AcDbEntity
8
0
100
AcDbLine
10
-134.71062448363688
20
-15.264129157494963
30
0
11
-134.71062448363688
21
11.485870842505079
31
0
0
LINE
5
293
100
AcDbEntity
8
0
100
AcDbLine
10
-237.02879292645545
20
158.54567436700236
30
0
11
-234.02879292645548
21
158.54567436700236
31
0
0
SPLINE
5
294
100
AcDbEntity
8
0
100
AcDbSpline
70
0
71
3
72
11
73
7
74
0
42
0.000000001
43
0.0000000001
44
0.0000000001
40
37
40
37
40
37
40
37
40
38
40
38
40
38
40
39
40
39
40
39
40
39
10
-234.02879292645662
20
204.89941945647047
30
0
10
-231.87547027099635
20
204.83043296400123
30
0
10
-230.00295915418775
20
203.19454819964596
30
0
10
-229.86720639352112
20
201.04440197609949
30
0
10
-229.71147797824358
20
198.57786750296486
30
0
10
-231.7051708939475
20
196.57074112590885
30
0
10
-234.11579375637774
20
196.64797172662131
30
0
0
LINE
5
295
100
AcDbEntity
8
0
100
AcDbLine
10
-18.311616348064369
20
34.282557589494544
30
0
11
-240.52547272951361
21
34.282557589494544
31
0
0
SPLINE
5
296
100
AcDbEntity
8
0
100
AcDbSpline
70
0
71
3
72
8
73
4
74
0
42
0.000000001
43
0.0000000001
44
0.0000000001
40
10
40
10
40
10
40
10
40
11
40
11
40
11
40
11
10
-138.83562448363691
20
15.610870842505022
30
0
10
-141.11379737472188
20
15.610872544473509
30
0
10
-142.96062278167039
20
13.764049896959278
30
0
10
-142.96062448363688
20
11.485877005876048
30
0
0
LINE
5
297
100
AcDbEntity
8
0
100
AcDbLine
10
-11.018146871786495
20
126.30242049113465
30
0
11
-32.818146871786503
21
126.30242049113465
31
0
0
LINE
5
298
100
AcDbEntity
8
0
100
AcDbLine
10
-240.52547272951361
20
34.282557589494544
30
0
11
-240.52547272951361
21
9.5275952302846676
31
0
0
SPLINE
5
299
100
AcDbEntity
8
0
100
AcDbSpline
70
0
71
3
72
8
73
4
74
0
42
0.000000001
43
0.0000000001
44
0.0000000001
40
21
40
21
40
21
40
21
40
22
40
22
40
22
40
22
10
-171.83562448363688
20
15.610870842505022
30
0
10
-174.11379737472188
20
15.610872544473509
30
0
10
-175.96062278167039
20
13.764049896959278
30
0
10
-175.96062448363688
20
11.485877005876048
30
0
0
LINE
5
300
100
AcDbEntity
8
0
100
AcDbLine
10
-237.61247272951363
20
1.2780539703114882
30
0
11
-259.41247272951364
21
1.2780539703114977
31
0
0
LINE
5
301
100
AcDbEntity
8
0
100
AcDbLine
10
-32.842174099016006
20
151.04665384262387
30
0
11
-11.042174099016007
21
151.0466538426239
31
0
0
SPLINE
5
302
100
AcDbEntity
8
0
100
AcDbSpline
70
0
71
3
72
8
73
4
74
0
42
0.000000001
43
0.0000000001
44
0.0000000001
40
28
40
28
40
28
40
28
40
29
40
29
40
29
40
29
10
-184.21062448363693
20
11.485870842505079
30
0
10
-184.21062278167042
20
13.764043733590157
30
0
10
-186.05744542918302
20
15.61086896713995
30
0
10
-188.33561832026783
20
15.610870842505022
30
0
0
LINE
5
303
100
AcDbEntity
8
0
100
AcDbLine
10
-29.949628767113154
20
192.29719716602381
30
0
11
-32.949628767113154
21
192.29719716602386
31
0
0
SPLINE
5
304
100
AcDbEntity
8
0
100
AcDbSpline
70
0
71
3
72
8
73
4
74
0
42
0.000000001
43
0.0000000001
44
0.0000000001
40
6
40
6
40
6
40
6
40
7
40
7
40
7
40
7
10
-151.21062448363691
20
11.485870842505079
30
0
10
-151.21062278167039
20
13.764043733590157
30
0
10
-153.05744542918305
20
15.61086896713995
30
0
10
-155.3356183202678
20
15.610870842505022
30
0
0
LINE
5
305
100
AcDbEntity
8
0
100
AcDbLine
10
-11.042174099016007
20
175.80314704632474
30
0
11
-32.842174099016006
21
175.80314704632471
31
0
0
SPLINE
5
306
100
AcDbEntity
8
0
100
AcDbSpline
70
0
71
3
72
11
73
7
74
0
42
0.000000001
43
0.0000000001
44
0.0000000001
40
52
40
52
40
52
40
52
40
53
40
53
40
53
40
54
40
54
40
54
40
54
10
-230.9589723378528
20
131.25034763218156
30
0
10
-228.80467388165772
20
131.22677877509949
30
0
10
-226.89808669014039
20
129.6307394942387
30
0
10
-226.71702828218793
20
127.48393368506549
30
0
10
-226.50932761182253
20
125.02123111990885
30
0
10
-228.46025700189409
20
122.97251394623146
30
0
10
-230.87197233785292
20
122.99889936034754
30
0
0
LINE
5
307
100
AcDbEntity
8
0
100
AcDbLine
10
-29.905146871786492
20
68.561149251066652
30
0
11
-29.905146871786492
21
93.290328713325223
31
0
0
SPLINE
5
308
100
AcDbEntity
8
0
100
AcDbSpline
70
0
71
3
72
11
73
7
74
0
42
0.000000001
43
0.0000000001
44
0.0000000001
40
57
40
57
40
57
40
57
40
58
40
58
40
58
40
59
40
59
40
59
40
59
10
-230.87197257176882
20
110.28708224906512
30
0
10
-228.71783660326795
20
110.32251985440482
30
0
10
-226.76825547142857
20
108.77929263354781
30
0
10
-226.52847304371093
20
106.63825036819654
30
0
10
-226.25340727490848
20
104.18215947628731
30
0
10
-228.14749930246674
20
102.08078299246947
30
0
10
-230.55903270529046
20
102.04111187421988
30
0
0
SPLINE
5
309
100
AcDbEntity
8
0
100
AcDbSpline
70
0
71
3
72
8
73
4
74
0
42
0.000000001
43
0.0000000001
44
0.0000000001
40
32
40
32
40
32
40
32
40
33
40
33
40
33
40
33
10
-188.33562448363691
20
15.610870842505022
30
0
10
-190.61379737472194
20
15.610872544473509
30
0
10
-192.46062278167042
20
13.764049896959278
30
0
10
-192.46062448363691
20
11.485877005876048
30
0
0
LINE
5
310
100
AcDbEntity
8
0
100
AcDbLine
10
-184.21062448363693
20
-9.3891291574949776
30
0
11
-175.96062448363688
21
-9.3891291574949776
31
0
0
SPLINE
5
311
100
AcDbEntity
8
0
100
AcDbSpline
70
0
71
3
72
11
73
7
74
0
42
0.000000001
43
0.0000000001
44
0.0000000001
40
20
40
20
40
20
40
20
40
21
40
21
40
21
40
22
40
22
40
22
40
22
10
-32.92917409901596
20
142.79520663407902
30
0
10
-35.082517888256397
20
142.8641867193183
30
0
10
-36.955030768914291
20
144.500110272217
30
0
10
-37.090751835019141
20
146.6502794560347
30
0
10
-37.246442546995986
20
149.11681896021645
30
0
10
-35.252764444853085
20
151.12387548531055
30
0
10
-32.842174099016006
20
151.0466538426239
30
0
0
LINE
5
312
100
AcDbEntity
8
0
100
AcDbLine
10
-29.929174099016006
20
134.55357991998201
30
0
11
-29.929174099015992
21
142.79520663407894
31
0
0
LINE
5
313
100
AcDbEntity
8
0
100
AcDbLine
10
-175.96062448363688
20
5.6108708425050224
30
0
11
-184.21062448363693
21
5.6108708425050224
31
0
0
LINE
5
314
100
AcDbEntity
8
0
100
AcDbLine
10
-175.96062448363688
20
-9.3891291574949776
30
0
11
-175.96062448363688
21
-15.264129157494963
31
0
0
LINE
5
315
100
AcDbEntity
8
0
100
AcDbLine
10
-11.018146871786493
20
101.54177592187011
30
0
11
-11.018146871786495
21
126.30242049113465
31
0
0
LINE
5
316
100
AcDbEntity
8
0
100
AcDbLine
10
-32.862628767113144
20
200.54864438090107
30
0
11
-11.062628767113145
21
200.54864438090104
31
0
0
SPLINE
5
317
100
AcDbEntity
8
0
100
AcDbSpline
70
0
71
3
72
11
73
7
74
0
42
0.000000001
43
0.0000000001
44
0.0000000001
40
10
40
10
40
10
40
10
40
11
40
11
40
11
40
12
40
12
40
12
40
12
10
-32.905146871786499
20
93.290328713325223
30
0
10
-35.058490661028657
20
93.359308798565593
30
0
10
-36.931003541684824
20
94.995232351463201
30
0
10
-37.066724607789624
20
97.145401535281025
30
0
10
-37.222415319766505
20
99.611941039462664
30
0
10
-35.228737217623575
20
101.61899756455679
30
0
10
-32.818146871786503
20
101.54177592187011
30
0
0
LINE
5
318
100
AcDbEntity
8
0
100
AcDbLine
10
-252.75897233785273
20
150.8860294804746
30
0
11
-252.75897233785281
21
131.25034763218156
31
0
0
LINE
5
319
100
AcDbEntity
8
0
100
AcDbLine
10
-234.02879292645537
20
172.22798486716098
30
0
11
-237.02879292645542
21
172.22798486716098
31
0
0
LINE
5
320
100
AcDbEntity
8
0
100
AcDbLine
10
-234.11579292645536
20
196.64797170003271
30
0
11
-255.91579292645534
21
196.64797170003271
31
0
0
SPLINE
5
321
100
AcDbEntity
8
0
100
AcDbSpline
70
0
71
3
72
11
73
7
74
0
42
0.000000001
43
0.0000000001
44
0.0000000001
40
47
40
47
40
47
40
47
40
48
40
48
40
48
40
49
40
49
40
49
40
49
10
-234.02879301566472
20
158.54567436700236
30
0
10
-232.01223931723686
20
159.30400725961522
30
0
10
-229.65701743474176
20
158.50692085963172
30
0
10
-228.71066625840808
20
156.57146818759051
30
0
10
-227.62506204481724
20
154.35121884620713
30
0
10
-228.70146058263049
20
151.73497460619416
30
0
10
-230.95897233765527
20
150.88602948047463
30
0
0
LINE
5
322
100
AcDbEntity
8
0
100
AcDbLine
10
-11.062628767113136
20
233.56111833800074
30
0
11
-237.07341885477203
21
233.56111833800074
31
0
0
LINE
5
323
100
AcDbEntity
8
0
100
AcDbLine
10
-126.46062448363691
20
11.485870842505079
30
0
11
-126.46062448363691
21
-15.264129157494963
31
0
0
LINE
5
324
100
AcDbEntity
8
0
100
AcDbLine
10
-192.46062448363691
20
11.485870842505079
30
0
11
-192.46062448363691
21
-15.264129157494963
31
0
0
LINE
5
325
100
AcDbEntity
8
0
100
AcDbLine
10
-230.95897233785274
20
150.88602948047463
30
0
11
-252.75897233785273
21
150.8860294804746
31
0
0
LINE
5
326
100
AcDbEntity
8
0
100
AcDbLine
10
-237.02879292645542
20
172.22798486716098
30
0
11
-237.02879292645545
21
158.54567436700236
31
0
0
LINE
5
327
100
AcDbEntity
8
0
100
AcDbLine
10
-159.46062448363691
20
11.485870842505079
30
0
11
-159.46062448363691
21
-15.264129157494963
31
0
0
LINE
5
328
100
AcDbEntity
8
0
100
AcDbLine
10
-167.71062448363691
20
-15.264129157494963
30
0
11
-167.71062448363691
21
11.485870842505079
31
0
0
LINE
5
329
100
AcDbEntity
8
0
100
AcDbLine
10
-101.71062448363688
20
-15.264129157494963
30
0
11
-101.71062448363688
21
-9.3891291574949776
31
0
0
LINE
5
330
100
AcDbEntity
8
0
100
AcDbLine
10
-160.26387874779999
20
68.592385347195773
30
0
11
-160.26387874779999
21
167.21377731482661
31
0
0
LINE
5
331
100
AcDbEntity
8
0
100
AcDbLine
10
256.18299035386434
20
1.8332252827209099
30
0
11
256.1829903538644
21
-22.944981233627239
31
0
0
LINE
5
332
100
AcDbEntity
8
0
100
AcDbLine
10
-184.21062448363693
20
-15.264129157494963
30
0
11
-184.21062448363693
21
-9.3891291574949776
31
0
0
LINE
5
333
100
AcDbEntity
8
0
100
AcDbLine
10
-85.210624483636906
20
-15.264129157494963
30
0
11
-85.210624483636906
21
11.485870842505079
31
0
0
LINE
5
334
100
AcDbEntity
8
0
100
AcDbLine
10
-108.90242972805129
20
68.561149251066666
30
0
11
-29.905146871786492
21
68.561149251066652
31
0
0
LINE
5
335
100
AcDbEntity
8
0
100
AcDbLine
10
-255.91579292645534
20
180.47943311014103
30
0
11
-234.11579292645536
21
180.47943311014097
31
0
0
LINE
5
336
100
AcDbEntity
8
0
100
AcDbLine
10
-230.55903270529012
20
102.04111187421989
30
0
11
-252.35903270529002
21
102.04111187421989
31
0
0
LINE
5
337
100
AcDbEntity
8
0
100
AcDbLine
10
-109.96062448363688
20
11.485870842505079
30
0
11
-109.96062448363688
21
-15.264129157494963
31
0
0
SPLINE
5
338
100
AcDbEntity
8
0
100
AcDbSpline
70
0
71
3
72
11
73
7
74
0
42
0.000000001
43
0.0000000001
44
0.0000000001
40
45
40
45
40
45
40
45
40
46
40
46
40
46
40
47
40
47
40
47
40
47
10
-241.68337636817103
20
-256.52292337282012
30
0
10
-239.52902526378708
20
-256.54648828912525
30
0
10
-237.62244529646728
20
-258.14257407915539
30
0
10
-237.44142095989906
20
-260.28939426859142
30
0
10
-237.2337568703835
20
-262.75214302627114
30
0
10
-239.18465540608059
20
-264.80074863209165
30
0
10
-241.59637636817106
20
-264.77436852974569
30
0
0
SPLINE
5
339
100
AcDbEntity
8
0
100
AcDbSpline
70
0
71
3
72
8
73
4
74
0
42
0.000000001
43
0.0000000001
44
0.0000000001
40
1
40
1
40
1
40
1
40
2
40
2
40
2
40
2
10
-105.83562448363691
20
-19.389129157494978
30
0
10
-103.5574515925519
20
-19.389130859463251
30
0
10
-101.71062618560711
20
-17.542308211948949
30
0
10
-101.71062448363688
20
-15.26413532086579
30
0
0
LINE
5
340
100
AcDbEntity
8
0
100
AcDbLine
10
-237.60453731135158
20
-97.733607521139334
30
0
11
-259.40453731135159
21
-97.733607521139334
31
0
0
SPLINE
5
341
100
AcDbEntity
8
0
100
AcDbSpline
70
0
71
3
72
8
73
4
74
0
42
0.000000001
43
0.0000000001
44
0.0000000001
40
1
40
1
40
1
40
1
40
2
40
2
40
2
40
2
10
-155.33562448363688
20
-19.389129157494978
30
0
10
-153.05745159255201
20
-19.389130859463251
30
0
10
-151.21062618560353
20
-17.542308211948949
30
0
10
-151.21062448363691
20
-15.26413532086579
30
0
0
SPLINE
5
342
100
AcDbEntity
8
0
100
AcDbSpline
70
0
71
3
72
10
73
6
74
0
42
0.000000001
43
0.0000000001
44
0.0000000001
40
88
40
88
40
88
40
88
40
89
40
89
40
90
40
90
40
90
40
90
10
-237.52331018199828
20
-89.484007400317878
30
0
10
-235.24524601258688
20
-89.506437658217735
30
0
10
-233.41669343840763
20
-91.371356865841321
30
0
10
-233.46155395420726
20
-95.927485204664123
30
0
10
-235.32647316183096
20
-97.756037778843364
30
0
10
-237.60453733124234
20
-97.733607520943508
30
0
0
SPLINE
5
343
100
AcDbEntity
8
0
100
AcDbSpline
70
0
71
3
72
8
73
4
74
0
42
0.000000001
43
0.0000000001
44
0.0000000001
40
15
40
15
40
15
40
15
40
16
40
16
40
16
40
16
10
-126.46062448363691
20
-15.264129157494963
30
0
10
-126.46062618560713
20
-17.542302048579899
30
0
10
-124.61380353809098
20
-19.389127360929947
30
0
10
-122.33563064700971
20
-19.389129157494978
30
0
0
LINE
5
344
100
AcDbEntity
8
0
100
AcDbLine
10
-259.4103101819984
20
-73.023413065130171
30
0
11
-237.61031018199841
21
-73.023413065130171
31
0
0
SPLINE
5
345
100
AcDbEntity
8
0
100
AcDbSpline
70
0
71
3
72
11
73
7
74
0
42
0.000000001
43
0.0000000001
44
0.0000000001
40
35
40
35
40
35
40
35
40
36
40
36
40
36
40
37
40
37
40
37
40
37
10
-241.69215742050932
20
-207.0215163776806
30
0
10
-239.5378063161254
20
-207.04508129398573
30
0
10
-237.6312263488056
20
-208.64116708401588
30
0
10
-237.4502020122373
20
-210.78798727345173
30
0
10
-237.24253792272165
20
-213.25073603113134
30
0
10
-239.19343645841874
20
-215.29934163695216
30
0
10
-241.60515742050927
20
-215.27296153460611
30
0
0
SPLINE
5
346
100
AcDbEntity
8
0
100
AcDbSpline
70
0
71
3
72
8
73
4
74
0
42
0.000000001
43
0.0000000001
44
0.0000000001
40
37
40
37
40
37
40
37
40
38
40
38
40
38
40
38
10
-109.96062448363688
20
-15.264129157494963
30
0
10
-109.96062618560714
20
-17.542302048579899
30
0
10
-108.11380353809096
20
-19.389127360929947
30
0
10
-105.83563064700968
20
-19.389129157494978
30
0
0
SPLINE
5
347
100
AcDbEntity
8
0
100
AcDbSpline
70
0
71
3
72
10
73
6
74
0
42
0.000000001
43
0.0000000001
44
0.0000000001
40
70
40
70
40
70
40
70
40
71
40
71
40
72
40
72
40
72
40
72
10
-237.52547272951369
20
-39.977132732840403
30
0
10
-235.24741859451299
20
-40.000559948451617
30
0
10
-233.41968234874028
20
-41.86627921548677
30
0
10
-233.46653677996275
20
-46.422387485490127
30
0
10
-235.33225604699894
20
-48.250123731261958
30
0
10
-237.61031018199964
20
-48.226696515650744
30
0
0
LINE
5
348
100
AcDbEntity
8
0
100
AcDbLine
10
-37.198616348064363
20
-15.153588493493835
30
0
11
-37.19861634806437
21
-7.0305681429413038
31
0
0
SPLINE
5
349
100
AcDbEntity
8
0
100
AcDbSpline
70
0
71
3
72
8
73
4
74
0
42
0.000000001
43
0.0000000001
44
0.0000000001
40
8
40
8
40
8
40
8
40
9
40
9
40
9
40
9
10
-93.460624483636892
20
-15.264129157494963
30
0
10
-93.460626185607111
20
-17.542302048579899
30
0
10
-91.613803538090963
20
-19.389127360929947
30
0
10
-89.335630647009694
20
-19.389129157494978
30
0
0
LINE
5
350
100
AcDbEntity
8
0
100
AcDbLine
10
-259.41031018199857
20
-48.226696515650723
30
0
11
-259.4103101819984
21
-73.023413065130171
31
0
0
LINE
5
351
100
AcDbEntity
8
0
100
AcDbLine
10
-240.52331018199823
20
-89.484007400317893
30
0
11
-237.52331018199823
21
-89.48400740031785
31
0
0
LINE
5
352
100
AcDbEntity
8
0
100
AcDbLine
10
-237.52547272951361
20
-31.764509384291433
30
0
11
-240.52547272951361
21
-31.764509384291415
31
0
0
SPLINE
5
353
100
AcDbEntity
8
0
100
AcDbSpline
70
0
71
3
72
10
73
6
74
0
42
0.000000001
43
0.0000000001
44
0.0000000001
40
61
40
61
40
61
40
61
40
62
40
62
40
63
40
63
40
63
40
63
10
-237.61247272951363
20
-23.514968124318205
30
0
10
-235.33442481402258
20
-23.490943737700558
30
0
10
-233.46822648614466
20
-25.318190838812757
30
0
10
-233.42017771290932
20
-29.874286669796657
30
0
10
-235.24742481402257
20
-31.740484997673768
30
0
10
-237.52547272951364
20
-31.764509384291451
30
0
0
SPLINE
5
354
100
AcDbEntity
8
0
100
AcDbSpline
70
0
71
3
72
8
73
4
74
0
42
0.000000001
43
0.0000000001
44
0.0000000001
40
15
40
15
40
15
40
15
40
16
40
16
40
16
40
16
10
-142.96062448363688
20
-15.264129157494963
30
0
10
-142.96062618560356
20
-17.542302048579899
30
0
10
-141.11380353809096
20
-19.389127360928242
30
0
10
-138.83563064700598
20
-19.389129157494978
30
0
0
LINE
5
355
100
AcDbEntity
8
0
100
AcDbLine
10
-259.40453731135159
20
-97.733607521139334
30
0
11
-259.40453731135159
21
-130.69596890858637
31
0
0
LINE
5
356
100
AcDbEntity
8
0
100
AcDbLine
10
-240.52547272951364
20
-39.97713273284041
30
0
11
-237.52547272951364
21
-39.977132732840403
31
0
0
LINE
5
357
100
AcDbEntity
8
0
100
AcDbLine
10
-237.61031018199859
20
-48.226696515650772
30
0
11
-259.41031018199857
21
-48.226696515650723
31
0
0
LINE
5
358
100
AcDbEntity
8
0
100
AcDbLine
10
-3.9662635137042934
20
-22.829582284852677
30
0
11
-3.9662635137042934
21
2.1721974165457238
31
0
0
SPLINE
5
359
100
AcDbEntity
8
0
100
AcDbSpline
70
0
71
3
72
8
73
4
74
0
42
0.000000001
43
0.0000000001
44
0.0000000001
40
12
40
12
40
12
40
12
40
13
40
13
40
13
40
13
10
-89.335624483636877
20
-19.389129157494978
30
0
10
-87.057451592551871
20
-19.389130859463251
30
0
10
-85.210626185607126
20
-17.542308211948949
30
0
10
-85.210624483636906
20
-15.26413532086579
30
0
0
LINE
5
360
100
AcDbEntity
8
0
100
AcDbLine
10
-142.96062448363688
20
11.485870842505079
30
0
11
-142.96062448363688
21
-15.264129157494963
31
0
0
SPLINE
5
361
100
AcDbEntity
8
0
100
AcDbSpline
70
0
71
3
72
8
73
4
74
0
42
0.000000001
43
0.0000000001
44
0.0000000001
40
8
40
8
40
8
40
8
40
9
40
9
40
9
40
9
10
-175.96062448363688
20
-15.264129157494963
30
0
10
-175.96062618560353
20
-17.542302048579899
30
0
10
-174.11380353809096
20
-19.389127360928242
30
0
10
-171.83563064700604
20
-19.389129157494978
30
0
0
LINE
5
362
100
AcDbEntity
8
0
100
AcDbLine
10
-259.41247272951364
20
1.2780539703114977
30
0
11
-259.41247272951364
21
-23.514968124318187
31
0
0
LINE
5
363
100
AcDbEntity
8
0
100
AcDbLine
10
-237.5233101819984
20
-81.272954325107094
30
0
11
-240.5233101819984
21
-81.272954325107079
31
0
0
LINE
5
364
100
AcDbEntity
8
0
100
AcDbLine
10
-151.21062448363691
20
-15.264129157494963
30
0
11
-151.21062448363691
21
11.485870842505079
31
0
0
LINE
5
365
100
AcDbEntity
8
0
100
AcDbLine
10
-155.94362714507869
20
-202.77925043361228
30
0
11
-128.46254804351619
21
-202.76960687892489
31
0
0
LINE
5
366
100
AcDbEntity
8
0
100
AcDbLine
10
-93.460624483636892
20
-9.3891291574949776
30
0
11
-93.460624483636892
21
-15.264129157494963
31
0
0
LINE
5
367
100
AcDbEntity
8
0
100
AcDbLine
10
-241.59637636817106
20
-264.77436852974574
30
0
11
-244.59637636817106
21
-264.77436852974569
31
0
0
LINE
5
368
100
AcDbEntity
8
0
100
AcDbLine
10
-241.67424764192975
20
-281.11535576752044
30
0
11
-263.47424764192971
21
-281.11535576752044
31
0
0
LINE
5
369
100
AcDbEntity
8
0
100
AcDbLine
10
-241.60515742050927
20
-215.27296153460611
30
0
11
-244.60515742050927
21
-215.27296153460611
31
0
0
LINE
5
370
100
AcDbEntity
8
0
100
AcDbLine
10
-244.60515742050927
20
-215.27296153460611
30
0
11
-244.6051574205093
21
-223.40833839185103
31
0
0
SPLINE
5
371
100
AcDbEntity
8
0
100
AcDbSpline
70
0
71
3
72
8
73
4
74
0
42
0.000000001
43
0.0000000001
44
0.0000000001
40
59
40
59
40
59
40
59
40
60
40
60
40
60
40
60
10
-128.46254804351619
20
-202.76960687892489
30
0
10
-122.24520185211006
20
-202.76740961329992
30
0
10
-117.20552900054739
20
-207.81019525783108
30
0
10
-117.21157148101622
20
-214.02754144923739
30
0
0
SPLINE
5
372
100
AcDbEntity
8
0
100
AcDbSpline
70
0
71
3
72
11
73
7
74
0
42
0.000000001
43
0.0000000001
44
0.0000000001
40
30
40
30
40
30
40
30
40
31
40
31
40
31
40
32
40
32
40
32
40
32
10
-241.60515742050944
20
-173.90723212422733
30
0
10
-239.45178211691899
20
-173.97621609430587
30
0
10
-237.57927932431582
20
-175.61214711748966
30
0
10
-237.44356073539552
20
-177.76230692569484
30
0
10
-237.28786964030431
20
-180.22888676434516
30
0
10
-239.28152912761925
20
-182.23590242781762
30
0
10
-241.69215771473716
20
-182.15867727805065
30
0
0
SPLINE
5
373
100
AcDbEntity
8
0
100
AcDbSpline
70
0
71
3
72
8
73
4
74
0
42
0.000000001
43
0.0000000001
44
0.0000000001
40
57
40
57
40
57
40
57
40
58
40
58
40
58
40
58
10
-168.59822919586003
20
-215.43830805079992
30
0
10
-168.59822919586003
20
-208.44862299220608
30
0
10
-162.93325116851619
20
-202.78169183986228
30
0
10
-155.94362714507869
20
-202.77925043361228
30
0
0
LINE
5
374
100
AcDbEntity
8
0
100
AcDbLine
10
-244.59637636817106
20
-264.77436852974569
30
0
11
-244.59637636817106
21
-272.8638194110307
31
0
0
LINE
5
375
100
AcDbEntity
8
0
100
AcDbLine
10
-263.47424764192971
20
-281.11535576752044
30
0
11
-263.47424764192971
21
-314.14216547267495
31
0
0
LINE
5
376
100
AcDbEntity
8
0
100
AcDbLine
10
-117.21157148101622
20
-214.02754144923739
30
0
11
-117.21157148101625
21
-314.13814507116558
31
0
0
LINE
5
377
100
AcDbEntity
8
0
100
AcDbLine
10
-168.92354657867253
20
-314.01264887111245
30
0
11
-168.59822919586003
21
-215.43830805079992
31
0
0
SPLINE
5
378
100
AcDbEntity
8
0
100
AcDbSpline
70
0
71
3
72
11
73
7
74
0
42
0.000000001
43
0.0000000001
44
0.0000000001
40
50
40
50
40
50
40
50
40
51
40
51
40
51
40
52
40
52
40
52
40
52
10
-241.59637636817109
20
-272.86381941103065
30
0
10
-239.44292606219699
20
-272.93042095711377
30
0
10
-237.56861450707413
20
-274.5642793399777
30
0
10
-237.43051717689298
20
-276.71428768033297
30
0
10
-237.27209728219657
20
-279.18069376094735
30
0
10
-239.26353509225805
20
-281.18991387667438
30
0
10
-241.67424764193009
20
-281.11535576752055
30
0
0
LINE
5
379
100
AcDbEntity
8
0
100
AcDbLine
10
-263.48337636817115
20
-231.65987146629337
30
0
11
-263.48337636817109
21
-256.52292337282012
31
0
0
LINE
5
380
100
AcDbEntity
8
0
100
AcDbLine
10
-244.6051574205093
20
-223.40833839185103
30
0
11
-241.6051574205093
21
-223.40833839185103
31
0
0
LINE
5
381
100
AcDbEntity
8
0
100
AcDbLine
10
-168.9208610317975
20
-314.14216547267495
30
0
11
-168.92354657867253
21
-314.01264887111245
31
0
0
LINE
5
382
100
AcDbEntity
8
0
100
AcDbLine
10
-263.49215742050927
20
-207.02151637768054
30
0
11
-241.69215742050935
21
-207.02151637768057
31
0
0
SPLINE
5
383
100
AcDbEntity
8
0
100
AcDbSpline
70
0
71
3
72
11
73
7
74
0
42
0.000000001
43
0.0000000001
44
0.0000000001
40
40
40
40
40
40
40
40
40
41
40
41
40
41
40
42
40
42
40
42
40
42
10
-241.60515742050936
20
-223.40833839185103
30
0
10
-239.45170992505115
20
-223.47503074932504
30
0
10
-237.57746727174487
20
-225.10896817084685
30
0
10
-237.4394606079882
20
-227.25898233288342
30
0
10
-237.28114472229322
20
-229.72539509190497
30
0
10
-239.27266725981667
20
-231.73453122649616
30
0
10
-241.6833766632142
20
-231.6598714571559
30
0
0
LINE
5
384
100
AcDbEntity
8
0
100
AcDbLine
10
-244.59637636817106
20
-272.8638194110307
30
0
11
-241.59637636817106
21
-272.8638194110307
31
0
0
LINE
5
385
100
AcDbEntity
8
0
100
AcDbLine
10
-244.60515742050944
20
-173.90723212422745
30
0
11
-241.60515742050944
21
-173.90723212422733
31
0
0
LINE
5
386
100
AcDbEntity
8
0
100
AcDbLine
10
-241.68337636817114
20
-231.65987146629337
30
0
11
-263.48337636817115
21
-231.65987146629337
31
0
0
LINE
5
387
100
AcDbEntity
8
0
100
AcDbLine
10
-263.48337636817109
20
-256.52292337282012
30
0
11
-241.68337636817103
21
-256.52292337282012
31
0
0
LINE
5
388
100
AcDbEntity
8
0
100
AcDbLine
10
236.56888664078252
20
-134.25695914459573
30
0
11
15.952273011160136
21
-134.2569591445957
31
0
0
SPLINE
5
389
100
AcDbEntity
8
0
100
AcDbSpline
70
0
71
3
72
8
73
4
74
0
42
0.000000001
43
0.0000000001
44
0.0000000001
40
125
40
125
40
125
40
125
40
126
40
126
40
126
40
126
10
17.833736486295152
20
2.1721974165459059
30
0
10
19.997890824910328
20
1.4605038586640362
30
0
10
22.329226047405811
20
2.6379560065386789
30
0
10
23.040919732576484
20
4.8021103032922872
30
0
0
LINE
5
390
100
AcDbEntity
8
0
100
AcDbLine
10
-244.60515742050939
20
-149.14210443751864
30
0
11
-244.60515742050944
21
-173.90723212422745
31
0
0
LINE
5
391
100
AcDbEntity
8
0
100
AcDbLine
10
-259.40453731135159
20
-130.69596890858637
30
0
11
-37.172807875195339
21
-130.69596890858634
31
0
0
SPLINE
5
392
100
AcDbEntity
8
0
100
AcDbSpline
70
0
71
3
72
10
73
6
74
0
42
0.000000001
43
0.0000000001
44
0.0000000001
40
88
40
88
40
88
40
88
40
89
40
89
40
90
40
90
40
90
40
90
10
31.581332548081885
20
109.97466044902409
30
0
10
33.859322906076137
20
109.9456879567137
30
0
10
35.682512115408251
20
108.07552505619518
30
0
10
35.624567130787547
20
103.51954434020656
30
0
10
33.754404230268975
20
101.69635513087457
30
0
10
31.476413872274737
20
101.72532762318491
30
0
0
LINE
5
393
100
AcDbEntity
8
0
100
AcDbLine
10
-241.6921574205094
20
-182.15867728747634
30
0
11
-263.49215742050939
21
-182.15867728747637
31
0
0
SPLINE
5
394
100
AcDbEntity
8
0
100
AcDbSpline
70
0
71
3
72
8
73
4
74
0
42
0.000000001
43
0.0000000001
44
0.0000000001
40
128
40
128
40
128
40
128
40
129
40
129
40
129
40
129
10
23.04091973257637
20
4.8021103032921424
30
0
10
22.398981238914942
20
6.9879709328914412
30
0
10
20.10659711589566
20
8.2395671168255884
30
0
10
17.920736486295631
20
7.5976286231658712
30
0
0
LINE
5
395
100
AcDbEntity
8
0
100
AcDbLine
10
31.476413872274751
20
101.72532762318495
30
0
11
9.6764138722747504
21
101.72532762318498
31
0
0
LINE
5
396
100
AcDbEntity
8
0
100
AcDbLine
10
231.95087320327701
20
134.78814515292649
30
0
11
231.95087320327704
21
142.99657031175914
31
0
0
SPLINE
5
397
100
AcDbEntity
8
0
100
AcDbSpline
70
0
71
3
72
10
73
6
74
0
42
0.000000001
43
0.0000000001
44
0.0000000001
40
13
40
13
40
13
40
13
40
14
40
14
40
15
40
15
40
15
40
15
10
229.04531883369617
20
126.5386857753149
30
0
10
226.76729352939429
20
126.51260533463056
30
0
10
224.89944677036422
20
128.33816734461126
30
0
10
224.84728588899557
20
132.89421795321385
30
0
10
226.67284789897511
20
134.76206471224225
30
0
10
228.95087320327707
20
134.78814515292655
30
0
0
LINE
5
398
100
AcDbEntity
8
0
100
AcDbLine
10
-263.49215742050939
20
-182.15867728747637
30
0
11
-263.49215742050927
21
-207.02151637768054
31
0
0
LINE
5
399
100
AcDbEntity
8
0
100
AcDbLine
10
229.04531883369603
20
101.74359535055295
30
0
11
250.84531883369601
21
101.74359535055297
31
0
0
LINE
5
400
100
AcDbEntity
8
0
100
AcDbLine
10
-117.21157148101625
20
-314.13814507116558
30
0
11
-41.246396350028469
21
-314.13814507116552
31
0
0
LINE
5
401
100
AcDbEntity
8
0
100
AcDbLine
10
-263.47424764192971
20
-314.14216547267495
30
0
11
-168.9208610317975
21
-314.14216547267495
31
0
0
LINE
5
402
100
AcDbEntity
8
0
100
AcDbLine
10
28.599740033029537
20
159.47304292327109
30
0
11
31.599740033029533
21
159.47304292327109
31
0
0
LINE
5
403
100
AcDbEntity
8
0
100
AcDbLine
10
-22.329564038219544
20
-149.14210443751864
30
0
11
-244.60515742050939
21
-149.14210443751864
31
0
0
SPLINE
5
404
100
AcDbEntity
8
0
100
AcDbSpline
70
0
71
3
72
8
73
4
74
0
42
0.000000001
43
0.0000000001
44
0.0000000001
40
8
40
8
40
8
40
8
40
9
40
9
40
9
40
9
10
230.21495213764283
20
5.9147270382464789
30
0
10
230.23884852141705
20
3.6366794784883361
30
0
10
232.10494279228755
20
1.8093290723348066
30
0
10
234.38299035386436
20
1.8332252827209228
30
0
0
SPLINE
5
405
100
AcDbEntity
8
0
100
AcDbSpline
70
0
71
3
72
10
73
6
74
0
42
0.000000001
43
0.0000000001
44
0.0000000001
40
22
40
22
40
22
40
22
40
23
40
23
40
24
40
24
40
24
40
24
10
228.95087320327701
20
142.99657031175914
30
0
10
226.67282528784364
20
143.02059470385271
30
0
10
224.8455781912165
20
144.88679303612287
30
0
10
224.89362697540378
20
149.44288886698953
30
0
10
226.75982530767388
20
151.27013596361681
30
0
10
229.03787322310728
20
151.24611157152319
30
0
0
LINE
5
406
100
AcDbEntity
8
0
100
AcDbLine
10
31.581332548110055
20
118.21837083905478
30
0
11
28.581332548110051
21
118.21837083905478
31
0
0
SPLINE
5
407
100
AcDbEntity
8
0
100
AcDbSpline
70
0
71
3
72
8
73
4
74
0
42
0.000000001
43
0.0000000001
44
0.0000000001
40
5
40
5
40
5
40
5
40
6
40
6
40
6
40
6
10
234.29599035386249
20
10.083219119320468
30
0
10
232.01794546563025
20
10.05906940138348
30
0
10
230.19080241970391
20
8.1927719264781196
30
0
10
230.21495213764092
20
5.914727038246026
30
0
0
LINE
5
408
100
AcDbEntity
8
0
100
AcDbLine
10
9.6764138722747504
20
68.754806696121577
30
0
11
231.95831883369601
21
68.754806696121605
31
0
0
LINE
5
409
100
AcDbEntity
8
0
100
AcDbLine
10
-3.9662635137042934
20
2.1721974165457238
30
0
11
17.83373648629571
21
2.1721974165457238
31
0
0
LINE
5
410
100
AcDbEntity
8
0
100
AcDbLine
10
9.6943325481100509
20
151.2237163288076
30
0
11
9.6943325481100509
21
126.46791209903158
31
0
0
LINE
5
411
100
AcDbEntity
8
0
100
AcDbLine
10
231.95087320327704
20
142.99657031175914
30
0
11
228.95087320327704
21
142.99657031175914
31
0
0
LINE
5
412
100
AcDbEntity
8
0
100
AcDbLine
10
17.920736486295709
20
7.5976286231660399
30
0
11
14.920736486295707
21
7.5976286231660399
31
0
0
SPLINE
5
413
100
AcDbEntity
8
0
100
AcDbSpline
70
0
71
3
72
10
73
6
74
0
42
0.000000001
43
0.0000000001
44
0.0000000001
40
70
40
70
40
70
40
70
40
71
40
71
40
72
40
72
40
72
40
72
10
31.599740033029555
20
159.47304292327112
30
0
10
33.87772867027693
20
159.44393545005158
30
0
10
35.700807061021116
20
157.57366452082886
30
0
10
35.64259211458203
20
153.01768724633109
30
0
10
33.772321185357434
20
151.19460885558806
30
0
10
31.494332548110073
20
151.22371632880757
30
0
0
SPLINE
5
414
100
AcDbEntity
8
0
100
AcDbSpline
70
0
71
3
72
10
73
6
74
0
42
0.000000001
43
0.0000000001
44
0.0000000001
40
79
40
79
40
79
40
79
40
80
40
80
40
81
40
81
40
81
40
81
10
31.494332528188039
20
126.46791209882146
30
0
10
33.772380443621046
20
126.49193649094042
30
0
10
35.63857877591164
20
124.66468939433399
30
0
10
35.68662756014951
20
120.10859356346877
30
0
10
33.859380463543062
20
118.24239523117372
30
0
10
31.581332548110048
20
118.2183708390548
30
0
0
LINE
5
415
100
AcDbEntity
8
0
100
AcDbLine
10
250.84531883369601
20
101.74359535055297
30
0
11
250.84531883369613
21
126.53868577531489
31
0
0
LINE
5
416
100
AcDbEntity
8
0
100
AcDbLine
10
31.494332548110052
20
151.2237163288076
30
0
11
9.6943325481100509
21
151.2237163288076
31
0
0
LINE
5
417
100
AcDbEntity
8
0
100
AcDbLine
10
14.920736486295706
20
30.700158956628819
30
0
11
237.29599035386431
21
30.700158956628819
31
0
0
SPLINE
5
418
100
AcDbEntity
8
0
100
AcDbSpline
70
0
71
3
72
10
73
6
74
0
42
0.000000001
43
0.0000000001
44
0.0000000001
40
4
40
4
40
4
40
4
40
5
40
5
40
6
40
6
40
6
40
6
10
228.95831883369598
20
93.494054090579766
30
0
10
226.68027091820488
20
93.518078477197406
30
0
10
224.85302381709181
20
95.38427680507526
30
0
10
224.9010725903272
20
99.940372636061085
30
0
10
226.76727091820499
20
101.76761973717056
30
0
10
229.04531883369611
20
101.74359535055291
30
0
0
LINE
5
419
100
AcDbEntity
8
0
100
AcDbLine
10
14.920736486295707
20
7.5976286231660399
30
0
11
14.920736486295706
21
30.700158956628812
31
0
0
LINE
5
420
100
AcDbEntity
8
0
100
AcDbLine
10
228.95087320327701
20
134.78814515292649
30
0
11
231.95087320327701
21
134.78814515292649
31
0
0
LINE
5
421
100
AcDbEntity
8
0
100
AcDbLine
10
237.29599035386431
20
10.083219119320912
30
0
11
234.29599035386431
21
10.083219119320912
31
0
0
LINE
5
422
100
AcDbEntity
8
0
100
AcDbLine
10
229.03787320327709
20
151.24611157173231
30
0
11
250.83787320327707
21
151.24611157173231
31
0
0
LINE
5
423
100
AcDbEntity
8
0
100
AcDbLine
10
28.581332548110051
20
118.21837083905478
30
0
11
28.581332548110062
21
109.9746604490238
31
0
0
SPLINE
5
424
100
AcDbEntity
8
0
100
AcDbSpline
70
0
71
3
72
8
73
4
74
0
42
0.000000001
43
0.0000000001
44
0.0000000001
40
37
40
37
40
37
40
37
40
38
40
38
40
38
40
38
10
-192.46062448363691
20
-15.264129157494963
30
0
10
-192.46062618560353
20
-17.542302048579899
30
0
10
-190.61380353809091
20
-19.389127360928313
30
0
10
-188.33563064700613
20
-19.389129157494978
30
0
0
LINE
5
425
100
AcDbEntity
8
0
100
AcDbLine
10
-41.216564038219516
20
-190.39127707311502
30
0
11
-44.216564038219524
21
-190.39127707311502
31
0
0
LINE
5
426
100
AcDbEntity
8
0
100
AcDbLine
10
-22.3559698810516
20
-281.14066363929737
30
0
11
-22.3559698810516
21
-256.27250291406432
31
0
0
LINE
5
427
100
AcDbEntity
8
0
100
AcDbLine
10
-41.216564038219552
20
-198.51975891150477
30
0
11
-41.216564038219516
21
-190.39127707311502
31
0
0
LINE
5
428
100
AcDbEntity
8
0
100
AcDbLine
10
-41.242969881051593
20
-313.81320729033774
30
0
11
-41.242969881051607
21
-289.39211011384992
31
0
0
LINE
5
429
100
AcDbEntity
8
0
100
AcDbLine
10
-22.329564038219555
20
-182.13983059854425
30
0
11
-22.329564038219544
21
-149.14210443751864
31
0
0
LINE
5
430
100
AcDbEntity
8
0
100
AcDbLine
10
-41.242969881051607
20
-289.39211011384992
30
0
11
-44.242969881051607
21
-289.39211011384992
31
0
0
LINE
5
431
100
AcDbEntity
8
0
100
AcDbLine
10
-41.246396350028469
20
-314.13814507116552
30
0
11
-41.242969881051593
21
-313.81320729033774
31
0
0
SPLINE
5
432
100
AcDbEntity
8
0
100
AcDbSpline
70
0
71
3
72
8
73
4
74
0
42
0.000000001
43
0.0000000001
44
0.0000000001
40
1
40
1
40
1
40
1
40
2
40
2
40
2
40
2
10
-138.83562448363691
20
-19.389129157494978
30
0
10
-136.55745159255201
20
-19.389130859463251
30
0
10
-134.71062618560711
20
-17.542308211948949
30
0
10
-134.71062448363688
20
-15.26413532086579
30
0
0
SPLINE
5
433
100
AcDbEntity
8
0
100
AcDbSpline
70
0
71
3
72
11
73
7
74
0
42
0.000000001
43
0.0000000001
44
0.0000000001
40
23
40
23
40
23
40
23
40
24
40
24
40
24
40
25
40
25
40
25
40
25
10
-44.216564038219524
20
-190.39127707311496
30
0
10
-46.369938831736505
20
-190.32227718263644
30
0
10
-48.242371848752441
20
-188.68639535988052
30
0
10
-48.3781341764861
20
-186.53623250795263
30
0
10
-48.53387156465871
20
-184.06971066573726
30
0
10
-46.540191759106548
20
-182.06258763590426
30
0
10
-44.129563742997888
20
-182.13983060800393
30
0
0
LINE
5
434
100
AcDbEntity
8
0
100
AcDbLine
10
-44.155969881051604
20
-281.14066363929737
30
0
11
-22.3559698810516
21
-281.14066363929737
31
0
0
SPLINE
5
435
100
AcDbEntity
8
0
100
AcDbSpline
70
0
71
3
72
8
73
4
74
0
42
0.000000001
43
0.0000000001
44
0.0000000001
40
1
40
1
40
1
40
1
40
2
40
2
40
2
40
2
10
-188.33562448363691
20
-19.389129157494978
30
0
10
-186.05745159255201
20
-19.389130859463251
30
0
10
-184.21062618560347
20
-17.542308211948949
30
0
10
-184.21062448363693
20
-15.26413532086579
30
0
0
LINE
5
436
100
AcDbEntity
8
0
100
AcDbLine
10
-22.3559698810516
20
-256.27250291406432
30
0
11
-44.155969881051604
21
-256.27250291406432
31
0
0
LINE
5
437
100
AcDbEntity
8
0
100
AcDbLine
10
-44.1436107489967
20
-231.64032902026645
30
0
11
-22.34361074899671
21
-231.64032902026645
31
0
0
LINE
5
438
100
AcDbEntity
8
0
100
AcDbLine
10
-22.34361074899671
20
-231.64032902026645
30
0
11
-22.343610748996724
21
-206.77134152549795
31
0
0
LINE
5
439
100
AcDbEntity
8
0
100
AcDbLine
10
-41.23061074899671
20
-239.89177548849003
30
0
11
-44.230610748996696
21
-239.89177548849005
31
0
0
SPLINE
5
440
100
AcDbEntity
8
0
100
AcDbSpline
70
0
71
3
72
11
73
7
74
0
42
0.000000001
43
0.0000000001
44
0.0000000001
40
8
40
8
40
8
40
8
40
9
40
9
40
9
40
10
40
10
40
10
40
10
10
-44.15596988105159
20
-256.27250291406426
30
0
10
-46.31028307508074
20
-256.24569529812663
30
0
10
-48.214399551935372
20
-254.64680343692848
30
0
10
-48.392251956603396
20
-252.49971232996626
30
0
10
-48.596272242978877
20
-250.03671418645339
30
0
10
-46.642289271766714
20
-247.99092520120462
30
0
10
-44.23061074899671
20
-248.02093539275089
30
0
0
LINE
5
441
100
AcDbEntity
8
0
100
AcDbLine
10
-240.5233101819984
20
-81.272954325107079
30
0
11
-240.52331018199823
21
-89.484007400317893
31
0
0
SPLINE
5
442
100
AcDbEntity
8
0
100
AcDbSpline
70
0
71
3
72
8
73
4
74
0
42
0.000000001
43
0.0000000001
44
0.0000000001
40
15
40
15
40
15
40
15
40
16
40
16
40
16
40
16
10
-159.46062448363691
20
-15.264129157494963
30
0
10
-159.46062618560353
20
-17.542302048579899
30
0
10
-157.61380353809099
20
-19.389127360928242
30
0
10
-155.33563064700604
20
-19.389129157494978
30
0
0
LINE
5
443
100
AcDbEntity
8
0
100
AcDbLine
10
-240.52547272951361
20
-31.764509384291415
30
0
11
-240.52547272951364
21
-39.97713273284041
31
0
0
LINE
5
444
100
AcDbEntity
8
0
100
AcDbLine
10
-44.216564038219566
20
-198.51975891150477
30
0
11
-41.216564038219552
21
-198.51975891150477
31
0
0
LINE
5
445
100
AcDbEntity
8
0
100
AcDbLine
10
-259.41247272951364
20
-23.514968124318187
30
0
11
-237.61247272951363
21
-23.514968124318191
31
0
0
SPLINE
5
446
100
AcDbEntity
8
0
100
AcDbSpline
70
0
71
3
72
8
73
4
74
0
42
0.000000001
43
0.0000000001
44
0.0000000001
40
1
40
1
40
1
40
1
40
2
40
2
40
2
40
2
10
-122.33562448363688
20
-19.389129157494978
30
0
10
-120.05745159255187
20
-19.389130859463251
30
0
10
-118.21062618560714
20
-17.542308211948949
30
0
10
-118.21062448363691
20
-15.26413532086579
30
0
0
SPLINE
5
447
100
AcDbEntity
8
0
100
AcDbSpline
70
0
71
3
72
8
73
4
74
0
42
0.000000001
43
0.0000000001
44
0.0000000001
40
12
40
12
40
12
40
12
40
13
40
13
40
13
40
13
10
-171.83562448363688
20
-19.389129157494978
30
0
10
-169.55745159255201
20
-19.389130859463251
30
0
10
-167.7106261856035
20
-17.542308211948949
30
0
10
-167.71062448363691
20
-15.26413532086579
30
0
0
SPLINE
5
448
100
AcDbEntity
8
0
100
AcDbSpline
70
0
71
3
72
11
73
7
74
0
42
0.000000001
43
0.0000000001
44
0.0000000001
40
18
40
18
40
18
40
18
40
19
40
19
40
19
40
20
40
20
40
20
40
20
10
-44.143610748996728
20
-206.77134152549786
30
0
10
-46.297918415386896
20
-206.74409331871377
30
0
10
-48.201707853533847
20
-205.14481206876584
30
0
10
-48.379121140107351
20
-202.99768463305332
30
0
10
-48.582637699813645
20
-200.53464481564762
30
0
10
-46.628236372990401
20
-198.48925549386462
30
0
10
-44.216564038219559
20
-198.51975891150477
30
0
0
LINE
5
449
100
AcDbEntity
8
0
100
AcDbLine
10
-44.12956403821957
20
-182.13983059854428
30
0
11
-22.329564038219555
21
-182.13983059854425
31
0
0
SPLINE
5
450
100
AcDbEntity
8
0
100
AcDbSpline
70
0
71
3
72
10
73
6
74
0
42
0.000000001
43
0.0000000001
44
0.0000000001
40
79
40
79
40
79
40
79
40
80
40
80
40
81
40
81
40
81
40
81
10
-237.61031018199844
20
-73.023413065130171
30
0
10
-235.3322622665074
20
-72.999388678512645
30
0
10
-233.46606393862956
20
-74.826635779625832
30
0
10
-233.41801516539434
20
-79.382731610608033
30
0
10
-235.24526226650764
20
-81.248929938489596
30
0
10
-237.52331018199862
20
-81.272954325107136
30
0
0
LINE
5
451
100
AcDbEntity
8
0
100
AcDbLine
10
233.37675305120632
20
-47.740106543499635
30
0
11
255.17675305120636
21
-47.740106543499614
31
0
0
LINE
5
452
100
AcDbEntity
8
0
100
AcDbLine
10
233.22731647067417
20
-31.194975070227599
30
0
11
255.02731647067412
21
-31.194975070227567
31
0
0
SPLINE
5
453
100
AcDbEntity
8
0
100
AcDbSpline
70
0
71
3
72
11
73
7
74
0
42
0.000000001
43
0.0000000001
44
0.0000000001
40
0
40
0
40
0
40
0
40
0.0006627255732912327
40
0.0006627255732912327
40
0.0006627255732912327
40
1.0006627255732923
40
1.0006627255732923
40
1.0006627255732923
40
1.0006627255732923
10
22.324696248418576
20
-109.76768661293698
30
0
10
22.325028932604525
20
-109.76550272217759
30
0
10
22.32536161679047
20
-109.76331883141819
30
0
10
22.325694300976416
20
-109.76113494065879
30
0
10
22.667015411203767
20
-107.50867592407481
30
0
10
21.117732027744047
20
-105.40600168091417
30
0
10
18.865273011160038
20
-105.06468057068675
30
0
0
SPLINE
5
454
100
AcDbEntity
8
0
100
AcDbSpline
70
0
71
3
72
11
73
7
74
0
42
0.000000001
43
0.0000000001
44
0.0000000001
40
0
40
0
40
0
40
0
40
0.0006627255732912327
40
0.0006627255732912327
40
0.0006627255732912327
40
1.0006627255732923
40
1.0006627255732923
40
1.0006627255732923
40
1.0006627255732923
10
22.324696248418576
20
-109.76768661293697
30
0
10
22.325069004603382
20
-109.7698640220495
30
0
10
22.325441760788195
20
-109.77204143116199
30
0
10
22.325814516973015
20
-109.77421884027449
30
0
10
22.708466083661495
20
-112.02002593354591
30
0
10
21.198080104431554
20
-114.15081268234579
30
0
10
18.95227301116012
20
-114.53346424903431
30
0
0
ENDSEC
0
SECTION
2
OBJECTS
0
DICTIONARY
5
C
100
AcDbDictionary
3
ACAD_GROUP
350
D
3
ACAD_MLINESTYLE
350
17
0
DICTIONARY
5
D
100
AcDbDictionary
0
DICTIONARY
5
1A
330
C
100
AcDbDictionary
0
DICTIONARY
5
17
100
AcDbDictionary
0
ENDSEC
0
EOF
