0
SECTION
2
HEADER
9
$INSUNITS
70
4
9
$ACADVER
1
AC1014
9
$HANDSEED
5
FFFF
0
ENDSEC
0
SECTION
2
TABLES
0
TABLE
2
VPORT
5
8
100
AcDbSymbolTable
0
ENDTAB
0
TABLE
2
LTYPE
5
5
100
AcDbSymbolTable
0
LTYPE
5
14
100
AcDbSymbolTableRecord
100
AcDbLinetypeTableRecord
2
BYBLOCK
70
0
0
LTYPE
5
15
100
AcDbSymbolTableRecord
100
AcDbLinetypeTableRecord
2
BYLAYER
70
0
0
ENDTAB
0
TABLE
2
LAYER
5
2
100
AcDbSymbolTable
70
2
0
LAYER
5
50
100
AcDbSymbolTableRecord
100
AcDbLayerTableRecord
2
0
70
0
6
CONTINUOUS
0
ENDTAB
0
TABLE
2
STYLE
5
3
100
AcDbSymbolTable
70
1
0
STYLE
5
11
100
AcDbSymbolTableRecord
100
AcDbTextStyleTableRecord
2
STANDARD
70
0
0
ENDTAB
0
TABLE
2
VIEW
5
6
100
AcDbSymbolTable
70
0
0
ENDTAB
0
TABLE
2
UCS
5
7
100
AcDbSymbolTable
70
0
0
ENDTAB
0
TABLE
2
APPID
5
9
100
AcDbSymbolTable
70
2
0
APPID
5
12
100
AcDbSymbolTableRecord
100
AcDbRegAppTableRecord
2
ACAD
70
0
0
ENDTAB
0
TABLE
2
DIMSTYLE
5
A
100
AcDbSymbolTable
70
1
0
ENDTAB
0
TABLE
2
BLOCK_RECORD
5
1
100
AcDbSymbolTable
70
1
0
BLOCK_RECORD
5
1F
100
AcDbSymbolTableRecord
100
AcDbBlockTableRecord
2
*MODEL_SPACE
0
BLOCK_RECORD
5
1B
100
AcDbSymbolTableRecord
100
AcDbBlockTableRecord
2
*PAPER_SPACE
0
ENDTAB
0
ENDSEC
0
SECTION
2
BLOCKS
0
BLOCK
5
20
100
AcDbEntity
100
AcDbBlockBegin
2
*MODEL_SPACE
0
ENDBLK
5
21
100
AcDbEntity
100
AcDbBlockEnd
0
BLOCK
5
1C
100
AcDbEntity
100
AcDbBlockBegin
2
*PAPER_SPACE
0
ENDBLK
5
1D
100
AcDbEntity
100
AcDbBlockEnd
0
ENDSEC
0
SECTION
2
ENTITIES
0
SPLINE
5
100
100
AcDbEntity
8
0
100
AcDbSpline
70
0
71
3
72
11
73
7
74
0
42
0.000000001
43
0.0000000001
44
0.0000000001
40
-0.84108614656744773
40
-0.84108614656744773
40
-0.84108614656744773
40
-0.84108614656744773
40
-0.32797597740035622
40
-0.32797597740035622
40
-0.32797597740035622
40
0
40
0
40
0
40
0
10
-18.535096986713793
20
80.735785243899727
30
34.159181849243453
10
-19.32593334047926
20
79.12243208853846
30
34.159181849243453
10
-20.21352343929399
20
77.655748900624602
30
34.159181849243453
10
-20.930401964399348
20
76.199480559717074
30
34.15918184924346
10
-21.408950978973369
20
75.227355220358788
30
34.159181849243453
10
-21.780890529939043
20
74.442116814946942
30
34.159181849243453
10
-22.036317102467002
20
73.658990884809185
30
34.159181849243453
0
LINE
5
101
100
AcDbEntity
8
0
100
AcDbLine
10
82.273064547883408
20
52.587724789008931
30
34.468055819622037
11
-3.5395285769091167
21
52.587724789010451
31
34.468055819622037
0
LINE
5
102
100
AcDbEntity
8
0
100
AcDbLine
10
82.273064547884047
20
88.087728633508192
30
34.468055819622037
11
82.273064547883408
21
52.587724789008931
31
34.468055819622037
0
CIRCLE
5
103
100
AcDbEntity
8
0
100
AcDbCircle
10
-9.4678682679677095
20
70.111344033587187
30
34.46805581962203
40
1.5000000000000036
210
0
220
0
230
1
0
SPLINE
5
104
100
AcDbEntity
8
0
100
AcDbSpline
70
0
71
3
72
86
73
82
74
0
42
0.000000001
43
0.0000000001
44
0.0000000001
40
-7.6763755587327731
40
-7.6763755587327731
40
-7.6763755587327731
40
-7.6763755587327731
40
-7.2616744738176831
40
-7.2616744738176831
40
-7.2616744738176831
40
-6.8923368187236393
40
-6.8923368187236393
40
-6.8923368187236393
40
-6.5318761174762408
40
-6.5318761174762408
40
-6.5318761174762408
40
-6.5079205248158445
40
-6.5079205248158445
40
-6.5079205248158445
40
-6.3039407167749459
40
-6.3039407167749459
40
-6.3039407167749459
40
-5.8991497808460327
40
-5.8991497808460327
40
-5.8991497808460327
40
-5.3237037216961127
40
-5.3237037216961127
40
-5.3237037216961127
40
-5.2604853708781176
40
-5.2604853708781176
40
-5.2604853708781176
40
-4.8228189424827468
40
-4.8228189424827468
40
-4.8228189424827468
40
-4.3739433767035196
40
-4.3739433767035196
40
-4.3739433767035196
40
-4.1378744909334628
40
-4.1378744909334628
40
-4.1378744909334628
40
-3.9005058495117386
40
-3.9005058495117386
40
-3.9005058495117386
40
-3.3113211107178526
40
-3.3113211107178526
40
-3.3113211107178526
40
-2.9074729428591022
40
-2.9074729428591022
40
-2.9074729428591022
40
-2.8478267510514543
40
-2.8478267510514543
40
-2.8478267510514543
40
-2.5858540651757509
40
-2.5858540651757509
40
-2.5858540651757509
40
-2.4210485619929347
40
-2.4210485619929347
40
-2.4210485619929347
40
-2.1268387009009686
40
-2.1268387009009686
40
-2.1268387009009686
40
-1.7967517719811272
40
-1.7967517719811272
40
-1.7967517719811272
40
-1.541010511543929
40
-1.541010511543929
40
-1.541010511543929
40
-0.99034147960179397
40
-0.99034147960179397
40
-0.99034147960179397
40
-0.58970506061646177
40
-0.58970506061646177
40
-0.58970506061646177
40
-0.44196465647170391
40
-0.44196465647170391
40
-0.44196465647170391
40
-0.2743951758338885
40
-0.2743951758338885
40
-0.2743951758338885
40
-0.20241083675111368
40
-0.20241083675111368
40
-0.20241083675111368
40
-0.13083400250453114
40
-0.13083400250453114
40
-0.13083400250453114
40
0
40
0
40
0
40
0
10
71.467929733311252
20
27.137627676171157
30
34.159181849243453
10
72.055953750812449
20
27.059844452540318
30
34.159181849243453
10
72.56951779976346
20
27.003606715003698
30
34.159181849243453
10
73.026420197466649
20
27.016211955565979
30
34.159181849243453
10
73.433978864508418
20
27.027455877828395
30
34.159181849243453
10
73.795003604033028
20
27.08556377427243
30
34.159181849243453
10
74.182016365754521
20
27.231859634377393
30
34.159181849243453
10
74.55925373155678
20
27.374460267618232
30
34.159181849243453
10
75.078609675438784
20
27.632638294602714
30
34.159181849243453
10
75.975797370724308
20
28.441088410788993
30
34.159181849243453
10
76.035422907970954
20
28.494816602524118
30
34.159181849243453
10
76.096560375891201
20
28.550924111434561
30
34.159181849243453
10
76.159232427522099
20
28.609515455556753
30
34.159181849243453
10
76.692593425833849
20
29.108148210990628
30
34.159181849243453
10
77.239845429840329
20
29.697817077998145
30
34.159181849243453
10
77.744876744504523
20
30.278840126776849
30
34.159181849243453
10
78.745710068224071
20
31.430268191100943
30
34.159181849243453
10
79.80102061944811
20
32.803541508585639
30
34.159181849243453
10
80.743675277960932
20
34.016977858553759
30
34.15918184924346
10
82.083732899012389
20
35.741972917721085
30
34.159181849243453
10
82.950427971119737
20
36.83776401942616
30
34.159181849243453
10
83.964777578737127
20
37.739109033451648
30
34.159181849243453
10
84.076213756510555
20
37.838130556666023
30
34.159181849243453
10
84.189074420734912
20
37.93428915550038
30
34.159181849243453
10
84.303760279874211
20
38.02779721770051
30
34.159181849243453
10
85.097480278005847
20
38.674949530215805
30
34.159181849243453
10
85.771089555966881
20
39.026907324038191
30
34.159181849243453
10
86.241125682452534
20
39.31971460719371
30
34.159181849243453
10
86.723213199183263
20
39.620029259755682
30
34.159181849243453
10
87.022010115064532
20
39.832564089034186
30
34.159181849243453
10
87.470944858020374
20
40.430012194941192
30
34.159181849243453
10
87.707550832057706
20
40.744890455652616
30
34.159181849243453
10
88.000591135141363
20
41.199295662954825
30
34.159181849243453
10
88.430281774977374
20
42.025287476636315
30
34.159181849243453
10
88.861201073320601
20
42.85364113340826
30
34.159181849243453
10
89.320127728707604
20
43.854902958067008
30
34.159181849243453
10
89.706549763064686
20
44.729661221948476
30
34.159181849243453
10
90.665707893431801
20
46.900943980975583
30
34.159181849243453
10
91.644092987469492
20
49.341075174714959
30
34.159181849243453
10
92.491143437252305
20
51.159494019968328
30
34.159181849243453
10
93.071653045980796
20
52.40571213204575
30
34.159181849243453
10
93.52538654712373
20
53.235270118333332
30
34.15918184924346
10
94.103417233668068
20
53.918727994833198
30
34.159181849243453
10
94.188789242121501
20
54.019671029464988
30
34.159181849243453
10
94.276382982047821
20
54.116475981505175
30
34.159181849243453
10
94.366005234973443
20
54.209071802672071
30
34.159181849243453
10
94.759955892860376
20
54.616093312123922
30
34.159181849243453
10
95.091876807877554
20
54.847983848757508
30
34.159181849243453
10
95.310014750467062
20
55.034078987265843
30
34.159181849243453
10
95.447244069896087
20
55.151150363769105
30
34.159181849243453
10
95.559046155026991
20
55.256548928911627
30
34.159181849243453
10
95.699528781052535
20
55.42333380962836
30
34.159181849243453
10
95.95019496786783
20
55.720931678137106
30
34.159181849243453
10
96.23870920824271
20
56.170352151727926
30
34.159181849243453
10
96.59979148077872
20
56.865396955998087
30
34.159181849243453
10
97.00457148346058
20
57.644555223061467
30
34.159181849243453
10
97.428616414764633
20
58.589274885879107
30
34.159181849243453
10
97.78826960330575
20
59.446654936302338
30
34.15918184924346
10
98.066937706082825
20
60.110974007070283
30
34.159181849243453
10
98.338500960526403
20
60.796437702917494
30
34.159181849243453
10
98.594361398178904
20
61.475116481091767
30
34.159181849243453
10
99.145287045739792
20
62.936466069883124
30
34.159181849243453
10
99.67605965862569
20
64.506794905346325
30
34.159181849243453
10
100.1039061302819
20
65.994266637777997
30
34.159181849243453
10
100.4151708456252
20
67.076424598750094
30
34.159181849243453
10
100.71674394041439
20
68.275748291857767
30
34.159181849243453
10
100.89691320559645
20
69.333014818959612
30
34.159181849243453
10
100.96334086801991
20
69.722824611895163
30
34.159181849243453
10
101.01646314163563
20
70.111245612445231
30
34.15918184924346
10
101.04927188112219
20
70.48819756807822
30
34.159181849243453
10
101.08649851997137
20
70.915908432178981
30
34.159181849243453
10
101.09792752124619
20
71.330017470428203
30
34.159181849243453
10
101.07680518207631
20
71.736474275540616
30
34.159181849243453
10
101.06772578016761
20
71.911189048486378
30
34.159181849243453
10
101.05273930573857
20
72.083284310178414
30
34.159181849243453
10
101.03144370707042
20
72.254990715230321
30
34.159181849243453
10
101.0102679470468
20
72.425730861330806
30
34.159181849243453
10
100.98305459282125
20
72.594511988472675
30
34.159181849243453
10
100.94945662960436
20
72.763891554491082
30
34.159181849243453
10
100.88805904072537
20
73.073419155666159
30
34.159181849243453
10
100.80650487252055
20
73.379060790112135
30
34.159181849243453
10
100.7049323818301
20
73.69066467192448
30
34.159181849243453
0
SPLINE
5
105
100
AcDbEntity
8
0
100
AcDbSpline
70
0
71
3
72
29
73
25
74
0
42
0.000000001
43
0.0000000001
44
0.0000000001
40
-2.4456744878083341
40
-2.4456744878083341
40
-2.4456744878083341
40
-2.4456744878083341
40
-2.3554649429964054
40
-2.3554649429964054
40
-2.3554649429964054
40
-2.3527606830526504
40
-2.3527606830526504
40
-2.3527606830526504
40
-2.2537464443868727
40
-2.2537464443868727
40
-2.2537464443868727
40
-2.2322157715138675
40
-2.2322157715138675
40
-2.2322157715138675
40
-1.7575720679846492
40
-1.7575720679846492
40
-1.7575720679846492
40
-1.1551836276059897
40
-1.1551836276059897
40
-1.1551836276059897
40
-0.66129145876351336
40
-0.66129145876351336
40
-0.66129145876351336
40
0
40
0
40
0
40
0
10
96.968527079491778
20
81.217207041737652
30
34.159181849243453
10
96.537570083867635
20
82.186552749615856
30
34.159181849243453
10
96.203853155978521
20
83.246173800749801
30
34.159181849243453
10
95.946415075243436
20
84.191593118816769
30
34.159181849243453
10
95.93869771572038
20
84.219934461157138
30
34.159181849243453
10
95.930442427418981
20
84.250411024569388
30
34.159181849243453
10
95.922137709402833
20
84.281327828653346
30
34.159181849243453
10
95.619703407463575
20
85.407230242574954
30
34.159181849243453
10
95.505744087070667
20
86.155894264909136
30
34.159181849243453
10
95.458311315284007
20
86.602211921271646
30
34.159181849243453
10
95.447997046280307
20
86.699263815888813
30
34.159181849243453
10
95.440819045681849
20
86.78136688148436
30
34.159181849243453
10
95.43565197900827
20
86.844011145505277
30
34.159181849243453
10
95.321041907597419
20
88.23351587351948
30
34.159181849243453
10
95.445024598697614
20
89.334875133570861
30
34.159181849243453
10
95.60806575606162
20
90.251271329787301
30
34.159181849243453
10
95.815416195736859
20
91.416714198779687
30
34.159181849243453
10
96.056582882676736
20
92.284259428313092
30
34.15918184924346
10
96.119551812708508
20
93.004607306805099
30
34.159181849243453
10
96.171167701492791
20
93.595079400955754
30
34.159181849243453
10
96.138184293290792
20
94.063483750012878
30
34.159181849243453
10
95.91298235901948
20
94.765378312294089
30
34.159181849243453
10
95.611443866069393
20
95.705193634951144
30
34.159181849243453
10
94.955227915277163
20
96.921912918098698
30
34.159181849243453
10
93.880330179329462
20
98.39595575648984
30
34.159181849243453
0
SPLINE
5
106
100
AcDbEntity
8
0
100
AcDbSpline
70
0
71
3
72
8
73
4
74
0
42
0.000000001
43
0.0000000001
44
0.0000000001
40
-0.12398220304508185
40
-0.12398220304508185
40
-0.12398220304508185
40
-0.12398220304508185
40
0
40
0
40
0
40
0
10
93.880330179329462
20
98.39595575648984
30
34.159181849243453
10
93.678778242761894
20
98.672350597343609
30
34.159181849243453
10
93.46984866196874
20
98.948282103089554
30
34.159181849243453
10
93.257124267896955
20
99.221023551529711
30
34.159181849243453
0
SPLINE
5
107
100
AcDbEntity
8
0
100
AcDbSpline
70
0
71
3
72
143
73
139
74
0
42
0.000000001
43
0.0000000001
44
0.0000000001
40
-7.9190615652329823
40
-7.9190615652329823
40
-7.9190615652329823
40
-7.9190615652329823
40
-7.614936633712694
40
-7.614936633712694
40
-7.614936633712694
40
-7.3638595123448765
40
-7.3638595123448765
40
-7.3638595123448765
40
-7.0579143059318907
40
-7.0579143059318907
40
-7.0579143059318907
40
-6.5538493349050304
40
-6.5538493349050304
40
-6.5538493349050304
40
-6.3311797547150164
40
-6.3311797547150164
40
-6.3311797547150164
40
-6.2285990583246766
40
-6.2285990583246766
40
-6.2285990583246766
40
-6.1937220356764069
40
-6.1937220356764069
40
-6.1937220356764069
40
-6.1675115864453831
40
-6.1675115864453831
40
-6.1675115864453831
40
-6.1365848540904766
40
-6.1365848540904766
40
-6.1365848540904766
40
-6.0701840340163322
40
-6.0701840340163322
40
-6.0701840340163322
40
-5.92903130654219
40
-5.92903130654219
40
-5.92903130654219
40
-5.8345691022990636
40
-5.8345691022990636
40
-5.8345691022990636
40
-5.7780412738821259
40
-5.7780412738821259
40
-5.7780412738821259
40
-5.7207623905425846
40
-5.7207623905425846
40
-5.7207623905425846
40
-5.6289930253465599
40
-5.6289930253465599
40
-5.6289930253465599
40
-5.2548104860294025
40
-5.2548104860294025
40
-5.2548104860294025
40
-5.0460711896079644
40
-5.0460711896079644
40
-5.0460711896079644
40
-4.9514414936535633
40
-4.9514414936535633
40
-4.9514414936535633
40
-4.918042297939019
40
-4.918042297939019
40
-4.918042297939019
40
-4.8954406823549954
40
-4.8954406823549954
40
-4.8954406823549954
40
-4.8729191716905351
40
-4.8729191716905351
40
-4.8729191716905351
40
-4.8401070320639006
40
-4.8401070320639006
40
-4.8401070320639006
40
-4.6664528416167794
40
-4.6664528416167794
40
-4.6664528416167794
40
-4.462632743573729
40
-4.462632743573729
40
-4.462632743573729
40
-4.4378588063628888
40
-4.4378588063628888
40
-4.4378588063628888
40
-4.2087239405949362
40
-4.2087239405949362
40
-4.2087239405949362
40
-4.021264938302048
40
-4.021264938302048
40
-4.021264938302048
40
-3.7921889994453366
40
-3.7921889994453366
40
-3.7921889994453366
40
-3.4708427410108849
40
-3.4708427410108849
40
-3.4708427410108849
40
-3.1775007275892526
40
-3.1775007275892526
40
-3.1775007275892526
40
-2.988758131179833
40
-2.988758131179833
40
-2.988758131179833
40
-2.7167960040600247
40
-2.7167960040600247
40
-2.7167960040600247
40
-2.5008894874927639
40
-2.5008894874927639
40
-2.5008894874927639
40
-2.4081551636175789
40
-2.4081551636175789
40
-2.4081551636175789
40
-2.1279505096950677
40
-2.1279505096950677
40
-2.1279505096950677
40
-1.9188270774106289
40
-1.9188270774106289
40
-1.9188270774106289
40
-1.7562356146896458
40
-1.7562356146896458
40
-1.7562356146896458
40
-1.6218664578421174
40
-1.6218664578421174
40
-1.6218664578421174
40
-1.3500882969906045
40
-1.3500882969906045
40
-1.3500882969906045
40
-1.1942001834441818
40
-1.1942001834441818
40
-1.1942001834441818
40
-1.0548153522277204
40
-1.0548153522277204
40
-1.0548153522277204
40
-0.84774017266782431
40
-0.84774017266782431
40
-0.84774017266782431
40
-0.42272247797410306
40
-0.42272247797410306
40
-0.42272247797410306
40
-0.36189515842460973
40
-0.36189515842460973
40
-0.36189515842460973
40
-0.16545995180606099
40
-0.16545995180606099
40
-0.16545995180606099
40
0
40
0
40
0
40
0
10
-22.036317102467056
20
73.658990884809228
30
34.159181849243453
10
-22.297432909742412
20
72.858422026908499
30
34.159181849243453
10
-22.41876783283459
20
72.149190202016186
30
34.159181849243453
10
-22.42416089251666
20
71.323511622650159
30
34.159181849243453
10
-22.428620641168173
20
70.640723159704763
30
34.15918184924346
10
-22.349146528361263
20
69.893495616201392
30
34.159181849243453
10
-22.182572942473477
20
69.002865460705834
30
34.159181849243453
10
-21.979727669809517
20
67.918299046581211
30
34.159181849243453
10
-21.661467238218322
20
66.706448970634199
30
34.159181849243453
10
-21.331714144960952
20
65.601721925267498
30
34.159181849243453
10
-20.788514312976059
20
63.781913232937924
30
34.159181849243453
10
-20.081993675356138
20
61.803351168349906
30
34.159181849243453
10
-19.35963783160803
20
60.051168154193007
30
34.159181849243453
10
-19.040538743751316
20
59.277145203573021
30
34.159181849243453
10
-18.687844616197804
20
58.473461928794244
30
34.159181849243453
10
-18.332666234012187
20
57.741188296765259
30
34.159181849243453
10
-18.169111607705517
20
57.403986636282092
30
34.159181849243453
10
-17.993213865365885
20
57.057932077919311
30
34.159181849243453
10
-17.82048701583804
20
56.743674224247641
30
34.159181849243453
10
-17.761774713796523
20
56.636853529757317
30
34.159181849243453
10
-17.701796721530201
20
56.530719137822238
30
34.159181849243453
10
-17.641634578962488
20
56.428076880234542
30
34.159181849243453
10
-17.596341775802617
20
56.350803110212709
30
34.159181849243453
10
-17.55051147888361
20
56.274730470795795
30
34.159181849243453
10
-17.504378508350591
20
56.20051794513509
30
34.159181849243453
10
-17.449943219322197
20
56.112949764781789
30
34.159181849243453
10
-17.394764505729174
20
56.027459789921998
30
34.159181849243453
10
-17.339239232850883
20
55.945122482683516
30
34.159181849243453
10
-17.220015511743707
20
55.76832803132735
30
34.159181849243453
10
-17.098207490424358
20
55.604735685969082
30
34.159181849243453
10
-16.972893242219396
20
55.45686883195021
30
34.159181849243453
10
-16.70542529025667
20
55.141265098343538
30
34.159181849243453
10
-16.484686514037321
20
54.967368210642391
30
34.159181849243453
10
-16.124927443235926
20
54.639707900839213
30
34.159181849243453
10
-15.884158147155922
20
54.42042074855442
30
34.159181849243453
10
-15.595654546351945
20
54.137606522036506
30
34.15918184924346
10
-15.301566704984833
20
53.766893929945695
30
34.159181849243453
10
-15.125339023076023
20
53.544750027447549
30
34.159181849243453
10
-14.968477695144422
20
53.319901416777569
30
34.159181849243453
10
-14.826084678511418
20
53.097798170036086
30
34.159181849243453
10
-14.681750634754103
20
52.872667328005747
30
34.159181849243453
10
-14.549762644457633
20
52.646402311454054
30
34.159181849243453
10
-14.428052235277811
20
52.424719522650811
30
34.159181849243453
10
-14.232018744293793
20
52.067665008800965
30
34.159181849243453
10
-14.049346576916246
20
51.697272842650136
30
34.159181849243453
10
-13.893207011626902
20
51.36940243728327
30
34.159181849243453
10
-13.256716509575401
20
50.032864843284628
30
34.159181849243453
10
-12.55082132165267
20
48.322578021435376
30
34.159181849243453
10
-11.811518981836304
20
46.589396849551704
30
34.159181849243453
10
-11.399117344484484
20
45.622584336433398
30
34.159181849243453
10
-10.940080648336998
20
44.563058161830824
30
34.159181849243453
10
-10.497102358685968
20
43.612746464530829
30
34.159181849243453
10
-10.296165568256601
20
43.181681135091416
30
34.159181849243453
10
-10.084059951613753
20
42.74174757911581
30
34.159181849243453
10
-9.8722668770546917
20
42.32780779263269
30
34.15918184924346
10
-9.7975084866349604
20
42.181695969889574
30
34.15918184924346
10
-9.7214576410228659
20
42.03620095457854
30
34.159181849243453
10
-9.6450231975012457
20
41.893860313562001
30
34.159181849243453
10
-9.5932987186024654
20
41.797535997671318
30
34.159181849243453
10
-9.5409693977047105
20
41.701856230524861
30
34.159181849243453
10
-9.4884394634811997
20
41.607882903683553
30
34.159181849243453
10
-9.4360954753199522
20
41.51424222470002
30
34.159181849243453
10
-9.3830830051049219
20
41.421459441656232
30
34.159181849243453
10
-9.3299715392576488
20
41.330933732193778
30
34.159181849243453
10
-9.2525915376599421
20
41.199043575688066
30
34.159181849243453
10
-9.1729527945800271
20
41.068502152404669
30
34.159181849243453
10
-9.093133392521846
20
40.944587258547216
30
34.159181849243453
10
-8.6693598714929543
20
40.286703967971071
30
34.159181849243453
10
-8.3474752264837271
20
39.956071243346436
30
34.159181849243453
10
-8.0134983619132427
20
39.683744766164004
30
34.159181849243453
10
-7.6214785311158728
20
39.364089751604787
30
34.159181849243453
10
-7.1365250222117638
20
39.103356431762997
30
34.159181849243453
10
-6.4562811429918732
20
38.642396375734265
30
34.15918184924346
10
-6.3735988201313987
20
38.586367575854368
30
34.159181849243453
10
-6.2886750971842709
20
38.527505912436872
30
34.159181849243453
10
-6.2017193660231484
20
38.465433660452639
30
34.159181849243453
10
-5.3987316096091931
20
37.892230977998018
30
34.159181849243453
10
-4.7513293296005266
20
37.273865870919671
30
34.159181849243453
10
-4.1239384387593425
20
36.568756179610986
30
34.159181849243453
10
-3.6086734322208791
20
35.989662101252051
30
34.159181849243453
10
-3.0763658801568816
20
35.322023391918727
30
34.15918184924346
10
-2.6508529732625519
20
34.779403170385912
30
34.159181849243453
10
-2.1310242167684379
20
34.116510011476393
30
34.159181849243453
10
-1.6018953900283961
20
33.423108958045624
30
34.159181849243453
10
-1.0557553918882956
20
32.720835493593761
30
34.159181849243453
10
-0.28963370377200981
20
31.735690779898746
30
34.15918184924346
10
0.55904361437105088
20
30.671394322238363
30
34.159181849243453
10
1.3746927901455575
20
29.771019574567106
30
34.159181849243453
10
2.1205379149147419
20
28.947699774877371
30
34.159181849243453
10
2.8921885829292115
20
28.209558859456081
30
34.15918184924346
10
3.5571518846242345
20
27.749229606509793
30
34.159181849243453
10
3.9853809865255307
20
27.452782596478364
30
34.159181849243453
10
4.3747543435127945
20
27.253262942184868
30
34.159181849243453
10
4.8695737764027669
20
27.137079756101841
30
34.159181849243453
10
5.5815723286464536
20
26.969903095712837
30
34.159181849243453
10
6.3643637821963761
20
27.043381106977797
30
34.159181849243453
10
7.3738401817541899
20
27.166248446191688
30
34.159181849243453
10
8.1752846745515484
20
27.263795404595825
30
34.159181849243453
10
9.10582274789415
20
27.386596794530647
30
34.159181849243453
10
10.161432747949322
20
27.298188877264415
30
34.159181849243453
10
10.614832798011253
20
27.260216374055517
30
34.159181849243453
10
11.067060673619267
20
27.183645484170071
30
34.159181849243453
10
11.515141954723234
20
27.062737978943439
30
34.159181849243453
10
12.869606189362406
20
26.69725765553995
30
34.159181849243453
10
14.116688407357669
20
25.965130365723468
30
34.159181849243453
10
15.716540854953278
20
24.870007337998317
30
34.159181849243453
10
16.91054925468783
20
24.052690656193185
30
34.15918184924346
10
18.089664426589351
20
23.173880617968976
30
34.159181849243453
10
19.203242518535639
20
22.46498457157319
30
34.159181849243453
10
20.069448837765922
20
21.913563670330234
30
34.159181849243453
10
20.908556748546047
20
21.461756718198863
30
34.159181849243453
10
21.630001863962143
20
21.215934649393233
30
34.15918184924346
10
22.226543896780484
20
21.012671513357759
30
34.159181849243453
10
22.649036511112755
20
20.958692626967661
30
34.159181849243453
10
23.156588778255191
20
20.994394078076013
30
34.159181849243453
10
24.181771725062731
20
21.066505900290231
30
34.159181849243453
10
25.347777152793647
20
21.609756390061463
30
34.159181849243453
10
26.648139660489598
20
22.211248289445713
30
34.159181849243453
10
27.393407413005892
20
22.555977173397537
30
34.159181849243453
10
28.192872298923586
20
22.919010503654604
30
34.159181849243453
10
29.097640320677041
20
23.129602443632962
30
34.159181849243453
10
29.906753157566666
20
23.317929879931754
30
34.159181849243453
10
30.617607818716259
20
23.31579881724771
30
34.159181849243453
10
31.17009980136298
20
23.232460319332802
30
34.159181849243453
10
31.990600262011874
20
23.108695128023733
30
34.159181849243453
10
32.723187148227069
20
22.807542719622909
30
34.159181849243453
10
33.393624482181224
20
22.455249344490298
30
34.159181849243453
10
34.770168779379688
20
21.731919344921948
30
34.159181849243453
10
35.966103714745913
20
20.761024841394509
30
34.159181849243453
10
37.04003284109988
20
20.082641241770496
30
34.159181849243453
10
37.193730512885786
20
19.98555291696281
30
34.159181849243453
10
37.344119252706534
20
19.894339353999726
30
34.159181849243453
10
37.490519340071302
20
19.810374732284757
30
34.159181849243453
10
37.96359829244976
20
19.539050472902524
30
34.159181849243453
10
38.39824293001957
20
19.34626439603008
30
34.159181849243453
10
38.760116849628119
20
19.253637582648508
30
34.159181849243453
10
39.064660548967716
20
19.175685260370656
30
34.159181849243453
10
39.282438855424019
20
19.161450725391731
30
34.159181849243453
10
39.57664400399706
20
19.200591784675929
30
34.159181849243453
0
SPLINE
5
108
100
AcDbEntity
8
0
100
AcDbSpline
70
0
71
3
72
47
73
43
74
0
42
0.000000001
43
0.0000000001
44
0.0000000001
40
-6.9919355461811836
40
-6.9919355461811836
40
-6.9919355461811836
40
-6.9919355461811836
40
-6.2909032660044284
40
-6.2909032660044284
40
-6.2909032660044284
40
-5.249149729788372
40
-5.249149729788372
40
-5.249149729788372
40
-4.3293381631590284
40
-4.3293381631590284
40
-4.3293381631590284
40
-3.0792943568852995
40
-3.0792943568852995
40
-3.0792943568852995
40
-2.6179057555329628
40
-2.6179057555329628
40
-2.6179057555329628
40
-2.3996508854086231
40
-2.3996508854086231
40
-2.3996508854086231
40
-2.2551939344545606
40
-2.2551939344545606
40
-2.2551939344545606
40
-2.117206117556627
40
-2.117206117556627
40
-2.117206117556627
40
-1.9299211806748184
40
-1.9299211806748184
40
-1.9299211806748184
40
-1.5338211988665176
40
-1.5338211988665176
40
-1.5338211988665176
40
-0.96107996394833684
40
-0.96107996394833684
40
-0.96107996394833684
40
-0.63345629158943839
40
-0.63345629158943839
40
-0.63345629158943839
40
-0.34404806975411878
40
-0.34404806975411878
40
-0.34404806975411878
40
0
40
0
40
0
40
0
10
93.257124267896927
20
99.221023551529711
30
34.159181849243453
10
92.186742764543482
20
100.59339742939221
30
34.159181849243453
10
90.912356939504392
20
102.02226482924827
30
34.159181849243453
10
89.685029130586287
20
103.31720334395155
30
34.159181849243453
10
87.857939973981857
20
105.24494269890789
30
34.159181849243453
10
86.227916570257733
20
106.8000614115013
30
34.159181849243453
10
84.885986358477254
20
108.05482265611195
30
34.159181849243453
10
83.701790103447635
20
109.16209601040416
30
34.159181849243453
10
82.464350613117261
20
110.292648603289
30
34.159181849243453
10
81.292635448683299
20
111.40697005137204
30
34.159181849243453
10
79.70058403261848
20
112.92103856667461
30
34.159181849243453
10
78.212776715771867
20
114.40454239514489
30
34.159181849243453
10
77.181718024540345
20
115.81052224794512
30
34.159181849243453
10
76.801415342817762
20
116.32911339412823
30
34.159181849243453
10
76.43720272001201
20
116.88805368482829
30
34.159181849243453
10
76.180055164070353
20
117.53338086731279
30
34.159181849243453
10
76.058274509431968
20
117.83899670896886
30
34.15918184924346
10
75.942158881747062
20
118.20161017397965
30
34.159181849243453
10
75.907096275298173
20
118.64436114270356
30
34.159181849243453
10
75.883988265268869
20
118.93615615915999
30
34.159181849243453
10
75.89714586653399
20
119.3213902993823
30
34.159181849243453
10
76.027022577328268
20
119.73502635236673
30
34.159181849243453
10
76.151288852098418
20
120.13079408547804
30
34.159181849243453
10
76.35641936308194
20
120.46937598521052
30
34.159181849243453
10
76.581445954207453
20
120.74053176611179
30
34.159181849243453
10
76.886454479800634
20
121.10806532970136
30
34.159181849243453
10
77.231484335621388
20
121.37202128565612
30
34.159181849243453
10
77.573019026899487
20
121.58866242077875
30
34.159181849243453
10
78.295961318204931
20
122.04723674021453
30
34.159181849243453
10
79.078773123850752
20
122.34212521362174
30
34.159181849243453
10
79.862582691040444
20
122.62983446340277
30
34.159181849243453
10
80.997009076431752
20
123.04624296099605
30
34.159181849243453
10
82.165596235475562
20
123.44173746129567
30
34.159181849243453
10
83.051245708959016
20
123.92497446478524
30
34.159181849243453
10
83.558323413387384
20
124.20165131918512
30
34.159181849243453
10
84.054462098398915
20
124.54004927077636
30
34.159181849243453
10
84.514493257683498
20
125.08837140067151
30
34.159181849243453
10
84.920742224653367
20
125.57258925057324
30
34.159181849243453
10
85.222758612326061
20
126.13690015504275
30
34.15918184924346
10
85.419451137211553
20
126.76435747398584
30
34.159181849243453
10
85.653418349765587
20
127.51072259383584
30
34.159181849243453
10
85.729584660338588
20
128.32794974369392
30
34.159181849243453
10
85.655737528716017
20
129.14481402317082
30
34.159181849243453
0
SPLINE
5
109
100
AcDbEntity
8
0
100
AcDbSpline
70
0
71
3
72
8
73
4
74
0
42
0.000000001
43
0.0000000001
44
0.0000000001
40
-0.083324826043855549
40
-0.083324826043855549
40
-0.083324826043855549
40
-0.083324826043855549
40
0
40
0
40
0
40
0
10
97.317399784033
20
80.491052554270155
30
34.159181849243453
10
97.198815622016014
20
80.722875231949189
30
34.159181849243453
10
97.080890891672624
20
80.964468647502756
30
34.159181849243453
10
96.968527079491778
20
81.217207041737652
30
34.159181849243453
0
CIRCLE
5
110
100
AcDbEntity
8
0
100
AcDbCircle
10
88.439588343147918
20
70.111344033586974
30
34.468055819622037
40
1.5000000000000016
210
0
220
0
230
1
0
SPLINE
5
111
100
AcDbEntity
8
0
100
AcDbSpline
70
0
71
3
72
47
73
43
74
0
42
0.000000001
43
0.0000000001
44
0.0000000001
40
-1.9286990477071564
40
-1.9286990477071564
40
-1.9286990477071564
40
-1.9286990477071564
40
-1.8662632822567464
40
-1.8662632822567464
40
-1.8662632822567464
40
-1.7850573928746845
40
-1.7850573928746845
40
-1.7850573928746845
40
-1.6642802137408232
40
-1.6642802137408232
40
-1.6642802137408232
40
-1.5840560914901545
40
-1.5840560914901545
40
-1.5840560914901545
40
-1.5101964030053987
40
-1.5101964030053987
40
-1.5101964030053987
40
-1.3598656578911521
40
-1.3598656578911521
40
-1.3598656578911521
40
-1.3435370542352161
40
-1.3435370542352161
40
-1.3435370542352161
40
-1.2464180081878842
40
-1.2464180081878842
40
-1.2464180081878842
40
-1.140321429050875
40
-1.140321429050875
40
-1.140321429050875
40
-0.96199504512732681
40
-0.96199504512732681
40
-0.96199504512732681
40
-0.62501181491193536
40
-0.62501181491193536
40
-0.62501181491193536
40
-0.55691241171318573
40
-0.55691241171318573
40
-0.55691241171318573
40
-0.33644884736533048
40
-0.33644884736533048
40
-0.33644884736533048
40
0
40
0
40
0
40
0
10
39.576644003997167
20
19.200591784675893
30
34.159181849243453
10
39.886199741330152
20
19.241775086618453
30
34.159181849243453
10
40.24417098005096
20
19.354551178340529
30
34.159181849243453
10
40.615596818110646
20
19.520056754714119
30
34.159181849243453
10
41.098785299057695
20
19.735363230036285
30
34.159181849243453
10
41.636781958021665
20
20.052130986691026
30
34.159181849243453
10
42.201958134176643
20
20.416706494035246
30
34.159181849243453
10
43.042356736744274
20
20.958818422720711
30
34.159181849243453
10
43.929488877524449
20
21.599054830794238
30
34.159181849243453
10
44.913203805166901
20
22.151105517841181
30
34.159181849243453
10
45.56743472586335
20
22.51825317323302
30
34.159181849243453
10
46.269370129109305
20
22.850038477107475
30
34.159181849243453
10
47.051295270896105
20
23.044792255309545
30
34.159181849243453
10
47.77118544585683
20
23.224095009462928
30
34.159181849243453
10
48.501411140013744
20
23.250023818689165
30
34.159181849243453
10
49.189539873748799
20
23.144025467904186
30
34.159181849243453
10
50.590240824559601
20
22.92826352765946
30
34.159181849243453
10
51.739799884956184
20
22.303098365072209
30
34.159181849243453
10
52.811407343042625
20
21.814579556018003
30
34.159181849243453
10
52.927803050684062
20
21.761517688963146
30
34.159181849243453
10
53.043046361122776
20
21.709653920338035
30
34.159181849243453
10
53.157157705466176
20
21.659456254225731
30
34.159181849243453
10
53.835786819517935
20
21.360926797077902
30
34.159181849243453
10
54.4764630887518
20
21.125949827135813
30
34.159181849243453
10
55.068527479047418
20
21.023434828596557
30
34.159181849243453
10
55.71569663018451
20
20.911378529195694
30
34.159181849243453
10
56.136908077380319
20
20.963190317157796
30
34.159181849243453
10
56.525582247889744
20
21.052559846759209
30
34.159181849243453
10
57.179533932749642
20
21.202925780212922
30
34.159181849243453
10
57.980510883959312
20
21.569027680691235
30
34.159181849243453
10
58.818531602518206
20
22.061365719333565
30
34.159181849243453
10
60.400787324293177
20
22.990942591882835
30
34.159181849243453
10
62.160466539826814
20
24.380496345363767
30
34.159181849243453
10
63.934198858764042
20
25.508253139374055
30
34.159181849243453
10
64.292644328815328
20
25.736156363449503
30
34.159181849243453
10
64.65311627862458
20
25.953534133754879
30
34.159181849243453
10
65.017099925275517
20
26.154290042298669
30
34.159181849243453
10
66.195452102455263
20
26.804212543188157
30
34.159181849243453
10
67.165313252699491
20
27.125525931325782
30
34.159181849243453
10
68.037228838058425
20
27.254958325683738
30
34.159181849243453
10
69.36783032878877
20
27.452480814986053
30
34.159181849243453
10
70.519111039621777
20
27.263136455472399
30
34.159181849243453
10
71.467929733311152
20
27.137627676171086
30
34.159181849243453
0
SPLINE
5
112
100
AcDbEntity
8
0
100
AcDbSpline
70
0
71
3
72
14
73
10
74
0
42
0.000000001
43
0.0000000001
44
0.0000000001
40
-1.0001307524397591
40
-1.0001307524397591
40
-1.0001307524397591
40
-1.0001307524397591
40
-0.29928122763567194
40
-0.29928122763567194
40
-0.29928122763567194
40
-0.28751612606792448
40
-0.28751612606792448
40
-0.28751612606792448
40
0
40
0
40
0
40
0
10
100.70493238183013
20
73.690664671924452
30
34.159181849243453
10
100.42402937841106
20
74.552418338524006
30
34.159181849243453
10
99.903377726997249
20
75.710995117531525
30
34.159181849243453
10
98.687120688761198
20
77.955543151623004
30
34.159181849243453
10
98.666709283829533
20
77.993211487650711
30
34.159181849243453
10
98.647732574407001
20
78.028177102937263
30
34.159181849243453
10
98.631101862930848
20
78.058788088501302
30
34.159181849243453
10
98.226795841229304
20
78.802965859339508
30
34.15918184924346
10
97.719231348255533
20
79.705503560124811
30
34.159181849243453
10
97.317399784033043
20
80.491052554270112
30
34.159181849243453
0
LINE
5
113
100
AcDbEntity
8
0
100
AcDbLine
10
-3.5395285769091167
20
52.587724789010451
30
34.468055819622037
11
-3.5395285769084772
21
88.087728633509599
31
34.468055819622037
0
LINE
5
114
100
AcDbEntity
8
0
100
AcDbLine
10
-3.5395285769084772
20
88.087728633509599
30
34.468055819622037
11
82.273064547884047
21
88.087728633508192
31
34.468055819622037
0
SPLINE
5
115
100
AcDbEntity
8
0
100
AcDbSpline
70
0
71
3
72
14
73
10
74
0
42
0.000000001
43
0.0000000001
44
0.0000000001
40
-0.88432142671768377
40
-0.88432142671768377
40
-0.88432142671768377
40
-0.88432142671768377
40
-0.47347552884393562
40
-0.47347552884393562
40
-0.47347552884393562
40
-0.2312571017989781
40
-0.2312571017989781
40
-0.2312571017989781
40
0
40
0
40
0
40
0
10
-16.98314045539135
20
90.694366187958252
30
34.159181849243453
10
-16.684633375513958
20
89.065895584310397
30
34.159181849243453
10
-16.60527548109437
20
87.458082248581675
30
34.159181849243453
10
-16.928148200683033
20
85.74660098563092
30
34.159181849243453
10
-17.114576070253769
20
84.758385548697476
30
34.159181849243453
10
-17.402554728858828
20
83.759036542940777
30
34.159181849243453
10
-17.630164317716481
20
83.047005870165123
30
34.159181849243453
10
-17.847701070430837
20
82.366486032815516
30
34.159181849243453
10
-18.114982145346783
20
81.624282395955007
30
34.159181849243453
10
-18.443158323475739
20
80.927081629060297
30
34.159181849243453
0
SPLINE
5
116
100
AcDbEntity
8
0
100
AcDbSpline
70
0
71
3
72
17
73
13
74
0
42
0.000000001
43
0.0000000001
44
0.0000000001
40
-1.2671203225079453
40
-1.2671203225079453
40
-1.2671203225079453
40
-1.2671203225079453
40
-0.88650712046994662
40
-0.88650712046994662
40
-0.88650712046994662
40
-0.58221149272559136
40
-0.58221149272559136
40
-0.58221149272559136
40
-0.20454874263157741
40
-0.20454874263157741
40
-0.20454874263157741
40
0
40
0
40
0
40
0
10
-14.553570188747678
20
99.528493416771511
30
34.159181849243453
10
-15.277976692087183
20
98.610001555985448
30
34.159181849243453
10
-16.005581851850437
20
97.587059449955049
30
34.159181849243453
10
-16.533991887275175
20
96.622415038027597
30
34.15918184924346
10
-16.957299858367669
20
95.849640787987894
30
34.159181849243453
10
-17.240539327987339
20
95.137457668917989
30
34.159181849243453
10
-17.367539468130921
20
94.521430905885978
30
34.159181849243453
10
-17.524906255557386
20
93.758107711458862
30
34.159181849243453
10
-17.465216705123456
20
93.168739058918035
30
34.159181849243453
10
-17.303901386714191
20
92.310754110356498
30
34.159181849243453
10
-17.216530192336066
20
91.846054474553412
30
34.15918184924346
10
-17.096770327953852
20
91.314260721918501
30
34.159181849243453
10
-16.983140455391208
20
90.694366187957939
30
34.159181849243453
0
SPLINE
5
117
100
AcDbEntity
8
0
100
AcDbSpline
70
0
71
3
72
17
73
13
74
0
42
0.000000001
43
0.0000000001
44
0.0000000001
40
-1.5418184288734715
40
-1.5418184288734715
40
-1.5418184288734715
40
-1.5418184288734715
40
-1.0219665478302535
40
-1.0219665478302535
40
-1.0219665478302535
40
-0.69340882545267957
40
-0.69340882545267957
40
-0.69340882545267957
40
-0.35362480154379861
40
-0.35362480154379861
40
-0.35362480154379861
40
0
40
0
40
0
40
0
10
1.2221961127448466
20
136.15071392881742
30
34.159181849243453
10
-0.47392925344095005
20
135.95086317792888
30
34.15918184924346
10
-2.2965008457295433
20
135.58405372481582
30
34.15918184924346
10
-3.7308583119888539
20
134.96632122023433
30
34.15918184924346
10
-4.6379153746970836
20
134.5756803623411
30
34.15918184924346
10
-5.2898059130758668
20
134.14247715628204
30
34.15918184924346
10
-5.8411017487216732
20
133.6109040015742
30
34.159181849243453
10
-6.4108957308409131
20
133.06149447401299
30
34.159181849243453
10
-6.8605639464122703
20
132.40941787507259
30
34.159181849243453
10
-7.1757252721434028
20
131.68014322843644
30
34.159181849243453
10
-7.5036394439533183
20
130.92135884644125
30
34.159181849243453
10
-7.6775919067317844
20
130.09325139474828
30
34.159181849243453
10
-7.6874023836866812
20
129.26069290693471
30
34.159181849243453
0
SPLINE
5
118
100
AcDbEntity
8
0
100
AcDbSpline
70
0
71
3
72
44
73
40
74
0
42
0.000000001
43
0.0000000001
44
0.0000000001
40
-9.4235195229862594
40
-9.4235195229862594
40
-9.4235195229862594
40
-9.4235195229862594
40
-8.7978480109267547
40
-8.7978480109267547
40
-8.7978480109267547
40
-8.3297709700138292
40
-8.3297709700138292
40
-8.3297709700138292
40
-7.9380506686771231
40
-7.9380506686771231
40
-7.9380506686771231
40
-7.7380300298960973
40
-7.7380300298960973
40
-7.7380300298960973
40
-7.4396813668940718
40
-7.4396813668940718
40
-7.4396813668940718
40
-7.0585717485778874
40
-7.0585717485778874
40
-7.0585717485778874
40
-6.7805490227377403
40
-6.7805490227377403
40
-6.7805490227377403
40
-6.0817732374935378
40
-6.0817732374935378
40
-6.0817732374935378
40
-2.8577001054052662
40
-2.8577001054052662
40
-2.8577001054052662
40
-0.87101960331970185
40
-0.87101960331970185
40
-0.87101960331970185
40
-0.84392940843232256
40
-0.84392940843232256
40
-0.84392940843232256
40
-0.73439180381034574
40
-0.73439180381034574
40
-0.73439180381034574
40
0
40
0
40
0
40
0
10
76.818195568249848
20
136.15264578725842
30
34.159181849243453
10
74.828989865425029
20
136.4047481536017
30
34.15918184924346
10
72.794213027903879
20
136.43649980018245
30
34.159181849243453
10
71.148179087710261
20
136.43992555070551
30
34.159181849243453
10
69.909197421708697
20
136.44250413793071
30
34.159181849243453
10
68.667477834471541
20
136.44037231259125
30
34.159181849243453
10
67.423028323489405
20
136.44037343565742
30
34.159181849243453
10
66.383008316106753
20
136.44037437423412
30
34.159181849243453
10
65.342988850188632
20
136.4403761710567
30
34.159181849243453
10
64.302969925733834
20
136.44037768848281
30
34.159181849243453
10
63.771914373105744
20
136.44037846331256
30
34.159181849243453
10
63.240858711318452
20
136.44037915363856
30
34.15918184924346
10
62.709802940372157
20
136.44037987657106
30
34.15918184924346
10
61.917685822419443
20
136.44038095488941
30
34.15918184924346
10
61.125568761594415
20
136.44038207647404
30
34.159181849243453
10
60.333451757896924
20
136.44038314990718
30
34.159181849243453
10
59.321604087887522
20
136.44038452110709
30
34.159181849243453
10
58.309756437413789
20
136.44038578142505
30
34.159181849243453
10
57.297908806475732
20
136.44038689092713
30
34.159181849243453
10
56.559757270903305
20
136.44038770031841
30
34.159181849243453
10
55.82160573283538
20
136.44038845584632
30
34.159181849243453
10
55.083454192272036
20
136.44038916123219
30
34.159181849243453
10
53.228201567554194
20
136.44039093413232
30
34.159181849243453
10
51.372948883121481
20
136.4403921844274
30
34.159181849243453
10
49.51769613897433
20
136.44039313592589
30
34.159181849243453
10
40.95776753739333
20
136.44039752603345
30
34.159181849243453
10
32.397839219731338
20
136.4403993239591
30
34.159181849243453
10
23.837911185997463
20
136.44039361988109
30
34.159181849243453
10
18.563254707398098
20
136.44039010500907
30
34.159181849243453
10
13.288622436319359
20
136.44044341414241
30
34.15918184924346
10
8.0140143783726003
20
136.4402955786916
30
34.159181849243453
10
7.9421011567939104
20
136.44029356312504
30
34.159181849243453
10
7.8803960721208988
20
136.44029100251697
30
34.159181849243453
10
7.813333392361006
20
136.44027470854692
30
34.159181849243453
10
7.5422290904461065
20
136.44020883934232
30
34.159181849243453
10
7.2944034408721059
20
136.4399287482567
30
34.159181849243453
10
7.0335508162653504
20
136.43886500467363
30
34.159181849243453
10
5.2845843623558597
20
136.43173280945382
30
34.159181849243453
10
3.2463081850323761
20
136.38921063760668
30
34.159181849243453
10
1.2221961127448999
20
136.15071392881742
30
34.159181849243453
0
SPLINE
5
119
100
AcDbEntity
8
0
100
AcDbSpline
70
0
71
3
72
47
73
43
74
0
42
0.000000001
43
0.0000000001
44
0.0000000001
40
-7.3410020096679229
40
-7.3410020096679229
40
-7.3410020096679229
40
-7.3410020096679229
40
-6.8807636212647969
40
-6.8807636212647969
40
-6.8807636212647969
40
-6.4207520020058926
40
-6.4207520020058926
40
-6.4207520020058926
40
-5.7499371068993668
40
-5.7499371068993668
40
-5.7499371068993668
40
-4.7156910444410371
40
-4.7156910444410371
40
-4.7156910444410371
40
-4.4632446932787193
40
-4.4632446932787193
40
-4.4632446932787193
40
-3.8770159124594641
40
-3.8770159124594641
40
-3.8770159124594641
40
-3.5653097059789207
40
-3.5653097059789207
40
-3.5653097059789207
40
-3.3732714283219187
40
-3.3732714283219187
40
-3.3732714283219187
40
-3.2033958592274669
40
-3.2033958592274669
40
-3.2033958592274669
40
-3.0294251596301804
40
-3.0294251596301804
40
-3.0294251596301804
40
-2.7698281752959364
40
-2.7698281752959364
40
-2.7698281752959364
40
-2.0379813423463582
40
-2.0379813423463582
40
-2.0379813423463582
40
-1.2040247367747807
40
-1.2040247367747807
40
-1.2040247367747807
40
0
40
0
40
0
40
0
10
-7.6874023836866279
20
129.26069290693465
30
34.159181849243453
10
-7.6931823715594305
20
128.77017873671804
30
34.15918184924346
10
-7.6421009718874089
20
128.27996016933409
30
34.159181849243453
10
-7.5348419895629348
20
127.80467085231717
30
34.159181849243453
10
-7.4276384380370608
20
127.32962716196792
30
34.159181849243453
10
-7.2648122009404936
20
126.87134996677563
30
34.159181849243453
10
-7.0490095187068924
20
126.44219375190437
30
34.159181849243453
10
-6.7343085036326755
20
125.81636327080226
30
34.159181849243453
10
-6.3138499696768591
20
125.26390225256597
30
34.159181849243453
10
-5.7968166013312228
20
124.80207110257238
30
34.159181849243453
10
-4.999351013703901
20
124.08974870335729
30
34.159181849243453
10
-4.0337739184451138
20
123.65082156483368
30
34.159181849243453
10
-2.7398098208269062
20
123.17834559894131
30
34.159181849243453
10
-2.4239695901159131
20
123.06302020595126
30
34.159181849243453
10
-2.0907929320016549
20
122.94622122432321
30
34.159181849243453
10
-1.741150584396145
20
122.82316748204344
30
34.159181849243453
10
-0.92917339987655723
20
122.53739880475031
30
34.159181849243453
10
-0.12328529972190694
20
122.25883107074389
30
34.159181849243453
10
0.62307168990813011
20
121.87416644544349
30
34.159181849243453
10
1.0192634523302857
20
121.66997333416204
30
34.159181849243453
10
1.4193677359109014
20
121.42837714947561
30
34.159181849243453
10
1.793797464176885
20
121.08242078460398
30
34.159181849243453
10
2.0248336940316047
20
120.86895361519856
30
34.159181849243453
10
2.2609007752828347
20
120.6000734281258
30
34.159181849243453
10
2.4498275081923104
20
120.25254263611343
30
34.159181849243453
10
2.6168088560385705
20
119.94538038768712
30
34.159181849243453
10
2.7314659285052301
20
119.59295388455261
30
34.159181849243453
10
2.7725914650913719
20
119.23444355675463
30
34.159181849243453
10
2.8145926489410211
20
118.86829980667108
30
34.159181849243453
10
2.7815134727453295
20
118.4525749289181
30
34.159181849243453
10
2.6690890466391526
20
118.04143785755599
30
34.159181849243453
10
2.5013441149676119
20
117.42799323229171
30
34.159181849243453
10
2.2201089539164087
20
116.92450617374647
30
34.159181849243453
10
1.926877228831696
20
116.46782796687648
30
34.159181849243453
10
1.0990309485111105
20
115.17854265932144
30
34.159181849243453
10
-0.16243413986299693
20
113.86231676734172
30
34.159181849243453
10
-1.6253755636856582
20
112.44758038840249
30
34.159181849243453
10
-3.2924315773655088
20
110.83545515230125
30
34.159181849243453
10
-5.2185185655723743
20
109.12972770785754
30
34.159181849243453
10
-6.9819224102550415
20
107.48425814774457
30
34.159181849243453
10
-9.5278316216267633
20
105.10861621934825
30
34.159181849243453
10
-12.476301810931218
20
102.16231032605845
30
34.159181849243453
10
-14.553570188747642
20
99.528493416771539
30
34.159181849243453
0
SPLINE
5
120
100
AcDbEntity
8
0
100
AcDbSpline
70
0
71
3
72
17
73
13
74
0
42
0.000000001
43
0.0000000001
44
0.0000000001
40
-1.3309976932378835
40
-1.3309976932378835
40
-1.3309976932378835
40
-1.3309976932378835
40
-1.1558042708753082
40
-1.1558042708753082
40
-1.1558042708753082
40
-0.9758421933980298
40
-0.9758421933980298
40
-0.9758421933980298
40
-0.68270606289928337
40
-0.68270606289928337
40
-0.68270606289928337
40
0
40
0
40
0
40
0
10
85.65573752871606
20
129.14481402317074
30
34.159181849243453
10
85.593088806976425
20
129.83780644981684
30
34.159181849243453
10
85.422973607503394
20
130.5294823431677
30
34.159181849243453
10
85.157557403920208
20
131.18093611576373
30
34.159181849243453
10
84.884916737684918
20
131.85012205160422
30
34.159181849243453
10
84.512270032978194
20
132.47631668363272
30
34.159181849243453
10
84.054759910377385
20
133.02861405617392
30
34.159181849243453
10
83.309317717063038
20
133.92849745636735
30
34.159181849243453
10
82.514824405768962
20
134.4306450136377
30
34.15918184924346
10
81.915903089802413
20
134.74392464974778
30
34.159181849243453
10
80.522122444061807
20
135.47297382845369
30
34.159181849243453
10
78.683360869064657
20
135.91626370505901
30
34.159181849243453
10
76.818195568249848
20
136.15264578725845
30
34.159181849243453
0
SPLINE
5
121
100
AcDbEntity
8
0
100
AcDbSpline
70
0
71
3
72
17
73
13
74
0
42
0.000000001
43
0.0000000001
44
0.0000000001
40
-1.2671203225079453
40
-1.2671203225079453
40
-1.2671203225079453
40
-1.2671203225079453
40
-0.88650712046994662
40
-0.88650712046994662
40
-0.88650712046994662
40
-0.58221149272559136
40
-0.58221149272559136
40
-0.58221149272559136
40
-0.20454874263157741
40
-0.20454874263157741
40
-0.20454874263157741
40
0
40
0
40
0
40
0
10
-14.553570188747678
20
99.528493416771511
30
34.159181849243453
10
-15.277976692087183
20
98.610001555985448
30
34.159181849243453
10
-16.005581851850437
20
97.587059449955049
30
34.159181849243453
10
-16.533991887275175
20
96.622415038027597
30
34.15918184924346
10
-16.957299858367669
20
95.849640787987894
30
34.159181849243453
10
-17.240539327987339
20
95.137457668917989
30
34.159181849243453
10
-17.367539468130921
20
94.521430905885978
30
34.159181849243453
10
-17.524906255557386
20
93.758107711458862
30
34.159181849243453
10
-17.465216705123456
20
93.168739058918035
30
34.159181849243453
10
-17.303901386714191
20
92.310754110356498
30
34.159181849243453
10
-17.216530192336066
20
91.846054474553412
30
34.15918184924346
10
-17.096770327953852
20
91.314260721918501
30
34.159181849243453
10
-16.983140455391208
20
90.694366187957939
30
34.159181849243453
0
SPLINE
5
122
100
AcDbEntity
8
0
100
AcDbSpline
70
0
71
3
72
8
73
4
74
0
42
0.000000001
43
0.0000000001
44
0.0000000001
40
-0.021667091687563759
40
-0.021667091687563759
40
-0.021667091687563759
40
-0.021667091687563759
40
0
40
0
40
0
40
0
10
-18.443158323475668
20
80.927081629060567
30
34.159181849243453
10
-18.47352548960588
20
80.862567465859712
30
34.159181849243453
10
-18.504197280430912
20
80.798822480862768
30
34.159181849243453
10
-18.535096986713793
20
80.735785243899755
30
34.159181849243453
0
SPLINE
5
123
100
AcDbEntity
8
0
100
AcDbSpline
70
0
71
3
72
44
73
40
74
0
42
0.000000001
43
0.0000000001
44
0.0000000001
40
-9.4235195229862594
40
-9.4235195229862594
40
-9.4235195229862594
40
-9.4235195229862594
40
-8.7978480109267547
40
-8.7978480109267547
40
-8.7978480109267547
40
-8.3297709700138292
40
-8.3297709700138292
40
-8.3297709700138292
40
-7.9380506686771231
40
-7.9380506686771231
40
-7.9380506686771231
40
-7.7380300298960973
40
-7.7380300298960973
40
-7.7380300298960973
40
-7.4396813668940718
40
-7.4396813668940718
40
-7.4396813668940718
40
-7.0585717485778874
40
-7.0585717485778874
40
-7.0585717485778874
40
-6.7805490227377403
40
-6.7805490227377403
40
-6.7805490227377403
40
-6.0817732374935378
40
-6.0817732374935378
40
-6.0817732374935378
40
-2.8577001054052662
40
-2.8577001054052662
40
-2.8577001054052662
40
-0.87101960331970185
40
-0.87101960331970185
40
-0.87101960331970185
40
-0.84392940843232256
40
-0.84392940843232256
40
-0.84392940843232256
40
-0.73439180381034574
40
-0.73439180381034574
40
-0.73439180381034574
40
0
40
0
40
0
40
0
10
76.818195568249848
20
136.15264578725842
30
34.159181849243453
10
74.828989865425029
20
136.4047481536017
30
34.15918184924346
10
72.794213027903879
20
136.43649980018245
30
34.159181849243453
10
71.148179087710261
20
136.43992555070551
30
34.159181849243453
10
69.909197421708697
20
136.44250413793071
30
34.159181849243453
10
68.667477834471541
20
136.44037231259125
30
34.159181849243453
10
67.423028323489405
20
136.44037343565742
30
34.159181849243453
10
66.383008316106753
20
136.44037437423412
30
34.159181849243453
10
65.342988850188632
20
136.4403761710567
30
34.159181849243453
10
64.302969925733834
20
136.44037768848281
30
34.159181849243453
10
63.771914373105744
20
136.44037846331256
30
34.159181849243453
10
63.240858711318452
20
136.44037915363856
30
34.15918184924346
10
62.709802940372157
20
136.44037987657106
30
34.15918184924346
10
61.917685822419443
20
136.44038095488941
30
34.15918184924346
10
61.125568761594415
20
136.44038207647404
30
34.159181849243453
10
60.333451757896924
20
136.44038314990718
30
34.159181849243453
10
59.321604087887522
20
136.44038452110709
30
34.159181849243453
10
58.309756437413789
20
136.44038578142505
30
34.159181849243453
10
57.297908806475732
20
136.44038689092713
30
34.159181849243453
10
56.559757270903305
20
136.44038770031841
30
34.159181849243453
10
55.82160573283538
20
136.44038845584632
30
34.159181849243453
10
55.083454192272036
20
136.44038916123219
30
34.159181849243453
10
53.228201567554194
20
136.44039093413232
30
34.159181849243453
10
51.372948883121481
20
136.4403921844274
30
34.159181849243453
10
49.51769613897433
20
136.44039313592589
30
34.159181849243453
10
40.95776753739333
20
136.44039752603345
30
34.159181849243453
10
32.397839219731338
20
136.4403993239591
30
34.159181849243453
10
23.837911185997463
20
136.44039361988109
30
34.159181849243453
10
18.563254707398098
20
136.44039010500907
30
34.159181849243453
10
13.288622436319359
20
136.44044341414241
30
34.15918184924346
10
8.0140143783726003
20
136.4402955786916
30
34.159181849243453
10
7.9421011567939104
20
136.44029356312504
30
34.159181849243453
10
7.8803960721208988
20
136.44029100251697
30
34.159181849243453
10
7.813333392361006
20
136.44027470854692
30
34.159181849243453
10
7.5422290904461065
20
136.44020883934232
30
34.159181849243453
10
7.2944034408721059
20
136.4399287482567
30
34.159181849243453
10
7.0335508162653504
20
136.43886500467363
30
34.159181849243453
10
5.2845843623558597
20
136.43173280945382
30
34.159181849243453
10
3.2463081850323761
20
136.38921063760668
30
34.159181849243453
10
1.2221961127448999
20
136.15071392881742
30
34.159181849243453
0
SPLINE
5
124
100
AcDbEntity
8
0
100
AcDbSpline
70
0
71
3
72
17
73
13
74
0
42
0.000000001
43
0.0000000001
44
0.0000000001
40
-1.5418184288734715
40
-1.5418184288734715
40
-1.5418184288734715
40
-1.5418184288734715
40
-1.0219665478302535
40
-1.0219665478302535
40
-1.0219665478302535
40
-0.69340882545267957
40
-0.69340882545267957
40
-0.69340882545267957
40
-0.35362480154379861
40
-0.35362480154379861
40
-0.35362480154379861
40
0
40
0
40
0
40
0
10
1.2221961127448466
20
136.15071392881742
30
34.159181849243453
10
-0.47392925344095005
20
135.95086317792888
30
34.15918184924346
10
-2.2965008457295433
20
135.58405372481582
30
34.15918184924346
10
-3.7308583119888539
20
134.96632122023433
30
34.15918184924346
10
-4.6379153746970836
20
134.5756803623411
30
34.15918184924346
10
-5.2898059130758668
20
134.14247715628204
30
34.15918184924346
10
-5.8411017487216732
20
133.6109040015742
30
34.159181849243453
10
-6.4108957308409131
20
133.06149447401299
30
34.159181849243453
10
-6.8605639464122703
20
132.40941787507259
30
34.159181849243453
10
-7.1757252721434028
20
131.68014322843644
30
34.159181849243453
10
-7.5036394439533183
20
130.92135884644125
30
34.159181849243453
10
-7.6775919067317844
20
130.09325139474828
30
34.159181849243453
10
-7.6874023836866812
20
129.26069290693471
30
34.159181849243453
0
SPLINE
5
125
100
AcDbEntity
8
0
100
AcDbSpline
70
0
71
3
72
86
73
82
74
0
42
0.000000001
43
0.0000000001
44
0.0000000001
40
-7.6763755587327731
40
-7.6763755587327731
40
-7.6763755587327731
40
-7.6763755587327731
40
-7.2616744738176831
40
-7.2616744738176831
40
-7.2616744738176831
40
-6.8923368187236393
40
-6.8923368187236393
40
-6.8923368187236393
40
-6.5318761174762408
40
-6.5318761174762408
40
-6.5318761174762408
40
-6.5079205248158445
40
-6.5079205248158445
40
-6.5079205248158445
40
-6.3039407167749459
40
-6.3039407167749459
40
-6.3039407167749459
40
-5.8991497808460327
40
-5.8991497808460327
40
-5.8991497808460327
40
-5.3237037216961127
40
-5.3237037216961127
40
-5.3237037216961127
40
-5.2604853708781176
40
-5.2604853708781176
40
-5.2604853708781176
40
-4.8228189424827468
40
-4.8228189424827468
40
-4.8228189424827468
40
-4.3739433767035196
40
-4.3739433767035196
40
-4.3739433767035196
40
-4.1378744909334628
40
-4.1378744909334628
40
-4.1378744909334628
40
-3.9005058495117386
40
-3.9005058495117386
40
-3.9005058495117386
40
-3.3113211107178526
40
-3.3113211107178526
40
-3.3113211107178526
40
-2.9074729428591022
40
-2.9074729428591022
40
-2.9074729428591022
40
-2.8478267510514543
40
-2.8478267510514543
40
-2.8478267510514543
40
-2.5858540651757509
40
-2.5858540651757509
40
-2.5858540651757509
40
-2.4210485619929347
40
-2.4210485619929347
40
-2.4210485619929347
40
-2.1268387009009686
40
-2.1268387009009686
40
-2.1268387009009686
40
-1.7967517719811272
40
-1.7967517719811272
40
-1.7967517719811272
40
-1.541010511543929
40
-1.541010511543929
40
-1.541010511543929
40
-0.99034147960179397
40
-0.99034147960179397
40
-0.99034147960179397
40
-0.58970506061646177
40
-0.58970506061646177
40
-0.58970506061646177
40
-0.44196465647170391
40
-0.44196465647170391
40
-0.44196465647170391
40
-0.2743951758338885
40
-0.2743951758338885
40
-0.2743951758338885
40
-0.20241083675111368
40
-0.20241083675111368
40
-0.20241083675111368
40
-0.13083400250453114
40
-0.13083400250453114
40
-0.13083400250453114
40
0
40
0
40
0
40
0
10
71.467929733311252
20
27.137627676171157
30
34.159181849243453
10
72.055953750812449
20
27.059844452540318
30
34.159181849243453
10
72.56951779976346
20
27.003606715003698
30
34.159181849243453
10
73.026420197466649
20
27.016211955565979
30
34.159181849243453
10
73.433978864508418
20
27.027455877828395
30
34.159181849243453
10
73.795003604033028
20
27.08556377427243
30
34.159181849243453
10
74.182016365754521
20
27.231859634377393
30
34.159181849243453
10
74.55925373155678
20
27.374460267618232
30
34.159181849243453
10
75.078609675438784
20
27.632638294602714
30
34.159181849243453
10
75.975797370724308
20
28.441088410788993
30
34.159181849243453
10
76.035422907970954
20
28.494816602524118
30
34.159181849243453
10
76.096560375891201
20
28.550924111434561
30
34.159181849243453
10
76.159232427522099
20
28.609515455556753
30
34.159181849243453
10
76.692593425833849
20
29.108148210990628
30
34.159181849243453
10
77.239845429840329
20
29.697817077998145
30
34.159181849243453
10
77.744876744504523
20
30.278840126776849
30
34.159181849243453
10
78.745710068224071
20
31.430268191100943
30
34.159181849243453
10
79.80102061944811
20
32.803541508585639
30
34.159181849243453
10
80.743675277960932
20
34.016977858553759
30
34.15918184924346
10
82.083732899012389
20
35.741972917721085
30
34.159181849243453
10
82.950427971119737
20
36.83776401942616
30
34.159181849243453
10
83.964777578737127
20
37.739109033451648
30
34.159181849243453
10
84.076213756510555
20
37.838130556666023
30
34.159181849243453
10
84.189074420734912
20
37.93428915550038
30
34.159181849243453
10
84.303760279874211
20
38.02779721770051
30
34.159181849243453
10
85.097480278005847
20
38.674949530215805
30
34.159181849243453
10
85.771089555966881
20
39.026907324038191
30
34.159181849243453
10
86.241125682452534
20
39.31971460719371
30
34.159181849243453
10
86.723213199183263
20
39.620029259755682
30
34.159181849243453
10
87.022010115064532
20
39.832564089034186
30
34.159181849243453
10
87.470944858020374
20
40.430012194941192
30
34.159181849243453
10
87.707550832057706
20
40.744890455652616
30
34.159181849243453
10
88.000591135141363
20
41.199295662954825
30
34.159181849243453
10
88.430281774977374
20
42.025287476636315
30
34.159181849243453
10
88.861201073320601
20
42.85364113340826
30
34.159181849243453
10
89.320127728707604
20
43.854902958067008
30
34.159181849243453
10
89.706549763064686
20
44.729661221948476
30
34.159181849243453
10
90.665707893431801
20
46.900943980975583
30
34.159181849243453
10
91.644092987469492
20
49.341075174714959
30
34.159181849243453
10
92.491143437252305
20
51.159494019968328
30
34.159181849243453
10
93.071653045980796
20
52.40571213204575
30
34.159181849243453
10
93.52538654712373
20
53.235270118333332
30
34.15918184924346
10
94.103417233668068
20
53.918727994833198
30
34.159181849243453
10
94.188789242121501
20
54.019671029464988
30
34.159181849243453
10
94.276382982047821
20
54.116475981505175
30
34.159181849243453
10
94.366005234973443
20
54.209071802672071
30
34.159181849243453
10
94.759955892860376
20
54.616093312123922
30
34.159181849243453
10
95.091876807877554
20
54.847983848757508
30
34.159181849243453
10
95.310014750467062
20
55.034078987265843
30
34.159181849243453
10
95.447244069896087
20
55.151150363769105
30
34.159181849243453
10
95.559046155026991
20
55.256548928911627
30
34.159181849243453
10
95.699528781052535
20
55.42333380962836
30
34.159181849243453
10
95.95019496786783
20
55.720931678137106
30
34.159181849243453
10
96.23870920824271
20
56.170352151727926
30
34.159181849243453
10
96.59979148077872
20
56.865396955998087
30
34.159181849243453
10
97.00457148346058
20
57.644555223061467
30
34.159181849243453
10
97.428616414764633
20
58.589274885879107
30
34.159181849243453
10
97.78826960330575
20
59.446654936302338
30
34.15918184924346
10
98.066937706082825
20
60.110974007070283
30
34.159181849243453
10
98.338500960526403
20
60.796437702917494
30
34.159181849243453
10
98.594361398178904
20
61.475116481091767
30
34.159181849243453
10
99.145287045739792
20
62.936466069883124
30
34.159181849243453
10
99.67605965862569
20
64.506794905346325
30
34.159181849243453
10
100.1039061302819
20
65.994266637777997
30
34.159181849243453
10
100.4151708456252
20
67.076424598750094
30
34.159181849243453
10
100.71674394041439
20
68.275748291857767
30
34.159181849243453
10
100.89691320559645
20
69.333014818959612
30
34.159181849243453
10
100.96334086801991
20
69.722824611895163
30
34.159181849243453
10
101.01646314163563
20
70.111245612445231
30
34.15918184924346
10
101.04927188112219
20
70.48819756807822
30
34.159181849243453
10
101.08649851997137
20
70.915908432178981
30
34.159181849243453
10
101.09792752124619
20
71.330017470428203
30
34.159181849243453
10
101.07680518207631
20
71.736474275540616
30
34.159181849243453
10
101.06772578016761
20
71.911189048486378
30
34.159181849243453
10
101.05273930573857
20
72.083284310178414
30
34.159181849243453
10
101.03144370707042
20
72.254990715230321
30
34.159181849243453
10
101.0102679470468
20
72.425730861330806
30
34.159181849243453
10
100.98305459282125
20
72.594511988472675
30
34.159181849243453
10
100.94945662960436
20
72.763891554491082
30
34.159181849243453
10
100.88805904072537
20
73.073419155666159
30
34.159181849243453
10
100.80650487252055
20
73.379060790112135
30
34.159181849243453
10
100.7049323818301
20
73.69066467192448
30
34.159181849243453
0
SPLINE
5
126
100
AcDbEntity
8
0
100
AcDbSpline
70
0
71
3
72
47
73
43
74
0
42
0.000000001
43
0.0000000001
44
0.0000000001
40
-1.9286990477071564
40
-1.9286990477071564
40
-1.9286990477071564
40
-1.9286990477071564
40
-1.8662632822567464
40
-1.8662632822567464
40
-1.8662632822567464
40
-1.7850573928746845
40
-1.7850573928746845
40
-1.7850573928746845
40
-1.6642802137408232
40
-1.6642802137408232
40
-1.6642802137408232
40
-1.5840560914901545
40
-1.5840560914901545
40
-1.5840560914901545
40
-1.5101964030053987
40
-1.5101964030053987
40
-1.5101964030053987
40
-1.3598656578911521
40
-1.3598656578911521
40
-1.3598656578911521
40
-1.3435370542352161
40
-1.3435370542352161
40
-1.3435370542352161
40
-1.2464180081878842
40
-1.2464180081878842
40
-1.2464180081878842
40
-1.140321429050875
40
-1.140321429050875
40
-1.140321429050875
40
-0.96199504512732681
40
-0.96199504512732681
40
-0.96199504512732681
40
-0.62501181491193536
40
-0.62501181491193536
40
-0.62501181491193536
40
-0.55691241171318573
40
-0.55691241171318573
40
-0.55691241171318573
40
-0.33644884736533048
40
-0.33644884736533048
40
-0.33644884736533048
40
0
40
0
40
0
40
0
10
39.576644003997167
20
19.200591784675893
30
34.159181849243453
10
39.886199741330152
20
19.241775086618453
30
34.159181849243453
10
40.24417098005096
20
19.354551178340529
30
34.159181849243453
10
40.615596818110646
20
19.520056754714119
30
34.159181849243453
10
41.098785299057695
20
19.735363230036285
30
34.159181849243453
10
41.636781958021665
20
20.052130986691026
30
34.159181849243453
10
42.201958134176643
20
20.416706494035246
30
34.159181849243453
10
43.042356736744274
20
20.958818422720711
30
34.159181849243453
10
43.929488877524449
20
21.599054830794238
30
34.159181849243453
10
44.913203805166901
20
22.151105517841181
30
34.159181849243453
10
45.56743472586335
20
22.51825317323302
30
34.159181849243453
10
46.269370129109305
20
22.850038477107475
30
34.159181849243453
10
47.051295270896105
20
23.044792255309545
30
34.159181849243453
10
47.77118544585683
20
23.224095009462928
30
34.159181849243453
10
48.501411140013744
20
23.250023818689165
30
34.159181849243453
10
49.189539873748799
20
23.144025467904186
30
34.159181849243453
10
50.590240824559601
20
22.92826352765946
30
34.159181849243453
10
51.739799884956184
20
22.303098365072209
30
34.159181849243453
10
52.811407343042625
20
21.814579556018003
30
34.159181849243453
10
52.927803050684062
20
21.761517688963146
30
34.159181849243453
10
53.043046361122776
20
21.709653920338035
30
34.159181849243453
10
53.157157705466176
20
21.659456254225731
30
34.159181849243453
10
53.835786819517935
20
21.360926797077902
30
34.159181849243453
10
54.4764630887518
20
21.125949827135813
30
34.159181849243453
10
55.068527479047418
20
21.023434828596557
30
34.159181849243453
10
55.71569663018451
20
20.911378529195694
30
34.159181849243453
10
56.136908077380319
20
20.963190317157796
30
34.159181849243453
10
56.525582247889744
20
21.052559846759209
30
34.159181849243453
10
57.179533932749642
20
21.202925780212922
30
34.159181849243453
10
57.980510883959312
20
21.569027680691235
30
34.159181849243453
10
58.818531602518206
20
22.061365719333565
30
34.159181849243453
10
60.400787324293177
20
22.990942591882835
30
34.159181849243453
10
62.160466539826814
20
24.380496345363767
30
34.159181849243453
10
63.934198858764042
20
25.508253139374055
30
34.159181849243453
10
64.292644328815328
20
25.736156363449503
30
34.159181849243453
10
64.65311627862458
20
25.953534133754879
30
34.159181849243453
10
65.017099925275517
20
26.154290042298669
30
34.159181849243453
10
66.195452102455263
20
26.804212543188157
30
34.159181849243453
10
67.165313252699491
20
27.125525931325782
30
34.159181849243453
10
68.037228838058425
20
27.254958325683738
30
34.159181849243453
10
69.36783032878877
20
27.452480814986053
30
34.159181849243453
10
70.519111039621777
20
27.263136455472399
30
34.159181849243453
10
71.467929733311152
20
27.137627676171086
30
34.159181849243453
0
SPLINE
5
127
100
AcDbEntity
8
0
100
AcDbSpline
70
0
71
3
72
17
73
13
74
0
42
0.000000001
43
0.0000000001
44
0.0000000001
40
-1.3309976932378835
40
-1.3309976932378835
40
-1.3309976932378835
40
-1.3309976932378835
40
-1.1558042708753082
40
-1.1558042708753082
40
-1.1558042708753082
40
-0.9758421933980298
40
-0.9758421933980298
40
-0.9758421933980298
40
-0.68270606289928337
40
-0.68270606289928337
40
-0.68270606289928337
40
0
40
0
40
0
40
0
10
85.65573752871606
20
129.14481402317074
30
34.159181849243453
10
85.593088806976425
20
129.83780644981684
30
34.159181849243453
10
85.422973607503394
20
130.5294823431677
30
34.159181849243453
10
85.157557403920208
20
131.18093611576373
30
34.159181849243453
10
84.884916737684918
20
131.85012205160422
30
34.159181849243453
10
84.512270032978194
20
132.47631668363272
30
34.159181849243453
10
84.054759910377385
20
133.02861405617392
30
34.159181849243453
10
83.309317717063038
20
133.92849745636735
30
34.159181849243453
10
82.514824405768962
20
134.4306450136377
30
34.15918184924346
10
81.915903089802413
20
134.74392464974778
30
34.159181849243453
10
80.522122444061807
20
135.47297382845369
30
34.159181849243453
10
78.683360869064657
20
135.91626370505901
30
34.159181849243453
10
76.818195568249848
20
136.15264578725845
30
34.159181849243453
0
LINE
5
128
100
AcDbEntity
8
0
100
AcDbLine
10
-3.5395285769091167
20
52.587724789010451
30
34.468055819622037
11
-3.5395285769084772
21
88.087728633509599
31
34.468055819622037
0
SPLINE
5
129
100
AcDbEntity
8
0
100
AcDbSpline
70
0
71
3
72
8
73
4
74
0
42
0.000000001
43
0.0000000001
44
0.0000000001
40
-0.12398220304508185
40
-0.12398220304508185
40
-0.12398220304508185
40
-0.12398220304508185
40
0
40
0
40
0
40
0
10
93.880330179329462
20
98.39595575648984
30
34.159181849243453
10
93.678778242761894
20
98.672350597343609
30
34.159181849243453
10
93.46984866196874
20
98.948282103089554
30
34.159181849243453
10
93.257124267896955
20
99.221023551529711
30
34.159181849243453
0
SPLINE
5
130
100
AcDbEntity
8
0
100
AcDbSpline
70
0
71
3
72
47
73
43
74
0
42
0.000000001
43
0.0000000001
44
0.0000000001
40
-7.3410020096679229
40
-7.3410020096679229
40
-7.3410020096679229
40
-7.3410020096679229
40
-6.8807636212647969
40
-6.8807636212647969
40
-6.8807636212647969
40
-6.4207520020058926
40
-6.4207520020058926
40
-6.4207520020058926
40
-5.7499371068993668
40
-5.7499371068993668
40
-5.7499371068993668
40
-4.7156910444410371
40
-4.7156910444410371
40
-4.7156910444410371
40
-4.4632446932787193
40
-4.4632446932787193
40
-4.4632446932787193
40
-3.8770159124594641
40
-3.8770159124594641
40
-3.8770159124594641
40
-3.5653097059789207
40
-3.5653097059789207
40
-3.5653097059789207
40
-3.3732714283219187
40
-3.3732714283219187
40
-3.3732714283219187
40
-3.2033958592274669
40
-3.2033958592274669
40
-3.2033958592274669
40
-3.0294251596301804
40
-3.0294251596301804
40
-3.0294251596301804
40
-2.7698281752959364
40
-2.7698281752959364
40
-2.7698281752959364
40
-2.0379813423463582
40
-2.0379813423463582
40
-2.0379813423463582
40
-1.2040247367747807
40
-1.2040247367747807
40
-1.2040247367747807
40
0
40
0
40
0
40
0
10
-7.6874023836866279
20
129.26069290693465
30
34.159181849243453
10
-7.6931823715594305
20
128.77017873671804
30
34.15918184924346
10
-7.6421009718874089
20
128.27996016933409
30
34.159181849243453
10
-7.5348419895629348
20
127.80467085231717
30
34.159181849243453
10
-7.4276384380370608
20
127.32962716196792
30
34.159181849243453
10
-7.2648122009404936
20
126.87134996677563
30
34.159181849243453
10
-7.0490095187068924
20
126.44219375190437
30
34.159181849243453
10
-6.7343085036326755
20
125.81636327080226
30
34.159181849243453
10
-6.3138499696768591
20
125.26390225256597
30
34.159181849243453
10
-5.7968166013312228
20
124.80207110257238
30
34.159181849243453
10
-4.999351013703901
20
124.08974870335729
30
34.159181849243453
10
-4.0337739184451138
20
123.65082156483368
30
34.159181849243453
10
-2.7398098208269062
20
123.17834559894131
30
34.159181849243453
10
-2.4239695901159131
20
123.06302020595126
30
34.159181849243453
10
-2.0907929320016549
20
122.94622122432321
30
34.159181849243453
10
-1.741150584396145
20
122.82316748204344
30
34.159181849243453
10
-0.92917339987655723
20
122.53739880475031
30
34.159181849243453
10
-0.12328529972190694
20
122.25883107074389
30
34.159181849243453
10
0.62307168990813011
20
121.87416644544349
30
34.159181849243453
10
1.0192634523302857
20
121.66997333416204
30
34.159181849243453
10
1.4193677359109014
20
121.42837714947561
30
34.159181849243453
10
1.793797464176885
20
121.08242078460398
30
34.159181849243453
10
2.0248336940316047
20
120.86895361519856
30
34.159181849243453
10
2.2609007752828347
20
120.6000734281258
30
34.159181849243453
10
2.4498275081923104
20
120.25254263611343
30
34.159181849243453
10
2.6168088560385705
20
119.94538038768712
30
34.159181849243453
10
2.7314659285052301
20
119.59295388455261
30
34.159181849243453
10
2.7725914650913719
20
119.23444355675463
30
34.159181849243453
10
2.8145926489410211
20
118.86829980667108
30
34.159181849243453
10
2.7815134727453295
20
118.4525749289181
30
34.159181849243453
10
2.6690890466391526
20
118.04143785755599
30
34.159181849243453
10
2.5013441149676119
20
117.42799323229171
30
34.159181849243453
10
2.2201089539164087
20
116.92450617374647
30
34.159181849243453
10
1.926877228831696
20
116.46782796687648
30
34.159181849243453
10
1.0990309485111105
20
115.17854265932144
30
34.159181849243453
10
-0.16243413986299693
20
113.86231676734172
30
34.159181849243453
10
-1.6253755636856582
20
112.44758038840249
30
34.159181849243453
10
-3.2924315773655088
20
110.83545515230125
30
34.159181849243453
10
-5.2185185655723743
20
109.12972770785754
30
34.159181849243453
10
-6.9819224102550415
20
107.48425814774457
30
34.159181849243453
10
-9.5278316216267633
20
105.10861621934825
30
34.159181849243453
10
-12.476301810931218
20
102.16231032605845
30
34.159181849243453
10
-14.553570188747642
20
99.528493416771539
30
34.159181849243453
0
SPLINE
5
131
100
AcDbEntity
8
0
100
AcDbSpline
70
0
71
3
72
14
73
10
74
0
42
0.000000001
43
0.0000000001
44
0.0000000001
40
-0.88432142671768377
40
-0.88432142671768377
40
-0.88432142671768377
40
-0.88432142671768377
40
-0.47347552884393562
40
-0.47347552884393562
40
-0.47347552884393562
40
-0.2312571017989781
40
-0.2312571017989781
40
-0.2312571017989781
40
0
40
0
40
0
40
0
10
-16.98314045539135
20
90.694366187958252
30
34.159181849243453
10
-16.684633375513958
20
89.065895584310397
30
34.159181849243453
10
-16.60527548109437
20
87.458082248581675
30
34.159181849243453
10
-16.928148200683033
20
85.74660098563092
30
34.159181849243453
10
-17.114576070253769
20
84.758385548697476
30
34.159181849243453
10
-17.402554728858828
20
83.759036542940777
30
34.159181849243453
10
-17.630164317716481
20
83.047005870165123
30
34.159181849243453
10
-17.847701070430837
20
82.366486032815516
30
34.159181849243453
10
-18.114982145346783
20
81.624282395955007
30
34.159181849243453
10
-18.443158323475739
20
80.927081629060297
30
34.159181849243453
0
SPLINE
5
132
100
AcDbEntity
8
0
100
AcDbSpline
70
0
71
3
72
8
73
4
74
0
42
0.000000001
43
0.0000000001
44
0.0000000001
40
-0.083324826043855549
40
-0.083324826043855549
40
-0.083324826043855549
40
-0.083324826043855549
40
0
40
0
40
0
40
0
10
97.317399784033
20
80.491052554270155
30
34.159181849243453
10
97.198815622016014
20
80.722875231949189
30
34.159181849243453
10
97.080890891672624
20
80.964468647502756
30
34.159181849243453
10
96.968527079491778
20
81.217207041737652
30
34.159181849243453
0
SPLINE
5
133
100
AcDbEntity
8
0
100
AcDbSpline
70
0
71
3
72
14
73
10
74
0
42
0.000000001
43
0.0000000001
44
0.0000000001
40
-1.0001307524397591
40
-1.0001307524397591
40
-1.0001307524397591
40
-1.0001307524397591
40
-0.29928122763567194
40
-0.29928122763567194
40
-0.29928122763567194
40
-0.28751612606792448
40
-0.28751612606792448
40
-0.28751612606792448
40
0
40
0
40
0
40
0
10
100.70493238183013
20
73.690664671924452
30
34.159181849243453
10
100.42402937841106
20
74.552418338524006
30
34.159181849243453
10
99.903377726997249
20
75.710995117531525
30
34.159181849243453
10
98.687120688761198
20
77.955543151623004
30
34.159181849243453
10
98.666709283829533
20
77.993211487650711
30
34.159181849243453
10
98.647732574407001
20
78.028177102937263
30
34.159181849243453
10
98.631101862930848
20
78.058788088501302
30
34.159181849243453
10
98.226795841229304
20
78.802965859339508
30
34.15918184924346
10
97.719231348255533
20
79.705503560124811
30
34.159181849243453
10
97.317399784033043
20
80.491052554270112
30
34.159181849243453
0
SPLINE
5
134
100
AcDbEntity
8
0
100
AcDbSpline
70
0
71
3
72
11
73
7
74
0
42
0.000000001
43
0.0000000001
44
0.0000000001
40
-0.84108614656744773
40
-0.84108614656744773
40
-0.84108614656744773
40
-0.84108614656744773
40
-0.32797597740035622
40
-0.32797597740035622
40
-0.32797597740035622
40
0
40
0
40
0
40
0
10
-18.535096986713793
20
80.735785243899727
30
34.159181849243453
10
-19.32593334047926
20
79.12243208853846
30
34.159181849243453
10
-20.21352343929399
20
77.655748900624602
30
34.159181849243453
10
-20.930401964399348
20
76.199480559717074
30
34.15918184924346
10
-21.408950978973369
20
75.227355220358788
30
34.159181849243453
10
-21.780890529939043
20
74.442116814946942
30
34.159181849243453
10
-22.036317102467002
20
73.658990884809185
30
34.159181849243453
0
SPLINE
5
135
100
AcDbEntity
8
0
100
AcDbSpline
70
0
71
3
72
143
73
139
74
0
42
0.000000001
43
0.0000000001
44
0.0000000001
40
-7.9190615652329823
40
-7.9190615652329823
40
-7.9190615652329823
40
-7.9190615652329823
40
-7.614936633712694
40
-7.614936633712694
40
-7.614936633712694
40
-7.3638595123448765
40
-7.3638595123448765
40
-7.3638595123448765
40
-7.0579143059318907
40
-7.0579143059318907
40
-7.0579143059318907
40
-6.5538493349050304
40
-6.5538493349050304
40
-6.5538493349050304
40
-6.3311797547150164
40
-6.3311797547150164
40
-6.3311797547150164
40
-6.2285990583246766
40
-6.2285990583246766
40
-6.2285990583246766
40
-6.1937220356764069
40
-6.1937220356764069
40
-6.1937220356764069
40
-6.1675115864453831
40
-6.1675115864453831
40
-6.1675115864453831
40
-6.1365848540904766
40
-6.1365848540904766
40
-6.1365848540904766
40
-6.0701840340163322
40
-6.0701840340163322
40
-6.0701840340163322
40
-5.92903130654219
40
-5.92903130654219
40
-5.92903130654219
40
-5.8345691022990636
40
-5.8345691022990636
40
-5.8345691022990636
40
-5.7780412738821259
40
-5.7780412738821259
40
-5.7780412738821259
40
-5.7207623905425846
40
-5.7207623905425846
40
-5.7207623905425846
40
-5.6289930253465599
40
-5.6289930253465599
40
-5.6289930253465599
40
-5.2548104860294025
40
-5.2548104860294025
40
-5.2548104860294025
40
-5.0460711896079644
40
-5.0460711896079644
40
-5.0460711896079644
40
-4.9514414936535633
40
-4.9514414936535633
40
-4.9514414936535633
40
-4.918042297939019
40
-4.918042297939019
40
-4.918042297939019
40
-4.8954406823549954
40
-4.8954406823549954
40
-4.8954406823549954
40
-4.8729191716905351
40
-4.8729191716905351
40
-4.8729191716905351
40
-4.8401070320639006
40
-4.8401070320639006
40
-4.8401070320639006
40
-4.6664528416167794
40
-4.6664528416167794
40
-4.6664528416167794
40
-4.462632743573729
40
-4.462632743573729
40
-4.462632743573729
40
-4.4378588063628888
40
-4.4378588063628888
40
-4.4378588063628888
40
-4.2087239405949362
40
-4.2087239405949362
40
-4.2087239405949362
40
-4.021264938302048
40
-4.021264938302048
40
-4.021264938302048
40
-3.7921889994453366
40
-3.7921889994453366
40
-3.7921889994453366
40
-3.4708427410108849
40
-3.4708427410108849
40
-3.4708427410108849
40
-3.1775007275892526
40
-3.1775007275892526
40
-3.1775007275892526
40
-2.988758131179833
40
-2.988758131179833
40
-2.988758131179833
40
-2.7167960040600247
40
-2.7167960040600247
40
-2.7167960040600247
40
-2.5008894874927639
40
-2.5008894874927639
40
-2.5008894874927639
40
-2.4081551636175789
40
-2.4081551636175789
40
-2.4081551636175789
40
-2.1279505096950677
40
-2.1279505096950677
40
-2.1279505096950677
40
-1.9188270774106289
40
-1.9188270774106289
40
-1.9188270774106289
40
-1.7562356146896458
40
-1.7562356146896458
40
-1.7562356146896458
40
-1.6218664578421174
40
-1.6218664578421174
40
-1.6218664578421174
40
-1.3500882969906045
40
-1.3500882969906045
40
-1.3500882969906045
40
-1.1942001834441818
40
-1.1942001834441818
40
-1.1942001834441818
40
-1.0548153522277204
40
-1.0548153522277204
40
-1.0548153522277204
40
-0.84774017266782431
40
-0.84774017266782431
40
-0.84774017266782431
40
-0.42272247797410306
40
-0.42272247797410306
40
-0.42272247797410306
40
-0.36189515842460973
40
-0.36189515842460973
40
-0.36189515842460973
40
-0.16545995180606099
40
-0.16545995180606099
40
-0.16545995180606099
40
0
40
0
40
0
40
0
10
-22.036317102467056
20
73.658990884809228
30
34.159181849243453
10
-22.297432909742412
20
72.858422026908499
30
34.159181849243453
10
-22.41876783283459
20
72.149190202016186
30
34.159181849243453
10
-22.42416089251666
20
71.323511622650159
30
34.159181849243453
10
-22.428620641168173
20
70.640723159704763
30
34.15918184924346
10
-22.349146528361263
20
69.893495616201392
30
34.159181849243453
10
-22.182572942473477
20
69.002865460705834
30
34.159181849243453
10
-21.979727669809517
20
67.918299046581211
30
34.159181849243453
10
-21.661467238218322
20
66.706448970634199
30
34.159181849243453
10
-21.331714144960952
20
65.601721925267498
30
34.159181849243453
10
-20.788514312976059
20
63.781913232937924
30
34.159181849243453
10
-20.081993675356138
20
61.803351168349906
30
34.159181849243453
10
-19.35963783160803
20
60.051168154193007
30
34.159181849243453
10
-19.040538743751316
20
59.277145203573021
30
34.159181849243453
10
-18.687844616197804
20
58.473461928794244
30
34.159181849243453
10
-18.332666234012187
20
57.741188296765259
30
34.159181849243453
10
-18.169111607705517
20
57.403986636282092
30
34.159181849243453
10
-17.993213865365885
20
57.057932077919311
30
34.159181849243453
10
-17.82048701583804
20
56.743674224247641
30
34.159181849243453
10
-17.761774713796523
20
56.636853529757317
30
34.159181849243453
10
-17.701796721530201
20
56.530719137822238
30
34.159181849243453
10
-17.641634578962488
20
56.428076880234542
30
34.159181849243453
10
-17.596341775802617
20
56.350803110212709
30
34.159181849243453
10
-17.55051147888361
20
56.274730470795795
30
34.159181849243453
10
-17.504378508350591
20
56.20051794513509
30
34.159181849243453
10
-17.449943219322197
20
56.112949764781789
30
34.159181849243453
10
-17.394764505729174
20
56.027459789921998
30
34.159181849243453
10
-17.339239232850883
20
55.945122482683516
30
34.159181849243453
10
-17.220015511743707
20
55.76832803132735
30
34.159181849243453
10
-17.098207490424358
20
55.604735685969082
30
34.159181849243453
10
-16.972893242219396
20
55.45686883195021
30
34.159181849243453
10
-16.70542529025667
20
55.141265098343538
30
34.159181849243453
10
-16.484686514037321
20
54.967368210642391
30
34.159181849243453
10
-16.124927443235926
20
54.639707900839213
30
34.159181849243453
10
-15.884158147155922
20
54.42042074855442
30
34.159181849243453
10
-15.595654546351945
20
54.137606522036506
30
34.15918184924346
10
-15.301566704984833
20
53.766893929945695
30
34.159181849243453
10
-15.125339023076023
20
53.544750027447549
30
34.159181849243453
10
-14.968477695144422
20
53.319901416777569
30
34.159181849243453
10
-14.826084678511418
20
53.097798170036086
30
34.159181849243453
10
-14.681750634754103
20
52.872667328005747
30
34.159181849243453
10
-14.549762644457633
20
52.646402311454054
30
34.159181849243453
10
-14.428052235277811
20
52.424719522650811
30
34.159181849243453
10
-14.232018744293793
20
52.067665008800965
30
34.159181849243453
10
-14.049346576916246
20
51.697272842650136
30
34.159181849243453
10
-13.893207011626902
20
51.36940243728327
30
34.159181849243453
10
-13.256716509575401
20
50.032864843284628
30
34.159181849243453
10
-12.55082132165267
20
48.322578021435376
30
34.159181849243453
10
-11.811518981836304
20
46.589396849551704
30
34.159181849243453
10
-11.399117344484484
20
45.622584336433398
30
34.159181849243453
10
-10.940080648336998
20
44.563058161830824
30
34.159181849243453
10
-10.497102358685968
20
43.612746464530829
30
34.159181849243453
10
-10.296165568256601
20
43.181681135091416
30
34.159181849243453
10
-10.084059951613753
20
42.74174757911581
30
34.159181849243453
10
-9.8722668770546917
20
42.32780779263269
30
34.15918184924346
10
-9.7975084866349604
20
42.181695969889574
30
34.15918184924346
10
-9.7214576410228659
20
42.03620095457854
30
34.159181849243453
10
-9.6450231975012457
20
41.893860313562001
30
34.159181849243453
10
-9.5932987186024654
20
41.797535997671318
30
34.159181849243453
10
-9.5409693977047105
20
41.701856230524861
30
34.159181849243453
10
-9.4884394634811997
20
41.607882903683553
30
34.159181849243453
10
-9.4360954753199522
20
41.51424222470002
30
34.159181849243453
10
-9.3830830051049219
20
41.421459441656232
30
34.159181849243453
10
-9.3299715392576488
20
41.330933732193778
30
34.159181849243453
10
-9.2525915376599421
20
41.199043575688066
30
34.159181849243453
10
-9.1729527945800271
20
41.068502152404669
30
34.159181849243453
10
-9.093133392521846
20
40.944587258547216
30
34.159181849243453
10
-8.6693598714929543
20
40.286703967971071
30
34.159181849243453
10
-8.3474752264837271
20
39.956071243346436
30
34.159181849243453
10
-8.0134983619132427
20
39.683744766164004
30
34.159181849243453
10
-7.6214785311158728
20
39.364089751604787
30
34.159181849243453
10
-7.1365250222117638
20
39.103356431762997
30
34.159181849243453
10
-6.4562811429918732
20
38.642396375734265
30
34.15918184924346
10
-6.3735988201313987
20
38.586367575854368
30
34.159181849243453
10
-6.2886750971842709
20
38.527505912436872
30
34.159181849243453
10
-6.2017193660231484
20
38.465433660452639
30
34.159181849243453
10
-5.3987316096091931
20
37.892230977998018
30
34.159181849243453
10
-4.7513293296005266
20
37.273865870919671
30
34.159181849243453
10
-4.1239384387593425
20
36.568756179610986
30
34.159181849243453
10
-3.6086734322208791
20
35.989662101252051
30
34.159181849243453
10
-3.0763658801568816
20
35.322023391918727
30
34.15918184924346
10
-2.6508529732625519
20
34.779403170385912
30
34.159181849243453
10
-2.1310242167684379
20
34.116510011476393
30
34.159181849243453
10
-1.6018953900283961
20
33.423108958045624
30
34.159181849243453
10
-1.0557553918882956
20
32.720835493593761
30
34.159181849243453
10
-0.28963370377200981
20
31.735690779898746
30
34.15918184924346
10
0.55904361437105088
20
30.671394322238363
30
34.159181849243453
10
1.3746927901455575
20
29.771019574567106
30
34.159181849243453
10
2.1205379149147419
20
28.947699774877371
30
34.159181849243453
10
2.8921885829292115
20
28.209558859456081
30
34.15918184924346
10
3.5571518846242345
20
27.749229606509793
30
34.159181849243453
10
3.9853809865255307
20
27.452782596478364
30
34.159181849243453
10
4.3747543435127945
20
27.253262942184868
30
34.159181849243453
10
4.8695737764027669
20
27.137079756101841
30
34.159181849243453
10
5.5815723286464536
20
26.969903095712837
30
34.159181849243453
10
6.3643637821963761
20
27.043381106977797
30
34.159181849243453
10
7.3738401817541899
20
27.166248446191688
30
34.159181849243453
10
8.1752846745515484
20
27.263795404595825
30
34.159181849243453
10
9.10582274789415
20
27.386596794530647
30
34.159181849243453
10
10.161432747949322
20
27.298188877264415
30
34.159181849243453
10
10.614832798011253
20
27.260216374055517
30
34.159181849243453
10
11.067060673619267
20
27.183645484170071
30
34.159181849243453
10
11.515141954723234
20
27.062737978943439
30
34.159181849243453
10
12.869606189362406
20
26.69725765553995
30
34.159181849243453
10
14.116688407357669
20
25.965130365723468
30
34.159181849243453
10
15.716540854953278
20
24.870007337998317
30
34.159181849243453
10
16.91054925468783
20
24.052690656193185
30
34.15918184924346
10
18.089664426589351
20
23.173880617968976
30
34.159181849243453
10
19.203242518535639
20
22.46498457157319
30
34.159181849243453
10
20.069448837765922
20
21.913563670330234
30
34.159181849243453
10
20.908556748546047
20
21.461756718198863
30
34.159181849243453
10
21.630001863962143
20
21.215934649393233
30
34.15918184924346
10
22.226543896780484
20
21.012671513357759
30
34.159181849243453
10
22.649036511112755
20
20.958692626967661
30
34.159181849243453
10
23.156588778255191
20
20.994394078076013
30
34.159181849243453
10
24.181771725062731
20
21.066505900290231
30
34.159181849243453
10
25.347777152793647
20
21.609756390061463
30
34.159181849243453
10
26.648139660489598
20
22.211248289445713
30
34.159181849243453
10
27.393407413005892
20
22.555977173397537
30
34.159181849243453
10
28.192872298923586
20
22.919010503654604
30
34.159181849243453
10
29.097640320677041
20
23.129602443632962
30
34.159181849243453
10
29.906753157566666
20
23.317929879931754
30
34.159181849243453
10
30.617607818716259
20
23.31579881724771
30
34.159181849243453
10
31.17009980136298
20
23.232460319332802
30
34.159181849243453
10
31.990600262011874
20
23.108695128023733
30
34.159181849243453
10
32.723187148227069
20
22.807542719622909
30
34.159181849243453
10
33.393624482181224
20
22.455249344490298
30
34.159181849243453
10
34.770168779379688
20
21.731919344921948
30
34.159181849243453
10
35.966103714745913
20
20.761024841394509
30
34.159181849243453
10
37.04003284109988
20
20.082641241770496
30
34.159181849243453
10
37.193730512885786
20
19.98555291696281
30
34.159181849243453
10
37.344119252706534
20
19.894339353999726
30
34.159181849243453
10
37.490519340071302
20
19.810374732284757
30
34.159181849243453
10
37.96359829244976
20
19.539050472902524
30
34.159181849243453
10
38.39824293001957
20
19.34626439603008
30
34.159181849243453
10
38.760116849628119
20
19.253637582648508
30
34.159181849243453
10
39.064660548967716
20
19.175685260370656
30
34.159181849243453
10
39.282438855424019
20
19.161450725391731
30
34.159181849243453
10
39.57664400399706
20
19.200591784675929
30
34.159181849243453
0
SPLINE
5
136
100
AcDbEntity
8
0
100
AcDbSpline
70
0
71
3
72
8
73
4
74
0
42
0.000000001
43
0.0000000001
44
0.0000000001
40
-0.021667091687563759
40
-0.021667091687563759
40
-0.021667091687563759
40
-0.021667091687563759
40
0
40
0
40
0
40
0
10
-18.443158323475668
20
80.927081629060567
30
34.159181849243453
10
-18.47352548960588
20
80.862567465859712
30
34.159181849243453
10
-18.504197280430912
20
80.798822480862768
30
34.159181849243453
10
-18.535096986713793
20
80.735785243899755
30
34.159181849243453
0
LINE
5
137
100
AcDbEntity
8
0
100
AcDbLine
10
82.273064547884047
20
88.087728633508192
30
34.468055819622037
11
82.273064547883408
21
52.587724789008931
31
34.468055819622037
0
SPLINE
5
138
100
AcDbEntity
8
0
100
AcDbSpline
70
0
71
3
72
29
73
25
74
0
42
0.000000001
43
0.0000000001
44
0.0000000001
40
-2.4456744878083341
40
-2.4456744878083341
40
-2.4456744878083341
40
-2.4456744878083341
40
-2.3554649429964054
40
-2.3554649429964054
40
-2.3554649429964054
40
-2.3527606830526504
40
-2.3527606830526504
40
-2.3527606830526504
40
-2.2537464443868727
40
-2.2537464443868727
40
-2.2537464443868727
40
-2.2322157715138675
40
-2.2322157715138675
40
-2.2322157715138675
40
-1.7575720679846492
40
-1.7575720679846492
40
-1.7575720679846492
40
-1.1551836276059897
40
-1.1551836276059897
40
-1.1551836276059897
40
-0.66129145876351336
40
-0.66129145876351336
40
-0.66129145876351336
40
0
40
0
40
0
40
0
10
96.968527079491778
20
81.217207041737652
30
34.159181849243453
10
96.537570083867635
20
82.186552749615856
30
34.159181849243453
10
96.203853155978521
20
83.246173800749801
30
34.159181849243453
10
95.946415075243436
20
84.191593118816769
30
34.159181849243453
10
95.93869771572038
20
84.219934461157138
30
34.159181849243453
10
95.930442427418981
20
84.250411024569388
30
34.159181849243453
10
95.922137709402833
20
84.281327828653346
30
34.159181849243453
10
95.619703407463575
20
85.407230242574954
30
34.159181849243453
10
95.505744087070667
20
86.155894264909136
30
34.159181849243453
10
95.458311315284007
20
86.602211921271646
30
34.159181849243453
10
95.447997046280307
20
86.699263815888813
30
34.159181849243453
10
95.440819045681849
20
86.78136688148436
30
34.159181849243453
10
95.43565197900827
20
86.844011145505277
30
34.159181849243453
10
95.321041907597419
20
88.23351587351948
30
34.159181849243453
10
95.445024598697614
20
89.334875133570861
30
34.159181849243453
10
95.60806575606162
20
90.251271329787301
30
34.159181849243453
10
95.815416195736859
20
91.416714198779687
30
34.159181849243453
10
96.056582882676736
20
92.284259428313092
30
34.15918184924346
10
96.119551812708508
20
93.004607306805099
30
34.159181849243453
10
96.171167701492791
20
93.595079400955754
30
34.159181849243453
10
96.138184293290792
20
94.063483750012878
30
34.159181849243453
10
95.91298235901948
20
94.765378312294089
30
34.159181849243453
10
95.611443866069393
20
95.705193634951144
30
34.159181849243453
10
94.955227915277163
20
96.921912918098698
30
34.159181849243453
10
93.880330179329462
20
98.39595575648984
30
34.159181849243453
0
LINE
5
139
100
AcDbEntity
8
0
100
AcDbLine
10
-3.5395285769084772
20
88.087728633509599
30
34.468055819622037
11
82.273064547884047
21
88.087728633508192
31
34.468055819622037
0
SPLINE
5
140
100
AcDbEntity
8
0
100
AcDbSpline
70
0
71
3
72
47
73
43
74
0
42
0.000000001
43
0.0000000001
44
0.0000000001
40
-6.9919355461811836
40
-6.9919355461811836
40
-6.9919355461811836
40
-6.9919355461811836
40
-6.2909032660044284
40
-6.2909032660044284
40
-6.2909032660044284
40
-5.249149729788372
40
-5.249149729788372
40
-5.249149729788372
40
-4.3293381631590284
40
-4.3293381631590284
40
-4.3293381631590284
40
-3.0792943568852995
40
-3.0792943568852995
40
-3.0792943568852995
40
-2.6179057555329628
40
-2.6179057555329628
40
-2.6179057555329628
40
-2.3996508854086231
40
-2.3996508854086231
40
-2.3996508854086231
40
-2.2551939344545606
40
-2.2551939344545606
40
-2.2551939344545606
40
-2.117206117556627
40
-2.117206117556627
40
-2.117206117556627
40
-1.9299211806748184
40
-1.9299211806748184
40
-1.9299211806748184
40
-1.5338211988665176
40
-1.5338211988665176
40
-1.5338211988665176
40
-0.96107996394833684
40
-0.96107996394833684
40
-0.96107996394833684
40
-0.63345629158943839
40
-0.63345629158943839
40
-0.63345629158943839
40
-0.34404806975411878
40
-0.34404806975411878
40
-0.34404806975411878
40
0
40
0
40
0
40
0
10
93.257124267896927
20
99.221023551529711
30
34.159181849243453
10
92.186742764543482
20
100.59339742939221
30
34.159181849243453
10
90.912356939504392
20
102.02226482924827
30
34.159181849243453
10
89.685029130586287
20
103.31720334395155
30
34.159181849243453
10
87.857939973981857
20
105.24494269890789
30
34.159181849243453
10
86.227916570257733
20
106.8000614115013
30
34.159181849243453
10
84.885986358477254
20
108.05482265611195
30
34.159181849243453
10
83.701790103447635
20
109.16209601040416
30
34.159181849243453
10
82.464350613117261
20
110.292648603289
30
34.159181849243453
10
81.292635448683299
20
111.40697005137204
30
34.159181849243453
10
79.70058403261848
20
112.92103856667461
30
34.159181849243453
10
78.212776715771867
20
114.40454239514489
30
34.159181849243453
10
77.181718024540345
20
115.81052224794512
30
34.159181849243453
10
76.801415342817762
20
116.32911339412823
30
34.159181849243453
10
76.43720272001201
20
116.88805368482829
30
34.159181849243453
10
76.180055164070353
20
117.53338086731279
30
34.159181849243453
10
76.058274509431968
20
117.83899670896886
30
34.15918184924346
10
75.942158881747062
20
118.20161017397965
30
34.159181849243453
10
75.907096275298173
20
118.64436114270356
30
34.159181849243453
10
75.883988265268869
20
118.93615615915999
30
34.159181849243453
10
75.89714586653399
20
119.3213902993823
30
34.159181849243453
10
76.027022577328268
20
119.73502635236673
30
34.159181849243453
10
76.151288852098418
20
120.13079408547804
30
34.159181849243453
10
76.35641936308194
20
120.46937598521052
30
34.159181849243453
10
76.581445954207453
20
120.74053176611179
30
34.159181849243453
10
76.886454479800634
20
121.10806532970136
30
34.159181849243453
10
77.231484335621388
20
121.37202128565612
30
34.159181849243453
10
77.573019026899487
20
121.58866242077875
30
34.159181849243453
10
78.295961318204931
20
122.04723674021453
30
34.159181849243453
10
79.078773123850752
20
122.34212521362174
30
34.159181849243453
10
79.862582691040444
20
122.62983446340277
30
34.159181849243453
10
80.997009076431752
20
123.04624296099605
30
34.159181849243453
10
82.165596235475562
20
123.44173746129567
30
34.159181849243453
10
83.051245708959016
20
123.92497446478524
30
34.159181849243453
10
83.558323413387384
20
124.20165131918512
30
34.159181849243453
10
84.054462098398915
20
124.54004927077636
30
34.159181849243453
10
84.514493257683498
20
125.08837140067151
30
34.159181849243453
10
84.920742224653367
20
125.57258925057324
30
34.159181849243453
10
85.222758612326061
20
126.13690015504275
30
34.15918184924346
10
85.419451137211553
20
126.76435747398584
30
34.159181849243453
10
85.653418349765587
20
127.51072259383584
30
34.159181849243453
10
85.729584660338588
20
128.32794974369392
30
34.159181849243453
10
85.655737528716017
20
129.14481402317082
30
34.159181849243453
0
LINE
5
141
100
AcDbEntity
8
0
100
AcDbLine
10
82.273064547883408
20
52.587724789008931
30
34.468055819622037
11
-3.5395285769091167
21
52.587724789010451
31
34.468055819622037
0
ENDSEC
0
SECTION
2
OBJECTS
0
DICTIONARY
5
C
100
AcDbDictionary
3
ACAD_GROUP
350
D
3
ACAD_MLINESTYLE
350
17
0
DICTIONARY
5
D
100
AcDbDictionary
0
DICTIONARY
5
1A
330
C
100
AcDbDictionary
0
DICTIONARY
5
17
100
AcDbDictionary
0
ENDSEC
0
EOF
