0
SECTION
2
HEADER
9
$ANGDIR
70
1
9
$AUNITS
70
0
9
$PROJECTNAME
1
Final Project
9
$TDCREATE
40
2459705.25847342
9
$INSUNITS
70
4
0
ENDSEC
0
SECTION
2
ENTITIES
0
POLYLINE
66
1
8
outline
10
0.0
20
0.0
30
0.0
70
1
0
VERTEX
8
0
10
0
20
0
30
0
0
VERTEX
8
0
10
160
20
0
30
0
0
VERTEX
8
0
10
160
20
100
30
0
0
VERTEX
8
0
10
0
20
100
30
0
0
VERTEX
8
0
10
0
20
0
30
0
0
SEQEND
0
POLYLINE
66
1
8
holes
10
0.0
20
0.0
30
0.0
70
1
0
VERTEX
8
0
10
79.33500000000001
20
44.667584375000004
30
0
0
VERTEX
8
0
10
79.32751875000001
20
44.601178125000004
30
0
0
VERTEX
8
0
10
79.312646875
20
44.536021875
30
0
0
VERTEX
8
0
10
79.290575
20
44.47294375
30
0
0
VERTEX
8
0
10
79.261578125
20
44.412734375
30
0
0
VERTEX
8
0
10
79.226021875
20
44.356146875
30
0
0
VERTEX
8
0
10
79.18435625000001
20
44.3039
30
0
0
VERTEX
8
0
10
79.1371
20
44.25664375
30
0
0
VERTEX
8
0
10
79.08485312500001
20
44.214978125
30
0
0
VERTEX
8
0
10
79.028265625
20
44.179421875
30
0
0
VERTEX
8
0
10
78.96805625
20
44.150425000000006
30
0
0
VERTEX
8
0
10
78.904978125
20
44.128353125000004
30
0
0
VERTEX
8
0
10
78.839821875
20
44.11348125
30
0
0
VERTEX
8
0
10
78.773415625
20
44.106
30
0
0
VERTEX
8
0
10
78.706584375
20
44.106
30
0
0
VERTEX
8
0
10
78.640178125
20
44.11348125
30
0
0
VERTEX
8
0
10
78.575021875
20
44.128353125000004
30
0
0
VERTEX
8
0
10
78.51194375
20
44.150425000000006
30
0
0
VERTEX
8
0
10
78.451734375
20
44.179421875
30
0
0
VERTEX
8
0
10
78.39514687500001
20
44.214978125
30
0
0
VERTEX
8
0
10
78.3429
20
44.25664375
30
0
0
VERTEX
8
0
10
78.29564375000001
20
44.3039
30
0
0
VERTEX
8
0
10
78.253978125
20
44.356146875
30
0
0
VERTEX
8
0
10
78.218421875
20
44.412734375
30
0
0
VERTEX
8
0
10
78.189425
20
44.47294375
30
0
0
VERTEX
8
0
10
78.167353125
20
44.536021875
30
0
0
VERTEX
8
0
10
78.15248125000001
20
44.601178125000004
30
0
0
VERTEX
8
0
10
78.14500000000001
20
44.667584375000004
30
0
0
VERTEX
8
0
10
78.14500000000001
20
44.734415625000004
30
0
0
VERTEX
8
0
10
78.15248125000001
20
44.800821875000004
30
0
0
VERTEX
8
0
10
78.167353125
20
44.865978125000005
30
0
0
VERTEX
8
0
10
78.189425
20
44.92905625
30
0
0
VERTEX
8
0
10
78.218421875
20
44.989265625
30
0
0
VERTEX
8
0
10
78.253978125
20
45.045853125
30
0
0
VERTEX
8
0
10
78.29564375000001
20
45.0981
30
0
0
VERTEX
8
0
10
78.3429
20
45.14535625
30
0
0
VERTEX
8
0
10
78.39514687500001
20
45.187021875
30
0
0
VERTEX
8
0
10
78.451734375
20
45.222578125000005
30
0
0
VERTEX
8
0
10
78.51194375
20
45.251575
30
0
0
VERTEX
8
0
10
78.575021875
20
45.273646875000004
30
0
0
VERTEX
8
0
10
78.640178125
20
45.28851875
30
0
0
VERTEX
8
0
10
78.706584375
20
45.296
30
0
0
VERTEX
8
0
10
78.773415625
20
45.296
30
0
0
VERTEX
8
0
10
78.839821875
20
45.28851875
30
0
0
VERTEX
8
0
10
78.904978125
20
45.273646875000004
30
0
0
VERTEX
8
0
10
78.96805625
20
45.251575
30
0
0
VERTEX
8
0
10
79.028265625
20
45.222578125000005
30
0
0
VERTEX
8
0
10
79.08485312500001
20
45.187021875
30
0
0
VERTEX
8
0
10
79.1371
20
45.14535625
30
0
0
VERTEX
8
0
10
79.18435625000001
20
45.0981
30
0
0
VERTEX
8
0
10
79.226021875
20
45.045853125
30
0
0
VERTEX
8
0
10
79.261578125
20
44.989265625
30
0
0
VERTEX
8
0
10
79.290575
20
44.92905625
30
0
0
VERTEX
8
0
10
79.312646875
20
44.865978125000005
30
0
0
VERTEX
8
0
10
79.32751875000001
20
44.800821875000004
30
0
0
VERTEX
8
0
10
79.33500000000001
20
44.734415625000004
30
0
0
VERTEX
8
0
10
79.33500000000001
20
44.667584375000004
30
0
0
SEQEND
0
POLYLINE
66
1
8
holes
10
0.0
20
0.0
30
0.0
70
1
0
VERTEX
8
0
10
81.875
20
44.667584375000004
30
0
0
VERTEX
8
0
10
81.86751875
20
44.601178125000004
30
0
0
VERTEX
8
0
10
81.852646875
20
44.536021875
30
0
0
VERTEX
8
0
10
81.83057500000001
20
44.47294375
30
0
0
VERTEX
8
0
10
81.801578125
20
44.412734375
30
0
0
VERTEX
8
0
10
81.766021875
20
44.356146875
30
0
0
VERTEX
8
0
10
81.72435625
20
44.3039
30
0
0
VERTEX
8
0
10
81.67710000000001
20
44.25664375
30
0
0
VERTEX
8
0
10
81.624853125
20
44.214978125
30
0
0
VERTEX
8
0
10
81.56826562500001
20
44.179421875
30
0
0
VERTEX
8
0
10
81.50805625000001
20
44.150425000000006
30
0
0
VERTEX
8
0
10
81.444978125
20
44.128353125000004
30
0
0
VERTEX
8
0
10
81.379821875
20
44.11348125
30
0
0
VERTEX
8
0
10
81.313415625
20
44.106
30
0
0
VERTEX
8
0
10
81.246584375
20
44.106
30
0
0
VERTEX
8
0
10
81.180178125
20
44.11348125
30
0
0
VERTEX
8
0
10
81.11502187500001
20
44.128353125000004
30
0
0
VERTEX
8
0
10
81.05194375
20
44.150425000000006
30
0
0
VERTEX
8
0
10
80.99173437500001
20
44.179421875
30
0
0
VERTEX
8
0
10
80.935146875
20
44.214978125
30
0
0
VERTEX
8
0
10
80.8829
20
44.25664375
30
0
0
VERTEX
8
0
10
80.83564375
20
44.3039
30
0
0
VERTEX
8
0
10
80.79397812500001
20
44.356146875
30
0
0
VERTEX
8
0
10
80.75842187500001
20
44.412734375
30
0
0
VERTEX
8
0
10
80.729425
20
44.47294375
30
0
0
VERTEX
8
0
10
80.707353125
20
44.536021875
30
0
0
VERTEX
8
0
10
80.69248125
20
44.601178125000004
30
0
0
VERTEX
8
0
10
80.685
20
44.667584375000004
30
0
0
VERTEX
8
0
10
80.685
20
44.734415625000004
30
0
0
VERTEX
8
0
10
80.69248125
20
44.800821875000004
30
0
0
VERTEX
8
0
10
80.707353125
20
44.865978125000005
30
0
0
VERTEX
8
0
10
80.729425
20
44.92905625
30
0
0
VERTEX
8
0
10
80.75842187500001
20
44.989265625
30
0
0
VERTEX
8
0
10
80.79397812500001
20
45.045853125
30
0
0
VERTEX
8
0
10
80.83564375
20
45.0981
30
0
0
VERTEX
8
0
10
80.8829
20
45.14535625
30
0
0
VERTEX
8
0
10
80.935146875
20
45.187021875
30
0
0
VERTEX
8
0
10
80.99173437500001
20
45.222578125000005
30
0
0
VERTEX
8
0
10
81.05194375
20
45.251575
30
0
0
VERTEX
8
0
10
81.11502187500001
20
45.273646875000004
30
0
0
VERTEX
8
0
10
81.180178125
20
45.28851875
30
0
0
VERTEX
8
0
10
81.246584375
20
45.296
30
0
0
VERTEX
8
0
10
81.313415625
20
45.296
30
0
0
VERTEX
8
0
10
81.379821875
20
45.28851875
30
0
0
VERTEX
8
0
10
81.444978125
20
45.273646875000004
30
0
0
VERTEX
8
0
10
81.50805625000001
20
45.251575
30
0
0
VERTEX
8
0
10
81.56826562500001
20
45.222578125000005
30
0
0
VERTEX
8
0
10
81.624853125
20
45.187021875
30
0
0
VERTEX
8
0
10
81.67710000000001
20
45.14535625
30
0
0
VERTEX
8
0
10
81.72435625
20
45.0981
30
0
0
VERTEX
8
0
10
81.766021875
20
45.045853125
30
0
0
VERTEX
8
0
10
81.801578125
20
44.989265625
30
0
0
VERTEX
8
0
10
81.83057500000001
20
44.92905625
30
0
0
VERTEX
8
0
10
81.852646875
20
44.865978125000005
30
0
0
VERTEX
8
0
10
81.86751875
20
44.800821875000004
30
0
0
VERTEX
8
0
10
81.875
20
44.734415625000004
30
0
0
VERTEX
8
0
10
81.875
20
44.667584375000004
30
0
0
SEQEND
0
POLYLINE
66
1
8
holes
10
0.0
20
0.0
30
0.0
70
1
0
VERTEX
8
0
10
33.695
20
43.213415625
30
0
0
VERTEX
8
0
10
33.70248125
20
43.279821875
30
0
0
VERTEX
8
0
10
33.717353125
20
43.344978125000004
30
0
0
VERTEX
8
0
10
33.739425000000004
20
43.40805625
30
0
0
VERTEX
8
0
10
33.768421875
20
43.468265625
30
0
0
VERTEX
8
0
10
33.803978125
20
43.524853125
30
0
0
VERTEX
8
0
10
33.84564375
20
43.5771
30
0
0
VERTEX
8
0
10
33.892900000000004
20
43.624356250000005
30
0
0
VERTEX
8
0
10
33.945146875
20
43.666021875000006
30
0
0
VERTEX
8
0
10
34.001734375000005
20
43.701578125000005
30
0
0
VERTEX
8
0
10
34.061943750000005
20
43.730575
30
0
0
VERTEX
8
0
10
34.125021875
20
43.752646875
30
0
0
VERTEX
8
0
10
34.190178125
20
43.76751875
30
0
0
VERTEX
8
0
10
34.256584375
20
43.775
30
0
0
VERTEX
8
0
10
34.323415625
20
43.775
30
0
0
VERTEX
8
0
10
34.389821875
20
43.76751875
30
0
0
VERTEX
8
0
10
34.454978125000004
20
43.752646875
30
0
0
VERTEX
8
0
10
34.51805625
20
43.730575
30
0
0
VERTEX
8
0
10
34.578265625
20
43.701578125000005
30
0
0
VERTEX
8
0
10
34.634853125
20
43.666021875000006
30
0
0
VERTEX
8
0
10
34.6871
20
43.624356250000005
30
0
0
VERTEX
8
0
10
34.734356250000005
20
43.5771
30
0
0
VERTEX
8
0
10
34.776021875000005
20
43.524853125
30
0
0
VERTEX
8
0
10
34.811578125000004
20
43.468265625
30
0
0
VERTEX
8
0
10
34.840575
20
43.40805625
30
0
0
VERTEX
8
0
10
34.862646875
20
43.344978125000004
30
0
0
VERTEX
8
0
10
34.87751875
20
43.279821875
30
0
0
VERTEX
8
0
10
34.885000000000005
20
43.213415625
30
0
0
VERTEX
8
0
10
34.885000000000005
20
43.146584375
30
0
0
VERTEX
8
0
10
34.87751875
20
43.080178125
30
0
0
VERTEX
8
0
10
34.862646875
20
43.015021875
30
0
0
VERTEX
8
0
10
34.840575
20
42.951943750000005
30
0
0
VERTEX
8
0
10
34.811578125000004
20
42.891734375
30
0
0
VERTEX
8
0
10
34.776021875000005
20
42.835146875
30
0
0
VERTEX
8
0
10
34.734356250000005
20
42.782900000000005
30
0
0
VERTEX
8
0
10
34.6871
20
42.73564375
30
0
0
VERTEX
8
0
10
34.634853125
20
42.693978125
30
0
0
VERTEX
8
0
10
34.578265625
20
42.658421875
30
0
0
VERTEX
8
0
10
34.51805625
20
42.629425000000005
30
0
0
VERTEX
8
0
10
34.454978125000004
20
42.607353125
30
0
0
VERTEX
8
0
10
34.389821875
20
42.59248125
30
0
0
VERTEX
8
0
10
34.323415625
20
42.585
30
0
0
VERTEX
8
0
10
34.256584375
20
42.585
30
0
0
VERTEX
8
0
10
34.190178125
20
42.59248125
30
0
0
VERTEX
8
0
10
34.125021875
20
42.607353125
30
0
0
VERTEX
8
0
10
34.061943750000005
20
42.629425000000005
30
0
0
VERTEX
8
0
10
34.001734375000005
20
42.658421875
30
0
0
VERTEX
8
0
10
33.945146875
20
42.693978125
30
0
0
VERTEX
8
0
10
33.892900000000004
20
42.73564375
30
0
0
VERTEX
8
0
10
33.84564375
20
42.782900000000005
30
0
0
VERTEX
8
0
10
33.803978125
20
42.835146875
30
0
0
VERTEX
8
0
10
33.768421875
20
42.891734375
30
0
0
VERTEX
8
0
10
33.739425000000004
20
42.951943750000005
30
0
0
VERTEX
8
0
10
33.717353125
20
43.015021875
30
0
0
VERTEX
8
0
10
33.70248125
20
43.080178125
30
0
0
VERTEX
8
0
10
33.695
20
43.146584375
30
0
0
VERTEX
8
0
10
33.695
20
43.213415625
30
0
0
SEQEND
0
POLYLINE
66
1
8
holes
10
0.0
20
0.0
30
0.0
70
1
0
VERTEX
8
0
10
31.155
20
43.213415625
30
0
0
VERTEX
8
0
10
31.162481250000003
20
43.279821875
30
0
0
VERTEX
8
0
10
31.177353125
20
43.344978125000004
30
0
0
VERTEX
8
0
10
31.199425
20
43.40805625
30
0
0
VERTEX
8
0
10
31.228421875000002
20
43.468265625
30
0
0
VERTEX
8
0
10
31.263978125
20
43.524853125
30
0
0
VERTEX
8
0
10
31.30564375
20
43.5771
30
0
0
VERTEX
8
0
10
31.3529
20
43.624356250000005
30
0
0
VERTEX
8
0
10
31.405146875
20
43.666021875000006
30
0
0
VERTEX
8
0
10
31.461734375000002
20
43.701578125000005
30
0
0
VERTEX
8
0
10
31.521943750000002
20
43.730575
30
0
0
VERTEX
8
0
10
31.585021875000002
20
43.752646875
30
0
0
VERTEX
8
0
10
31.650178125
20
43.76751875
30
0
0
VERTEX
8
0
10
31.716584375
20
43.775
30
0
0
VERTEX
8
0
10
31.783415625
20
43.775
30
0
0
VERTEX
8
0
10
31.849821875
20
43.76751875
30
0
0
VERTEX
8
0
10
31.914978125
20
43.752646875
30
0
0
VERTEX
8
0
10
31.97805625
20
43.730575
30
0
0
VERTEX
8
0
10
32.038265625
20
43.701578125000005
30
0
0
VERTEX
8
0
10
32.094853125
20
43.666021875000006
30
0
0
VERTEX
8
0
10
32.1471
20
43.624356250000005
30
0
0
VERTEX
8
0
10
32.19435625
20
43.5771
30
0
0
VERTEX
8
0
10
32.236021875
20
43.524853125
30
0
0
VERTEX
8
0
10
32.271578125000005
20
43.468265625
30
0
0
VERTEX
8
0
10
32.300575
20
43.40805625
30
0
0
VERTEX
8
0
10
32.322646875000004
20
43.344978125000004
30
0
0
VERTEX
8
0
10
32.33751875
20
43.279821875
30
0
0
VERTEX
8
0
10
32.345
20
43.213415625
30
0
0
VERTEX
8
0
10
32.345
20
43.146584375
30
0
0
VERTEX
8
0
10
32.33751875
20
43.080178125
30
0
0
VERTEX
8
0
10
32.322646875000004
20
43.015021875
30
0
0
VERTEX
8
0
10
32.300575
20
42.951943750000005
30
0
0
VERTEX
8
0
10
32.271578125000005
20
42.891734375
30
0
0
VERTEX
8
0
10
32.236021875
20
42.835146875
30
0
0
VERTEX
8
0
10
32.19435625
20
42.782900000000005
30
0
0
VERTEX
8
0
10
32.1471
20
42.73564375
30
0
0
VERTEX
8
0
10
32.094853125
20
42.693978125
30
0
0
VERTEX
8
0
10
32.038265625
20
42.658421875
30
0
0
VERTEX
8
0
10
31.97805625
20
42.629425000000005
30
0
0
VERTEX
8
0
10
31.914978125
20
42.607353125
30
0
0
VERTEX
8
0
10
31.849821875
20
42.59248125
30
0
0
VERTEX
8
0
10
31.783415625
20
42.585
30
0
0
VERTEX
8
0
10
31.716584375
20
42.585
30
0
0
VERTEX
8
0
10
31.650178125
20
42.59248125
30
0
0
VERTEX
8
0
10
31.585021875000002
20
42.607353125
30
0
0
VERTEX
8
0
10
31.521943750000002
20
42.629425000000005
30
0
0
VERTEX
8
0
10
31.461734375000002
20
42.658421875
30
0
0
VERTEX
8
0
10
31.405146875
20
42.693978125
30
0
0
VERTEX
8
0
10
31.3529
20
42.73564375
30
0
0
VERTEX
8
0
10
31.30564375
20
42.782900000000005
30
0
0
VERTEX
8
0
10
31.263978125
20
42.835146875
30
0
0
VERTEX
8
0
10
31.228421875000002
20
42.891734375
30
0
0
VERTEX
8
0
10
31.199425
20
42.951943750000005
30
0
0
VERTEX
8
0
10
31.177353125
20
43.015021875
30
0
0
VERTEX
8
0
10
31.162481250000003
20
43.080178125
30
0
0
VERTEX
8
0
10
31.155
20
43.146584375
30
0
0
VERTEX
8
0
10
31.155
20
43.213415625
30
0
0
SEQEND
0
POLYLINE
66
1
8
holes
10
0.0
20
0.0
30
0.0
70
1
0
VERTEX
8
0
10
33.695
20
25.433415625000002
30
0
0
VERTEX
8
0
10
33.70248125
20
25.499821875000002
30
0
0
VERTEX
8
0
10
33.717353125
20
25.564978125
30
0
0
VERTEX
8
0
10
33.739425000000004
20
25.62805625
30
0
0
VERTEX
8
0
10
33.768421875
20
25.688265625
30
0
0
VERTEX
8
0
10
33.803978125
20
25.744853125000002
30
0
0
VERTEX
8
0
10
33.84564375
20
25.7971
30
0
0
VERTEX
8
0
10
33.892900000000004
20
25.84435625
30
0
0
VERTEX
8
0
10
33.945146875
20
25.886021875
30
0
0
VERTEX
8
0
10
34.001734375000005
20
25.921578125
30
0
0
VERTEX
8
0
10
34.061943750000005
20
25.950575
30
0
0
VERTEX
8
0
10
34.125021875
20
25.972646875000002
30
0
0
VERTEX
8
0
10
34.190178125
20
25.98751875
30
0
0
VERTEX
8
0
10
34.256584375
20
25.995
30
0
0
VERTEX
8
0
10
34.323415625
20
25.995
30
0
0
VERTEX
8
0
10
34.389821875
20
25.98751875
30
0
0
VERTEX
8
0
10
34.454978125000004
20
25.972646875000002
30
0
0
VERTEX
8
0
10
34.51805625
20
25.950575
30
0
0
VERTEX
8
0
10
34.578265625
20
25.921578125
30
0
0
VERTEX
8
0
10
34.634853125
20
25.886021875
30
0
0
VERTEX
8
0
10
34.6871
20
25.84435625
30
0
0
VERTEX
8
0
10
34.734356250000005
20
25.7971
30
0
0
VERTEX
8
0
10
34.776021875000005
20
25.744853125000002
30
0
0
VERTEX
8
0
10
34.811578125000004
20
25.688265625
30
0
0
VERTEX
8
0
10
34.840575
20
25.62805625
30
0
0
VERTEX
8
0
10
34.862646875
20
25.564978125
30
0
0
VERTEX
8
0
10
34.87751875
20
25.499821875000002
30
0
0
VERTEX
8
0
10
34.885000000000005
20
25.433415625000002
30
0
0
VERTEX
8
0
10
34.885000000000005
20
25.366584375000002
30
0
0
VERTEX
8
0
10
34.87751875
20
25.300178125000002
30
0
0
VERTEX
8
0
10
34.862646875
20
25.235021875
30
0
0
VERTEX
8
0
10
34.840575
20
25.17194375
30
0
0
VERTEX
8
0
10
34.811578125000004
20
25.111734375
30
0
0
VERTEX
8
0
10
34.776021875000005
20
25.055146875000002
30
0
0
VERTEX
8
0
10
34.734356250000005
20
25.0029
30
0
0
VERTEX
8
0
10
34.6871
20
24.95564375
30
0
0
VERTEX
8
0
10
34.634853125
20
24.913978125
30
0
0
VERTEX
8
0
10
34.578265625
20
24.878421875
30
0
0
VERTEX
8
0
10
34.51805625
20
24.849425
30
0
0
VERTEX
8
0
10
34.454978125000004
20
24.827353125000002
30
0
0
VERTEX
8
0
10
34.389821875
20
24.81248125
30
0
0
VERTEX
8
0
10
34.323415625
20
24.805
30
0
0
VERTEX
8
0
10
34.256584375
20
24.805
30
0
0
VERTEX
8
0
10
34.190178125
20
24.81248125
30
0
0
VERTEX
8
0
10
34.125021875
20
24.827353125000002
30
0
0
VERTEX
8
0
10
34.061943750000005
20
24.849425
30
0
0
VERTEX
8
0
10
34.001734375000005
20
24.878421875
30
0
0
VERTEX
8
0
10
33.945146875
20
24.913978125
30
0
0
VERTEX
8
0
10
33.892900000000004
20
24.95564375
30
0
0
VERTEX
8
0
10
33.84564375
20
25.0029
30
0
0
VERTEX
8
0
10
33.803978125
20
25.055146875000002
30
0
0
VERTEX
8
0
10
33.768421875
20
25.111734375
30
0
0
VERTEX
8
0
10
33.739425000000004
20
25.17194375
30
0
0
VERTEX
8
0
10
33.717353125
20
25.235021875
30
0
0
VERTEX
8
0
10
33.70248125
20
25.300178125000002
30
0
0
VERTEX
8
0
10
33.695
20
25.366584375000002
30
0
0
VERTEX
8
0
10
33.695
20
25.433415625000002
30
0
0
SEQEND
0
POLYLINE
66
1
8
holes
10
0.0
20
0.0
30
0.0
70
1
0
VERTEX
8
0
10
31.155
20
25.433415625000002
30
0
0
VERTEX
8
0
10
31.162481250000003
20
25.499821875000002
30
0
0
VERTEX
8
0
10
31.177353125
20
25.564978125
30
0
0
VERTEX
8
0
10
31.199425
20
25.62805625
30
0
0
VERTEX
8
0
10
31.228421875000002
20
25.688265625
30
0
0
VERTEX
8
0
10
31.263978125
20
25.744853125000002
30
0
0
VERTEX
8
0
10
31.30564375
20
25.7971
30
0
0
VERTEX
8
0
10
31.3529
20
25.84435625
30
0
0
VERTEX
8
0
10
31.405146875
20
25.886021875
30
0
0
VERTEX
8
0
10
31.461734375000002
20
25.921578125
30
0
0
VERTEX
8
0
10
31.521943750000002
20
25.950575
30
0
0
VERTEX
8
0
10
31.585021875000002
20
25.972646875000002
30
0
0
VERTEX
8
0
10
31.650178125
20
25.98751875
30
0
0
VERTEX
8
0
10
31.716584375
20
25.995
30
0
0
VERTEX
8
0
10
31.783415625
20
25.995
30
0
0
VERTEX
8
0
10
31.849821875
20
25.98751875
30
0
0
VERTEX
8
0
10
31.914978125
20
25.972646875000002
30
0
0
VERTEX
8
0
10
31.97805625
20
25.950575
30
0
0
VERTEX
8
0
10
32.038265625
20
25.921578125
30
0
0
VERTEX
8
0
10
32.094853125
20
25.886021875
30
0
0
VERTEX
8
0
10
32.1471
20
25.84435625
30
0
0
VERTEX
8
0
10
32.19435625
20
25.7971
30
0
0
VERTEX
8
0
10
32.236021875
20
25.744853125000002
30
0
0
VERTEX
8
0
10
32.271578125000005
20
25.688265625
30
0
0
VERTEX
8
0
10
32.300575
20
25.62805625
30
0
0
VERTEX
8
0
10
32.322646875000004
20
25.564978125
30
0
0
VERTEX
8
0
10
32.33751875
20
25.499821875000002
30
0
0
VERTEX
8
0
10
32.345
20
25.433415625000002
30
0
0
VERTEX
8
0
10
32.345
20
25.366584375000002
30
0
0
VERTEX
8
0
10
32.33751875
20
25.300178125000002
30
0
0
VERTEX
8
0
10
32.322646875000004
20
25.235021875
30
0
0
VERTEX
8
0
10
32.300575
20
25.17194375
30
0
0
VERTEX
8
0
10
32.271578125000005
20
25.111734375
30
0
0
VERTEX
8
0
10
32.236021875
20
25.055146875000002
30
0
0
VERTEX
8
0
10
32.19435625
20
25.0029
30
0
0
VERTEX
8
0
10
32.1471
20
24.95564375
30
0
0
VERTEX
8
0
10
32.094853125
20
24.913978125
30
0
0
VERTEX
8
0
10
32.038265625
20
24.878421875
30
0
0
VERTEX
8
0
10
31.97805625
20
24.849425
30
0
0
VERTEX
8
0
10
31.914978125
20
24.827353125000002
30
0
0
VERTEX
8
0
10
31.849821875
20
24.81248125
30
0
0
VERTEX
8
0
10
31.783415625
20
24.805
30
0
0
VERTEX
8
0
10
31.716584375
20
24.805
30
0
0
VERTEX
8
0
10
31.650178125
20
24.81248125
30
0
0
VERTEX
8
0
10
31.585021875000002
20
24.827353125000002
30
0
0
VERTEX
8
0
10
31.521943750000002
20
24.849425
30
0
0
VERTEX
8
0
10
31.461734375000002
20
24.878421875
30
0
0
VERTEX
8
0
10
31.405146875
20
24.913978125
30
0
0
VERTEX
8
0
10
31.3529
20
24.95564375
30
0
0
VERTEX
8
0
10
31.30564375
20
25.0029
30
0
0
VERTEX
8
0
10
31.263978125
20
25.055146875000002
30
0
0
VERTEX
8
0
10
31.228421875000002
20
25.111734375
30
0
0
VERTEX
8
0
10
31.199425
20
25.17194375
30
0
0
VERTEX
8
0
10
31.177353125
20
25.235021875
30
0
0
VERTEX
8
0
10
31.162481250000003
20
25.300178125000002
30
0
0
VERTEX
8
0
10
31.155
20
25.366584375000002
30
0
0
VERTEX
8
0
10
31.155
20
25.433415625000002
30
0
0
SEQEND
0
POLYLINE
66
1
8
holes
10
0.0
20
0.0
30
0.0
70
1
0
VERTEX
8
0
10
33.695
20
60.993415625000004
30
0
0
VERTEX
8
0
10
33.70248125
20
61.059821875000004
30
0
0
VERTEX
8
0
10
33.717353125
20
61.124978125000005
30
0
0
VERTEX
8
0
10
33.739425000000004
20
61.18805625
30
0
0
VERTEX
8
0
10
33.768421875
20
61.248265625
30
0
0
VERTEX
8
0
10
33.803978125
20
61.304853125
30
0
0
VERTEX
8
0
10
33.84564375
20
61.3571
30
0
0
VERTEX
8
0
10
33.892900000000004
20
61.404356250000006
30
0
0
VERTEX
8
0
10
33.945146875
20
61.446021875
30
0
0
VERTEX
8
0
10
34.001734375000005
20
61.481578125000006
30
0
0
VERTEX
8
0
10
34.061943750000005
20
61.510575
30
0
0
VERTEX
8
0
10
34.125021875
20
61.532646875000005
30
0
0
VERTEX
8
0
10
34.190178125
20
61.54751875
30
0
0
VERTEX
8
0
10
34.256584375
20
61.555
30
0
0
VERTEX
8
0
10
34.323415625
20
61.555
30
0
0
VERTEX
8
0
10
34.389821875
20
61.54751875
30
0
0
VERTEX
8
0
10
34.454978125000004
20
61.532646875000005
30
0
0
VERTEX
8
0
10
34.51805625
20
61.510575
30
0
0
VERTEX
8
0
10
34.578265625
20
61.481578125000006
30
0
0
VERTEX
8
0
10
34.634853125
20
61.446021875
30
0
0
VERTEX
8
0
10
34.6871
20
61.404356250000006
30
0
0
VERTEX
8
0
10
34.734356250000005
20
61.3571
30
0
0
VERTEX
8
0
10
34.776021875000005
20
61.304853125
30
0
0
VERTEX
8
0
10
34.811578125000004
20
61.248265625
30
0
0
VERTEX
8
0
10
34.840575
20
61.18805625
30
0
0
VERTEX
8
0
10
34.862646875
20
61.124978125000005
30
0
0
VERTEX
8
0
10
34.87751875
20
61.059821875000004
30
0
0
VERTEX
8
0
10
34.885000000000005
20
60.993415625000004
30
0
0
VERTEX
8
0
10
34.885000000000005
20
60.926584375000004
30
0
0
VERTEX
8
0
10
34.87751875
20
60.860178125000004
30
0
0
VERTEX
8
0
10
34.862646875
20
60.795021875
30
0
0
VERTEX
8
0
10
34.840575
20
60.731943750000006
30
0
0
VERTEX
8
0
10
34.811578125000004
20
60.671734375
30
0
0
VERTEX
8
0
10
34.776021875000005
20
60.615146875
30
0
0
VERTEX
8
0
10
34.734356250000005
20
60.562900000000006
30
0
0
VERTEX
8
0
10
34.6871
20
60.51564375
30
0
0
VERTEX
8
0
10
34.634853125
20
60.473978125
30
0
0
VERTEX
8
0
10
34.578265625
20
60.438421875
30
0
0
VERTEX
8
0
10
34.51805625
20
60.409425000000006
30
0
0
VERTEX
8
0
10
34.454978125000004
20
60.387353125000004
30
0
0
VERTEX
8
0
10
34.389821875
20
60.37248125
30
0
0
VERTEX
8
0
10
34.323415625
20
60.365
30
0
0
VERTEX
8
0
10
34.256584375
20
60.365
30
0
0
VERTEX
8
0
10
34.190178125
20
60.37248125
30
0
0
VERTEX
8
0
10
34.125021875
20
60.387353125000004
30
0
0
VERTEX
8
0
10
34.061943750000005
20
60.409425000000006
30
0
0
VERTEX
8
0
10
34.001734375000005
20
60.438421875
30
0
0
VERTEX
8
0
10
33.945146875
20
60.473978125
30
0
0
VERTEX
8
0
10
33.892900000000004
20
60.51564375
30
0
0
VERTEX
8
0
10
33.84564375
20
60.562900000000006
30
0
0
VERTEX
8
0
10
33.803978125
20
60.615146875
30
0
0
VERTEX
8
0
10
33.768421875
20
60.671734375
30
0
0
VERTEX
8
0
10
33.739425000000004
20
60.731943750000006
30
0
0
VERTEX
8
0
10
33.717353125
20
60.795021875
30
0
0
VERTEX
8
0
10
33.70248125
20
60.860178125000004
30
0
0
VERTEX
8
0
10
33.695
20
60.926584375000004
30
0
0
VERTEX
8
0
10
33.695
20
60.993415625000004
30
0
0
SEQEND
0
POLYLINE
66
1
8
holes
10
0.0
20
0.0
30
0.0
70
1
0
VERTEX
8
0
10
31.155
20
60.993415625000004
30
0
0
VERTEX
8
0
10
31.162481250000003
20
61.059821875000004
30
0
0
VERTEX
8
0
10
31.177353125
20
61.124978125000005
30
0
0
VERTEX
8
0
10
31.199425
20
61.18805625
30
0
0
VERTEX
8
0
10
31.228421875000002
20
61.248265625
30
0
0
VERTEX
8
0
10
31.263978125
20
61.304853125
30
0
0
VERTEX
8
0
10
31.30564375
20
61.3571
30
0
0
VERTEX
8
0
10
31.3529
20
61.404356250000006
30
0
0
VERTEX
8
0
10
31.405146875
20
61.446021875
30
0
0
VERTEX
8
0
10
31.461734375000002
20
61.481578125000006
30
0
0
VERTEX
8
0
10
31.521943750000002
20
61.510575
30
0
0
VERTEX
8
0
10
31.585021875000002
20
61.532646875000005
30
0
0
VERTEX
8
0
10
31.650178125
20
61.54751875
30
0
0
VERTEX
8
0
10
31.716584375
20
61.555
30
0
0
VERTEX
8
0
10
31.783415625
20
61.555
30
0
0
VERTEX
8
0
10
31.849821875
20
61.54751875
30
0
0
VERTEX
8
0
10
31.914978125
20
61.532646875000005
30
0
0
VERTEX
8
0
10
31.97805625
20
61.510575
30
0
0
VERTEX
8
0
10
32.038265625
20
61.481578125000006
30
0
0
VERTEX
8
0
10
32.094853125
20
61.446021875
30
0
0
VERTEX
8
0
10
32.1471
20
61.404356250000006
30
0
0
VERTEX
8
0
10
32.19435625
20
61.3571
30
0
0
VERTEX
8
0
10
32.236021875
20
61.304853125
30
0
0
VERTEX
8
0
10
32.271578125000005
20
61.248265625
30
0
0
VERTEX
8
0
10
32.300575
20
61.18805625
30
0
0
VERTEX
8
0
10
32.322646875000004
20
61.124978125000005
30
0
0
VERTEX
8
0
10
32.33751875
20
61.059821875000004
30
0
0
VERTEX
8
0
10
32.345
20
60.993415625000004
30
0
0
VERTEX
8
0
10
32.345
20
60.926584375000004
30
0
0
VERTEX
8
0
10
32.33751875
20
60.860178125000004
30
0
0
VERTEX
8
0
10
32.322646875000004
20
60.795021875
30
0
0
VERTEX
8
0
10
32.300575
20
60.731943750000006
30
0
0
VERTEX
8
0
10
32.271578125000005
20
60.671734375
30
0
0
VERTEX
8
0
10
32.236021875
20
60.615146875
30
0
0
VERTEX
8
0
10
32.19435625
20
60.562900000000006
30
0
0
VERTEX
8
0
10
32.1471
20
60.51564375
30
0
0
VERTEX
8
0
10
32.094853125
20
60.473978125
30
0
0
VERTEX
8
0
10
32.038265625
20
60.438421875
30
0
0
VERTEX
8
0
10
31.97805625
20
60.409425000000006
30
0
0
VERTEX
8
0
10
31.914978125
20
60.387353125000004
30
0
0
VERTEX
8
0
10
31.849821875
20
60.37248125
30
0
0
VERTEX
8
0
10
31.783415625
20
60.365
30
0
0
VERTEX
8
0
10
31.716584375
20
60.365
30
0
0
VERTEX
8
0
10
31.650178125
20
60.37248125
30
0
0
VERTEX
8
0
10
31.585021875000002
20
60.387353125000004
30
0
0
VERTEX
8
0
10
31.521943750000002
20
60.409425000000006
30
0
0
VERTEX
8
0
10
31.461734375000002
20
60.438421875
30
0
0
VERTEX
8
0
10
31.405146875
20
60.473978125
30
0
0
VERTEX
8
0
10
31.3529
20
60.51564375
30
0
0
VERTEX
8
0
10
31.30564375
20
60.562900000000006
30
0
0
VERTEX
8
0
10
31.263978125
20
60.615146875
30
0
0
VERTEX
8
0
10
31.228421875000002
20
60.671734375
30
0
0
VERTEX
8
0
10
31.199425
20
60.731943750000006
30
0
0
VERTEX
8
0
10
31.177353125
20
60.795021875
30
0
0
VERTEX
8
0
10
31.162481250000003
20
60.860178125000004
30
0
0
VERTEX
8
0
10
31.155
20
60.926584375000004
30
0
0
VERTEX
8
0
10
31.155
20
60.993415625000004
30
0
0
SEQEND
0
POLYLINE
66
1
8
holes
10
0.0
20
0.0
30
0.0
70
1
0
VERTEX
8
0
10
-5.755
20
7.586584375
30
0
0
VERTEX
8
0
10
-5.76248125
20
7.520178125
30
0
0
VERTEX
8
0
10
-5.777353125
20
7.455021875000001
30
0
0
VERTEX
8
0
10
-5.799425
20
7.39194375
30
0
0
VERTEX
8
0
10
-5.828421875
20
7.331734375
30
0
0
VERTEX
8
0
10
-5.863978125
20
7.275146875000001
30
0
0
VERTEX
8
0
10
-5.90564375
20
7.2229
30
0
0
VERTEX
8
0
10
-5.9529000000000005
20
7.175643750000001
30
0
0
VERTEX
8
0
10
-6.005146875
20
7.1339781250000005
30
0
0
VERTEX
8
0
10
-6.061734375
20
7.0984218750000005
30
0
0
VERTEX
8
0
10
-6.121943750000001
20
7.069425000000001
30
0
0
VERTEX
8
0
10
-6.185021875
20
7.047353125000001
30
0
0
VERTEX
8
0
10
-6.250178125000001
20
7.03248125
30
0
0
VERTEX
8
0
10
-6.316584375000001
20
7.025
30
0
0
VERTEX
8
0
10
-6.3834156250000005
20
7.025
30
0
0
VERTEX
8
0
10
-6.4498218750000005
20
7.03248125
30
0
0
VERTEX
8
0
10
-6.514978125000001
20
7.047353125000001
30
0
0
VERTEX
8
0
10
-6.57805625
20
7.069425000000001
30
0
0
VERTEX
8
0
10
-6.638265625000001
20
7.0984218750000005
30
0
0
VERTEX
8
0
10
-6.694853125000001
20
7.1339781250000005
30
0
0
VERTEX
8
0
10
-6.7471000000000005
20
7.175643750000001
30
0
0
VERTEX
8
0
10
-6.794356250000001
20
7.2229
30
0
0
VERTEX
8
0
10
-6.836021875
20
7.275146875000001
30
0
0
VERTEX
8
0
10
-6.871578125
20
7.331734375
30
0
0
VERTEX
8
0
10
-6.900575
20
7.39194375
30
0
0
VERTEX
8
0
10
-6.922646875000001
20
7.455021875000001
30
0
0
VERTEX
8
0
10
-6.937518750000001
20
7.520178125
30
0
0
VERTEX
8
0
10
-6.945
20
7.586584375
30
0
0
VERTEX
8
0
10
-6.945
20
7.653415625
30
0
0
VERTEX
8
0
10
-6.937518750000001
20
7.719821875
30
0
0
VERTEX
8
0
10
-6.922646875000001
20
7.784978125
30
0
0
VERTEX
8
0
10
-6.900575
20
7.84805625
30
0
0
VERTEX
8
0
10
-6.871578125
20
7.908265625
30
0
0
VERTEX
8
0
10
-6.836021875
20
7.964853125
30
0
0
VERTEX
8
0
10
-6.794356250000001
20
8.017100000000001
30
0
0
VERTEX
8
0
10
-6.7471000000000005
20
8.064356250000001
30
0
0
VERTEX
8
0
10
-6.694853125000001
20
8.106021875
30
0
0
VERTEX
8
0
10
-6.638265625000001
20
8.141578125
30
0
0
VERTEX
8
0
10
-6.57805625
20
8.170575000000001
30
0
0
VERTEX
8
0
10
-6.514978125000001
20
8.192646875000001
30
0
0
VERTEX
8
0
10
-6.4498218750000005
20
8.20751875
30
0
0
VERTEX
8
0
10
-6.3834156250000005
20
8.215
30
0
0
VERTEX
8
0
10
-6.316584375000001
20
8.215
30
0
0
VERTEX
8
0
10
-6.250178125000001
20
8.20751875
30
0
0
VERTEX
8
0
10
-6.185021875
20
8.192646875000001
30
0
0
VERTEX
8
0
10
-6.121943750000001
20
8.170575000000001
30
0
0
VERTEX
8
0
10
-6.061734375
20
8.141578125
30
0
0
VERTEX
8
0
10
-6.005146875
20
8.106021875
30
0
0
VERTEX
8
0
10
-5.9529000000000005
20
8.064356250000001
30
0
0
VERTEX
8
0
10
-5.90564375
20
8.017100000000001
30
0
0
VERTEX
8
0
10
-5.863978125
20
7.964853125
30
0
0
VERTEX
8
0
10
-5.828421875
20
7.908265625
30
0
0
VERTEX
8
0
10
-5.799425
20
7.84805625
30
0
0
VERTEX
8
0
10
-5.777353125
20
7.784978125
30
0
0
VERTEX
8
0
10
-5.76248125
20
7.719821875
30
0
0
VERTEX
8
0
10
-5.755
20
7.653415625
30
0
0
VERTEX
8
0
10
-5.755
20
7.586584375
30
0
0
SEQEND
0
POLYLINE
66
1
8
holes
10
0.0
20
0.0
30
0.0
70
1
0
VERTEX
8
0
10
-3.2150000000000003
20
7.586584375
30
0
0
VERTEX
8
0
10
-3.22248125
20
7.520178125
30
0
0
VERTEX
8
0
10
-3.2373531250000003
20
7.455021875000001
30
0
0
VERTEX
8
0
10
-3.2594250000000002
20
7.39194375
30
0
0
VERTEX
8
0
10
-3.288421875
20
7.331734375
30
0
0
VERTEX
8
0
10
-3.323978125
20
7.275146875000001
30
0
0
VERTEX
8
0
10
-3.3656437500000003
20
7.2229
30
0
0
VERTEX
8
0
10
-3.4129
20
7.175643750000001
30
0
0
VERTEX
8
0
10
-3.4651468750000003
20
7.1339781250000005
30
0
0
VERTEX
8
0
10
-3.5217343750000003
20
7.0984218750000005
30
0
0
VERTEX
8
0
10
-3.58194375
20
7.069425000000001
30
0
0
VERTEX
8
0
10
-3.6450218750000003
20
7.047353125000001
30
0
0
VERTEX
8
0
10
-3.710178125
20
7.03248125
30
0
0
VERTEX
8
0
10
-3.776584375
20
7.025
30
0
0
VERTEX
8
0
10
-3.843415625
20
7.025
30
0
0
VERTEX
8
0
10
-3.909821875
20
7.03248125
30
0
0
VERTEX
8
0
10
-3.9749781250000003
20
7.047353125000001
30
0
0
VERTEX
8
0
10
-4.03805625
20
7.069425000000001
30
0
0
VERTEX
8
0
10
-4.098265625
20
7.0984218750000005
30
0
0
VERTEX
8
0
10
-4.154853125
20
7.1339781250000005
30
0
0
VERTEX
8
0
10
-4.2071000000000005
20
7.175643750000001
30
0
0
VERTEX
8
0
10
-4.25435625
20
7.2229
30
0
0
VERTEX
8
0
10
-4.296021875
20
7.275146875000001
30
0
0
VERTEX
8
0
10
-4.331578125
20
7.331734375
30
0
0
VERTEX
8
0
10
-4.360575
20
7.39194375
30
0
0
VERTEX
8
0
10
-4.382646875
20
7.455021875000001
30
0
0
VERTEX
8
0
10
-4.397518750000001
20
7.520178125
30
0
0
VERTEX
8
0
10
-4.405
20
7.586584375
30
0
0
VERTEX
8
0
10
-4.405
20
7.653415625
30
0
0
VERTEX
8
0
10
-4.397518750000001
20
7.719821875
30
0
0
VERTEX
8
0
10
-4.382646875
20
7.784978125
30
0
0
VERTEX
8
0
10
-4.360575
20
7.84805625
30
0
0
VERTEX
8
0
10
-4.331578125
20
7.908265625
30
0
0
VERTEX
8
0
10
-4.296021875
20
7.964853125
30
0
0
VERTEX
8
0
10
-4.25435625
20
8.017100000000001
30
0
0
VERTEX
8
0
10
-4.2071000000000005
20
8.064356250000001
30
0
0
VERTEX
8
0
10
-4.154853125
20
8.106021875
30
0
0
VERTEX
8
0
10
-4.098265625
20
8.141578125
30
0
0
VERTEX
8
0
10
-4.03805625
20
8.170575000000001
30
0
0
VERTEX
8
0
10
-3.9749781250000003
20
8.192646875000001
30
0
0
VERTEX
8
0
10
-3.909821875
20
8.20751875
30
0
0
VERTEX
8
0
10
-3.843415625
20
8.215
30
0
0
VERTEX
8
0
10
-3.776584375
20
8.215
30
0
0
VERTEX
8
0
10
-3.710178125
20
8.20751875
30
0
0
VERTEX
8
0
10
-3.6450218750000003
20
8.192646875000001
30
0
0
VERTEX
8
0
10
-3.58194375
20
8.170575000000001
30
0
0
VERTEX
8
0
10
-3.5217343750000003
20
8.141578125
30
0
0
VERTEX
8
0
10
-3.4651468750000003
20
8.106021875
30
0
0
VERTEX
8
0
10
-3.4129
20
8.064356250000001
30
0
0
VERTEX
8
0
10
-3.3656437500000003
20
8.017100000000001
30
0
0
VERTEX
8
0
10
-3.323978125
20
7.964853125
30
0
0
VERTEX
8
0
10
-3.288421875
20
7.908265625
30
0
0
VERTEX
8
0
10
-3.2594250000000002
20
7.84805625
30
0
0
VERTEX
8
0
10
-3.2373531250000003
20
7.784978125
30
0
0
VERTEX
8
0
10
-3.22248125
20
7.719821875
30
0
0
VERTEX
8
0
10
-3.2150000000000003
20
7.653415625
30
0
0
VERTEX
8
0
10
-3.2150000000000003
20
7.586584375
30
0
0
SEQEND
0
POLYLINE
66
1
8
1_copper
10
0.0
20
0.0
30
0.0
70
1
0
VERTEX
8
0
10
56.515
20
66.04
30
0
0
VERTEX
8
0
10
55.245000000000005
20
66.04
30
0
0
VERTEX
8
0
10
55.245000000000005
20
63.5
30
0
0
VERTEX
8
0
10
56.515
20
63.5
30
0
0
SEQEND
0
POLYLINE
66
1
8
1_copper
10
0.0
20
0.0
30
0.0
70
1
0
VERTEX
8
0
10
66.675
20
66.04
30
0
0
VERTEX
8
0
10
65.405
20
66.04
30
0
0
VERTEX
8
0
10
65.405
20
63.5
30
0
0
VERTEX
8
0
10
66.675
20
63.5
30
0
0
SEQEND
0
POLYLINE
66
1
8
1_copper
10
0.0
20
0.0
30
0.0
70
1
0
VERTEX
8
0
10
61.595000000000006
20
22.86
30
0
0
VERTEX
8
0
10
60.325
20
22.86
30
0
0
VERTEX
8
0
10
60.325
20
20.32
30
0
0
VERTEX
8
0
10
61.595000000000006
20
20.32
30
0
0
SEQEND
0
POLYLINE
66
1
8
1_copper
10
0.0
20
0.0
30
0.0
70
1
0
VERTEX
8
0
10
51.435
20
22.86
30
0
0
VERTEX
8
0
10
50.165
20
22.86
30
0
0
VERTEX
8
0
10
50.165
20
20.32
30
0
0
VERTEX
8
0
10
51.435
20
20.32
30
0
0
SEQEND
0
POLYLINE
66
1
8
1_copper
10
0.0
20
0.0
30
0.0
70
1
0
VERTEX
8
0
10
-1.905
20
11.935
30
0
0
VERTEX
8
0
10
-3.1750000000000003
20
11.935
30
0
0
VERTEX
8
0
10
-3.1750000000000003
20
8.255
30
0
0
VERTEX
8
0
10
-1.905
20
8.255
30
0
0
SEQEND
0
POLYLINE
66
1
8
1_copper
10
0.0
20
0.0
30
0.0
70
1
0
VERTEX
8
0
10
-4.445
20
11.935
30
0
0
VERTEX
8
0
10
-5.715
20
11.935
30
0
0
VERTEX
8
0
10
-5.715
20
8.255
30
0
0
VERTEX
8
0
10
-4.445
20
8.255
30
0
0
SEQEND
0
POLYLINE
66
1
8
1_copper
10
0.0
20
0.0
30
0.0
70
1
0
VERTEX
8
0
10
-6.985
20
11.935
30
0
0
VERTEX
8
0
10
-8.255
20
11.935
30
0
0
VERTEX
8
0
10
-8.255
20
8.255
30
0
0
VERTEX
8
0
10
-6.985
20
8.255
30
0
0
SEQEND
0
POLYLINE
66
1
8
1_copper
10
0.0
20
0.0
30
0.0
70
1
0
VERTEX
8
0
10
-1.905
20
6.985
30
0
0
VERTEX
8
0
10
-3.1750000000000003
20
6.985
30
0
0
VERTEX
8
0
10
-3.1750000000000003
20
3.305
30
0
0
VERTEX
8
0
10
-1.905
20
3.305
30
0
0
SEQEND
0
POLYLINE
66
1
8
1_copper
10
0.0
20
0.0
30
0.0
70
1
0
VERTEX
8
0
10
-4.445
20
6.985
30
0
0
VERTEX
8
0
10
-5.715
20
6.985
30
0
0
VERTEX
8
0
10
-5.715
20
3.305
30
0
0
VERTEX
8
0
10
-4.445
20
3.305
30
0
0
SEQEND
0
POLYLINE
66
1
8
1_copper
10
0.0
20
0.0
30
0.0
70
1
0
VERTEX
8
0
10
-6.985
20
6.985
30
0
0
VERTEX
8
0
10
-8.255
20
6.985
30
0
0
VERTEX
8
0
10
-8.255
20
3.305
30
0
0
VERTEX
8
0
10
-6.985
20
3.305
30
0
0
SEQEND
0
POLYLINE
66
1
8
1_copper
10
0.0
20
0.0
30
0.0
70
1
0
VERTEX
8
0
10
55.245000000000005
20
20.32
30
0
0
VERTEX
8
0
10
56.515
20
20.32
30
0
0
VERTEX
8
0
10
56.515
20
22.86
30
0
0
VERTEX
8
0
10
55.499
20
22.86
30
0
0
VERTEX
8
0
10
55.499
20
33.995000000000005
30
0
0
VERTEX
8
0
10
55.512028125
20
33.995000000000005
30
0
0
VERTEX
8
0
10
55.540525
20
34.00066875
30
0
0
VERTEX
8
0
10
55.56736875
20
34.011787500000004
30
0
0
VERTEX
8
0
10
55.591525000000004
20
34.027928125
30
0
0
VERTEX
8
0
10
55.612071875000005
20
34.048475
30
0
0
VERTEX
8
0
10
55.628212500000004
20
34.07263125
30
0
0
VERTEX
8
0
10
55.639331250000005
20
34.099475
30
0
0
VERTEX
8
0
10
55.645
20
34.127971875
30
0
0
VERTEX
8
0
10
55.645
20
34.452028125
30
0
0
VERTEX
8
0
10
55.639331250000005
20
34.480525
30
0
0
VERTEX
8
0
10
55.628212500000004
20
34.507368750000005
30
0
0
VERTEX
8
0
10
55.612071875000005
20
34.531525
30
0
0
VERTEX
8
0
10
55.591525000000004
20
34.552071875
30
0
0
VERTEX
8
0
10
55.56736875
20
34.5682125
30
0
0
VERTEX
8
0
10
55.540525
20
34.57933125
30
0
0
VERTEX
8
0
10
55.512028125
20
34.585
30
0
0
VERTEX
8
0
10
53.827971875
20
34.585
30
0
0
VERTEX
8
0
10
53.799475
20
34.57933125
30
0
0
VERTEX
8
0
10
53.77263125
20
34.5682125
30
0
0
VERTEX
8
0
10
53.748475
20
34.552071875
30
0
0
VERTEX
8
0
10
53.727928125000005
20
34.531525
30
0
0
VERTEX
8
0
10
53.7117875
20
34.507368750000005
30
0
0
VERTEX
8
0
10
53.700668750000006
20
34.480525
30
0
0
VERTEX
8
0
10
53.695
20
34.452028125
30
0
0
VERTEX
8
0
10
53.695
20
34.127971875
30
0
0
VERTEX
8
0
10
53.700668750000006
20
34.099475
30
0
0
VERTEX
8
0
10
53.7117875
20
34.07263125
30
0
0
VERTEX
8
0
10
53.727928125000005
20
34.048475
30
0
0
VERTEX
8
0
10
53.748475
20
34.027928125
30
0
0
VERTEX
8
0
10
53.77263125
20
34.011787500000004
30
0
0
VERTEX
8
0
10
53.799475
20
34.00066875
30
0
0
VERTEX
8
0
10
53.827971875
20
33.995000000000005
30
0
0
VERTEX
8
0
10
54.991
20
33.995000000000005
30
0
0
VERTEX
8
0
10
54.991
20
22.205009375
30
0
0
VERTEX
8
0
10
54.997253125
20
22.165521875
30
0
0
VERTEX
8
0
10
55.009609375000004
20
22.127496875000002
30
0
0
VERTEX
8
0
10
55.027759375
20
22.091875
30
0
0
VERTEX
8
0
10
55.051259375
20
22.059531250000003
30
0
0
VERTEX
8
0
10
55.245000000000005
20
21.865790625000002
30
0
0
SEQEND
0
POLYLINE
66
1
8
1_copper
10
0.0
20
0.0
30
0.0
70
1
0
VERTEX
8
0
10
53.280521875000005
20
35.807746875
30
0
0
VERTEX
8
0
10
53.242496875
20
35.795390625
30
0
0
VERTEX
8
0
10
53.206875000000004
20
35.777240625000005
30
0
0
VERTEX
8
0
10
53.17453125
20
35.753740625
30
0
0
VERTEX
8
0
10
52.511259375
20
35.09046875
30
0
0
VERTEX
8
0
10
52.487759375
20
35.058125000000004
30
0
0
VERTEX
8
0
10
52.469609375000005
20
35.022503125
30
0
0
VERTEX
8
0
10
52.457253125
20
34.984478125
30
0
0
VERTEX
8
0
10
52.451
20
34.944990625
30
0
0
VERTEX
8
0
10
52.451
20
22.205009375
30
0
0
VERTEX
8
0
10
52.457253125
20
22.165521875
30
0
0
VERTEX
8
0
10
52.469609375000005
20
22.127496875000002
30
0
0
VERTEX
8
0
10
52.487759375
20
22.091875
30
0
0
VERTEX
8
0
10
52.511259375
20
22.059531250000003
30
0
0
VERTEX
8
0
10
52.705000000000005
20
21.865790625000002
30
0
0
VERTEX
8
0
10
52.705000000000005
20
20.32
30
0
0
VERTEX
8
0
10
53.975
20
20.32
30
0
0
VERTEX
8
0
10
53.975
20
22.86
30
0
0
VERTEX
8
0
10
52.959
20
22.86
30
0
0
VERTEX
8
0
10
52.959
20
34.819790625
30
0
0
VERTEX
8
0
10
53.445209375000005
20
35.306000000000004
30
0
0
VERTEX
8
0
10
53.740403125
20
35.306000000000004
30
0
0
VERTEX
8
0
10
53.748475
20
35.297928125
30
0
0
VERTEX
8
0
10
53.77263125
20
35.2817875
30
0
0
VERTEX
8
0
10
53.799475
20
35.27066875
30
0
0
VERTEX
8
0
10
53.827971875
20
35.265
30
0
0
VERTEX
8
0
10
55.512028125
20
35.265
30
0
0
VERTEX
8
0
10
55.540525
20
35.27066875
30
0
0
VERTEX
8
0
10
55.56736875
20
35.2817875
30
0
0
VERTEX
8
0
10
55.591525000000004
20
35.297928125
30
0
0
VERTEX
8
0
10
55.612071875000005
20
35.318475
30
0
0
VERTEX
8
0
10
55.628212500000004
20
35.342631250000004
30
0
0
VERTEX
8
0
10
55.639331250000005
20
35.369475
30
0
0
VERTEX
8
0
10
55.645
20
35.397971875
30
0
0
VERTEX
8
0
10
55.645
20
35.722028125
30
0
0
VERTEX
8
0
10
55.639331250000005
20
35.750525
30
0
0
VERTEX
8
0
10
55.628212500000004
20
35.77736875
30
0
0
VERTEX
8
0
10
55.612071875000005
20
35.801525000000005
30
0
0
VERTEX
8
0
10
55.591525000000004
20
35.822071875
30
0
0
VERTEX
8
0
10
55.56736875
20
35.838212500000004
30
0
0
VERTEX
8
0
10
55.540525
20
35.84933125
30
0
0
VERTEX
8
0
10
55.512028125
20
35.855000000000004
30
0
0
VERTEX
8
0
10
53.827971875
20
35.855000000000004
30
0
0
VERTEX
8
0
10
53.799475
20
35.84933125
30
0
0
VERTEX
8
0
10
53.77263125
20
35.838212500000004
30
0
0
VERTEX
8
0
10
53.748475
20
35.822071875
30
0
0
VERTEX
8
0
10
53.740403125
20
35.814
30
0
0
VERTEX
8
0
10
53.320009375000005
20
35.814
30
0
0
SEQEND
0
POLYLINE
66
1
8
1_copper
10
0.0
20
0.0
30
0.0
70
1
0
VERTEX
8
0
10
56.612503125
20
18.814609375
30
0
0
VERTEX
8
0
10
56.648125
20
18.832759375000002
30
0
0
VERTEX
8
0
10
56.68046875
20
18.856259375
30
0
0
VERTEX
8
0
10
58.144209375
20
20.32
30
0
0
VERTEX
8
0
10
59.055
20
20.32
30
0
0
VERTEX
8
0
10
59.055
20
22.86
30
0
0
VERTEX
8
0
10
58.144209375
20
22.86
30
0
0
VERTEX
8
0
10
56.769000000000005
20
24.235209375
30
0
0
VERTEX
8
0
10
56.769000000000005
20
31.496000000000002
30
0
0
VERTEX
8
0
10
78.12499062500001
20
31.496000000000002
30
0
0
VERTEX
8
0
10
78.164478125
20
31.502253125000003
30
0
0
VERTEX
8
0
10
78.202503125
20
31.514609375000003
30
0
0
VERTEX
8
0
10
78.23812500000001
20
31.532759375
30
0
0
VERTEX
8
0
10
78.27046875
20
31.556259375
30
0
0
VERTEX
8
0
10
85.918740625
20
39.20453125
30
0
0
VERTEX
8
0
10
85.94224062500001
20
39.236875000000005
30
0
0
VERTEX
8
0
10
85.960390625
20
39.272496875
30
0
0
VERTEX
8
0
10
85.972746875
20
39.310521875
30
0
0
VERTEX
8
0
10
85.979
20
39.350009375
30
0
0
VERTEX
8
0
10
85.979
20
49.549990625
30
0
0
VERTEX
8
0
10
85.972746875
20
49.589478125
30
0
0
VERTEX
8
0
10
85.960390625
20
49.627503125000004
30
0
0
VERTEX
8
0
10
85.94224062500001
20
49.663125
30
0
0
VERTEX
8
0
10
85.918740625
20
49.69546875
30
0
0
VERTEX
8
0
10
68.11046875000001
20
67.503740625
30
0
0
VERTEX
8
0
10
68.078125
20
67.527240625
30
0
0
VERTEX
8
0
10
68.04250312500001
20
67.54539062500001
30
0
0
VERTEX
8
0
10
68.004478125
20
67.557746875
30
0
0
VERTEX
8
0
10
67.964990625
20
67.56400000000001
30
0
0
VERTEX
8
0
10
33.000009375000005
20
67.56400000000001
30
0
0
VERTEX
8
0
10
32.960521875000005
20
67.557746875
30
0
0
VERTEX
8
0
10
32.922496875
20
67.54539062500001
30
0
0
VERTEX
8
0
10
32.886875
20
67.527240625
30
0
0
VERTEX
8
0
10
32.85453125
20
67.503740625
30
0
0
VERTEX
8
0
10
30.625790625
20
65.275
30
0
0
VERTEX
8
0
10
29.845000000000002
20
65.275
30
0
0
VERTEX
8
0
10
29.845000000000002
20
61.595000000000006
30
0
0
VERTEX
8
0
10
30.226000000000003
20
61.595000000000006
30
0
0
VERTEX
8
0
10
30.226000000000003
20
60.325
30
0
0
VERTEX
8
0
10
29.845000000000002
20
60.325
30
0
0
VERTEX
8
0
10
29.845000000000002
20
56.645
30
0
0
VERTEX
8
0
10
30.226000000000003
20
56.645
30
0
0
VERTEX
8
0
10
30.226000000000003
20
47.495000000000005
30
0
0
VERTEX
8
0
10
29.845000000000002
20
47.495000000000005
30
0
0
VERTEX
8
0
10
29.845000000000002
20
43.815000000000005
30
0
0
VERTEX
8
0
10
30.226000000000003
20
43.815000000000005
30
0
0
VERTEX
8
0
10
30.226000000000003
20
42.545
30
0
0
VERTEX
8
0
10
29.845000000000002
20
42.545
30
0
0
VERTEX
8
0
10
29.845000000000002
20
38.865
30
0
0
VERTEX
8
0
10
30.226000000000003
20
38.865
30
0
0
VERTEX
8
0
10
30.226000000000003
20
29.715
30
0
0
VERTEX
8
0
10
29.845000000000002
20
29.715
30
0
0
VERTEX
8
0
10
29.845000000000002
20
26.035
30
0
0
VERTEX
8
0
10
30.226000000000003
20
26.035
30
0
0
VERTEX
8
0
10
30.226000000000003
20
24.765
30
0
0
VERTEX
8
0
10
29.845000000000002
20
24.765
30
0
0
VERTEX
8
0
10
29.845000000000002
20
21.085
30
0
0
VERTEX
8
0
10
31.115000000000002
20
21.085
30
0
0
VERTEX
8
0
10
31.115000000000002
20
24.765
30
0
0
VERTEX
8
0
10
30.734
20
24.765
30
0
0
VERTEX
8
0
10
30.734
20
26.035
30
0
0
VERTEX
8
0
10
31.115000000000002
20
26.035
30
0
0
VERTEX
8
0
10
31.115000000000002
20
29.715
30
0
0
VERTEX
8
0
10
30.734
20
29.715
30
0
0
VERTEX
8
0
10
30.734
20
38.865
30
0
0
VERTEX
8
0
10
31.115000000000002
20
38.865
30
0
0
VERTEX
8
0
10
31.115000000000002
20
42.545
30
0
0
VERTEX
8
0
10
30.734
20
42.545
30
0
0
VERTEX
8
0
10
30.734
20
43.815000000000005
30
0
0
VERTEX
8
0
10
31.115000000000002
20
43.815000000000005
30
0
0
VERTEX
8
0
10
31.115000000000002
20
47.495000000000005
30
0
0
VERTEX
8
0
10
30.734
20
47.495000000000005
30
0
0
VERTEX
8
0
10
30.734
20
56.645
30
0
0
VERTEX
8
0
10
31.115000000000002
20
56.645
30
0
0
VERTEX
8
0
10
31.115000000000002
20
60.325
30
0
0
VERTEX
8
0
10
30.734
20
60.325
30
0
0
VERTEX
8
0
10
30.734
20
61.595000000000006
30
0
0
VERTEX
8
0
10
31.115000000000002
20
61.595000000000006
30
0
0
VERTEX
8
0
10
31.115000000000002
20
65.04579062500001
30
0
0
VERTEX
8
0
10
33.125209375000004
20
67.056
30
0
0
VERTEX
8
0
10
56.409790625
20
67.056
30
0
0
VERTEX
8
0
10
57.785000000000004
20
65.680790625
30
0
0
VERTEX
8
0
10
57.785000000000004
20
63.859209375000006
30
0
0
VERTEX
8
0
10
54.416259375
20
60.490468750000005
30
0
0
VERTEX
8
0
10
54.392759375000004
20
60.458125
30
0
0
VERTEX
8
0
10
54.374609375000006
20
60.422503125000006
30
0
0
VERTEX
8
0
10
54.362253125
20
60.384478125
30
0
0
VERTEX
8
0
10
54.356
20
60.344990625
30
0
0
VERTEX
8
0
10
54.356
20
58.050000000000004
30
0
0
VERTEX
8
0
10
53.68
20
58.050000000000004
30
0
0
VERTEX
8
0
10
53.68
20
56.25
30
0
0
VERTEX
8
0
10
55.28
20
56.25
30
0
0
VERTEX
8
0
10
55.28
20
58.050000000000004
30
0
0
VERTEX
8
0
10
54.864000000000004
20
58.050000000000004
30
0
0
VERTEX
8
0
10
54.864000000000004
20
60.219790625
30
0
0
VERTEX
8
0
10
55.88
20
61.235790625
30
0
0
VERTEX
8
0
10
62.06453125
20
55.051259375
30
0
0
VERTEX
8
0
10
62.096875000000004
20
55.027759375
30
0
0
VERTEX
8
0
10
62.132496875
20
55.009609375000004
30
0
0
VERTEX
8
0
10
62.170521875000006
20
54.997253125
30
0
0
VERTEX
8
0
10
62.210009375000006
20
54.991
30
0
0
VERTEX
8
0
10
75.459790625
20
54.991
30
0
0
VERTEX
8
0
10
81.915
20
48.535790625000004
30
0
0
VERTEX
8
0
10
81.915
20
45.336000000000006
30
0
0
VERTEX
8
0
10
82.296
20
45.336000000000006
30
0
0
VERTEX
8
0
10
82.296
20
44.066
30
0
0
VERTEX
8
0
10
81.915
20
44.066
30
0
0
VERTEX
8
0
10
81.915
20
40.386
30
0
0
VERTEX
8
0
10
83.185
20
40.386
30
0
0
VERTEX
8
0
10
83.185
20
44.066
30
0
0
VERTEX
8
0
10
82.804
20
44.066
30
0
0
VERTEX
8
0
10
82.804
20
45.336000000000006
30
0
0
VERTEX
8
0
10
83.185
20
45.336000000000006
30
0
0
VERTEX
8
0
10
83.185
20
49.016000000000005
30
0
0
VERTEX
8
0
10
82.153209375
20
49.016000000000005
30
0
0
VERTEX
8
0
10
75.73046875
20
55.438740625
30
0
0
VERTEX
8
0
10
75.698125
20
55.462240625
30
0
0
VERTEX
8
0
10
75.662503125
20
55.480390625000005
30
0
0
VERTEX
8
0
10
75.62447812500001
20
55.492746875
30
0
0
VERTEX
8
0
10
75.584990625
20
55.499
30
0
0
VERTEX
8
0
10
62.335209375000005
20
55.499
30
0
0
VERTEX
8
0
10
56.239209375
20
61.595000000000006
30
0
0
VERTEX
8
0
10
58.144209375
20
63.5
30
0
0
VERTEX
8
0
10
59.055
20
63.5
30
0
0
VERTEX
8
0
10
59.055
20
66.04
30
0
0
VERTEX
8
0
10
58.144209375
20
66.04
30
0
0
VERTEX
8
0
10
57.128209375000004
20
67.056
30
0
0
VERTEX
8
0
10
67.839790625
20
67.056
30
0
0
VERTEX
8
0
10
85.471
20
49.424790625
30
0
0
VERTEX
8
0
10
85.471
20
39.475209375
30
0
0
VERTEX
8
0
10
77.999790625
20
32.004000000000005
30
0
0
VERTEX
8
0
10
56.769000000000005
20
32.004000000000005
30
0
0
VERTEX
8
0
10
56.769000000000005
20
41.294990625000004
30
0
0
VERTEX
8
0
10
56.762746875000005
20
41.334478125000004
30
0
0
VERTEX
8
0
10
56.750390625
20
41.372503125
30
0
0
VERTEX
8
0
10
56.732240625
20
41.408125000000005
30
0
0
VERTEX
8
0
10
56.708740625000004
20
41.44046875
30
0
0
VERTEX
8
0
10
56.045468750000005
20
42.103740625
30
0
0
VERTEX
8
0
10
56.013125
20
42.127240625
30
0
0
VERTEX
8
0
10
55.977503125000005
20
42.145390625000005
30
0
0
VERTEX
8
0
10
55.939478125
20
42.157746875
30
0
0
VERTEX
8
0
10
55.899990625
20
42.164
30
0
0
VERTEX
8
0
10
55.599596875
20
42.164
30
0
0
VERTEX
8
0
10
55.591525000000004
20
42.172071875
30
0
0
VERTEX
8
0
10
55.56736875
20
42.1882125
30
0
0
VERTEX
8
0
10
55.540525
20
42.19933125
30
0
0
VERTEX
8
0
10
55.512028125
20
42.205000000000005
30
0
0
VERTEX
8
0
10
53.827971875
20
42.205000000000005
30
0
0
VERTEX
8
0
10
53.799475
20
42.19933125
30
0
0
VERTEX
8
0
10
53.77263125
20
42.1882125
30
0
0
VERTEX
8
0
10
53.748475
20
42.172071875
30
0
0
VERTEX
8
0
10
53.727928125000005
20
42.151525
30
0
0
VERTEX
8
0
10
53.7117875
20
42.12736875
30
0
0
VERTEX
8
0
10
53.700668750000006
20
42.100525000000005
30
0
0
VERTEX
8
0
10
53.695
20
42.072028125
30
0
0
VERTEX
8
0
10
53.695
20
41.747971875000005
30
0
0
VERTEX
8
0
10
53.700668750000006
20
41.719475
30
0
0
VERTEX
8
0
10
53.7117875
20
41.692631250000005
30
0
0
VERTEX
8
0
10
53.727928125000005
20
41.668475
30
0
0
VERTEX
8
0
10
53.748475
20
41.647928125
30
0
0
VERTEX
8
0
10
53.77263125
20
41.6317875
30
0
0
VERTEX
8
0
10
53.799475
20
41.62066875
30
0
0
VERTEX
8
0
10
53.827971875
20
41.615
30
0
0
VERTEX
8
0
10
55.512028125
20
41.615
30
0
0
VERTEX
8
0
10
55.540525
20
41.62066875
30
0
0
VERTEX
8
0
10
55.56736875
20
41.6317875
30
0
0
VERTEX
8
0
10
55.591525000000004
20
41.647928125
30
0
0
VERTEX
8
0
10
55.599596875
20
41.656
30
0
0
VERTEX
8
0
10
55.774790625
20
41.656
30
0
0
VERTEX
8
0
10
56.261
20
41.169790625000005
30
0
0
VERTEX
8
0
10
56.261
20
24.110009375
30
0
0
VERTEX
8
0
10
56.267253125
20
24.070521875
30
0
0
VERTEX
8
0
10
56.279609375
20
24.032496875
30
0
0
VERTEX
8
0
10
56.297759375000005
20
23.996875000000003
30
0
0
VERTEX
8
0
10
56.321259375000004
20
23.96453125
30
0
0
VERTEX
8
0
10
57.785000000000004
20
22.500790625
30
0
0
VERTEX
8
0
10
57.785000000000004
20
20.679209375
30
0
0
VERTEX
8
0
10
56.409790625
20
19.304000000000002
30
0
0
VERTEX
8
0
10
43.160009375
20
19.304000000000002
30
0
0
VERTEX
8
0
10
43.120521875
20
19.297746875
30
0
0
VERTEX
8
0
10
43.082496875000004
20
19.285390625
30
0
0
VERTEX
8
0
10
43.046875
20
19.267240625
30
0
0
VERTEX
8
0
10
43.014531250000005
20
19.243740625
30
0
0
VERTEX
8
0
10
40.700790625
20
16.93
30
0
0
VERTEX
8
0
10
39.88
20
16.93
30
0
0
VERTEX
8
0
10
39.88
20
13.63
30
0
0
VERTEX
8
0
10
41.4
20
13.63
30
0
0
VERTEX
8
0
10
41.4
20
16.910790625
30
0
0
VERTEX
8
0
10
43.285209375
20
18.796
30
0
0
VERTEX
8
0
10
56.534990625000006
20
18.796
30
0
0
VERTEX
8
0
10
56.574478125000006
20
18.802253125
30
0
0
SEQEND
0
POLYLINE
66
1
8
1_copper
10
0.0
20
0.0
30
0.0
70
1
0
VERTEX
8
0
10
47.842240625
20
13.201875000000001
30
0
0
VERTEX
8
0
10
47.860390625
20
13.237496875000001
30
0
0
VERTEX
8
0
10
47.872746875000004
20
13.275521875
30
0
0
VERTEX
8
0
10
47.879000000000005
20
13.315009375
30
0
0
VERTEX
8
0
10
47.879000000000005
20
17.526
30
0
0
VERTEX
8
0
10
60.344990625
20
17.526
30
0
0
VERTEX
8
0
10
60.384478125
20
17.532253125
30
0
0
VERTEX
8
0
10
60.422503125000006
20
17.544609375
30
0
0
VERTEX
8
0
10
60.458125
20
17.562759375000002
30
0
0
VERTEX
8
0
10
60.490468750000005
20
17.586259375
30
0
0
VERTEX
8
0
10
63.224209375
20
20.32
30
0
0
VERTEX
8
0
10
64.135
20
20.32
30
0
0
VERTEX
8
0
10
64.135
20
22.86
30
0
0
VERTEX
8
0
10
62.865
20
22.86
30
0
0
VERTEX
8
0
10
62.865
20
20.679209375
30
0
0
VERTEX
8
0
10
60.219790625
20
18.034000000000002
30
0
0
VERTEX
8
0
10
44.430009375000004
20
18.034000000000002
30
0
0
VERTEX
8
0
10
44.390521875000005
20
18.027746875000002
30
0
0
VERTEX
8
0
10
44.352496875
20
18.015390625000002
30
0
0
VERTEX
8
0
10
44.316875
20
17.997240625
30
0
0
VERTEX
8
0
10
44.28453125
20
17.973740625
30
0
0
VERTEX
8
0
10
43.240790625
20
16.93
30
0
0
VERTEX
8
0
10
42.42
20
16.93
30
0
0
VERTEX
8
0
10
42.42
20
13.63
30
0
0
VERTEX
8
0
10
43.940000000000005
20
13.63
30
0
0
VERTEX
8
0
10
43.940000000000005
20
16.910790625
30
0
0
VERTEX
8
0
10
44.555209375000004
20
17.526
30
0
0
VERTEX
8
0
10
47.371
20
17.526
30
0
0
VERTEX
8
0
10
47.371
20
13.440209375
30
0
0
VERTEX
8
0
10
45.614790625000005
20
11.684000000000001
30
0
0
VERTEX
8
0
10
38.840209375
20
11.684000000000001
30
0
0
VERTEX
8
0
10
33.274
20
17.250209375
30
0
0
VERTEX
8
0
10
33.274
20
21.085
30
0
0
VERTEX
8
0
10
33.655
20
21.085
30
0
0
VERTEX
8
0
10
33.655
20
24.765
30
0
0
VERTEX
8
0
10
33.274
20
24.765
30
0
0
VERTEX
8
0
10
33.274
20
26.035
30
0
0
VERTEX
8
0
10
33.655
20
26.035
30
0
0
VERTEX
8
0
10
33.655
20
29.715
30
0
0
VERTEX
8
0
10
33.274
20
29.715
30
0
0
VERTEX
8
0
10
33.274
20
38.865
30
0
0
VERTEX
8
0
10
33.655
20
38.865
30
0
0
VERTEX
8
0
10
33.655
20
42.545
30
0
0
VERTEX
8
0
10
33.274
20
42.545
30
0
0
VERTEX
8
0
10
33.274
20
43.815000000000005
30
0
0
VERTEX
8
0
10
33.655
20
43.815000000000005
30
0
0
VERTEX
8
0
10
33.655
20
47.265790625
30
0
0
VERTEX
8
0
10
34.395209375
20
48.006
30
0
0
VERTEX
8
0
10
53.234790625
20
48.006
30
0
0
VERTEX
8
0
10
58.801
20
42.439790625
30
0
0
VERTEX
8
0
10
58.801
20
42.205000000000005
30
0
0
VERTEX
8
0
10
58.787971875000004
20
42.205000000000005
30
0
0
VERTEX
8
0
10
58.759475
20
42.19933125
30
0
0
VERTEX
8
0
10
58.732631250000004
20
42.1882125
30
0
0
VERTEX
8
0
10
58.708475
20
42.172071875
30
0
0
VERTEX
8
0
10
58.687928125000006
20
42.151525
30
0
0
VERTEX
8
0
10
58.6717875
20
42.12736875
30
0
0
VERTEX
8
0
10
58.660668750000006
20
42.100525000000005
30
0
0
VERTEX
8
0
10
58.655
20
42.072028125
30
0
0
VERTEX
8
0
10
58.655
20
41.747971875000005
30
0
0
VERTEX
8
0
10
58.660668750000006
20
41.719475
30
0
0
VERTEX
8
0
10
58.6717875
20
41.692631250000005
30
0
0
VERTEX
8
0
10
58.687928125000006
20
41.668475
30
0
0
VERTEX
8
0
10
58.708475
20
41.647928125
30
0
0
VERTEX
8
0
10
58.732631250000004
20
41.6317875
30
0
0
VERTEX
8
0
10
58.759475
20
41.62066875
30
0
0
VERTEX
8
0
10
58.787971875000004
20
41.615
30
0
0
VERTEX
8
0
10
60.472028125
20
41.615
30
0
0
VERTEX
8
0
10
60.500525
20
41.62066875
30
0
0
VERTEX
8
0
10
60.52736875
20
41.6317875
30
0
0
VERTEX
8
0
10
60.551525000000005
20
41.647928125
30
0
0
VERTEX
8
0
10
60.572071875000006
20
41.668475
30
0
0
VERTEX
8
0
10
60.588212500000004
20
41.692631250000005
30
0
0
VERTEX
8
0
10
60.599331250000006
20
41.719475
30
0
0
VERTEX
8
0
10
60.605000000000004
20
41.747971875000005
30
0
0
VERTEX
8
0
10
60.605000000000004
20
42.072028125
30
0
0
VERTEX
8
0
10
60.599331250000006
20
42.100525000000005
30
0
0
VERTEX
8
0
10
60.588212500000004
20
42.12736875
30
0
0
VERTEX
8
0
10
60.572071875000006
20
42.151525
30
0
0
VERTEX
8
0
10
60.551525000000005
20
42.172071875
30
0
0
VERTEX
8
0
10
60.52736875
20
42.1882125
30
0
0
VERTEX
8
0
10
60.500525
20
42.19933125
30
0
0
VERTEX
8
0
10
60.472028125
20
42.205000000000005
30
0
0
VERTEX
8
0
10
59.309000000000005
20
42.205000000000005
30
0
0
VERTEX
8
0
10
59.309000000000005
20
42.564990625
30
0
0
VERTEX
8
0
10
59.302746875000004
20
42.604478125
30
0
0
VERTEX
8
0
10
59.290390625
20
42.642503125000005
30
0
0
VERTEX
8
0
10
59.272240625
20
42.678125
30
0
0
VERTEX
8
0
10
59.248740625
20
42.710468750000004
30
0
0
VERTEX
8
0
10
53.505468750000006
20
48.453740625
30
0
0
VERTEX
8
0
10
53.473125
20
48.477240625
30
0
0
VERTEX
8
0
10
53.437503125
20
48.495390625
30
0
0
VERTEX
8
0
10
53.399478125
20
48.507746875
30
0
0
VERTEX
8
0
10
53.359990625
20
48.514
30
0
0
VERTEX
8
0
10
34.270009375
20
48.514
30
0
0
VERTEX
8
0
10
34.230521875
20
48.507746875
30
0
0
VERTEX
8
0
10
34.192496875
20
48.495390625
30
0
0
VERTEX
8
0
10
34.156875
20
48.477240625
30
0
0
VERTEX
8
0
10
34.124531250000004
20
48.453740625
30
0
0
VERTEX
8
0
10
33.274
20
47.603209375000006
30
0
0
VERTEX
8
0
10
33.274
20
56.645
30
0
0
VERTEX
8
0
10
33.655
20
56.645
30
0
0
VERTEX
8
0
10
33.655
20
60.325
30
0
0
VERTEX
8
0
10
33.274
20
60.325
30
0
0
VERTEX
8
0
10
33.274
20
61.595000000000006
30
0
0
VERTEX
8
0
10
33.655
20
61.595000000000006
30
0
0
VERTEX
8
0
10
33.655
20
65.04579062500001
30
0
0
VERTEX
8
0
10
34.395209375
20
65.786
30
0
0
VERTEX
8
0
10
36.724790625000004
20
65.786
30
0
0
VERTEX
8
0
10
37.93453125
20
64.576259375
30
0
0
VERTEX
8
0
10
37.966875
20
64.55275937500001
30
0
0
VERTEX
8
0
10
38.002496875
20
64.534609375
30
0
0
VERTEX
8
0
10
38.040521875
20
64.522253125
30
0
0
VERTEX
8
0
10
38.080009375
20
64.516
30
0
0
VERTEX
8
0
10
52.705000000000005
20
64.516
30
0
0
VERTEX
8
0
10
52.705000000000005
20
63.5
30
0
0
VERTEX
8
0
10
53.086000000000006
20
63.5
30
0
0
VERTEX
8
0
10
53.086000000000006
20
59.160209375
30
0
0
VERTEX
8
0
10
52.511259375
20
58.585468750000004
30
0
0
VERTEX
8
0
10
52.487759375
20
58.553125
30
0
0
VERTEX
8
0
10
52.469609375000005
20
58.517503125000005
30
0
0
VERTEX
8
0
10
52.457253125
20
58.479478125
30
0
0
VERTEX
8
0
10
52.451
20
58.439990625
30
0
0
VERTEX
8
0
10
52.451
20
55.860009375000004
30
0
0
VERTEX
8
0
10
52.457253125
20
55.820521875000004
30
0
0
VERTEX
8
0
10
52.469609375000005
20
55.782496875
30
0
0
VERTEX
8
0
10
52.487759375
20
55.746875
30
0
0
VERTEX
8
0
10
52.511259375
20
55.71453125
30
0
0
VERTEX
8
0
10
53.17453125
20
55.051259375
30
0
0
VERTEX
8
0
10
53.206875000000004
20
55.027759375
30
0
0
VERTEX
8
0
10
53.242496875
20
55.009609375000004
30
0
0
VERTEX
8
0
10
53.280521875000005
20
54.997253125
30
0
0
VERTEX
8
0
10
53.320009375000005
20
54.991
30
0
0
VERTEX
8
0
10
59.584790625000004
20
54.991
30
0
0
VERTEX
8
0
10
64.60453125000001
20
49.971259375
30
0
0
VERTEX
8
0
10
64.636875
20
49.947759375000004
30
0
0
VERTEX
8
0
10
64.67249687500001
20
49.929609375000005
30
0
0
VERTEX
8
0
10
64.710521875
20
49.917253125
30
0
0
VERTEX
8
0
10
64.750009375
20
49.911
30
0
0
VERTEX
8
0
10
77.999790625
20
49.911
30
0
0
VERTEX
8
0
10
79.375
20
48.535790625000004
30
0
0
VERTEX
8
0
10
79.375
20
45.336000000000006
30
0
0
VERTEX
8
0
10
79.756
20
45.336000000000006
30
0
0
VERTEX
8
0
10
79.756
20
44.066
30
0
0
VERTEX
8
0
10
79.375
20
44.066
30
0
0
VERTEX
8
0
10
79.375
20
40.386
30
0
0
VERTEX
8
0
10
80.64500000000001
20
40.386
30
0
0
VERTEX
8
0
10
80.64500000000001
20
44.066
30
0
0
VERTEX
8
0
10
80.26400000000001
20
44.066
30
0
0
VERTEX
8
0
10
80.26400000000001
20
45.336000000000006
30
0
0
VERTEX
8
0
10
80.64500000000001
20
45.336000000000006
30
0
0
VERTEX
8
0
10
80.64500000000001
20
49.016000000000005
30
0
0
VERTEX
8
0
10
79.613209375
20
49.016000000000005
30
0
0
VERTEX
8
0
10
78.27046875
20
50.358740625
30
0
0
VERTEX
8
0
10
78.23812500000001
20
50.382240625
30
0
0
VERTEX
8
0
10
78.202503125
20
50.400390625
30
0
0
VERTEX
8
0
10
78.164478125
20
50.412746875
30
0
0
VERTEX
8
0
10
78.12499062500001
20
50.419000000000004
30
0
0
VERTEX
8
0
10
64.875209375
20
50.419000000000004
30
0
0
VERTEX
8
0
10
58.080000000000005
20
57.214209375
30
0
0
VERTEX
8
0
10
58.080000000000005
20
58.050000000000004
30
0
0
VERTEX
8
0
10
56.480000000000004
20
58.050000000000004
30
0
0
VERTEX
8
0
10
56.480000000000004
20
56.25
30
0
0
VERTEX
8
0
10
58.080000000000005
20
56.25
30
0
0
VERTEX
8
0
10
58.080000000000005
20
56.495790625000005
30
0
0
VERTEX
8
0
10
59.076790625
20
55.499
30
0
0
VERTEX
8
0
10
53.445209375000005
20
55.499
30
0
0
VERTEX
8
0
10
52.959
20
55.985209375000004
30
0
0
VERTEX
8
0
10
52.959
20
58.314790625
30
0
0
VERTEX
8
0
10
53.533740625
20
58.889531250000005
30
0
0
VERTEX
8
0
10
53.557240625000006
20
58.921875
30
0
0
VERTEX
8
0
10
53.575390625000004
20
58.957496875000004
30
0
0
VERTEX
8
0
10
53.587746875
20
58.995521875
30
0
0
VERTEX
8
0
10
53.594
20
59.035009375
30
0
0
VERTEX
8
0
10
53.594
20
63.5
30
0
0
VERTEX
8
0
10
53.975
20
63.5
30
0
0
VERTEX
8
0
10
53.975
20
66.04
30
0
0
VERTEX
8
0
10
52.705000000000005
20
66.04
30
0
0
VERTEX
8
0
10
52.705000000000005
20
65.024
30
0
0
VERTEX
8
0
10
38.205209375
20
65.024
30
0
0
VERTEX
8
0
10
36.99546875
20
66.23374062500001
30
0
0
VERTEX
8
0
10
36.963125000000005
20
66.25724062500001
30
0
0
VERTEX
8
0
10
36.927503125
20
66.275390625
30
0
0
VERTEX
8
0
10
36.889478125000004
20
66.287746875
30
0
0
VERTEX
8
0
10
36.849990625000004
20
66.294
30
0
0
VERTEX
8
0
10
34.270009375
20
66.294
30
0
0
VERTEX
8
0
10
34.230521875
20
66.287746875
30
0
0
VERTEX
8
0
10
34.192496875
20
66.275390625
30
0
0
VERTEX
8
0
10
34.156875
20
66.25724062500001
30
0
0
VERTEX
8
0
10
34.124531250000004
20
66.23374062500001
30
0
0
VERTEX
8
0
10
33.165790625
20
65.275
30
0
0
VERTEX
8
0
10
32.385
20
65.275
30
0
0
VERTEX
8
0
10
32.385
20
61.595000000000006
30
0
0
VERTEX
8
0
10
32.766
20
61.595000000000006
30
0
0
VERTEX
8
0
10
32.766
20
60.325
30
0
0
VERTEX
8
0
10
32.385
20
60.325
30
0
0
VERTEX
8
0
10
32.385
20
56.645
30
0
0
VERTEX
8
0
10
32.766
20
56.645
30
0
0
VERTEX
8
0
10
32.766
20
47.495000000000005
30
0
0
VERTEX
8
0
10
32.385
20
47.495000000000005
30
0
0
VERTEX
8
0
10
32.385
20
43.815000000000005
30
0
0
VERTEX
8
0
10
32.766
20
43.815000000000005
30
0
0
VERTEX
8
0
10
32.766
20
42.545
30
0
0
VERTEX
8
0
10
32.385
20
42.545
30
0
0
VERTEX
8
0
10
32.385
20
38.865
30
0
0
VERTEX
8
0
10
32.766
20
38.865
30
0
0
VERTEX
8
0
10
32.766
20
29.715
30
0
0
VERTEX
8
0
10
32.385
20
29.715
30
0
0
VERTEX
8
0
10
32.385
20
26.035
30
0
0
VERTEX
8
0
10
32.766
20
26.035
30
0
0
VERTEX
8
0
10
32.766
20
24.765
30
0
0
VERTEX
8
0
10
32.385
20
24.765
30
0
0
VERTEX
8
0
10
32.385
20
21.085
30
0
0
VERTEX
8
0
10
32.766
20
21.085
30
0
0
VERTEX
8
0
10
32.766
20
17.125009375
30
0
0
VERTEX
8
0
10
32.772253125
20
17.085521875
30
0
0
VERTEX
8
0
10
32.784609375
20
17.047496875
30
0
0
VERTEX
8
0
10
32.802759375
20
17.011875
30
0
0
VERTEX
8
0
10
32.826259375
20
16.97953125
30
0
0
VERTEX
8
0
10
38.569531250000004
20
11.236259375000001
30
0
0
VERTEX
8
0
10
38.601875
20
11.212759375000001
30
0
0
VERTEX
8
0
10
38.637496875000004
20
11.194609375
30
0
0
VERTEX
8
0
10
38.675521875
20
11.182253125
30
0
0
VERTEX
8
0
10
38.715009375
20
11.176
30
0
0
VERTEX
8
0
10
45.739990625000004
20
11.176
30
0
0
VERTEX
8
0
10
45.779478125000004
20
11.182253125
30
0
0
VERTEX
8
0
10
45.817503125
20
11.194609375
30
0
0
VERTEX
8
0
10
45.853125000000006
20
11.212759375000001
30
0
0
VERTEX
8
0
10
45.88546875
20
11.236259375000001
30
0
0
VERTEX
8
0
10
47.818740625000004
20
13.16953125
30
0
0
SEQEND
0
POLYLINE
66
1
8
1_copper
10
0.0
20
0.0
30
0.0
70
1
0
VERTEX
8
0
10
84.672240625
20
39.871875
30
0
0
VERTEX
8
0
10
84.690390625
20
39.907496875
30
0
0
VERTEX
8
0
10
84.702746875
20
39.945521875000004
30
0
0
VERTEX
8
0
10
84.709
20
39.985009375000004
30
0
0
VERTEX
8
0
10
84.709
20
48.914990625
30
0
0
VERTEX
8
0
10
84.702746875
20
48.954478125
30
0
0
VERTEX
8
0
10
84.690390625
20
48.992503125
30
0
0
VERTEX
8
0
10
84.672240625
20
49.028125
30
0
0
VERTEX
8
0
10
84.648740625
20
49.060468750000005
30
0
0
VERTEX
8
0
10
76.36546875
20
57.343740625
30
0
0
VERTEX
8
0
10
76.33312500000001
20
57.367240625
30
0
0
VERTEX
8
0
10
76.297503125
20
57.385390625
30
0
0
VERTEX
8
0
10
76.259478125
20
57.397746875
30
0
0
VERTEX
8
0
10
76.21999062500001
20
57.404
30
0
0
VERTEX
8
0
10
66.992
20
57.404
30
0
0
VERTEX
8
0
10
66.992
20
58.051500000000004
30
0
0
VERTEX
8
0
10
66.294
20
58.051500000000004
30
0
0
VERTEX
8
0
10
66.294
20
61.614990625000004
30
0
0
VERTEX
8
0
10
66.287746875
20
61.654478125000004
30
0
0
VERTEX
8
0
10
66.275390625
20
61.692503125
30
0
0
VERTEX
8
0
10
66.25724062500001
20
61.728125000000006
30
0
0
VERTEX
8
0
10
66.23374062500001
20
61.76046875
30
0
0
VERTEX
8
0
10
64.135
20
63.859209375000006
30
0
0
VERTEX
8
0
10
64.135
20
66.04
30
0
0
VERTEX
8
0
10
62.865
20
66.04
30
0
0
VERTEX
8
0
10
62.865
20
63.5
30
0
0
VERTEX
8
0
10
63.775790625000006
20
63.5
30
0
0
VERTEX
8
0
10
65.786
20
61.489790625000005
30
0
0
VERTEX
8
0
10
65.786
20
58.051500000000004
30
0
0
VERTEX
8
0
10
65.39200000000001
20
58.051500000000004
30
0
0
VERTEX
8
0
10
65.39200000000001
20
56.2485
30
0
0
VERTEX
8
0
10
66.992
20
56.2485
30
0
0
VERTEX
8
0
10
66.992
20
56.896
30
0
0
VERTEX
8
0
10
76.094790625
20
56.896
30
0
0
VERTEX
8
0
10
84.20100000000001
20
48.789790625
30
0
0
VERTEX
8
0
10
84.20100000000001
20
40.110209375000004
30
0
0
VERTEX
8
0
10
77.364790625
20
33.274
30
0
0
VERTEX
8
0
10
58.525209375
20
33.274
30
0
0
VERTEX
8
0
10
58.039
20
33.760209375
30
0
0
VERTEX
8
0
10
58.039
20
36.089790625
30
0
0
VERTEX
8
0
10
58.525209375
20
36.576
30
0
0
VERTEX
8
0
10
58.700403125
20
36.576
30
0
0
VERTEX
8
0
10
58.708475
20
36.567928125
30
0
0
VERTEX
8
0
10
58.732631250000004
20
36.5517875
30
0
0
VERTEX
8
0
10
58.759475
20
36.54066875
30
0
0
VERTEX
8
0
10
58.787971875000004
20
36.535000000000004
30
0
0
VERTEX
8
0
10
60.472028125
20
36.535000000000004
30
0
0
VERTEX
8
0
10
60.500525
20
36.54066875
30
0
0
VERTEX
8
0
10
60.52736875
20
36.5517875
30
0
0
VERTEX
8
0
10
60.551525000000005
20
36.567928125
30
0
0
VERTEX
8
0
10
60.572071875000006
20
36.588475
30
0
0
VERTEX
8
0
10
60.588212500000004
20
36.61263125
30
0
0
VERTEX
8
0
10
60.599331250000006
20
36.639475000000004
30
0
0
VERTEX
8
0
10
60.605000000000004
20
36.667971875
30
0
0
VERTEX
8
0
10
60.605000000000004
20
36.992028125000004
30
0
0
VERTEX
8
0
10
60.599331250000006
20
37.020525
30
0
0
VERTEX
8
0
10
60.588212500000004
20
37.047368750000004
30
0
0
VERTEX
8
0
10
60.572071875000006
20
37.071525
30
0
0
VERTEX
8
0
10
60.551525000000005
20
37.092071875
30
0
0
VERTEX
8
0
10
60.52736875
20
37.1082125
30
0
0
VERTEX
8
0
10
60.500525
20
37.11933125
30
0
0
VERTEX
8
0
10
60.472028125
20
37.125
30
0
0
VERTEX
8
0
10
58.787971875000004
20
37.125
30
0
0
VERTEX
8
0
10
58.759475
20
37.11933125
30
0
0
VERTEX
8
0
10
58.732631250000004
20
37.1082125
30
0
0
VERTEX
8
0
10
58.708475
20
37.092071875
30
0
0
VERTEX
8
0
10
58.700403125
20
37.084
30
0
0
VERTEX
8
0
10
58.400009375
20
37.084
30
0
0
VERTEX
8
0
10
58.360521875
20
37.077746875
30
0
0
VERTEX
8
0
10
58.322496875000006
20
37.065390625
30
0
0
VERTEX
8
0
10
58.286875
20
37.047240625
30
0
0
VERTEX
8
0
10
58.25453125
20
37.023740625
30
0
0
VERTEX
8
0
10
57.591259375
20
36.36046875
30
0
0
VERTEX
8
0
10
57.567759375
20
36.328125
30
0
0
VERTEX
8
0
10
57.549609375
20
36.292503125
30
0
0
VERTEX
8
0
10
57.537253125
20
36.254478125
30
0
0
VERTEX
8
0
10
57.531000000000006
20
36.214990625
30
0
0
VERTEX
8
0
10
57.531000000000006
20
33.635009375
30
0
0
VERTEX
8
0
10
57.537253125
20
33.595521875
30
0
0
VERTEX
8
0
10
57.549609375
20
33.557496875
30
0
0
VERTEX
8
0
10
57.567759375
20
33.521875
30
0
0
VERTEX
8
0
10
57.591259375
20
33.48953125
30
0
0
VERTEX
8
0
10
58.25453125
20
32.826259375
30
0
0
VERTEX
8
0
10
58.286875
20
32.802759375
30
0
0
VERTEX
8
0
10
58.322496875000006
20
32.784609375
30
0
0
VERTEX
8
0
10
58.360521875
20
32.772253125
30
0
0
VERTEX
8
0
10
58.400009375
20
32.766
30
0
0
VERTEX
8
0
10
77.489990625
20
32.766
30
0
0
VERTEX
8
0
10
77.529478125
20
32.772253125
30
0
0
VERTEX
8
0
10
77.567503125
20
32.784609375
30
0
0
VERTEX
8
0
10
77.603125
20
32.802759375
30
0
0
VERTEX
8
0
10
77.63546875
20
32.826259375
30
0
0
VERTEX
8
0
10
84.648740625
20
39.83953125
30
0
0
SEQEND
0
POLYLINE
66
1
8
1_copper
10
0.0
20
0.0
30
0.0
70
1
0
VERTEX
8
0
10
61.692503125
20
37.864609375
30
0
0
VERTEX
8
0
10
61.728125000000006
20
37.882759375
30
0
0
VERTEX
8
0
10
61.76046875
20
37.906259375000005
30
0
0
VERTEX
8
0
10
63.058740625000006
20
39.20453125
30
0
0
VERTEX
8
0
10
63.082240625000004
20
39.236875000000005
30
0
0
VERTEX
8
0
10
63.100390625
20
39.272496875
30
0
0
VERTEX
8
0
10
63.112746875000006
20
39.310521875
30
0
0
VERTEX
8
0
10
63.119
20
39.350009375
30
0
0
VERTEX
8
0
10
63.119
20
43.199990625000005
30
0
0
VERTEX
8
0
10
63.112746875000006
20
43.239478125000005
30
0
0
VERTEX
8
0
10
63.100390625
20
43.277503125
30
0
0
VERTEX
8
0
10
63.082240625000004
20
43.313125
30
0
0
VERTEX
8
0
10
63.058740625000006
20
43.34546875
30
0
0
VERTEX
8
0
10
43.34546875
20
63.058740625000006
30
0
0
VERTEX
8
0
10
43.313125
20
63.082240625000004
30
0
0
VERTEX
8
0
10
43.277503125
20
63.100390625
30
0
0
VERTEX
8
0
10
43.239478125000005
20
63.112746875000006
30
0
0
VERTEX
8
0
10
43.199990625000005
20
63.119
30
0
0
VERTEX
8
0
10
36.195
20
63.119
30
0
0
VERTEX
8
0
10
36.195
20
65.275
30
0
0
VERTEX
8
0
10
34.925000000000004
20
65.275
30
0
0
VERTEX
8
0
10
34.925000000000004
20
61.595000000000006
30
0
0
VERTEX
8
0
10
36.195
20
61.595000000000006
30
0
0
VERTEX
8
0
10
36.195
20
62.611000000000004
30
0
0
VERTEX
8
0
10
43.074790625
20
62.611000000000004
30
0
0
VERTEX
8
0
10
62.611000000000004
20
43.074790625
30
0
0
VERTEX
8
0
10
62.611000000000004
20
39.475209375
30
0
0
VERTEX
8
0
10
61.489790625000005
20
38.354
30
0
0
VERTEX
8
0
10
60.559596875000004
20
38.354
30
0
0
VERTEX
8
0
10
60.551525000000005
20
38.362071875000005
30
0
0
VERTEX
8
0
10
60.52736875
20
38.378212500000004
30
0
0
VERTEX
8
0
10
60.500525
20
38.389331250000005
30
0
0
VERTEX
8
0
10
60.472028125
20
38.395
30
0
0
VERTEX
8
0
10
58.787971875000004
20
38.395
30
0
0
VERTEX
8
0
10
58.759475
20
38.389331250000005
30
0
0
VERTEX
8
0
10
58.732631250000004
20
38.378212500000004
30
0
0
VERTEX
8
0
10
58.708475
20
38.362071875000005
30
0
0
VERTEX
8
0
10
58.687928125000006
20
38.341525000000004
30
0
0
VERTEX
8
0
10
58.6717875
20
38.31736875
30
0
0
VERTEX
8
0
10
58.660668750000006
20
38.290525
30
0
0
VERTEX
8
0
10
58.655
20
38.262028125
30
0
0
VERTEX
8
0
10
58.655
20
37.937971875
30
0
0
VERTEX
8
0
10
58.660668750000006
20
37.909475
30
0
0
VERTEX
8
0
10
58.6717875
20
37.88263125
30
0
0
VERTEX
8
0
10
58.687928125000006
20
37.858475
30
0
0
VERTEX
8
0
10
58.708475
20
37.837928125000005
30
0
0
VERTEX
8
0
10
58.732631250000004
20
37.8217875
30
0
0
VERTEX
8
0
10
58.759475
20
37.810668750000005
30
0
0
VERTEX
8
0
10
58.787971875000004
20
37.805
30
0
0
VERTEX
8
0
10
60.472028125
20
37.805
30
0
0
VERTEX
8
0
10
60.500525
20
37.810668750000005
30
0
0
VERTEX
8
0
10
60.52736875
20
37.8217875
30
0
0
VERTEX
8
0
10
60.551525000000005
20
37.837928125000005
30
0
0
VERTEX
8
0
10
60.559596875000004
20
37.846000000000004
30
0
0
VERTEX
8
0
10
61.614990625000004
20
37.846000000000004
30
0
0
VERTEX
8
0
10
61.654478125000004
20
37.852253125000004
30
0
0
SEQEND
0
POLYLINE
66
1
8
1_copper
10
0.0
20
0.0
30
0.0
70
1
0
VERTEX
8
0
10
61.057503125000004
20
39.134609375000004
30
0
0
VERTEX
8
0
10
61.093125
20
39.152759375
30
0
0
VERTEX
8
0
10
61.12546875
20
39.176259375
30
0
0
VERTEX
8
0
10
61.788740625
20
39.83953125
30
0
0
VERTEX
8
0
10
61.812240625
20
39.871875
30
0
0
VERTEX
8
0
10
61.830390625
20
39.907496875
30
0
0
VERTEX
8
0
10
61.842746875
20
39.945521875000004
30
0
0
VERTEX
8
0
10
61.849000000000004
20
39.985009375000004
30
0
0
VERTEX
8
0
10
61.849000000000004
20
42.564990625
30
0
0
VERTEX
8
0
10
61.842746875
20
42.604478125
30
0
0
VERTEX
8
0
10
61.830390625
20
42.642503125000005
30
0
0
VERTEX
8
0
10
61.812240625
20
42.678125
30
0
0
VERTEX
8
0
10
61.788740625
20
42.710468750000004
30
0
0
VERTEX
8
0
10
45.88546875
20
58.613740625000005
30
0
0
VERTEX
8
0
10
45.853125000000006
20
58.637240625000004
30
0
0
VERTEX
8
0
10
45.817503125
20
58.655390625
30
0
0
VERTEX
8
0
10
45.779478125000004
20
58.667746875000006
30
0
0
VERTEX
8
0
10
45.739990625000004
20
58.674
30
0
0
VERTEX
8
0
10
36.195
20
58.674
30
0
0
VERTEX
8
0
10
36.195
20
60.325
30
0
0
VERTEX
8
0
10
34.925000000000004
20
60.325
30
0
0
VERTEX
8
0
10
34.925000000000004
20
56.645
30
0
0
VERTEX
8
0
10
36.195
20
56.645
30
0
0
VERTEX
8
0
10
36.195
20
58.166000000000004
30
0
0
VERTEX
8
0
10
45.614790625000005
20
58.166000000000004
30
0
0
VERTEX
8
0
10
61.341
20
42.439790625
30
0
0
VERTEX
8
0
10
61.341
20
40.110209375000004
30
0
0
VERTEX
8
0
10
60.854790625
20
39.624
30
0
0
VERTEX
8
0
10
60.559596875000004
20
39.624
30
0
0
VERTEX
8
0
10
60.551525000000005
20
39.632071875
30
0
0
VERTEX
8
0
10
60.52736875
20
39.6482125
30
0
0
VERTEX
8
0
10
60.500525
20
39.65933125
30
0
0
VERTEX
8
0
10
60.472028125
20
39.665
30
0
0
VERTEX
8
0
10
58.787971875000004
20
39.665
30
0
0
VERTEX
8
0
10
58.759475
20
39.65933125
30
0
0
VERTEX
8
0
10
58.732631250000004
20
39.6482125
30
0
0
VERTEX
8
0
10
58.708475
20
39.632071875
30
0
0
VERTEX
8
0
10
58.687928125000006
20
39.611525
30
0
0
VERTEX
8
0
10
58.6717875
20
39.58736875
30
0
0
VERTEX
8
0
10
58.660668750000006
20
39.560525
30
0
0
VERTEX
8
0
10
58.655
20
39.532028125000004
30
0
0
VERTEX
8
0
10
58.655
20
39.207971875
30
0
0
VERTEX
8
0
10
58.660668750000006
20
39.179475000000004
30
0
0
VERTEX
8
0
10
58.6717875
20
39.15263125
30
0
0
VERTEX
8
0
10
58.687928125000006
20
39.128475
30
0
0
VERTEX
8
0
10
58.708475
20
39.107928125
30
0
0
VERTEX
8
0
10
58.732631250000004
20
39.0917875
30
0
0
VERTEX
8
0
10
58.759475
20
39.08066875
30
0
0
VERTEX
8
0
10
58.787971875000004
20
39.075
30
0
0
VERTEX
8
0
10
60.472028125
20
39.075
30
0
0
VERTEX
8
0
10
60.500525
20
39.08066875
30
0
0
VERTEX
8
0
10
60.52736875
20
39.0917875
30
0
0
VERTEX
8
0
10
60.551525000000005
20
39.107928125
30
0
0
VERTEX
8
0
10
60.559596875000004
20
39.116
30
0
0
VERTEX
8
0
10
60.979990625000006
20
39.116
30
0
0
VERTEX
8
0
10
61.019478125000006
20
39.122253125
30
0
0
SEQEND
0
POLYLINE
66
1
8
1_copper
10
0.0
20
0.0
30
0.0
70
1
0
VERTEX
8
0
10
58.032746875
20
41.969478125
30
0
0
VERTEX
8
0
10
58.020390625000005
20
42.007503125
30
0
0
VERTEX
8
0
10
58.002240625000006
20
42.043125
30
0
0
VERTEX
8
0
10
57.978740625
20
42.07546875
30
0
0
VERTEX
8
0
10
54.77546875
20
45.278740625000005
30
0
0
VERTEX
8
0
10
54.743125
20
45.302240625
30
0
0
VERTEX
8
0
10
54.707503125
20
45.320390625
30
0
0
VERTEX
8
0
10
54.669478125000005
20
45.332746875000005
30
0
0
VERTEX
8
0
10
54.629990625000005
20
45.339
30
0
0
VERTEX
8
0
10
36.195
20
45.339
30
0
0
VERTEX
8
0
10
36.195
20
47.495000000000005
30
0
0
VERTEX
8
0
10
34.925000000000004
20
47.495000000000005
30
0
0
VERTEX
8
0
10
34.925000000000004
20
43.815000000000005
30
0
0
VERTEX
8
0
10
36.195
20
43.815000000000005
30
0
0
VERTEX
8
0
10
36.195
20
44.831
30
0
0
VERTEX
8
0
10
54.504790625000005
20
44.831
30
0
0
VERTEX
8
0
10
57.531000000000006
20
41.804790625
30
0
0
VERTEX
8
0
10
57.531000000000006
20
41.255009375
30
0
0
VERTEX
8
0
10
57.537253125
20
41.215521875
30
0
0
VERTEX
8
0
10
57.549609375
20
41.177496875
30
0
0
VERTEX
8
0
10
57.567759375
20
41.141875
30
0
0
VERTEX
8
0
10
57.591259375
20
41.10953125
30
0
0
VERTEX
8
0
10
58.25453125
20
40.446259375000004
30
0
0
VERTEX
8
0
10
58.286875
20
40.422759375000005
30
0
0
VERTEX
8
0
10
58.322496875000006
20
40.404609375
30
0
0
VERTEX
8
0
10
58.360521875
20
40.392253125
30
0
0
VERTEX
8
0
10
58.400009375
20
40.386
30
0
0
VERTEX
8
0
10
58.700403125
20
40.386
30
0
0
VERTEX
8
0
10
58.708475
20
40.377928125000004
30
0
0
VERTEX
8
0
10
58.732631250000004
20
40.361787500000005
30
0
0
VERTEX
8
0
10
58.759475
20
40.350668750000004
30
0
0
VERTEX
8
0
10
58.787971875000004
20
40.345
30
0
0
VERTEX
8
0
10
60.472028125
20
40.345
30
0
0
VERTEX
8
0
10
60.500525
20
40.350668750000004
30
0
0
VERTEX
8
0
10
60.52736875
20
40.361787500000005
30
0
0
VERTEX
8
0
10
60.551525000000005
20
40.377928125000004
30
0
0
VERTEX
8
0
10
60.572071875000006
20
40.398475000000005
30
0
0
VERTEX
8
0
10
60.588212500000004
20
40.42263125
30
0
0
VERTEX
8
0
10
60.599331250000006
20
40.449475
30
0
0
VERTEX
8
0
10
60.605000000000004
20
40.477971875
30
0
0
VERTEX
8
0
10
60.605000000000004
20
40.802028125
30
0
0
VERTEX
8
0
10
60.599331250000006
20
40.830525
30
0
0
VERTEX
8
0
10
60.588212500000004
20
40.85736875
30
0
0
VERTEX
8
0
10
60.572071875000006
20
40.881525
30
0
0
VERTEX
8
0
10
60.551525000000005
20
40.902071875000004
30
0
0
VERTEX
8
0
10
60.52736875
20
40.9182125
30
0
0
VERTEX
8
0
10
60.500525
20
40.929331250000004
30
0
0
VERTEX
8
0
10
60.472028125
20
40.935
30
0
0
VERTEX
8
0
10
58.787971875000004
20
40.935
30
0
0
VERTEX
8
0
10
58.759475
20
40.929331250000004
30
0
0
VERTEX
8
0
10
58.732631250000004
20
40.9182125
30
0
0
VERTEX
8
0
10
58.708475
20
40.902071875000004
30
0
0
VERTEX
8
0
10
58.700403125
20
40.894000000000005
30
0
0
VERTEX
8
0
10
58.525209375
20
40.894000000000005
30
0
0
VERTEX
8
0
10
58.039
20
41.380209375
30
0
0
VERTEX
8
0
10
58.039
20
41.929990625
30
0
0
SEQEND
0
POLYLINE
66
1
8
1_copper
10
0.0
20
0.0
30
0.0
70
1
0
VERTEX
8
0
10
36.195
20
40.386
30
0
0
VERTEX
8
0
10
53.740403125
20
40.386
30
0
0
VERTEX
8
0
10
53.748475
20
40.377928125000004
30
0
0
VERTEX
8
0
10
53.77263125
20
40.361787500000005
30
0
0
VERTEX
8
0
10
53.799475
20
40.350668750000004
30
0
0
VERTEX
8
0
10
53.827971875
20
40.345
30
0
0
VERTEX
8
0
10
55.512028125
20
40.345
30
0
0
VERTEX
8
0
10
55.540525
20
40.350668750000004
30
0
0
VERTEX
8
0
10
55.56736875
20
40.361787500000005
30
0
0
VERTEX
8
0
10
55.591525000000004
20
40.377928125000004
30
0
0
VERTEX
8
0
10
55.612071875000005
20
40.398475000000005
30
0
0
VERTEX
8
0
10
55.628212500000004
20
40.42263125
30
0
0
VERTEX
8
0
10
55.639331250000005
20
40.449475
30
0
0
VERTEX
8
0
10
55.645
20
40.477971875
30
0
0
VERTEX
8
0
10
55.645
20
40.802028125
30
0
0
VERTEX
8
0
10
55.639331250000005
20
40.830525
30
0
0
VERTEX
8
0
10
55.628212500000004
20
40.85736875
30
0
0
VERTEX
8
0
10
55.612071875000005
20
40.881525
30
0
0
VERTEX
8
0
10
55.591525000000004
20
40.902071875000004
30
0
0
VERTEX
8
0
10
55.56736875
20
40.9182125
30
0
0
VERTEX
8
0
10
55.540525
20
40.929331250000004
30
0
0
VERTEX
8
0
10
55.512028125
20
40.935
30
0
0
VERTEX
8
0
10
53.827971875
20
40.935
30
0
0
VERTEX
8
0
10
53.799475
20
40.929331250000004
30
0
0
VERTEX
8
0
10
53.77263125
20
40.9182125
30
0
0
VERTEX
8
0
10
53.748475
20
40.902071875000004
30
0
0
VERTEX
8
0
10
53.740403125
20
40.894000000000005
30
0
0
VERTEX
8
0
10
36.195
20
40.894000000000005
30
0
0
VERTEX
8
0
10
36.195
20
42.545
30
0
0
VERTEX
8
0
10
34.925000000000004
20
42.545
30
0
0
VERTEX
8
0
10
34.925000000000004
20
38.865
30
0
0
VERTEX
8
0
10
36.195
20
38.865
30
0
0
SEQEND
0
POLYLINE
66
1
8
1_copper
10
0.0
20
0.0
30
0.0
70
1
0
VERTEX
8
0
10
46.930521875000004
20
39.617746875
30
0
0
VERTEX
8
0
10
46.892496875
20
39.605390625000005
30
0
0
VERTEX
8
0
10
46.856875
20
39.587240625
30
0
0
VERTEX
8
0
10
46.82453125
20
39.563740625
30
0
0
VERTEX
8
0
10
36.195
20
28.934209375000002
30
0
0
VERTEX
8
0
10
36.195
20
29.715
30
0
0
VERTEX
8
0
10
34.925000000000004
20
29.715
30
0
0
VERTEX
8
0
10
34.925000000000004
20
26.035
30
0
0
VERTEX
8
0
10
36.195
20
26.035
30
0
0
VERTEX
8
0
10
36.195
20
28.215790625
30
0
0
VERTEX
8
0
10
47.095209375
20
39.116
30
0
0
VERTEX
8
0
10
53.740403125
20
39.116
30
0
0
VERTEX
8
0
10
53.748475
20
39.107928125
30
0
0
VERTEX
8
0
10
53.77263125
20
39.0917875
30
0
0
VERTEX
8
0
10
53.799475
20
39.08066875
30
0
0
VERTEX
8
0
10
53.827971875
20
39.075
30
0
0
VERTEX
8
0
10
55.512028125
20
39.075
30
0
0
VERTEX
8
0
10
55.540525
20
39.08066875
30
0
0
VERTEX
8
0
10
55.56736875
20
39.0917875
30
0
0
VERTEX
8
0
10
55.591525000000004
20
39.107928125
30
0
0
VERTEX
8
0
10
55.612071875000005
20
39.128475
30
0
0
VERTEX
8
0
10
55.628212500000004
20
39.15263125
30
0
0
VERTEX
8
0
10
55.639331250000005
20
39.179475000000004
30
0
0
VERTEX
8
0
10
55.645
20
39.207971875
30
0
0
VERTEX
8
0
10
55.645
20
39.532028125000004
30
0
0
VERTEX
8
0
10
55.639331250000005
20
39.560525
30
0
0
VERTEX
8
0
10
55.628212500000004
20
39.58736875
30
0
0
VERTEX
8
0
10
55.612071875000005
20
39.611525
30
0
0
VERTEX
8
0
10
55.591525000000004
20
39.632071875
30
0
0
VERTEX
8
0
10
55.56736875
20
39.6482125
30
0
0
VERTEX
8
0
10
55.540525
20
39.65933125
30
0
0
VERTEX
8
0
10
55.512028125
20
39.665
30
0
0
VERTEX
8
0
10
53.827971875
20
39.665
30
0
0
VERTEX
8
0
10
53.799475
20
39.65933125
30
0
0
VERTEX
8
0
10
53.77263125
20
39.6482125
30
0
0
VERTEX
8
0
10
53.748475
20
39.632071875
30
0
0
VERTEX
8
0
10
53.740403125
20
39.624
30
0
0
VERTEX
8
0
10
46.970009375000004
20
39.624
30
0
0
SEQEND
0
POLYLINE
66
1
8
1_copper
10
0.0
20
0.0
30
0.0
70
1
0
VERTEX
8
0
10
50.105521875
20
38.347746875
30
0
0
VERTEX
8
0
10
50.067496875
20
38.335390625
30
0
0
VERTEX
8
0
10
50.031875
20
38.317240625000004
30
0
0
VERTEX
8
0
10
49.999531250000004
20
38.293740625000005
30
0
0
VERTEX
8
0
10
36.195
20
24.489209375
30
0
0
VERTEX
8
0
10
36.195
20
24.765
30
0
0
VERTEX
8
0
10
34.925000000000004
20
24.765
30
0
0
VERTEX
8
0
10
34.925000000000004
20
21.085
30
0
0
VERTEX
8
0
10
36.195
20
21.085
30
0
0
VERTEX
8
0
10
36.195
20
23.770790625
30
0
0
VERTEX
8
0
10
50.270209375
20
37.846000000000004
30
0
0
VERTEX
8
0
10
53.740403125
20
37.846000000000004
30
0
0
VERTEX
8
0
10
53.748475
20
37.837928125000005
30
0
0
VERTEX
8
0
10
53.77263125
20
37.8217875
30
0
0
VERTEX
8
0
10
53.799475
20
37.810668750000005
30
0
0
VERTEX
8
0
10
53.827971875
20
37.805
30
0
0
VERTEX
8
0
10
55.512028125
20
37.805
30
0
0
VERTEX
8
0
10
55.540525
20
37.810668750000005
30
0
0
VERTEX
8
0
10
55.56736875
20
37.8217875
30
0
0
VERTEX
8
0
10
55.591525000000004
20
37.837928125000005
30
0
0
VERTEX
8
0
10
55.612071875000005
20
37.858475
30
0
0
VERTEX
8
0
10
55.628212500000004
20
37.88263125
30
0
0
VERTEX
8
0
10
55.639331250000005
20
37.909475
30
0
0
VERTEX
8
0
10
55.645
20
37.937971875
30
0
0
VERTEX
8
0
10
55.645
20
38.262028125
30
0
0
VERTEX
8
0
10
55.639331250000005
20
38.290525
30
0
0
VERTEX
8
0
10
55.628212500000004
20
38.31736875
30
0
0
VERTEX
8
0
10
55.612071875000005
20
38.341525000000004
30
0
0
VERTEX
8
0
10
55.591525000000004
20
38.362071875000005
30
0
0
VERTEX
8
0
10
55.56736875
20
38.378212500000004
30
0
0
VERTEX
8
0
10
55.540525
20
38.389331250000005
30
0
0
VERTEX
8
0
10
55.512028125
20
38.395
30
0
0
VERTEX
8
0
10
53.827971875
20
38.395
30
0
0
VERTEX
8
0
10
53.799475
20
38.389331250000005
30
0
0
VERTEX
8
0
10
53.77263125
20
38.378212500000004
30
0
0
VERTEX
8
0
10
53.748475
20
38.362071875000005
30
0
0
VERTEX
8
0
10
53.740403125
20
38.354
30
0
0
VERTEX
8
0
10
50.145009375
20
38.354
30
0
0
SEQEND
0
POLYLINE
66
1
8
1_copper
10
0.0
20
0.0
30
0.0
70
1
0
VERTEX
8
0
10
66.13750312500001
20
35.324609375
30
0
0
VERTEX
8
0
10
66.173125
20
35.342759375
30
0
0
VERTEX
8
0
10
66.20546875000001
20
35.366259375
30
0
0
VERTEX
8
0
10
76.83500000000001
20
45.995790625000005
30
0
0
VERTEX
8
0
10
76.83500000000001
20
45.336000000000006
30
0
0
VERTEX
8
0
10
78.105
20
45.336000000000006
30
0
0
VERTEX
8
0
10
78.105
20
49.016000000000005
30
0
0
VERTEX
8
0
10
76.83500000000001
20
49.016000000000005
30
0
0
VERTEX
8
0
10
76.83500000000001
20
46.714209375
30
0
0
VERTEX
8
0
10
65.934790625
20
35.814
30
0
0
VERTEX
8
0
10
60.559596875000004
20
35.814
30
0
0
VERTEX
8
0
10
60.551525000000005
20
35.822071875
30
0
0
VERTEX
8
0
10
60.52736875
20
35.838212500000004
30
0
0
VERTEX
8
0
10
60.500525
20
35.84933125
30
0
0
VERTEX
8
0
10
60.472028125
20
35.855000000000004
30
0
0
VERTEX
8
0
10
58.787971875000004
20
35.855000000000004
30
0
0
VERTEX
8
0
10
58.759475
20
35.84933125
30
0
0
VERTEX
8
0
10
58.732631250000004
20
35.838212500000004
30
0
0
VERTEX
8
0
10
58.708475
20
35.822071875
30
0
0
VERTEX
8
0
10
58.687928125000006
20
35.801525000000005
30
0
0
VERTEX
8
0
10
58.6717875
20
35.77736875
30
0
0
VERTEX
8
0
10
58.660668750000006
20
35.750525
30
0
0
VERTEX
8
0
10
58.655
20
35.722028125
30
0
0
VERTEX
8
0
10
58.655
20
35.397971875
30
0
0
VERTEX
8
0
10
58.660668750000006
20
35.369475
30
0
0
VERTEX
8
0
10
58.6717875
20
35.342631250000004
30
0
0
VERTEX
8
0
10
58.687928125000006
20
35.318475
30
0
0
VERTEX
8
0
10
58.708475
20
35.297928125
30
0
0
VERTEX
8
0
10
58.732631250000004
20
35.2817875
30
0
0
VERTEX
8
0
10
58.759475
20
35.27066875
30
0
0
VERTEX
8
0
10
58.787971875000004
20
35.265
30
0
0
VERTEX
8
0
10
60.472028125
20
35.265
30
0
0
VERTEX
8
0
10
60.500525
20
35.27066875
30
0
0
VERTEX
8
0
10
60.52736875
20
35.2817875
30
0
0
VERTEX
8
0
10
60.551525000000005
20
35.297928125
30
0
0
VERTEX
8
0
10
60.559596875000004
20
35.306000000000004
30
0
0
VERTEX
8
0
10
66.059990625
20
35.306000000000004
30
0
0
VERTEX
8
0
10
66.099478125
20
35.312253125000005
30
0
0
SEQEND
0
POLYLINE
66
1
8
1_copper
10
0.0
20
0.0
30
0.0
70
1
0
VERTEX
8
0
10
69.947503125
20
34.054609375
30
0
0
VERTEX
8
0
10
69.983125
20
34.072759375000004
30
0
0
VERTEX
8
0
10
70.01546875
20
34.096259375
30
0
0
VERTEX
8
0
10
76.83500000000001
20
40.915790625
30
0
0
VERTEX
8
0
10
76.83500000000001
20
40.386
30
0
0
VERTEX
8
0
10
78.105
20
40.386
30
0
0
VERTEX
8
0
10
78.105
20
44.066
30
0
0
VERTEX
8
0
10
76.83500000000001
20
44.066
30
0
0
VERTEX
8
0
10
76.83500000000001
20
41.634209375000005
30
0
0
VERTEX
8
0
10
69.74479062500001
20
34.544000000000004
30
0
0
VERTEX
8
0
10
60.559596875000004
20
34.544000000000004
30
0
0
VERTEX
8
0
10
60.551525000000005
20
34.552071875
30
0
0
VERTEX
8
0
10
60.52736875
20
34.5682125
30
0
0
VERTEX
8
0
10
60.500525
20
34.57933125
30
0
0
VERTEX
8
0
10
60.472028125
20
34.585
30
0
0
VERTEX
8
0
10
58.787971875000004
20
34.585
30
0
0
VERTEX
8
0
10
58.759475
20
34.57933125
30
0
0
VERTEX
8
0
10
58.732631250000004
20
34.5682125
30
0
0
VERTEX
8
0
10
58.708475
20
34.552071875
30
0
0
VERTEX
8
0
10
58.687928125000006
20
34.531525
30
0
0
VERTEX
8
0
10
58.6717875
20
34.507368750000005
30
0
0
VERTEX
8
0
10
58.660668750000006
20
34.480525
30
0
0
VERTEX
8
0
10
58.655
20
34.452028125
30
0
0
VERTEX
8
0
10
58.655
20
34.127971875
30
0
0
VERTEX
8
0
10
58.660668750000006
20
34.099475
30
0
0
VERTEX
8
0
10
58.6717875
20
34.07263125
30
0
0
VERTEX
8
0
10
58.687928125000006
20
34.048475
30
0
0
VERTEX
8
0
10
58.708475
20
34.027928125
30
0
0
VERTEX
8
0
10
58.732631250000004
20
34.011787500000004
30
0
0
VERTEX
8
0
10
58.759475
20
34.00066875
30
0
0
VERTEX
8
0
10
58.787971875000004
20
33.995000000000005
30
0
0
VERTEX
8
0
10
60.472028125
20
33.995000000000005
30
0
0
VERTEX
8
0
10
60.500525
20
34.00066875
30
0
0
VERTEX
8
0
10
60.52736875
20
34.011787500000004
30
0
0
VERTEX
8
0
10
60.551525000000005
20
34.027928125
30
0
0
VERTEX
8
0
10
60.559596875000004
20
34.036
30
0
0
VERTEX
8
0
10
69.869990625
20
34.036
30
0
0
VERTEX
8
0
10
69.909478125
20
34.042253125
30
0
0
SEQEND
0
POLYLINE
66
1
8
1_copper
10
0.0
20
0.0
30
0.0
70
1
0
VERTEX
8
0
10
52.645521875
20
37.077746875
30
0
0
VERTEX
8
0
10
52.607496875
20
37.065390625
30
0
0
VERTEX
8
0
10
52.571875000000006
20
37.047240625
30
0
0
VERTEX
8
0
10
52.53953125
20
37.023740625
30
0
0
VERTEX
8
0
10
38.541259375
20
23.02546875
30
0
0
VERTEX
8
0
10
38.517759375000004
20
22.993125000000003
30
0
0
VERTEX
8
0
10
38.499609375
20
22.957503125000002
30
0
0
VERTEX
8
0
10
38.487253125
20
22.919478125
30
0
0
VERTEX
8
0
10
38.481
20
22.879990625
30
0
0
VERTEX
8
0
10
38.481
20
13.315009375
30
0
0
VERTEX
8
0
10
38.487253125
20
13.275521875
30
0
0
VERTEX
8
0
10
38.499609375
20
13.237496875000001
30
0
0
VERTEX
8
0
10
38.517759375000004
20
13.201875000000001
30
0
0
VERTEX
8
0
10
38.541259375
20
13.16953125
30
0
0
VERTEX
8
0
10
39.20453125
20
12.506259375
30
0
0
VERTEX
8
0
10
39.236875000000005
20
12.482759375
30
0
0
VERTEX
8
0
10
39.272496875
20
12.464609375
30
0
0
VERTEX
8
0
10
39.310521875
20
12.452253125
30
0
0
VERTEX
8
0
10
39.350009375
20
12.446
30
0
0
VERTEX
8
0
10
44.469990625
20
12.446
30
0
0
VERTEX
8
0
10
44.509478125
20
12.452253125
30
0
0
VERTEX
8
0
10
44.547503125
20
12.464609375
30
0
0
VERTEX
8
0
10
44.583125
20
12.482759375
30
0
0
VERTEX
8
0
10
44.615468750000005
20
12.506259375
30
0
0
VERTEX
8
0
10
45.739209375
20
13.63
30
0
0
VERTEX
8
0
10
46.480000000000004
20
13.63
30
0
0
VERTEX
8
0
10
46.480000000000004
20
16.93
30
0
0
VERTEX
8
0
10
44.96
20
16.93
30
0
0
VERTEX
8
0
10
44.96
20
13.63
30
0
0
VERTEX
8
0
10
45.020790625000004
20
13.63
30
0
0
VERTEX
8
0
10
44.344790625
20
12.954
30
0
0
VERTEX
8
0
10
39.475209375
20
12.954
30
0
0
VERTEX
8
0
10
38.989000000000004
20
13.440209375
30
0
0
VERTEX
8
0
10
38.989000000000004
20
22.754790625000002
30
0
0
VERTEX
8
0
10
52.810209375
20
36.576
30
0
0
VERTEX
8
0
10
53.740403125
20
36.576
30
0
0
VERTEX
8
0
10
53.748475
20
36.567928125
30
0
0
VERTEX
8
0
10
53.77263125
20
36.5517875
30
0
0
VERTEX
8
0
10
53.799475
20
36.54066875
30
0
0
VERTEX
8
0
10
53.827971875
20
36.535000000000004
30
0
0
VERTEX
8
0
10
55.512028125
20
36.535000000000004
30
0
0
VERTEX
8
0
10
55.540525
20
36.54066875
30
0
0
VERTEX
8
0
10
55.56736875
20
36.5517875
30
0
0
VERTEX
8
0
10
55.591525000000004
20
36.567928125
30
0
0
VERTEX
8
0
10
55.612071875000005
20
36.588475
30
0
0
VERTEX
8
0
10
55.628212500000004
20
36.61263125
30
0
0
VERTEX
8
0
10
55.639331250000005
20
36.639475000000004
30
0
0
VERTEX
8
0
10
55.645
20
36.667971875
30
0
0
VERTEX
8
0
10
55.645
20
36.992028125000004
30
0
0
VERTEX
8
0
10
55.639331250000005
20
37.020525
30
0
0
VERTEX
8
0
10
55.628212500000004
20
37.047368750000004
30
0
0
VERTEX
8
0
10
55.612071875000005
20
37.071525
30
0
0
VERTEX
8
0
10
55.591525000000004
20
37.092071875
30
0
0
VERTEX
8
0
10
55.56736875
20
37.1082125
30
0
0
VERTEX
8
0
10
55.540525
20
37.11933125
30
0
0
VERTEX
8
0
10
55.512028125
20
37.125
30
0
0
VERTEX
8
0
10
53.827971875
20
37.125
30
0
0
VERTEX
8
0
10
53.799475
20
37.11933125
30
0
0
VERTEX
8
0
10
53.77263125
20
37.1082125
30
0
0
VERTEX
8
0
10
53.748475
20
37.092071875
30
0
0
VERTEX
8
0
10
53.740403125
20
37.084
30
0
0
VERTEX
8
0
10
52.685009375
20
37.084
30
0
0
SEQEND
0
POLYLINE
66
1
8
1_copper
10
0.0
20
0.0
30
0.0
70
1
0
VERTEX
8
0
10
63.112746875000006
20
62.289478125
30
0
0
VERTEX
8
0
10
63.100390625
20
62.327503125
30
0
0
VERTEX
8
0
10
63.082240625000004
20
62.363125000000004
30
0
0
VERTEX
8
0
10
63.058740625000006
20
62.395468750000006
30
0
0
VERTEX
8
0
10
61.595000000000006
20
63.859209375000006
30
0
0
VERTEX
8
0
10
61.595000000000006
20
66.04
30
0
0
VERTEX
8
0
10
60.325
20
66.04
30
0
0
VERTEX
8
0
10
60.325
20
63.5
30
0
0
VERTEX
8
0
10
61.235790625
20
63.5
30
0
0
VERTEX
8
0
10
62.611000000000004
20
62.124790625
30
0
0
VERTEX
8
0
10
62.611000000000004
20
58.051500000000004
30
0
0
VERTEX
8
0
10
62.548
20
58.051500000000004
30
0
0
VERTEX
8
0
10
62.548
20
56.2485
30
0
0
VERTEX
8
0
10
64.148
20
56.2485
30
0
0
VERTEX
8
0
10
64.148
20
58.051500000000004
30
0
0
VERTEX
8
0
10
63.119
20
58.051500000000004
30
0
0
VERTEX
8
0
10
63.119
20
62.249990625
30
0
0
SEQEND
0
CIRCLE
8
drills_NPTH
10
78.74000000000001
20
44.701
30
0
40
0.595
0
CIRCLE
8
drills_NPTH
10
81.28
20
44.701
30
0
40
0.595
0
CIRCLE
8
drills_NPTH
10
34.29
20
43.18
30
0
40
0.595
0
CIRCLE
8
drills_NPTH
10
31.75
20
43.18
30
0
40
0.595
0
CIRCLE
8
drills_NPTH
10
34.29
20
25.400000000000002
30
0
40
0.595
0
CIRCLE
8
drills_NPTH
10
31.75
20
25.400000000000002
30
0
40
0.595
0
CIRCLE
8
drills_NPTH
10
34.29
20
60.96
30
0
40
0.595
0
CIRCLE
8
drills_NPTH
10
31.75
20
60.96
30
0
40
0.595
0
CIRCLE
8
drills_NPTH
10
-6.3500000000000005
20
7.62
30
0
40
0.595
0
CIRCLE
8
drills_NPTH
10
-3.81
20
7.62
30
0
40
0.595
0
ENDSEC
0
EOF