  0
SECTION
  2
HEADER
  9
$ACADVER
  1
AC1024
  9
$ACADMAINTVER
 70
     6
  9
$DWGCODEPAGE
  3
UNDEFINED
  9
$INSBASE
 10
0.0
 20
0.0
 30
0.0
  9
$EXTMIN
 10
1.000000000000000E+20
 20
1.000000000000000E+20
 30
1.000000000000000E+20
  9
$EXTMAX
 10
-1.000000000000000E+20
 20
-1.000000000000000E+20
 30
-1.000000000000000E+20
  9
$LIMMIN
 10
0.0
 20
0.0
  9
$LIMMAX
 10
12.0
 20
9.0
  9
$ORTHOMODE
 70
     0
  9
$REGENMODE
 70
     1
  9
$FILLMODE
 70
     1
  9
$QTEXTMODE
 70
     0
  9
$MIRRTEXT
 70
     1
  9
$LTSCALE
 40
1.0
  9
$ATTMODE
 70
     1
  9
$TEXTSIZE
 40
0.2
  9
$TRACEWID
 40
0.05
  9
$TEXTSTYLE
  7
Standard
  9
$CLAYER
  8
0
  9
$CELTYPE
  6
ByLayer
  9
$CECOLOR
 62
   256
  9
$CELTSCALE
 40
1.0
  9
$DISPSILH
 70
     0
  9
$DIMSCALE
 40
1.0
  9
$DIMASZ
 40
0.18
  9
$DIMEXO
 40
0.0625
  9
$DIMDLI
 40
0.38
  9
$DIMRND
 40
0.0
  9
$DIMDLE
 40
0.0
  9
$DIMEXE
 40
0.18
  9
$DIMTP
 40
0.0
  9
$DIMTM
 40
0.0
  9
$DIMTXT
 40
0.18
  9
$DIMCEN
 40
0.09
  9
$DIMTSZ
 40
0.0
  9
$DIMTOL
 70
     0
  9
$DIMLIM
 70
     0
  9
$DIMTIH
 70
     1
  9
$DIMTOH
 70
     1
  9
$DIMSE1
 70
     0
  9
$DIMSE2
 70
     0
  9
$DIMTAD
 70
     0
  9
$DIMZIN
 70
     0
  9
$DIMBLK
  1

  9
$DIMASO
 70
     1
  9
$DIMSHO
 70
     1
  9
$DIMPOST
  1

  9
$DIMAPOST
  1

  9
$DIMALT
 70
     0
  9
$DIMALTD
 70
     2
  9
$DIMALTF
 40
25.4
  9
$DIMLFAC
 40
1.0
  9
$DIMTOFL
 70
     0
  9
$DIMTVP
 40
0.0
  9
$DIMTIX
 70
     0
  9
$DIMSOXD
 70
     0
  9
$DIMSAH
 70
     0
  9
$DIMBLK1
  1

  9
$DIMBLK2
  1

  9
$DIMSTYLE
  2
Standard
  9
$DIMCLRD
 70
     0
  9
$DIMCLRE
 70
     0
  9
$DIMCLRT
 70
     0
  9
$DIMTFAC
 40
1.0
  9
$DIMGAP
 40
0.09
  9
$DIMJUST
 70
     0
  9
$DIMSD1
 70
     0
  9
$DIMSD2
 70
     0
  9
$DIMTOLJ
 70
     1
  9
$DIMTZIN
 70
     0
  9
$DIMALTZ
 70
     0
  9
$DIMALTTZ
 70
     0
  9
$DIMUPT
 70
     0
  9
$DIMDEC
 70
     4
  9
$DIMTDEC
 70
     4
  9
$DIMALTU
 70
     2
  9
$DIMALTTD
 70
     2
  9
$DIMTXSTY
  7
Standard
  9
$DIMAUNIT
 70
     0
  9
$DIMADEC
 70
     0
  9
$DIMALTRND
 40
0.0
  9
$DIMAZIN
 70
     0
  9
$DIMDSEP
 70
    46
  9
$DIMATFIT
 70
     3
  9
$DIMFRAC
 70
     0
  9
$DIMLDRBLK
  1

  9
$DIMLUNIT
 70
     2
  9
$DIMLWD
 70
    -2
  9
$DIMLWE
 70
    -2
  9
$DIMTMOVE
 70
     0
  9
$DIMFXL
 40
1.0
  9
$DIMFXLON
 70
     0
  9
$DIMJOGANG
 40
0.7853981633974483
  9
$DIMTFILL
 70
     0
  9
$DIMTFILLCLR
 70
     0
  9
$DIMARCSYM
 70
     0
  9
$DIMLTYPE
  6

  9
$DIMLTEX1
  6

  9
$DIMLTEX2
  6

  9
$DIMTXTDIRECTION
 70
     0
  9
$LUNITS
 70
     2
  9
$LUPREC
 70
     4
  9
$SKETCHINC
 40
0.1
  9
$FILLETRAD
 40
0.5
  9
$AUNITS
 70
     0
  9
$AUPREC
 70
     0
  9
$MENU
  1
.
  9
$ELEVATION
 40
0.0
  9
$PELEVATION
 40
0.0
  9
$THICKNESS
 40
0.0
  9
$LIMCHECK
 70
     0
  9
$CHAMFERA
 40
0.5
  9
$CHAMFERB
 40
0.5
  9
$CHAMFERC
 40
1.0
  9
$CHAMFERD
 40
0.0
  9
$SKPOLY
 70
     0
  9
$TDCREATE
 40
2459623.418206007
  9
$TDUCREATE
 40
2459623.043206018
  9
$TDUPDATE
 40
2459623.418206007
  9
$TDUUPDATE
 40
2459623.043206018
  9
$TDINDWG
 40
0.0000000116
  9
$TDUSRTIMER
 40
0.0000000116
  9
$USRTIMER
 70
     1
  9
$ANGBASE
 50
0.0
  9
$ANGDIR
 70
     0
  9
$PDMODE
 70
     0
  9
$PDSIZE
 40
0.0
  9
$PLINEWID
 40
0.0
  9
$SPLFRAME
 70
     0
  9
$SPLINETYPE
 70
     6
  9
$SPLINESEGS
 70
     8
  9
$HANDSEED
  5
76
  9
$SURFTAB1
 70
     6
  9
$SURFTAB2
 70
     6
  9
$SURFTYPE
 70
     6
  9
$SURFU
 70
     6
  9
$SURFV
 70
     6
  9
$UCSBASE
  2

  9
$UCSNAME
  2

  9
$UCSORG
 10
0.0
 20
0.0
 30
0.0
  9
$UCSXDIR
 10
1.0
 20
0.0
 30
0.0
  9
$UCSYDIR
 10
0.0
 20
1.0
 30
0.0
  9
$UCSORTHOREF
  2

  9
$UCSORTHOVIEW
 70
     0
  9
$UCSORGTOP
 10
0.0
 20
0.0
 30
0.0
  9
$UCSORGBOTTOM
 10
0.0
 20
0.0
 30
0.0
  9
$UCSORGLEFT
 10
0.0
 20
0.0
 30
0.0
  9
$UCSORGRIGHT
 10
0.0
 20
0.0
 30
0.0
  9
$UCSORGFRONT
 10
0.0
 20
0.0
 30
0.0
  9
$UCSORGBACK
 10
0.0
 20
0.0
 30
0.0
  9
$PUCSBASE
  2

  9
$PUCSNAME
  2

  9
$PUCSORG
 10
0.0
 20
0.0
 30
0.0
  9
$PUCSXDIR
 10
1.0
 20
0.0
 30
0.0
  9
$PUCSYDIR
 10
0.0
 20
1.0
 30
0.0
  9
$PUCSORTHOREF
  2

  9
$PUCSORTHOVIEW
 70
     0
  9
$PUCSORGTOP
 10
0.0
 20
0.0
 30
0.0
  9
$PUCSORGBOTTOM
 10
0.0
 20
0.0
 30
0.0
  9
$PUCSORGLEFT
 10
0.0
 20
0.0
 30
0.0
  9
$PUCSORGRIGHT
 10
0.0
 20
0.0
 30
0.0
  9
$PUCSORGFRONT
 10
0.0
 20
0.0
 30
0.0
  9
$PUCSORGBACK
 10
0.0
 20
0.0
 30
0.0
  9
$USERI1
 70
     0
  9
$USERI2
 70
     0
  9
$USERI3
 70
     0
  9
$USERI4
 70
     0
  9
$USERI5
 70
     0
  9
$USERR1
 40
0.0
  9
$USERR2
 40
0.0
  9
$USERR3
 40
0.0
  9
$USERR4
 40
0.0
  9
$USERR5
 40
0.0
  9
$WORLDVIEW
 70
     1
  9
$SHADEDGE
 70
     3
  9
$SHADEDIF
 70
    70
  9
$TILEMODE
 70
     1
  9
$MAXACTVP
 70
    64
  9
$PINSBASE
 10
0.0
 20
0.0
 30
0.0
  9
$PLIMCHECK
 70
     0
  9
$PEXTMIN
 10
1.000000000000000E+20
 20
1.000000000000000E+20
 30
1.000000000000000E+20
  9
$PEXTMAX
 10
-1.000000000000000E+20
 20
-1.000000000000000E+20
 30
-1.000000000000000E+20
  9
$PLIMMIN
 10
0.0
 20
0.0
  9
$PLIMMAX
 10
12.0
 20
9.0
  9
$UNITMODE
 70
     0
  9
$VISRETAIN
 70
     1
  9
$PLINEGEN
 70
     0
  9
$PSLTSCALE
 70
     1
  9
$TREEDEPTH
 70
  3020
  9
$CMLSTYLE
  2
Standard
  9
$CMLJUST
 70
     0
  9
$CMLSCALE
 40
1.0
  9
$PROXYGRAPHICS
 70
     1
  9
$MEASUREMENT
 70
     0
  9
$CELWEIGHT
370
    -1
  9
$ENDCAPS
280
     0
  9
$JOINSTYLE
280
     0
  9
$LWDISPLAY
290
     1
  9
$INSUNITS
 70
     1
  9
$HYPERLINKBASE
  1

  9
$STYLESHEET
  1

  9
$XEDIT
290
     1
  9
$CEPSNTYPE
380
     0
  9
$PSTYLEMODE
290
     1
  9
$FINGERPRINTGUID
  2
{31C28631-3186-4C11-CFA3-5B8DE9088F4F}
  9
$VERSIONGUID
  2
{FAEB1C32-E019-11D5-929B-00C0DF256EC4}
  9
$EXTNAMES
290
     1
  9
$PSVPSCALE
 40
0.0
  9
$OLESTARTUP
290
     0
  9
$SORTENTS
280
   127
  9
$INDEXCTL
280
     0
  9
$HIDETEXT
280
     1
  9
$XCLIPFRAME
280
     2
  9
$HALOGAP
280
     0
  9
$OBSCOLOR
 70
   257
  9
$OBSLTYPE
280
     0
  9
$INTERSECTIONDISPLAY
280
     0
  9
$INTERSECTIONCOLOR
 70
   257
  9
$DIMASSOC
280
     2
  9
$PROJECTNAME
  1

  9
$CAMERADISPLAY
290
     0
  9
$LENSLENGTH
 40
50.0
  9
$CAMERAHEIGHT
 40
0.0
  9
$STEPSPERSEC
 40
2.0
  9
$STEPSIZE
 40
6.0
  9
$3DDWFPREC
 40
2.0
  9
$PSOLWIDTH
 40
0.25
  9
$PSOLHEIGHT
 40
4.0
  9
$LOFTANG1
 40
1.570796326794897
  9
$LOFTANG2
 40
1.570796326794897
  9
$LOFTMAG1
 40
0.0
  9
$LOFTMAG2
 40
0.0
  9
$LOFTPARAM
 70
     7
  9
$LOFTNORMALS
280
     1
  9
$LATITUDE
 40
37.795
  9
$LONGITUDE
 40
-122.394
  9
$NORTHDIRECTION
 40
0.0
  9
$TIMEZONE
 70
 -8000
  9
$LIGHTGLYPHDISPLAY
280
     1
  9
$TILEMODELIGHTSYNCH
280
     1
  9
$CMATERIAL
347
3C
  9
$SOLIDHIST
280
     1
  9
$SHOWHIST
280
     1
  9
$DWFFRAME
280
     2
  9
$DGNFRAME
280
     2
  9
$REALWORLDSCALE
290
     1
  9
$INTERFERECOLOR
 62
   256
  9
$CSHADOW
280
     0
  9
$SHADOWPLANELOCATION
 40
0.0
  0
ENDSEC
  0
SECTION
  2
CLASSES
  0
CLASS
  1
ACDBDICTIONARYWDFLT
  2
AcDbDictionaryWithDefault
  3
ObjectDBX Classes
 90
        0
 91
        4
280
     0
281
     0
  0
CLASS
  1
VISUALSTYLE
  2
AcDbVisualStyle
  3
ObjectDBX Classes
 90
     4095
 91
        4
280
     0
281
     0
  0
CLASS
  1
MATERIAL
  2
AcDbMaterial
  3
ObjectDBX Classes
 90
     1153
 91
        4
280
     0
281
     0
  0
CLASS
  1
SUN
  2
AcDbSun
  3
SCENEOE
 90
     1024
 91
        4
280
     0
281
     0
  0
ENDSEC
  0
SECTION
  2
TABLES
  0
TABLE
  2
VPORT
  5
8
330
0
100
AcDbSymbolTable
 70
     1
  0
VPORT
  5
29
330
8
100
AcDbSymbolTableRecord
100
AcDbViewportTableRecord
  2
*Active
 70
     0
 10
0.0
 20
0.0
 11
1.0
 21
1.0
 12
0.0
 22
0.0
 13
0.0
 23
0.0
 14
0.5
 24
0.5
 15
0.5
 25
0.5
 16
0.0
 26
0.0
 36
1.0
 17
24.99999999375587
 27
-24.99999999375587
 37
0.0
 40
49.99999998751174
 41
1.0
 42
50.0
 43
0.0
 44
0.0
 50
0.0
 51
0.0
 71
     0
 72
   100
 73
     1
 74
     3
 75
     0
 76
     0
 77
     0
 78
     0
281
     0
 65
     1
110
0.0
120
0.0
130
0.0
111
1.0
121
0.0
131
0.0
112
0.0
122
1.0
132
0.0
 79
     0
146
0.0
 60
     3
 61
     5
292
     1
282
     1
141
0.0
142
0.0
 63
   250
361
3F
  0
ENDTAB
  0
TABLE
  2
LTYPE
  5
5
330
0
100
AcDbSymbolTable
 70
     1
  0
LTYPE
  5
14
330
5
100
AcDbSymbolTableRecord
100
AcDbLinetypeTableRecord
  2
ByBlock
 70
     0
  3

 72
    65
 73
     0
 40
0.0
  0
LTYPE
  5
15
330
5
100
AcDbSymbolTableRecord
100
AcDbLinetypeTableRecord
  2
ByLayer
 70
     0
  3

 72
    65
 73
     0
 40
0.0
  0
LTYPE
  5
16
330
5
100
AcDbSymbolTableRecord
100
AcDbLinetypeTableRecord
  2
Continuous
 70
     0
  3
Solid line
 72
    65
 73
     0
 40
0.0
  0
ENDTAB
  0
TABLE
  2
LAYER
  5
2
330
0
100
AcDbSymbolTable
 70
     3
  0
LAYER
  5
10
330
2
100
AcDbSymbolTableRecord
100
AcDbLayerTableRecord
  2
0
 70
     0
 62
     7
  6
Continuous
370
    -3
390
F
347
3E
  0
LAYER
  5
40
330
2
100
AcDbSymbolTableRecord
100
AcDbLayerTableRecord
  2
suqirrels
 70
     5
 62
     7
  6
Continuous
370
    -3
390
F
347
3E
  0
LAYER
  5
64
330
2
100
AcDbSymbolTableRecord
100
AcDbLayerTableRecord
  2
suqirrels outline
 70
     0
 62
     7
  6
Continuous
370
    -3
390
F
347
3E
  0
ENDTAB
  0
TABLE
  2
STYLE
  5
3
330
0
100
AcDbSymbolTable
 70
     1
  0
STYLE
  5
11
330
3
100
AcDbSymbolTableRecord
100
AcDbTextStyleTableRecord
  2
Standard
 70
     0
 40
0.0
 41
1.0
 50
0.0
 71
     0
 42
0.2
  3
txt
  4

  0
ENDTAB
  0
TABLE
  2
VIEW
  5
6
330
0
100
AcDbSymbolTable
 70
     0
  0
ENDTAB
  0
TABLE
  2
UCS
  5
7
330
0
100
AcDbSymbolTable
 70
     0
  0
ENDTAB
  0
TABLE
  2
APPID
  5
9
330
0
100
AcDbSymbolTable
 70
     1
  0
APPID
  5
12
330
9
100
AcDbSymbolTableRecord
100
AcDbRegAppTableRecord
  2
ACAD
 70
     0
  0
ENDTAB
  0
TABLE
  2
DIMSTYLE
  5
A
330
0
100
AcDbSymbolTable
 70
     1
100
AcDbDimStyleTable
  0
DIMSTYLE
105
27
330
A
100
AcDbSymbolTableRecord
100
AcDbDimStyleTableRecord
  2
Standard
 70
     0
178
     0
340
11
  0
ENDTAB
  0
TABLE
  2
BLOCK_RECORD
  5
1
330
0
100
AcDbSymbolTable
 70
     7
  0
BLOCK_RECORD
  5
1F
330
1
100
AcDbSymbolTableRecord
100
AcDbBlockTableRecord
  2
*Model_Space
340
22
 70
     0
280
     1
281
     0
  0
BLOCK_RECORD
  5
1B
330
1
100
AcDbSymbolTableRecord
100
AcDbBlockTableRecord
  2
*Paper_Space
340
1E
 70
     0
280
     1
281
     0
  0
BLOCK_RECORD
  5
23
330
1
100
AcDbSymbolTableRecord
100
AcDbBlockTableRecord
  2
*Paper_Space0
340
26
 70
     0
280
     1
281
     0
  0
BLOCK_RECORD
  5
41
330
1
100
AcDbSymbolTableRecord
100
AcDbBlockTableRecord
  2
block 2
340
0
102
{BLKREFS
331
42
102
}
 70
     0
280
     1
281
     0
  0
BLOCK_RECORD
  5
49
330
1
100
AcDbSymbolTableRecord
100
AcDbBlockTableRecord
  2
block 3
340
0
102
{BLKREFS
331
4A
102
}
 70
     0
280
     1
281
     0
  0
BLOCK_RECORD
  5
53
330
1
100
AcDbSymbolTableRecord
100
AcDbBlockTableRecord
  2
block 4
340
0
102
{BLKREFS
331
54
102
}
 70
     0
280
     1
281
     0
  0
BLOCK_RECORD
  5
5A
330
1
100
AcDbSymbolTableRecord
100
AcDbBlockTableRecord
  2
block 5
340
0
102
{BLKREFS
331
5B
102
}
 70
     0
280
     1
281
     0
  0
BLOCK_RECORD
  5
66
330
1
100
AcDbSymbolTableRecord
100
AcDbBlockTableRecord
  2
block 6
340
0
102
{BLKREFS
331
67
102
}
 70
     0
280
     1
281
     0
  0
BLOCK_RECORD
  5
6D
330
1
100
AcDbSymbolTableRecord
100
AcDbBlockTableRecord
  2
block 7
340
0
102
{BLKREFS
331
6E
102
}
 70
     0
280
     1
281
     0
  0
ENDTAB
  0
ENDSEC
  0
SECTION
  2
BLOCKS
  0
BLOCK
  5
20
330
1F
100
AcDbEntity
  8
0
100
AcDbBlockBegin
  2
*Model_Space
 70
     0
 10
0.0
 20
0.0
 30
0.0
  3
*Model_Space
  1

  0
ENDBLK
  5
21
330
1F
100
AcDbEntity
  8
0
100
AcDbBlockEnd
  0
BLOCK
  5
1C
330
1B
100
AcDbEntity
 67
     1
  8
0
100
AcDbBlockBegin
  2
*Paper_Space
 70
     0
 10
0.0
 20
0.0
 30
0.0
  3
*Paper_Space
  1

  0
ENDBLK
  5
1D
330
1B
100
AcDbEntity
 67
     1
  8
0
100
AcDbBlockEnd
  0
BLOCK
  5
24
330
23
100
AcDbEntity
  8
0
100
AcDbBlockBegin
  2
*Paper_Space0
 70
     0
 10
0.0
 20
0.0
 30
0.0
  3
*Paper_Space0
  1

  0
ENDBLK
  5
25
330
23
100
AcDbEntity
  8
0
100
AcDbBlockEnd
  0
BLOCK
  5
43
330
41
100
AcDbEntity
  8
0
100
AcDbBlockBegin
  2
block 2
 70
     0
 10
0.0
 20
0.0
 30
0.0
  3
block 2
  1

  0
SPLINE
  5
45
330
41
100
AcDbEntity
  8
suqirrels
 62
   179
420
  2301728
370
    35
100
AcDbSpline
210
0.0
220
0.0
230
1.0
 70
     8
 71
     3
 72
     8
 73
     4
 74
     0
 42
0.0000000001
 43
0.0000000001
 12
1.0
 22
0.0
 32
0.0
 13
1.0
 23
0.0
 33
0.0
 40
0.0
 40
0.0
 40
0.0
 40
0.0
 40
1.0
 40
1.0
 40
1.0
 40
1.0
 10
29.89791665919219
 20
-38.2763888793198
 30
0.0
 10
30.69166665899375
 20
-37.43854165730703
 30
0.0
 10
32.45555554744167
 20
-36.77708332413906
 30
0.0
 10
33.29340276945443
 20
-37.74722221278542
 30
0.0
  0
SPLINE
  5
46
330
41
100
AcDbEntity
  8
suqirrels
 62
   179
420
  2301728
370
    35
100
AcDbSpline
210
0.0
220
0.0
230
1.0
 70
     8
 71
     3
 72
     8
 73
     4
 74
     0
 42
0.0000000001
 43
0.0000000001
 12
1.0
 22
0.0
 32
0.0
 13
1.0
 23
0.0
 33
0.0
 40
0.0
 40
0.0
 40
0.0
 40
0.0
 40
1.0
 40
1.0
 40
1.0
 40
1.0
 10
30.16249999245938
 20
-39.02604165691016
 30
0.0
 10
31.48541665879531
 20
-38.76145832364297
 30
0.0
 10
32.63194443628646
 20
-39.07013887912136
 30
0.0
 10
33.7784722137776
 20
-39.90798610113411
 30
0.0
  0
SPLINE
  5
47
330
41
100
AcDbEntity
  8
suqirrels
 62
   179
420
  2301728
370
    35
100
AcDbSpline
210
0.0
220
0.0
230
1.0
 70
     8
 71
     3
 72
     8
 73
     4
 74
     0
 42
0.0000000001
 43
0.0000000001
 12
1.0
 22
0.0
 32
0.0
 13
1.0
 23
0.0
 33
0.0
 40
0.0
 40
0.0
 40
0.0
 40
0.0
 40
1.0
 40
1.0
 40
1.0
 40
1.0
 10
19.53506943957479
 20
-38.27638887940707
 30
0.0
 10
18.74131943981077
 20
-37.43854165735901
 30
0.0
 10
16.97743055139237
 20
-36.77708332411147
 30
0.0
 10
16.1395833293363
 20
-37.74722221272061
 30
0.0
  0
SPLINE
  5
48
330
41
100
AcDbEntity
  8
suqirrels
 62
   179
420
  2301728
370
    35
100
AcDbSpline
210
0.0
220
0.0
230
1.0
 70
     8
 71
     3
 72
     8
 73
     4
 74
     0
 42
0.0000000001
 43
0.0000000001
 12
1.0
 22
0.0
 32
0.0
 13
1.0
 23
0.0
 33
0.0
 40
0.0
 40
0.0
 40
0.0
 40
0.0
 40
1.0
 40
1.0
 40
1.0
 40
1.0
 10
19.27048610627392
 20
-39.02604165698588
 30
0.0
 10
17.94756943994985
 20
-38.76145832365901
 30
0.0
 10
16.80104166244491
 20
-39.07013887908606
 30
0.0
 10
15.6545138849159
 20
-39.90798610104748
 30
0.0
  0
ENDBLK
  5
44
330
41
100
AcDbEntity
  8
0
100
AcDbBlockEnd
  0
BLOCK
  5
4B
330
49
100
AcDbEntity
  8
0
100
AcDbBlockBegin
  2
block 3
 70
     0
 10
0.0
 20
0.0
 30
0.0
  3
block 3
  1

  0
SPLINE
  5
4D
330
49
100
AcDbEntity
  8
suqirrels
 62
   178
420
        0
370
    35
100
AcDbSpline
210
0.0
220
0.0
230
1.0
 70
     8
 71
     3
 72
     8
 73
     4
 74
     0
 42
0.0000000001
 43
0.0000000001
 12
1.0
 22
0.0
 32
0.0
 13
1.0
 23
0.0
 33
0.0
 40
0.0
 40
0.0
 40
0.0
 40
0.0
 40
1.0
 40
1.0
 40
1.0
 40
1.0
 10
31.36874999195201
 20
-13.67013888547135
 30
0.0
 10
32.16249999175358
 20
-12.83229166345859
 30
0.0
 10
33.92638888020149
 20
-12.17083333029063
 30
0.0
 10
34.76423610221426
 20
-13.14097221893698
 30
0.0
  0
SPLINE
  5
4E
330
49
100
AcDbEntity
  8
suqirrels
 62
   178
420
        0
370
    35
100
AcDbSpline
210
0.0
220
0.0
230
1.0
 70
     8
 71
     3
 72
     8
 73
     4
 74
     0
 42
0.0000000001
 43
0.0000000001
 12
1.0
 22
0.0
 32
0.0
 13
1.0
 23
0.0
 33
0.0
 40
0.0
 40
0.0
 40
0.0
 40
0.0
 40
1.0
 40
1.0
 40
1.0
 40
1.0
 10
31.6333333252192
 20
-14.41979166306172
 30
0.0
 10
32.95624999155514
 20
-14.15520832979453
 30
0.0
 10
34.10277776904628
 20
-14.46388888527292
 30
0.0
 10
35.24930554653744
 20
-15.30173610728568
 30
0.0
  0
SPLINE
  5
4F
330
49
100
AcDbEntity
  8
suqirrels
 62
   178
420
        0
370
    35
100
AcDbSpline
210
0.0
220
0.0
230
1.0
 70
     8
 71
     3
 72
     8
 73
     4
 74
     0
 42
0.0000000001
 43
0.0000000001
 12
1.0
 22
0.0
 32
0.0
 13
1.0
 23
0.0
 33
0.0
 40
0.0
 40
0.0
 40
0.0
 40
0.0
 40
1.0
 40
1.0
 40
1.0
 40
1.0
 10
18.5350694399277
 20
-13.67013888555863
 30
0.0
 10
17.74131944016367
 20
-12.83229166351057
 30
0.0
 10
15.97743055174527
 20
-12.17083333026303
 30
0.0
 10
15.1395833296892
 20
-13.14097221887217
 30
0.0
  0
SPLINE
  5
50
330
49
100
AcDbEntity
  8
suqirrels
 62
   178
420
        0
370
    35
100
AcDbSpline
210
0.0
220
0.0
230
1.0
 70
     8
 71
     3
 72
     8
 73
     4
 74
     0
 42
0.0000000001
 43
0.0000000001
 12
1.0
 22
0.0
 32
0.0
 13
1.0
 23
0.0
 33
0.0
 40
0.0
 40
0.0
 40
0.0
 40
0.0
 40
1.0
 40
1.0
 40
1.0
 40
1.0
 10
18.27048610662682
 20
-14.41979166313744
 30
0.0
 10
16.94756944030275
 20
-14.15520832981057
 30
0.0
 10
15.80104166279781
 20
-14.46388888523762
 30
0.0
 10
14.6545138852688
 20
-15.30173610719905
 30
0.0
  0
ENDBLK
  5
4C
330
49
100
AcDbEntity
  8
0
100
AcDbBlockEnd
  0
BLOCK
  5
55
330
53
100
AcDbEntity
  8
0
100
AcDbBlockBegin
  2
block 4
 70
     0
 10
0.0
 20
0.0
 30
0.0
  3
block 4
  1

  0
SPLINE
  5
57
330
53
100
AcDbEntity
  8
suqirrels
370
     0
100
AcDbSpline
210
0.0
220
0.0
230
1.0
 70
    11
 71
     3
 72
    17
 73
    13
 74
     0
 42
0.0000000001
 43
0.0000000001
 12
1.0
 22
0.0
 32
0.0
 13
1.0
 23
0.0
 33
0.0
 40
0.0
 40
0.0
 40
0.0
 40
0.0
 40
1.0
 40
1.0
 40
1.0
 40
2.0
 40
2.0
 40
2.0
 40
3.0
 40
3.0
 40
3.0
 40
4.0
 40
4.0
 40
4.0
 40
4.0
 10
29.64256876600423
 20
-10.47061682568345
 30
0.0
 10
29.64256876600423
 20
-10.97838656203368
 30
0.0
 10
29.45838358141763
 20
-11.4704792562965
 30
0.0
 10
28.97806101935242
 20
-11.41389224174525
 30
0.0
 10
28.65027755486315
 20
-11.37527592608672
 30
0.0
 10
28.38045203458999
 20
-11.00226353999987
 30
0.0
 10
28.38045203458999
 20
-10.49449380364964
 30
0.0
 10
28.38045203458999
 20
-9.98672406729941
 30
0.0
 10
28.65492902766712
 20
-9.64231839268731
 30
0.0
 10
28.97806101935242
 20
-9.575095365554029
 30
0.0
 10
29.3531349045111
 20
-9.497066564296878
 30
0.0
 10
29.64256876600423
 20
-9.962847089333223
 30
0.0
 10
29.64256876600423
 20
-10.47061682568345
 30
0.0
  0
SPLINE
  5
58
330
53
100
AcDbEntity
  8
suqirrels
370
     0
100
AcDbSpline
210
0.0
220
0.0
230
1.0
 70
    11
 71
     3
 72
    17
 73
    13
 74
     0
 42
0.0000000001
 43
0.0000000001
 12
1.0
 22
0.0
 32
0.0
 13
1.0
 23
0.0
 33
0.0
 40
0.0
 40
0.0
 40
0.0
 40
0.0
 40
1.0
 40
1.0
 40
1.0
 40
2.0
 40
2.0
 40
2.0
 40
3.0
 40
3.0
 40
3.0
 40
4.0
 40
4.0
 40
4.0
 40
4.0
 10
21.47219036845918
 20
-10.49578396888057
 30
0.0
 10
21.47219036845918
 20
-11.0035537052308
 30
0.0
 10
21.20238973811126
 20
-11.3767779514592
 30
0.0
 10
20.87458138369675
 20
-11.41518240697618
 30
0.0
 10
20.31699091905502
 20
-11.4805070331112
 30
0.0
 10
20.19440499310837
 20
-11.00758936188727
 30
0.0
 10
20.19440499310837
 20
-10.49981962553704
 30
0.0
 10
20.19440499310837
 20
-9.992049889186815
 30
0.0
 10
20.34168360266075
 20
-9.55381834960104
 30
0.0
 10
20.86862758581574
 20
-9.611071662423113
 30
0.0
 10
21.2107870744297
 20
-9.648247842174504
 30
0.0
 10
21.47219036845918
 20
-9.988014232530341
 30
0.0
 10
21.47219036845918
 20
-10.49578396888057
 30
0.0
  0
SPLINE
  5
59
330
53
100
AcDbEntity
  8
suqirrels
370
     0
100
AcDbSpline
210
0.0
220
0.0
230
1.0
 70
    11
 71
     3
 72
    32
 73
    28
 74
     0
 42
0.0000000001
 43
0.0000000001
 12
1.0
 22
0.0
 32
0.0
 13
1.0
 23
0.0
 33
0.0
 40
0.0
 40
0.0
 40
0.0
 40
0.0
 40
1.0
 40
1.0
 40
1.0
 40
2.0
 40
2.0
 40
2.0
 40
3.0
 40
3.0
 40
3.0
 40
4.0
 40
4.0
 40
4.0
 40
5.0
 40
5.0
 40
5.0
 40
6.0
 40
6.0
 40
6.0
 40
7.0
 40
7.0
 40
7.0
 40
8.0
 40
8.0
 40
8.0
 40
9.0
 40
9.0
 40
9.0
 40
9.0
 10
24.68474919575034
 20
-15.5656282689027
 30
0.0
 10
24.68474919575034
 20
-15.5656282689027
 30
0.0
 10
24.63765061658161
 20
-14.01137515633451
 30
0.0
 10
24.63765061658161
 20
-14.01137515633451
 30
0.0
 10
24.63765061658161
 20
-14.01137515633451
 30
0.0
 10
23.83543036770697
 20
-13.49621989625016
 30
0.0
 10
23.83697477071332
 20
-13.11650215212877
 30
0.0
 10
23.83891195055253
 20
-12.6402135438603
 30
0.0
 10
25.89529568788813
 20
-12.7003730908736
 30
0.0
 10
26.00350941247459
 20
-13.02230499379132
 30
0.0
 10
26.15184860670326
 20
-13.46360871250117
 30
0.0
 10
25.20283356660629
 20
-14.01137515633451
 30
0.0
 10
25.20283356660629
 20
-14.01137515633451
 30
0.0
 10
25.20283356660629
 20
-14.01137515633451
 30
0.0
 10
25.15573498743757
 20
-15.5656282689027
 30
0.0
 10
25.15573498743757
 20
-15.5656282689027
 30
0.0
 10
25.15573498743757
 20
-15.5656282689027
 30
0.0
 10
26.70836361800529
 20
-15.09437050471161
 30
0.0
 10
27.09015078198365
 20
-13.73397089240537
 30
0.0
 10
27.59205976784191
 20
-11.94554829940919
 30
0.0
 10
26.00350941247459
 20
-11.60934761872962
 30
0.0
 10
24.8260449332565
 20
-11.65644619789834
 30
0.0
 10
23.64858045403842
 20
-11.70354477706707
 30
0.0
 10
22.22046138305466
 20
-12.10124680331619
 30
0.0
 10
22.64863226879865
 20
-13.54145796445451
 30
0.0
 10
23.21064618840333
 20
-15.43186842130554
 30
0.0
 10
24.68474919575034
 20
-15.5656282689027
 30
0.0
 10
24.68474919575034
 20
-15.5656282689027
 30
0.0
  0
ENDBLK
  5
56
330
53
100
AcDbEntity
  8
0
100
AcDbBlockEnd
  0
BLOCK
  5
5C
330
5A
100
AcDbEntity
  8
0
100
AcDbBlockBegin
  2
block 5
 70
     0
 10
0.0
 20
0.0
 30
0.0
  3
block 5
  1

  0
SPLINE
  5
5E
330
5A
100
AcDbEntity
  8
suqirrels
370
     0
100
AcDbSpline
210
0.0
220
0.0
230
1.0
 70
    11
 71
     3
 72
    23
 73
    19
 74
     0
 42
0.0000000001
 43
0.0000000001
 12
1.0
 22
0.0
 32
0.0
 13
1.0
 23
0.0
 33
0.0
 40
0.0
 40
0.0
 40
0.0
 40
0.0
 40
1.0
 40
1.0
 40
1.0
 40
2.0
 40
2.0
 40
2.0
 40
3.0
 40
3.0
 40
3.0
 40
4.0
 40
4.0
 40
4.0
 40
5.0
 40
5.0
 40
5.0
 40
6.0
 40
6.0
 40
6.0
 40
6.0
 10
24.61129000522578
 20
-40.7691746975502
 30
0.0
 10
24.61129000522578
 20
-40.7691746975502
 30
0.0
 10
23.39665924242788
 20
-40.22135803241692
 30
0.0
 10
23.1112900056008
 20
-39.36739731394038
 30
0.0
 10
22.95316056805627
 20
-38.89419869730188
 30
0.0
 10
23.25321596433204
 20
-38.17013822692762
 30
0.0
 10
23.79388678176977
 20
-38.17013822692762
 30
0.0
 10
24.33455759920751
 20
-38.17013822692762
 30
0.0
 10
24.61129000522578
 20
-38.90496071214615
 30
0.0
 10
24.61129000522578
 20
-38.90496071214615
 30
0.0
 10
24.61129000522578
 20
-38.90496071214615
 30
0.0
 10
24.8517918575414
 20
-38.17013822692762
 30
0.0
 10
25.42073210200341
 20
-38.17013822692762
 30
0.0
 10
25.9896723464654
 20
-38.17013822692762
 30
0.0
 10
26.27114234462273
 20
-38.88575168726839
 30
0.0
 10
26.11129000485108
 20
-39.36739731394038
 30
0.0
 10
25.83519497005499
 20
-40.19928983578649
 30
0.0
 10
24.61129000522578
 20
-40.7691746975502
 30
0.0
 10
24.61129000522578
 20
-40.7691746975502
 30
0.0
  0
HATCH
  5
5F
330
5A
100
AcDbEntity
  8
suqirrels
 62
     7
420
 16777215
100
AcDbHatch
 10
0.0
 20
0.0
 30
0.0
210
0.0
220
0.0
230
1.0
  2
SOLID
 70
     1
 71
     0
 91
        1
 92
        1
 93
        1
 72
     4
 94
        3
 73
     0
 74
     1
 95
       23
 96
       19
 40
0.0
 40
0.0
 40
0.0
 40
0.0
 40
1.0
 40
1.0
 40
1.0
 40
2.0
 40
2.0
 40
2.0
 40
3.0
 40
3.0
 40
3.0
 40
4.0
 40
4.0
 40
4.0
 40
5.0
 40
5.0
 40
5.0
 40
6.0
 40
6.0
 40
6.0
 40
6.0
 10
24.61129000522578
 20
-40.7691746975502
 10
24.61129000522578
 20
-40.7691746975502
 10
23.39665924242788
 20
-40.22135803241692
 10
23.1112900056008
 20
-39.36739731394038
 10
22.95316056805627
 20
-38.89419869730188
 10
23.25321596433204
 20
-38.17013822692762
 10
23.79388678176977
 20
-38.17013822692762
 10
24.33455759920751
 20
-38.17013822692762
 10
24.61129000522578
 20
-38.90496071214615
 10
24.61129000522578
 20
-38.90496071214615
 10
24.61129000522578
 20
-38.90496071214615
 10
24.8517918575414
 20
-38.17013822692762
 10
25.42073210200341
 20
-38.17013822692762
 10
25.9896723464654
 20
-38.17013822692762
 10
26.27114234462273
 20
-38.88575168726839
 10
26.11129000485108
 20
-39.36739731394038
 10
25.83519497005499
 20
-40.19928983578649
 10
24.61129000522578
 20
-40.7691746975502
 10
24.61129000522578
 20
-40.7691746975502
 97
        0
 97
        0
 75
     2
 76
     1
 98
        0
  0
SPLINE
  5
60
330
5A
100
AcDbEntity
  8
suqirrels
370
     0
100
AcDbSpline
210
0.0
220
0.0
230
1.0
 70
    11
 71
     3
 72
    17
 73
    13
 74
     0
 42
0.0000000001
 43
0.0000000001
 12
1.0
 22
0.0
 32
0.0
 13
1.0
 23
0.0
 33
0.0
 40
0.0
 40
0.0
 40
0.0
 40
0.0
 40
1.0
 40
1.0
 40
1.0
 40
2.0
 40
2.0
 40
2.0
 40
3.0
 40
3.0
 40
3.0
 40
4.0
 40
4.0
 40
4.0
 40
4.0
 10
28.64569438484376
 20
-37.21168240502786
 30
0.0
 10
28.64569438484376
 20
-37.71945214137808
 30
0.0
 10
28.38800990920018
 20
-38.13934651734281
 30
0.0
 10
27.97806101970533
 20
-38.15166348618838
 30
0.0
 10
27.64815956016317
 20
-38.16157541936668
 30
0.0
 10
27.38045203494289
 20
-37.740034784443
 30
0.0
 10
27.38045203494289
 20
-37.23226504809278
 30
0.0
 10
27.38045203494289
 20
-36.72449531174254
 30
0.0
 10
27.6590961888573
 20
-36.39768792871767
 30
0.0
 10
27.97806101970533
 20
-36.31286660999717
 30
0.0
 10
28.33401349993645
 20
-36.21820928149217
 30
0.0
 10
28.64569438484376
 20
-36.70391266867762
 30
0.0
 10
28.64569438484376
 20
-37.21168240502786
 30
0.0
  0
HATCH
  5
61
330
5A
100
AcDbEntity
  8
suqirrels
 62
     7
420
 16777215
100
AcDbHatch
 10
0.0
 20
0.0
 30
0.0
210
0.0
220
0.0
230
1.0
  2
SOLID
 70
     1
 71
     0
 91
        1
 92
        1
 93
        1
 72
     4
 94
        3
 73
     0
 74
     1
 95
       17
 96
       13
 40
0.0
 40
0.0
 40
0.0
 40
0.0
 40
1.0
 40
1.0
 40
1.0
 40
2.0
 40
2.0
 40
2.0
 40
3.0
 40
3.0
 40
3.0
 40
4.0
 40
4.0
 40
4.0
 40
4.0
 10
28.64569438484376
 20
-37.21168240502786
 10
28.64569438484376
 20
-37.71945214137808
 10
28.38800990920018
 20
-38.13934651734281
 10
27.97806101970533
 20
-38.15166348618838
 10
27.64815956016317
 20
-38.16157541936668
 10
27.38045203494289
 20
-37.740034784443
 10
27.38045203494289
 20
-37.23226504809278
 10
27.38045203494289
 20
-36.72449531174254
 10
27.6590961888573
 20
-36.39768792871767
 10
27.97806101970533
 20
-36.31286660999717
 10
28.33401349993645
 20
-36.21820928149217
 10
28.64569438484376
 20
-36.70391266867762
 10
28.64569438484376
 20
-37.21168240502786
 97
        0
 97
        0
 75
     2
 76
     1
 98
        0
  0
SPLINE
  5
62
330
5A
100
AcDbEntity
  8
suqirrels
370
     0
100
AcDbSpline
210
0.0
220
0.0
230
1.0
 70
    11
 71
     3
 72
    17
 73
    13
 74
     0
 42
0.0000000001
 43
0.0000000001
 12
1.0
 22
0.0
 32
0.0
 13
1.0
 23
0.0
 33
0.0
 40
0.0
 40
0.0
 40
0.0
 40
0.0
 40
1.0
 40
1.0
 40
1.0
 40
2.0
 40
2.0
 40
2.0
 40
3.0
 40
3.0
 40
3.0
 40
4.0
 40
4.0
 40
4.0
 40
4.0
 10
21.87219036831802
 20
-37.23226504809278
 30
0.0
 10
21.87219036831802
 20
-37.740034784443
 30
0.0
 10
21.60449220370153
 20
-38.14206816555275
 30
0.0
 10
21.27458138355559
 20
-38.15166348618838
 30
0.0
 10
20.81208632529507
 20
-38.16511496490748
 30
0.0
 10
20.60593874478053
 20
-37.71945214137808
 30
0.0
 10
20.60593874478053
 20
-37.21168240502786
 30
0.0
 10
20.60593874478053
 20
-36.70391266867762
 30
0.0
 10
20.75333334974302
 20
-36.23505615178407
 30
0.0
 10
21.27458138355559
 20
-36.31286660999717
 30
0.0
 10
21.60024606647558
 20
-36.36148092901237
 30
0.0
 10
21.87219036831802
 20
-36.72449531174254
 30
0.0
 10
21.87219036831802
 20
-37.23226504809278
 30
0.0
  0
HATCH
  5
63
330
5A
100
AcDbEntity
  8
suqirrels
 62
     7
420
 16777215
100
AcDbHatch
 10
0.0
 20
0.0
 30
0.0
210
0.0
220
0.0
230
1.0
  2
SOLID
 70
     1
 71
     0
 91
        1
 92
        1
 93
        1
 72
     4
 94
        3
 73
     0
 74
     1
 95
       17
 96
       13
 40
0.0
 40
0.0
 40
0.0
 40
0.0
 40
1.0
 40
1.0
 40
1.0
 40
2.0
 40
2.0
 40
2.0
 40
3.0
 40
3.0
 40
3.0
 40
4.0
 40
4.0
 40
4.0
 40
4.0
 10
21.87219036831802
 20
-37.23226504809278
 10
21.87219036831802
 20
-37.740034784443
 10
21.60449220370153
 20
-38.14206816555275
 10
21.27458138355559
 20
-38.15166348618838
 10
20.81208632529507
 20
-38.16511496490748
 10
20.60593874478053
 20
-37.71945214137808
 10
20.60593874478053
 20
-37.21168240502786
 10
20.60593874478053
 20
-36.70391266867762
 10
20.75333334974302
 20
-36.23505615178407
 10
21.27458138355559
 20
-36.31286660999717
 10
21.60024606647558
 20
-36.36148092901237
 10
21.87219036831802
 20
-36.72449531174254
 10
21.87219036831802
 20
-37.23226504809278
 97
        0
 97
        0
 75
     2
 76
     1
 98
        0
  0
ENDBLK
  5
5D
330
5A
100
AcDbEntity
  8
0
100
AcDbBlockEnd
  0
BLOCK
  5
68
330
66
100
AcDbEntity
  8
0
100
AcDbBlockBegin
  2
block 6
 70
     0
 10
0.0
 20
0.0
 30
0.0
  3
block 6
  1

  0
SPLINE
  5
6A
330
66
100
AcDbEntity
  8
suqirrels outline
370
     0
100
AcDbSpline
210
0.0
220
0.0
230
1.0
 70
    11
 71
     3
 72
    17
 73
    13
 74
     0
 42
0.0000000001
 43
0.0000000001
 12
1.0
 22
0.0
 32
0.0
 13
1.0
 23
0.0
 33
0.0
 40
0.0
 40
0.0
 40
0.0
 40
0.0
 40
1.0
 40
1.0
 40
1.0
 40
2.0
 40
2.0
 40
2.0
 40
3.0
 40
3.0
 40
3.0
 40
4.0
 40
4.0
 40
4.0
 40
4.0
 10
29.64256876600423
 20
-10.47061682568345
 30
0.0
 10
29.64256876600423
 20
-10.97838656203368
 30
0.0
 10
29.45838358141763
 20
-11.4704792562965
 30
0.0
 10
28.97806101935242
 20
-11.41389224174525
 30
0.0
 10
28.65027755486315
 20
-11.37527592608672
 30
0.0
 10
28.38045203458999
 20
-11.00226353999987
 30
0.0
 10
28.38045203458999
 20
-10.49449380364964
 30
0.0
 10
28.38045203458999
 20
-9.98672406729941
 30
0.0
 10
28.65492902766712
 20
-9.64231839268731
 30
0.0
 10
28.97806101935242
 20
-9.575095365554029
 30
0.0
 10
29.3531349045111
 20
-9.497066564296878
 30
0.0
 10
29.64256876600423
 20
-9.962847089333223
 30
0.0
 10
29.64256876600423
 20
-10.47061682568345
 30
0.0
  0
SPLINE
  5
6B
330
66
100
AcDbEntity
  8
suqirrels outline
370
     0
100
AcDbSpline
210
0.0
220
0.0
230
1.0
 70
    11
 71
     3
 72
    17
 73
    13
 74
     0
 42
0.0000000001
 43
0.0000000001
 12
1.0
 22
0.0
 32
0.0
 13
1.0
 23
0.0
 33
0.0
 40
0.0
 40
0.0
 40
0.0
 40
0.0
 40
1.0
 40
1.0
 40
1.0
 40
2.0
 40
2.0
 40
2.0
 40
3.0
 40
3.0
 40
3.0
 40
4.0
 40
4.0
 40
4.0
 40
4.0
 10
21.47219036845918
 20
-10.49578396888057
 30
0.0
 10
21.47219036845918
 20
-11.0035537052308
 30
0.0
 10
21.20238973811126
 20
-11.3767779514592
 30
0.0
 10
20.87458138369675
 20
-11.41518240697618
 30
0.0
 10
20.31699091905502
 20
-11.4805070331112
 30
0.0
 10
20.19440499310837
 20
-11.00758936188727
 30
0.0
 10
20.19440499310837
 20
-10.49981962553704
 30
0.0
 10
20.19440499310837
 20
-9.992049889186815
 30
0.0
 10
20.34168360266075
 20
-9.55381834960104
 30
0.0
 10
20.86862758581574
 20
-9.611071662423113
 30
0.0
 10
21.2107870744297
 20
-9.648247842174504
 30
0.0
 10
21.47219036845918
 20
-9.988014232530341
 30
0.0
 10
21.47219036845918
 20
-10.49578396888057
 30
0.0
  0
SPLINE
  5
6C
330
66
100
AcDbEntity
  8
suqirrels outline
370
     0
100
AcDbSpline
210
0.0
220
0.0
230
1.0
 70
    11
 71
     3
 72
    32
 73
    28
 74
     0
 42
0.0000000001
 43
0.0000000001
 12
1.0
 22
0.0
 32
0.0
 13
1.0
 23
0.0
 33
0.0
 40
0.0
 40
0.0
 40
0.0
 40
0.0
 40
1.0
 40
1.0
 40
1.0
 40
2.0
 40
2.0
 40
2.0
 40
3.0
 40
3.0
 40
3.0
 40
4.0
 40
4.0
 40
4.0
 40
5.0
 40
5.0
 40
5.0
 40
6.0
 40
6.0
 40
6.0
 40
7.0
 40
7.0
 40
7.0
 40
8.0
 40
8.0
 40
8.0
 40
9.0
 40
9.0
 40
9.0
 40
9.0
 10
24.68474919575034
 20
-15.5656282689027
 30
0.0
 10
24.68474919575034
 20
-15.5656282689027
 30
0.0
 10
24.63765061658161
 20
-14.01137515633451
 30
0.0
 10
24.63765061658161
 20
-14.01137515633451
 30
0.0
 10
24.63765061658161
 20
-14.01137515633451
 30
0.0
 10
23.83543036770697
 20
-13.49621989625016
 30
0.0
 10
23.83697477071332
 20
-13.11650215212877
 30
0.0
 10
23.83891195055253
 20
-12.6402135438603
 30
0.0
 10
25.89529568788813
 20
-12.7003730908736
 30
0.0
 10
26.00350941247459
 20
-13.02230499379132
 30
0.0
 10
26.15184860670326
 20
-13.46360871250117
 30
0.0
 10
25.20283356660629
 20
-14.01137515633451
 30
0.0
 10
25.20283356660629
 20
-14.01137515633451
 30
0.0
 10
25.20283356660629
 20
-14.01137515633451
 30
0.0
 10
25.15573498743757
 20
-15.5656282689027
 30
0.0
 10
25.15573498743757
 20
-15.5656282689027
 30
0.0
 10
25.15573498743757
 20
-15.5656282689027
 30
0.0
 10
26.70836361800529
 20
-15.09437050471161
 30
0.0
 10
27.09015078198365
 20
-13.73397089240537
 30
0.0
 10
27.59205976784191
 20
-11.94554829940919
 30
0.0
 10
26.00350941247459
 20
-11.60934761872962
 30
0.0
 10
24.8260449332565
 20
-11.65644619789834
 30
0.0
 10
23.64858045403842
 20
-11.70354477706707
 30
0.0
 10
22.22046138305466
 20
-12.10124680331619
 30
0.0
 10
22.64863226879865
 20
-13.54145796445451
 30
0.0
 10
23.21064618840333
 20
-15.43186842130554
 30
0.0
 10
24.68474919575034
 20
-15.5656282689027
 30
0.0
 10
24.68474919575034
 20
-15.5656282689027
 30
0.0
  0
ENDBLK
  5
69
330
66
100
AcDbEntity
  8
0
100
AcDbBlockEnd
  0
BLOCK
  5
6F
330
6D
100
AcDbEntity
  8
0
100
AcDbBlockBegin
  2
block 7
 70
     0
 10
0.0
 20
0.0
 30
0.0
  3
block 7
  1

  0
SPLINE
  5
71
330
6D
100
AcDbEntity
  8
suqirrels outline
370
     0
100
AcDbSpline
210
0.0
220
0.0
230
1.0
 70
    11
 71
     3
 72
    23
 73
    19
 74
     0
 42
0.0000000001
 43
0.0000000001
 12
1.0
 22
0.0
 32
0.0
 13
1.0
 23
0.0
 33
0.0
 40
0.0
 40
0.0
 40
0.0
 40
0.0
 40
1.0
 40
1.0
 40
1.0
 40
2.0
 40
2.0
 40
2.0
 40
3.0
 40
3.0
 40
3.0
 40
4.0
 40
4.0
 40
4.0
 40
5.0
 40
5.0
 40
5.0
 40
6.0
 40
6.0
 40
6.0
 40
6.0
 10
24.61129000522578
 20
-40.7691746975502
 30
0.0
 10
24.61129000522578
 20
-40.7691746975502
 30
0.0
 10
23.39665924242788
 20
-40.22135803241692
 30
0.0
 10
23.1112900056008
 20
-39.36739731394038
 30
0.0
 10
22.95316056805627
 20
-38.89419869730188
 30
0.0
 10
23.25321596433204
 20
-38.17013822692762
 30
0.0
 10
23.79388678176977
 20
-38.17013822692762
 30
0.0
 10
24.33455759920751
 20
-38.17013822692762
 30
0.0
 10
24.61129000522578
 20
-38.90496071214615
 30
0.0
 10
24.61129000522578
 20
-38.90496071214615
 30
0.0
 10
24.61129000522578
 20
-38.90496071214615
 30
0.0
 10
24.8517918575414
 20
-38.17013822692762
 30
0.0
 10
25.42073210200341
 20
-38.17013822692762
 30
0.0
 10
25.9896723464654
 20
-38.17013822692762
 30
0.0
 10
26.27114234462273
 20
-38.88575168726839
 30
0.0
 10
26.11129000485108
 20
-39.36739731394038
 30
0.0
 10
25.83519497005499
 20
-40.19928983578649
 30
0.0
 10
24.61129000522578
 20
-40.7691746975502
 30
0.0
 10
24.61129000522578
 20
-40.7691746975502
 30
0.0
  0
SPLINE
  5
72
330
6D
100
AcDbEntity
  8
suqirrels outline
370
     0
100
AcDbSpline
210
0.0
220
0.0
230
1.0
 70
    11
 71
     3
 72
    17
 73
    13
 74
     0
 42
0.0000000001
 43
0.0000000001
 12
1.0
 22
0.0
 32
0.0
 13
1.0
 23
0.0
 33
0.0
 40
0.0
 40
0.0
 40
0.0
 40
0.0
 40
1.0
 40
1.0
 40
1.0
 40
2.0
 40
2.0
 40
2.0
 40
3.0
 40
3.0
 40
3.0
 40
4.0
 40
4.0
 40
4.0
 40
4.0
 10
28.64569438484376
 20
-37.21168240502786
 30
0.0
 10
28.64569438484376
 20
-37.71945214137808
 30
0.0
 10
28.38800990920018
 20
-38.13934651734281
 30
0.0
 10
27.97806101970533
 20
-38.15166348618838
 30
0.0
 10
27.64815956016317
 20
-38.16157541936668
 30
0.0
 10
27.38045203494289
 20
-37.740034784443
 30
0.0
 10
27.38045203494289
 20
-37.23226504809278
 30
0.0
 10
27.38045203494289
 20
-36.72449531174254
 30
0.0
 10
27.6590961888573
 20
-36.39768792871767
 30
0.0
 10
27.97806101970533
 20
-36.31286660999717
 30
0.0
 10
28.33401349993645
 20
-36.21820928149217
 30
0.0
 10
28.64569438484376
 20
-36.70391266867762
 30
0.0
 10
28.64569438484376
 20
-37.21168240502786
 30
0.0
  0
SPLINE
  5
73
330
6D
100
AcDbEntity
  8
suqirrels outline
370
     0
100
AcDbSpline
210
0.0
220
0.0
230
1.0
 70
    11
 71
     3
 72
    17
 73
    13
 74
     0
 42
0.0000000001
 43
0.0000000001
 12
1.0
 22
0.0
 32
0.0
 13
1.0
 23
0.0
 33
0.0
 40
0.0
 40
0.0
 40
0.0
 40
0.0
 40
1.0
 40
1.0
 40
1.0
 40
2.0
 40
2.0
 40
2.0
 40
3.0
 40
3.0
 40
3.0
 40
4.0
 40
4.0
 40
4.0
 40
4.0
 10
21.87219036831802
 20
-37.23226504809278
 30
0.0
 10
21.87219036831802
 20
-37.740034784443
 30
0.0
 10
21.60449220370153
 20
-38.14206816555275
 30
0.0
 10
21.27458138355559
 20
-38.15166348618838
 30
0.0
 10
20.81208632529507
 20
-38.16511496490748
 30
0.0
 10
20.60593874478053
 20
-37.71945214137808
 30
0.0
 10
20.60593874478053
 20
-37.21168240502786
 30
0.0
 10
20.60593874478053
 20
-36.70391266867762
 30
0.0
 10
20.75333334974302
 20
-36.23505615178407
 30
0.0
 10
21.27458138355559
 20
-36.31286660999717
 30
0.0
 10
21.60024606647558
 20
-36.36148092901237
 30
0.0
 10
21.87219036831802
 20
-36.72449531174254
 30
0.0
 10
21.87219036831802
 20
-37.23226504809278
 30
0.0
  0
ENDBLK
  5
70
330
6D
100
AcDbEntity
  8
0
100
AcDbBlockEnd
  0
ENDSEC
  0
SECTION
  2
ENTITIES
  0
INSERT
  5
42
330
1F
100
AcDbEntity
  8
suqirrels
100
AcDbBlockReference
  2
block 2
 10
0.0
 20
0.0
 30
0.0
  0
INSERT
  5
4A
330
1F
100
AcDbEntity
  8
suqirrels
100
AcDbBlockReference
  2
block 3
 10
0.0
 20
0.0
 30
0.0
  0
SPLINE
  5
51
330
1F
100
AcDbEntity
  8
suqirrels
370
     0
100
AcDbSpline
210
0.0
220
0.0
230
1.0
 70
    11
 71
     3
 72
   149
 73
   145
 74
     0
 42
0.0000000001
 43
0.0000000001
 12
1.0
 22
0.0
 32
0.0
 13
1.0
 23
0.0
 33
0.0
 40
0.0
 40
0.0
 40
0.0
 40
0.0
 40
1.0
 40
1.0
 40
1.0
 40
2.0
 40
2.0
 40
2.0
 40
3.0
 40
3.0
 40
3.0
 40
4.0
 40
4.0
 40
4.0
 40
5.0
 40
5.0
 40
5.0
 40
6.0
 40
6.0
 40
6.0
 40
7.0
 40
7.0
 40
7.0
 40
8.0
 40
8.0
 40
8.0
 40
9.0
 40
9.0
 40
9.0
 40
10.0
 40
10.0
 40
10.0
 40
11.0
 40
11.0
 40
11.0
 40
12.0
 40
12.0
 40
12.0
 40
13.0
 40
13.0
 40
13.0
 40
14.0
 40
14.0
 40
14.0
 40
15.0
 40
15.0
 40
15.0
 40
16.0
 40
16.0
 40
16.0
 40
17.0
 40
17.0
 40
17.0
 40
18.0
 40
18.0
 40
18.0
 40
19.0
 40
19.0
 40
19.0
 40
20.0
 40
20.0
 40
20.0
 40
21.0
 40
21.0
 40
21.0
 40
22.0
 40
22.0
 40
22.0
 40
23.0
 40
23.0
 40
23.0
 40
24.0
 40
24.0
 40
24.0
 40
25.0
 40
25.0
 40
25.0
 40
26.0
 40
26.0
 40
26.0
 40
27.0
 40
27.0
 40
27.0
 40
28.0
 40
28.0
 40
28.0
 40
29.0
 40
29.0
 40
29.0
 40
30.0
 40
30.0
 40
30.0
 40
31.0
 40
31.0
 40
31.0
 40
32.0
 40
32.0
 40
32.0
 40
33.0
 40
33.0
 40
33.0
 40
34.0
 40
34.0
 40
34.0
 40
35.0
 40
35.0
 40
35.0
 40
36.0
 40
36.0
 40
36.0
 40
37.0
 40
37.0
 40
37.0
 40
38.0
 40
38.0
 40
38.0
 40
39.0
 40
39.0
 40
39.0
 40
40.0
 40
40.0
 40
40.0
 40
41.0
 40
41.0
 40
41.0
 40
42.0
 40
42.0
 40
42.0
 40
43.0
 40
43.0
 40
43.0
 40
44.0
 40
44.0
 40
44.0
 40
45.0
 40
45.0
 40
45.0
 40
46.0
 40
46.0
 40
46.0
 40
47.0
 40
47.0
 40
47.0
 40
48.0
 40
48.0
 40
48.0
 40
48.0
 10
19.9898147964386
 20
-33.83233639667092
 30
0.0
 10
19.61415455358041
 20
-33.13913122005151
 30
0.0
 10
19.27703617673444
 20
-31.85960992199676
 30
0.0
 10
19.56039308588691
 20
-31.08824944708233
 30
0.0
 10
19.55002110403105
 20
-31.66726108880192
 30
0.0
 10
19.74929769198824
 20
-31.84386787148829
 30
0.0
 10
19.95394434859836
 20
-32.09574067962382
 30
0.0
 10
19.78078179300518
 20
-31.35586430572634
 30
0.0
 10
19.79758288472985
 20
-30.98666645515003
 30
0.0
 10
19.84374999503906
 20
-30.42708332572656
 30
0.0
 10
20.15859100520848
 20
-30.88360279047221
 30
0.0
 10
20.28452740927592
 20
-31.13547559860774
 30
0.0
 10
20.59936841944534
 20
-31.41883250776022
 30
0.0
 10
20.44194791436063
 20
-30.97805509352304
 30
0.0
 10
20.36323766181827
 20
-30.67895613386209
 30
0.0
 10
20.15859100520848
 20
-30.28540487115097
 30
0.0
 10
20.52065816690298
 20
-30.53727767928586
 30
0.0
 10
20.70506038413768
 20
-30.6828399790677
 30
0.0
 10
21.02440378317372
 20
-31.15121764911622
 30
0.0
 10
21.00851829776242
 20
-30.73463550663263
 30
0.0
 10
20.86698327808934
 20
-30.63172998233668
 30
0.0
 10
20.80401507605546
 20
-30.44282537623504
 30
0.0
 10
21.3077606923262
 20
-30.82063458843769
 30
0.0
 10
22.26688271445993
 20
-31.157244102616
 30
0.0
 10
22.48958332771094
 20
-32.19097221417448
 30
0.0
 10
23.80193262361356
 20
-31.27437462068205
 30
0.0
 10
25.86905589388908
 20
-31.49043480249365
 30
0.0
 10
26.77410633150389
 20
-32.27014627611621
 30
0.0
 10
27.12549383197242
 20
-31.36033330221803
 30
0.0
 10
27.81357716754153
 20
-30.57031169471237
 30
0.0
 10
28.68005247899896
 20
-30.16255860696747
 30
0.0
 10
28.55262963907892
 20
-30.46837342277646
 30
0.0
 10
28.47617593512652
 20
-30.5957962626965
 30
0.0
 10
28.27229939125407
 20
-31.05451848640967
 30
0.0
 10
28.41002444566198
 20
-30.69861756396401
 30
0.0
 10
28.98586729480796
 20
-30.23901231091988
 30
0.0
 10
29.44458951852049
 20
-29.88222835914325
 30
0.0
 10
29.13877470271214
 20
-30.4938579907606
 30
0.0
 10
29.03683643077559
 20
-31.02903391842554
 30
0.0
 10
29.03683643077559
 20
-31.02903391842554
 30
0.0
 10
29.03683643077559
 20
-31.02903391842554
 30
0.0
 10
29.6229814944088
 20
-30.39191971882405
 30
0.0
 10
29.77588890231298
 20
-30.0861049030157
 30
0.0
 10
29.80137347029711
 20
-30.74870367060068
 30
0.0
 10
29.72491976634535
 20
-31.08000305439317
 30
0.0
 10
29.59749692642467
 20
-31.64066355004224
 30
0.0
 10
29.77588890231362
 20
-31.33484873423325
 30
0.0
 10
29.85234260626539
 20
-31.28387959826562
 30
0.0
 10
29.95428087820129
 20
-30.92709564648899
 30
0.0
 10
30.13267285408961
 20
-31.69163268601052
 30
0.0
 10
29.85234260626539
 20
-32.99134565319698
 30
0.0
 10
29.41910495053635
 20
-33.75588269271851
 30
0.0
 10
30.8092592515578
 20
-36.33611110202708
 30
0.0
 10
32.18037423753265
 20
-40.32257968609581
 30
0.0
 10
32.12046915684583
 20
-41.65609876777385
 30
0.0
 10
29.64846606239358
 20
-41.60512963180557
 30
0.0
 10
27.35391712256482
 20
-42.37610953334985
 30
0.0
 10
26.3528025998382
 20
-43.6846666071621
 30
0.0
 10
24.53471055066753
 20
-46.06109523523492
 30
0.0
 10
25.69269616410853
 20
-47.94165315733486
 30
0.0
 10
27.41502732897168
 20
-49.1522143221259
 30
0.0
 10
29.54453335551289
 20
-50.6489632334335
 30
0.0
 10
30.2691393191369
 20
-47.63190527006997
 30
0.0
 10
32.87142110824572
 20
-47.57548991201675
 30
0.0
 10
36.04416914092044
 20
-47.5067073086027
 30
0.0
 10
40.4606877851204
 20
-51.08717044030378
 30
0.0
 10
43.03147980631866
 20
-49.0027351172974
 30
0.0
 10
48.31141386140631
 20
-44.72168828160689
 30
0.0
 10
43.50184312710279
 20
-37.24351975292381
 30
0.0
 10
39.78089308628221
 20
-32.08469278441542
 30
0.0
 10
37.58935723211009
 20
-29.04628750003268
 30
0.0
 10
33.04810866912437
 20
-8.855314579528939
 30
0.0
 10
32.47051676958738
 20
-8.255500425357287
 30
0.0
 10
32.94550395568432
 20
-6.198514842923864
 30
0.0
 10
33.15747258947395
 20
-3.728158589710853
 30
0.0
 10
32.98885130926097
 20
-2.149322513243034
 30
0.0
 10
32.86352259279234
 20
-2.675703122410209
 30
0.0
 10
32.7883253629109
 20
-3.252215218164903
 30
0.0
 10
32.61286515985571
 20
-3.778595827332399
 30
0.0
 10
32.65069553794757
 20
-3.252116987753792
 30
0.0
 10
32.88858833608593
 20
-1.698139133956975
 30
0.0
 10
32.6379309031493
 20
-1.021364065027566
 30
0.0
 10
32.46247070009347
 20
-1.723204877250574
 30
0.0
 10
32.21181326715684
 20
-2.374914202886063
 30
0.0
 10
31.93609009092598
 20
-3.252215218164903
 30
0.0
 10
31.80969459593797
 20
-2.846869693670174
 30
0.0
 10
32.13661603727541
 20
-1.397350214432829
 30
0.0
 10
32.18674752386261
 20
-0.870969605265333
 30
0.0
 10
31.94726407843502
 20
-1.232127780163818
 30
0.0
 10
31.29827252107569
 20
-2.715596840210907
 30
0.0
 10
31.05878907564746
 20
-3.076755015109392
 30
0.0
 10
31.18300452520286
 20
-2.419865633580123
 30
0.0
 10
31.28438076529049
 20
-2.074125283361917
 30
0.0
 10
31.63530117140215
 20
-1.347218727845311
 30
0.0
 10
30.50734272318636
 20
-2.650637379116611
 30
0.0
 10
30.23161954695614
 20
-2.876229068759961
 30
0.0
 10
29.66172874130749
 20
-4.045110656929659
 30
0.0
 10
27.03439476712728
 20
-2.053843523272489
 30
0.0
 10
22.90095145023485
 20
-1.963297602126626
 30
0.0
 10
19.81806586926609
 20
-4.265491168990351
 30
0.0
 10
19.60890651935343
 20
-3.730590661289657
 30
0.0
 10
19.20269249773616
 20
-2.675703122409888
 30
0.0
 10
18.25019425257621
 20
-1.171758524789158
 30
0.0
 10
18.72644337515618
 20
-2.876229068759319
 30
0.0
 10
18.75150911844978
 20
-3.101820758402348
 30
0.0
 10
18.8016406050373
 20
-3.803661570625356
 30
0.0
 10
18.65124614527507
 20
-3.101820758402348
 30
0.0
 10
18.0747340495207
 20
-1.196824268082757
 30
0.0
 10
17.67368215682151
 20
-0.9211010918522093
 30
0.0
 10
17.67368215682151
 20
-1.322152984551071
 30
0.0
 10
18.03545867169067
 20
-3.649094697319735
 30
0.0
 10
17.94940533305206
 20
-4.079384746855903
 30
0.0
 10
17.71386862839096
 20
-3.61511374766848
 30
0.0
 10
17.55829845536389
 20
-1.435503577628756
 30
0.0
 10
17.32276175071017
 20
-0.9712325784397274
 30
0.0
 10
16.95684545023929
 20
-1.233702472184922
 30
0.0
 10
16.99690708789242
 20
-4.029253260268706
 30
0.0
 10
16.94299142227351
 20
-4.489622916349457
 30
0.0
 10
16.87157837142379
 20
-4.204713463324539
 30
0.0
 10
16.84651262813019
 20
-3.878858800506473
 30
0.0
 10
16.87157837142379
 20
-2.199453999829911
 30
0.0
 10
16.49559222201885
 20
-2.750900352291005
 30
0.0
 10
16.30953307540298
 20
-7.478788675012803
 30
0.0
 10
16.77117269420487
 20
-9.21755231640309
 30
0.0
 10
16.31939963273121
 20
-10.62315056019677
 30
0.0
 10
13.65081785622554
 20
-28.77228947890881
 30
0.0
 10
8.349743538060551
 20
-34.53468005784823
 30
0.0
 10
4.098018814404726
 20
-39.15640332022243
 30
0.0
 10
3.734875642230722
 20
-46.06727475195976
 30
0.0
 10
7.403297023184147
 20
-49.07619528798419
 30
0.0
 10
10.2198515162965
 20
-51.38639571892693
 30
0.0
 10
12.61584376377525
 20
-47.15671191415514
 30
0.0
 10
16.39255940281666
 20
-47.24641627942751
 30
0.0
 10
18.9754883031816
 20
-47.30776588042984
 30
0.0
 10
20.06934633683553
 20
-49.81408758819138
 30
0.0
 10
22.5217033918721
 20
-49.00092687068335
 30
0.0
 10
24.73633009517507
 20
-48.26659357473243
 30
0.0
 10
24.752943101723
 20
-44.99327045480108
 30
0.0
 10
23.69455424813755
 20
-43.74229527488833
 30
0.0
 10
22.19776637713253
 20
-41.97314920926274
 30
0.0
 10
20.1637829723686
 20
-41.28831989490994
 30
0.0
 10
17.03360491028905
 20
-41.29931481599658
 30
0.0
 10
17.03360491028905
 20
-41.29931481599658
 30
0.0
 10
17.99166666216939
 20
-36.21851850946368
 30
0.0
 10
19.9898147964386
 20
-33.83233639667092
 30
0.0
  0
HATCH
  5
52
330
1F
100
AcDbEntity
  8
suqirrels
 62
     7
420
 16777215
100
AcDbHatch
 10
0.0
 20
0.0
 30
0.0
210
0.0
220
0.0
230
1.0
  2
SOLID
 70
     1
 71
     0
 91
        1
 92
        1
 93
        1
 72
     4
 94
        3
 73
     0
 74
     1
 95
      149
 96
      145
 40
0.0
 40
0.0
 40
0.0
 40
0.0
 40
1.0
 40
1.0
 40
1.0
 40
2.0
 40
2.0
 40
2.0
 40
3.0
 40
3.0
 40
3.0
 40
4.0
 40
4.0
 40
4.0
 40
5.0
 40
5.0
 40
5.0
 40
6.0
 40
6.0
 40
6.0
 40
7.0
 40
7.0
 40
7.0
 40
8.0
 40
8.0
 40
8.0
 40
9.0
 40
9.0
 40
9.0
 40
10.0
 40
10.0
 40
10.0
 40
11.0
 40
11.0
 40
11.0
 40
12.0
 40
12.0
 40
12.0
 40
13.0
 40
13.0
 40
13.0
 40
14.0
 40
14.0
 40
14.0
 40
15.0
 40
15.0
 40
15.0
 40
16.0
 40
16.0
 40
16.0
 40
17.0
 40
17.0
 40
17.0
 40
18.0
 40
18.0
 40
18.0
 40
19.0
 40
19.0
 40
19.0
 40
20.0
 40
20.0
 40
20.0
 40
21.0
 40
21.0
 40
21.0
 40
22.0
 40
22.0
 40
22.0
 40
23.0
 40
23.0
 40
23.0
 40
24.0
 40
24.0
 40
24.0
 40
25.0
 40
25.0
 40
25.0
 40
26.0
 40
26.0
 40
26.0
 40
27.0
 40
27.0
 40
27.0
 40
28.0
 40
28.0
 40
28.0
 40
29.0
 40
29.0
 40
29.0
 40
30.0
 40
30.0
 40
30.0
 40
31.0
 40
31.0
 40
31.0
 40
32.0
 40
32.0
 40
32.0
 40
33.0
 40
33.0
 40
33.0
 40
34.0
 40
34.0
 40
34.0
 40
35.0
 40
35.0
 40
35.0
 40
36.0
 40
36.0
 40
36.0
 40
37.0
 40
37.0
 40
37.0
 40
38.0
 40
38.0
 40
38.0
 40
39.0
 40
39.0
 40
39.0
 40
40.0
 40
40.0
 40
40.0
 40
41.0
 40
41.0
 40
41.0
 40
42.0
 40
42.0
 40
42.0
 40
43.0
 40
43.0
 40
43.0
 40
44.0
 40
44.0
 40
44.0
 40
45.0
 40
45.0
 40
45.0
 40
46.0
 40
46.0
 40
46.0
 40
47.0
 40
47.0
 40
47.0
 40
48.0
 40
48.0
 40
48.0
 40
48.0
 10
19.9898147964386
 20
-33.83233639667092
 10
19.61415455358041
 20
-33.13913122005151
 10
19.27703617673444
 20
-31.85960992199676
 10
19.56039308588691
 20
-31.08824944708233
 10
19.55002110403105
 20
-31.66726108880192
 10
19.74929769198824
 20
-31.84386787148829
 10
19.95394434859836
 20
-32.09574067962382
 10
19.78078179300518
 20
-31.35586430572634
 10
19.79758288472985
 20
-30.98666645515003
 10
19.84374999503906
 20
-30.42708332572656
 10
20.15859100520848
 20
-30.88360279047221
 10
20.28452740927592
 20
-31.13547559860774
 10
20.59936841944534
 20
-31.41883250776022
 10
20.44194791436063
 20
-30.97805509352304
 10
20.36323766181827
 20
-30.67895613386209
 10
20.15859100520848
 20
-30.28540487115097
 10
20.52065816690298
 20
-30.53727767928586
 10
20.70506038413768
 20
-30.6828399790677
 10
21.02440378317372
 20
-31.15121764911622
 10
21.00851829776242
 20
-30.73463550663263
 10
20.86698327808934
 20
-30.63172998233668
 10
20.80401507605546
 20
-30.44282537623504
 10
21.3077606923262
 20
-30.82063458843769
 10
22.26688271445993
 20
-31.157244102616
 10
22.48958332771094
 20
-32.19097221417448
 10
23.80193262361356
 20
-31.27437462068205
 10
25.86905589388908
 20
-31.49043480249365
 10
26.77410633150389
 20
-32.27014627611621
 10
27.12549383197242
 20
-31.36033330221803
 10
27.81357716754153
 20
-30.57031169471237
 10
28.68005247899896
 20
-30.16255860696747
 10
28.55262963907892
 20
-30.46837342277646
 10
28.47617593512652
 20
-30.5957962626965
 10
28.27229939125407
 20
-31.05451848640967
 10
28.41002444566198
 20
-30.69861756396401
 10
28.98586729480796
 20
-30.23901231091988
 10
29.44458951852049
 20
-29.88222835914325
 10
29.13877470271214
 20
-30.4938579907606
 10
29.03683643077559
 20
-31.02903391842554
 10
29.03683643077559
 20
-31.02903391842554
 10
29.03683643077559
 20
-31.02903391842554
 10
29.6229814944088
 20
-30.39191971882405
 10
29.77588890231298
 20
-30.0861049030157
 10
29.80137347029711
 20
-30.74870367060068
 10
29.72491976634535
 20
-31.08000305439317
 10
29.59749692642467
 20
-31.64066355004224
 10
29.77588890231362
 20
-31.33484873423325
 10
29.85234260626539
 20
-31.28387959826562
 10
29.95428087820129
 20
-30.92709564648899
 10
30.13267285408961
 20
-31.69163268601052
 10
29.85234260626539
 20
-32.99134565319698
 10
29.41910495053635
 20
-33.75588269271851
 10
30.8092592515578
 20
-36.33611110202708
 10
32.18037423753265
 20
-40.32257968609581
 10
32.12046915684583
 20
-41.65609876777385
 10
29.64846606239358
 20
-41.60512963180557
 10
27.35391712256482
 20
-42.37610953334985
 10
26.3528025998382
 20
-43.6846666071621
 10
24.53471055066753
 20
-46.06109523523492
 10
25.69269616410853
 20
-47.94165315733486
 10
27.41502732897168
 20
-49.1522143221259
 10
29.54453335551289
 20
-50.6489632334335
 10
30.2691393191369
 20
-47.63190527006997
 10
32.87142110824572
 20
-47.57548991201675
 10
36.04416914092044
 20
-47.5067073086027
 10
40.4606877851204
 20
-51.08717044030378
 10
43.03147980631866
 20
-49.0027351172974
 10
48.31141386140631
 20
-44.72168828160689
 10
43.50184312710279
 20
-37.24351975292381
 10
39.78089308628221
 20
-32.08469278441542
 10
37.58935723211009
 20
-29.04628750003268
 10
33.04810866912437
 20
-8.855314579528939
 10
32.47051676958738
 20
-8.255500425357287
 10
32.94550395568432
 20
-6.198514842923864
 10
33.15747258947395
 20
-3.728158589710853
 10
32.98885130926097
 20
-2.149322513243034
 10
32.86352259279234
 20
-2.675703122410209
 10
32.7883253629109
 20
-3.252215218164903
 10
32.61286515985571
 20
-3.778595827332399
 10
32.65069553794757
 20
-3.252116987753792
 10
32.88858833608593
 20
-1.698139133956975
 10
32.6379309031493
 20
-1.021364065027566
 10
32.46247070009347
 20
-1.723204877250574
 10
32.21181326715684
 20
-2.374914202886063
 10
31.93609009092598
 20
-3.252215218164903
 10
31.80969459593797
 20
-2.846869693670174
 10
32.13661603727541
 20
-1.397350214432829
 10
32.18674752386261
 20
-0.870969605265333
 10
31.94726407843502
 20
-1.232127780163818
 10
31.29827252107569
 20
-2.715596840210907
 10
31.05878907564746
 20
-3.076755015109392
 10
31.18300452520286
 20
-2.419865633580123
 10
31.28438076529049
 20
-2.074125283361917
 10
31.63530117140215
 20
-1.347218727845311
 10
30.50734272318636
 20
-2.650637379116611
 10
30.23161954695614
 20
-2.876229068759961
 10
29.66172874130749
 20
-4.045110656929659
 10
27.03439476712728
 20
-2.053843523272489
 10
22.90095145023485
 20
-1.963297602126626
 10
19.81806586926609
 20
-4.265491168990351
 10
19.60890651935343
 20
-3.730590661289657
 10
19.20269249773616
 20
-2.675703122409888
 10
18.25019425257621
 20
-1.171758524789158
 10
18.72644337515618
 20
-2.876229068759319
 10
18.75150911844978
 20
-3.101820758402348
 10
18.8016406050373
 20
-3.803661570625356
 10
18.65124614527507
 20
-3.101820758402348
 10
18.0747340495207
 20
-1.196824268082757
 10
17.67368215682151
 20
-0.9211010918522093
 10
17.67368215682151
 20
-1.322152984551071
 10
18.03545867169067
 20
-3.649094697319735
 10
17.94940533305206
 20
-4.079384746855903
 10
17.71386862839096
 20
-3.61511374766848
 10
17.55829845536389
 20
-1.435503577628756
 10
17.32276175071017
 20
-0.9712325784397274
 10
16.95684545023929
 20
-1.233702472184922
 10
16.99690708789242
 20
-4.029253260268706
 10
16.94299142227351
 20
-4.489622916349457
 10
16.87157837142379
 20
-4.204713463324539
 10
16.84651262813019
 20
-3.878858800506473
 10
16.87157837142379
 20
-2.199453999829911
 10
16.49559222201885
 20
-2.750900352291005
 10
16.30953307540298
 20
-7.478788675012803
 10
16.77117269420487
 20
-9.21755231640309
 10
16.31939963273121
 20
-10.62315056019677
 10
13.65081785622554
 20
-28.77228947890881
 10
8.349743538060551
 20
-34.53468005784823
 10
4.098018814404726
 20
-39.15640332022243
 10
3.734875642230722
 20
-46.06727475195976
 10
7.403297023184147
 20
-49.07619528798419
 10
10.2198515162965
 20
-51.38639571892693
 10
12.61584376377525
 20
-47.15671191415514
 10
16.39255940281666
 20
-47.24641627942751
 10
18.9754883031816
 20
-47.30776588042984
 10
20.06934633683553
 20
-49.81408758819138
 10
22.5217033918721
 20
-49.00092687068335
 10
24.73633009517507
 20
-48.26659357473243
 10
24.752943101723
 20
-44.99327045480108
 10
23.69455424813755
 20
-43.74229527488833
 10
22.19776637713253
 20
-41.97314920926274
 10
20.1637829723686
 20
-41.28831989490994
 10
17.03360491028905
 20
-41.29931481599658
 10
17.03360491028905
 20
-41.29931481599658
 10
17.99166666216939
 20
-36.21851850946368
 10
19.9898147964386
 20
-33.83233639667092
 97
        0
 97
        0
 75
     2
 76
     1
 98
        0
  0
INSERT
  5
54
330
1F
100
AcDbEntity
  8
suqirrels
100
AcDbBlockReference
  2
block 4
 10
0.0
 20
0.0
 30
0.0
  0
INSERT
  5
5B
330
1F
100
AcDbEntity
  8
suqirrels
100
AcDbBlockReference
  2
block 5
 10
0.0
 20
0.0
 30
0.0
  0
SPLINE
  5
65
330
1F
100
AcDbEntity
  8
suqirrels outline
370
     0
100
AcDbSpline
210
0.0
220
0.0
230
1.0
 70
    11
 71
     3
 72
   149
 73
   145
 74
     0
 42
0.0000000001
 43
0.0000000001
 12
1.0
 22
0.0
 32
0.0
 13
1.0
 23
0.0
 33
0.0
 40
0.0
 40
0.0
 40
0.0
 40
0.0
 40
1.0
 40
1.0
 40
1.0
 40
2.0
 40
2.0
 40
2.0
 40
3.0
 40
3.0
 40
3.0
 40
4.0
 40
4.0
 40
4.0
 40
5.0
 40
5.0
 40
5.0
 40
6.0
 40
6.0
 40
6.0
 40
7.0
 40
7.0
 40
7.0
 40
8.0
 40
8.0
 40
8.0
 40
9.0
 40
9.0
 40
9.0
 40
10.0
 40
10.0
 40
10.0
 40
11.0
 40
11.0
 40
11.0
 40
12.0
 40
12.0
 40
12.0
 40
13.0
 40
13.0
 40
13.0
 40
14.0
 40
14.0
 40
14.0
 40
15.0
 40
15.0
 40
15.0
 40
16.0
 40
16.0
 40
16.0
 40
17.0
 40
17.0
 40
17.0
 40
18.0
 40
18.0
 40
18.0
 40
19.0
 40
19.0
 40
19.0
 40
20.0
 40
20.0
 40
20.0
 40
21.0
 40
21.0
 40
21.0
 40
22.0
 40
22.0
 40
22.0
 40
23.0
 40
23.0
 40
23.0
 40
24.0
 40
24.0
 40
24.0
 40
25.0
 40
25.0
 40
25.0
 40
26.0
 40
26.0
 40
26.0
 40
27.0
 40
27.0
 40
27.0
 40
28.0
 40
28.0
 40
28.0
 40
29.0
 40
29.0
 40
29.0
 40
30.0
 40
30.0
 40
30.0
 40
31.0
 40
31.0
 40
31.0
 40
32.0
 40
32.0
 40
32.0
 40
33.0
 40
33.0
 40
33.0
 40
34.0
 40
34.0
 40
34.0
 40
35.0
 40
35.0
 40
35.0
 40
36.0
 40
36.0
 40
36.0
 40
37.0
 40
37.0
 40
37.0
 40
38.0
 40
38.0
 40
38.0
 40
39.0
 40
39.0
 40
39.0
 40
40.0
 40
40.0
 40
40.0
 40
41.0
 40
41.0
 40
41.0
 40
42.0
 40
42.0
 40
42.0
 40
43.0
 40
43.0
 40
43.0
 40
44.0
 40
44.0
 40
44.0
 40
45.0
 40
45.0
 40
45.0
 40
46.0
 40
46.0
 40
46.0
 40
47.0
 40
47.0
 40
47.0
 40
48.0
 40
48.0
 40
48.0
 40
48.0
 10
19.9898147964386
 20
-33.83233639667092
 30
0.0
 10
19.61415455358041
 20
-33.13913122005151
 30
0.0
 10
19.27703617673444
 20
-31.85960992199676
 30
0.0
 10
19.56039308588691
 20
-31.08824944708233
 30
0.0
 10
19.55002110403105
 20
-31.66726108880192
 30
0.0
 10
19.74929769198824
 20
-31.84386787148829
 30
0.0
 10
19.95394434859836
 20
-32.09574067962382
 30
0.0
 10
19.78078179300518
 20
-31.35586430572634
 30
0.0
 10
19.79758288472985
 20
-30.98666645515003
 30
0.0
 10
19.84374999503906
 20
-30.42708332572656
 30
0.0
 10
20.15859100520848
 20
-30.88360279047221
 30
0.0
 10
20.28452740927592
 20
-31.13547559860774
 30
0.0
 10
20.59936841944534
 20
-31.41883250776022
 30
0.0
 10
20.44194791436063
 20
-30.97805509352304
 30
0.0
 10
20.36323766181827
 20
-30.67895613386209
 30
0.0
 10
20.15859100520848
 20
-30.28540487115097
 30
0.0
 10
20.52065816690298
 20
-30.53727767928586
 30
0.0
 10
20.70506038413768
 20
-30.6828399790677
 30
0.0
 10
21.02440378317372
 20
-31.15121764911622
 30
0.0
 10
21.00851829776242
 20
-30.73463550663263
 30
0.0
 10
20.86698327808934
 20
-30.63172998233668
 30
0.0
 10
20.80401507605546
 20
-30.44282537623504
 30
0.0
 10
21.3077606923262
 20
-30.82063458843769
 30
0.0
 10
22.26688271445993
 20
-31.157244102616
 30
0.0
 10
22.48958332771094
 20
-32.19097221417448
 30
0.0
 10
23.80193262361356
 20
-31.27437462068205
 30
0.0
 10
25.86905589388908
 20
-31.49043480249365
 30
0.0
 10
26.77410633150389
 20
-32.27014627611621
 30
0.0
 10
27.12549383197242
 20
-31.36033330221803
 30
0.0
 10
27.81357716754153
 20
-30.57031169471237
 30
0.0
 10
28.68005247899896
 20
-30.16255860696747
 30
0.0
 10
28.55262963907892
 20
-30.46837342277646
 30
0.0
 10
28.47617593512652
 20
-30.5957962626965
 30
0.0
 10
28.27229939125407
 20
-31.05451848640967
 30
0.0
 10
28.41002444566198
 20
-30.69861756396401
 30
0.0
 10
28.98586729480796
 20
-30.23901231091988
 30
0.0
 10
29.44458951852049
 20
-29.88222835914325
 30
0.0
 10
29.13877470271214
 20
-30.4938579907606
 30
0.0
 10
29.03683643077559
 20
-31.02903391842554
 30
0.0
 10
29.03683643077559
 20
-31.02903391842554
 30
0.0
 10
29.03683643077559
 20
-31.02903391842554
 30
0.0
 10
29.6229814944088
 20
-30.39191971882405
 30
0.0
 10
29.77588890231298
 20
-30.0861049030157
 30
0.0
 10
29.80137347029711
 20
-30.74870367060068
 30
0.0
 10
29.72491976634535
 20
-31.08000305439317
 30
0.0
 10
29.59749692642467
 20
-31.64066355004224
 30
0.0
 10
29.77588890231362
 20
-31.33484873423325
 30
0.0
 10
29.85234260626539
 20
-31.28387959826562
 30
0.0
 10
29.95428087820129
 20
-30.92709564648899
 30
0.0
 10
30.13267285408961
 20
-31.69163268601052
 30
0.0
 10
29.85234260626539
 20
-32.99134565319698
 30
0.0
 10
29.41910495053635
 20
-33.75588269271851
 30
0.0
 10
30.8092592515578
 20
-36.33611110202708
 30
0.0
 10
32.18037423753265
 20
-40.32257968609581
 30
0.0
 10
32.12046915684583
 20
-41.65609876777385
 30
0.0
 10
29.64846606239358
 20
-41.60512963180557
 30
0.0
 10
27.35391712256482
 20
-42.37610953334985
 30
0.0
 10
26.3528025998382
 20
-43.6846666071621
 30
0.0
 10
24.53471055066753
 20
-46.06109523523492
 30
0.0
 10
25.69269616410853
 20
-47.94165315733486
 30
0.0
 10
27.41502732897168
 20
-49.1522143221259
 30
0.0
 10
29.54453335551289
 20
-50.6489632334335
 30
0.0
 10
30.2691393191369
 20
-47.63190527006997
 30
0.0
 10
32.87142110824572
 20
-47.57548991201675
 30
0.0
 10
36.04416914092044
 20
-47.5067073086027
 30
0.0
 10
40.4606877851204
 20
-51.08717044030378
 30
0.0
 10
43.03147980631866
 20
-49.0027351172974
 30
0.0
 10
48.31141386140631
 20
-44.72168828160689
 30
0.0
 10
43.50184312710279
 20
-37.24351975292381
 30
0.0
 10
39.78089308628221
 20
-32.08469278441542
 30
0.0
 10
37.58935723211009
 20
-29.04628750003268
 30
0.0
 10
33.04810866912437
 20
-8.855314579528939
 30
0.0
 10
32.47051676958738
 20
-8.255500425357287
 30
0.0
 10
32.94550395568432
 20
-6.198514842923864
 30
0.0
 10
33.15747258947395
 20
-3.728158589710853
 30
0.0
 10
32.98885130926097
 20
-2.149322513243034
 30
0.0
 10
32.86352259279234
 20
-2.675703122410209
 30
0.0
 10
32.7883253629109
 20
-3.252215218164903
 30
0.0
 10
32.61286515985571
 20
-3.778595827332399
 30
0.0
 10
32.65069553794757
 20
-3.252116987753792
 30
0.0
 10
32.88858833608593
 20
-1.698139133956975
 30
0.0
 10
32.6379309031493
 20
-1.021364065027566
 30
0.0
 10
32.46247070009347
 20
-1.723204877250574
 30
0.0
 10
32.21181326715684
 20
-2.374914202886063
 30
0.0
 10
31.93609009092598
 20
-3.252215218164903
 30
0.0
 10
31.80969459593797
 20
-2.846869693670174
 30
0.0
 10
32.13661603727541
 20
-1.397350214432829
 30
0.0
 10
32.18674752386261
 20
-0.870969605265333
 30
0.0
 10
31.94726407843502
 20
-1.232127780163818
 30
0.0
 10
31.29827252107569
 20
-2.715596840210907
 30
0.0
 10
31.05878907564746
 20
-3.076755015109392
 30
0.0
 10
31.18300452520286
 20
-2.419865633580123
 30
0.0
 10
31.28438076529049
 20
-2.074125283361917
 30
0.0
 10
31.63530117140215
 20
-1.347218727845311
 30
0.0
 10
30.50734272318636
 20
-2.650637379116611
 30
0.0
 10
30.23161954695614
 20
-2.876229068759961
 30
0.0
 10
29.66172874130749
 20
-4.045110656929659
 30
0.0
 10
27.03439476712728
 20
-2.053843523272489
 30
0.0
 10
22.90095145023485
 20
-1.963297602126626
 30
0.0
 10
19.81806586926609
 20
-4.265491168990351
 30
0.0
 10
19.60890651935343
 20
-3.730590661289657
 30
0.0
 10
19.20269249773616
 20
-2.675703122409888
 30
0.0
 10
18.25019425257621
 20
-1.171758524789158
 30
0.0
 10
18.72644337515618
 20
-2.876229068759319
 30
0.0
 10
18.75150911844978
 20
-3.101820758402348
 30
0.0
 10
18.8016406050373
 20
-3.803661570625356
 30
0.0
 10
18.65124614527507
 20
-3.101820758402348
 30
0.0
 10
18.0747340495207
 20
-1.196824268082757
 30
0.0
 10
17.67368215682151
 20
-0.9211010918522093
 30
0.0
 10
17.67368215682151
 20
-1.322152984551071
 30
0.0
 10
18.03545867169067
 20
-3.649094697319735
 30
0.0
 10
17.94940533305206
 20
-4.079384746855903
 30
0.0
 10
17.71386862839096
 20
-3.61511374766848
 30
0.0
 10
17.55829845536389
 20
-1.435503577628756
 30
0.0
 10
17.32276175071017
 20
-0.9712325784397274
 30
0.0
 10
16.95684545023929
 20
-1.233702472184922
 30
0.0
 10
16.99690708789242
 20
-4.029253260268706
 30
0.0
 10
16.94299142227351
 20
-4.489622916349457
 30
0.0
 10
16.87157837142379
 20
-4.204713463324539
 30
0.0
 10
16.84651262813019
 20
-3.878858800506473
 30
0.0
 10
16.87157837142379
 20
-2.199453999829911
 30
0.0
 10
16.49559222201885
 20
-2.750900352291005
 30
0.0
 10
16.30953307540298
 20
-7.478788675012803
 30
0.0
 10
16.77117269420487
 20
-9.21755231640309
 30
0.0
 10
16.31939963273121
 20
-10.62315056019677
 30
0.0
 10
13.65081785622554
 20
-28.77228947890881
 30
0.0
 10
8.349743538060551
 20
-34.53468005784823
 30
0.0
 10
4.098018814404726
 20
-39.15640332022243
 30
0.0
 10
3.734875642230722
 20
-46.06727475195976
 30
0.0
 10
7.403297023184147
 20
-49.07619528798419
 30
0.0
 10
10.2198515162965
 20
-51.38639571892693
 30
0.0
 10
12.61584376377525
 20
-47.15671191415514
 30
0.0
 10
16.39255940281666
 20
-47.24641627942751
 30
0.0
 10
18.9754883031816
 20
-47.30776588042984
 30
0.0
 10
20.06934633683553
 20
-49.81408758819138
 30
0.0
 10
22.5217033918721
 20
-49.00092687068335
 30
0.0
 10
24.73633009517507
 20
-48.26659357473243
 30
0.0
 10
24.752943101723
 20
-44.99327045480108
 30
0.0
 10
23.69455424813755
 20
-43.74229527488833
 30
0.0
 10
22.19776637713253
 20
-41.97314920926274
 30
0.0
 10
20.1637829723686
 20
-41.28831989490994
 30
0.0
 10
17.03360491028905
 20
-41.29931481599658
 30
0.0
 10
17.03360491028905
 20
-41.29931481599658
 30
0.0
 10
17.99166666216939
 20
-36.21851850946368
 30
0.0
 10
19.9898147964386
 20
-33.83233639667092
 30
0.0
  0
INSERT
  5
67
330
1F
100
AcDbEntity
  8
suqirrels outline
100
AcDbBlockReference
  2
block 6
 10
0.0
 20
0.0
 30
0.0
  0
INSERT
  5
6E
330
1F
100
AcDbEntity
  8
suqirrels outline
100
AcDbBlockReference
  2
block 7
 10
0.0
 20
0.0
 30
0.0
  0
ENDSEC
  0
SECTION
  2
OBJECTS
  0
DICTIONARY
  5
C
330
0
100
AcDbDictionary
281
     1
  3
ACAD_GROUP
350
D
  3
ACAD_LAYOUT
350
1A
  3
ACAD_MATERIAL
350
3B
  3
ACAD_MLEADERSTYLE
350
75
  3
ACAD_MLINESTYLE
350
17
  3
ACAD_PLOTSETTINGS
350
19
  3
ACAD_PLOTSTYLENAME
350
E
  3
ACAD_TABLESTYLE
350
74
  3
ACAD_VISUALSTYLE
350
2A
  0
SUN
  5
3F
330
29
100
AcDbSun
 90
        1
290
     0
 63
     7
421
 16777215
 40
1.0
291
     1
 91
  2455826
 92
 54000000
292
     0
 70
     2
 71
   256
280
     1
  0
DICTIONARY
  5
D
102
{ACAD_REACTORS
330
C
102
}
330
C
100
AcDbDictionary
281
     1
  0
DICTIONARY
  5
1A
102
{ACAD_REACTORS
330
C
102
}
330
C
100
AcDbDictionary
281
     1
  3
Layout1
350
1E
  3
Layout2
350
26
  3
Model
350
22
  0
DICTIONARY
  5
3B
102
{ACAD_REACTORS
330
C
102
}
330
C
100
AcDbDictionary
281
     1
  3
ByBlock
350
3D
  3
ByLayer
350
3C
  3
Global
350
3E
  0
DICTIONARY
  5
75
102
{ACAD_REACTORS
330
C
102
}
330
C
100
AcDbDictionary
281
     1
  0
DICTIONARY
  5
17
102
{ACAD_REACTORS
330
C
102
}
330
C
100
AcDbDictionary
281
     1
  3
Standard
350
18
  0
DICTIONARY
  5
19
102
{ACAD_REACTORS
330
C
102
}
330
C
100
AcDbDictionary
281
     1
  0
ACDBDICTIONARYWDFLT
  5
E
102
{ACAD_REACTORS
330
C
102
}
330
C
100
AcDbDictionary
281
     1
  3
Normal
350
F
100
AcDbDictionaryWithDefault
340
F
  0
DICTIONARY
  5
74
102
{ACAD_REACTORS
330
C
102
}
330
C
100
AcDbDictionary
281
     1
  0
DICTIONARY
  5
2A
102
{ACAD_REACTORS
330
C
102
}
330
C
100
AcDbDictionary
281
     1
  3
2dWireframe
350
2F
  3
3D Hidden
350
31
  3
3dWireframe
350
30
  3
Basic
350
32
  3
Brighten
350
36
  3
ColorChange
350
3A
  3
Conceptual
350
34
  3
Dim
350
35
  3
Facepattern
350
39
  3
Flat
350
2B
  3
FlatWithEdges
350
2C
  3
Gouraud
350
2D
  3
GouraudWithEdges
350
2E
  3
Linepattern
350
38
  3
Realistic
350
33
  3
Thicken
350
37
  0
LAYOUT
  5
1E
102
{ACAD_REACTORS
330
1A
102
}
330
1A
100
AcDbPlotSettings
  1

  2
none_device
  4

  6

 40
0.0
 41
0.0
 42
0.0
 43
0.0
 44
0.0
 45
0.0
 46
0.0
 47
0.0
 48
0.0
 49
0.0
140
0.0
141
0.0
142
1.0
143
1.0
 70
   688
 72
     0
 73
     0
 74
     5
  7

 75
    16
 76
     0
 77
     2
 78
   300
147
1.0
148
0.0
149
0.0
100
AcDbLayout
  1
Layout1
 70
     1
 71
     1
 10
0.0
 20
0.0
 11
12.0
 21
9.0
 12
0.0
 22
0.0
 32
0.0
 14
1.000000000000000E+20
 24
1.000000000000000E+20
 34
1.000000000000000E+20
 15
-1.000000000000000E+20
 25
-1.000000000000000E+20
 35
-1.000000000000000E+20
146
0.0
 13
0.0
 23
0.0
 33
0.0
 16
1.0
 26
0.0
 36
0.0
 17
0.0
 27
1.0
 37
0.0
 76
     0
330
1B
  0
LAYOUT
  5
26
102
{ACAD_REACTORS
330
1A
102
}
330
1A
100
AcDbPlotSettings
  1

  2
none_device
  4

  6

 40
0.0
 41
0.0
 42
0.0
 43
0.0
 44
0.0
 45
0.0
 46
0.0
 47
0.0
 48
0.0
 49
0.0
140
0.0
141
0.0
142
1.0
143
1.0
 70
   688
 72
     0
 73
     0
 74
     5
  7

 75
    16
 76
     0
 77
     2
 78
   300
147
1.0
148
0.0
149
0.0
100
AcDbLayout
  1
Layout2
 70
     1
 71
     2
 10
0.0
 20
0.0
 11
0.0
 21
0.0
 12
0.0
 22
0.0
 32
0.0
 14
0.0
 24
0.0
 34
0.0
 15
0.0
 25
0.0
 35
0.0
146
0.0
 13
0.0
 23
0.0
 33
0.0
 16
1.0
 26
0.0
 36
0.0
 17
0.0
 27
1.0
 37
0.0
 76
     0
330
23
  0
LAYOUT
  5
22
102
{ACAD_REACTORS
330
1A
102
}
330
1A
100
AcDbPlotSettings
  1

  2
none_device
  4

  6

 40
0.0
 41
0.0
 42
0.0
 43
0.0
 44
0.0
 45
0.0
 46
0.0
 47
0.0
 48
0.0
 49
0.0
140
0.0
141
0.0
142
1.0
143
1.0
 70
  1712
 72
     0
 73
     0
 74
     0
  7

 75
     0
 76
     0
 77
     2
 78
   300
147
1.0
148
0.0
149
0.0
100
AcDbLayout
  1
Model
 70
     1
 71
     0
 10
0.0
 20
0.0
 11
12.0
 21
9.0
 12
0.0
 22
0.0
 32
0.0
 14
1.000000000000000E+20
 24
1.000000000000000E+20
 34
1.000000000000000E+20
 15
-1.000000000000000E+20
 25
-1.000000000000000E+20
 35
-1.000000000000000E+20
146
0.0
 13
0.0
 23
0.0
 33
0.0
 16
1.0
 26
0.0
 36
0.0
 17
0.0
 27
1.0
 37
0.0
 76
     0
330
1F
331
29
  0
MATERIAL
  5
3D
102
{ACAD_REACTORS
330
3B
102
}
330
3B
100
AcDbMaterial
  1
ByBlock
 72
     1
 94
      127
  0
MATERIAL
  5
3C
102
{ACAD_REACTORS
330
3B
102
}
330
3B
100
AcDbMaterial
  1
ByLayer
 72
     1
 94
      127
  0
MATERIAL
  5
3E
102
{ACAD_REACTORS
330
3B
102
}
330
3B
100
AcDbMaterial
  1
Global
 72
     1
 94
      127
  0
MLINESTYLE
  5
18
102
{ACAD_REACTORS
330
17
102
}
330
17
100
AcDbMlineStyle
  2
Standard
 70
     0
  3

 62
   256
 51
90.0
 52
90.0
 71
     2
 49
0.5
 62
   256
  6
BYLAYER
 49
-0.5
 62
   256
  6
BYLAYER
  0
ACDBPLACEHOLDER
  5
F
102
{ACAD_REACTORS
330
E
102
}
330
E
  0
VISUALSTYLE
  5
2F
102
{ACAD_REACTORS
330
2A
102
}
330
2A
100
AcDbVisualStyle
  2
2dWireframe
 70
     4
177
     2
291
     0
 71
     0
176
     1
 72
     2
176
     1
 73
     0
176
     1
 90
        0
176
     1
 40
-0.6
176
     1
 41
-30.0
176
     1
 62
     5
 63
     7
421
 16777215
176
     1
 74
     1
176
     1
 91
        4
176
     1
 64
     7
176
     1
 65
   257
176
     1
 75
     1
176
     1
175
     1
176
     1
 42
1.0
176
     1
 92
        0
176
     1
 66
   257
176
     1
 43
1.0
176
     1
 76
     1
176
     1
 77
     6
176
     1
 78
     2
176
     1
 67
     7
176
     1
 79
     5
176
     1
170
     0
176
     1
171
     0
176
     1
290
     0
176
     1
 93
        1
176
     1
 44
0.0
176
     1
173
     0
176
     1
  0
VISUALSTYLE
  5
31
102
{ACAD_REACTORS
330
2A
102
}
330
2A
100
AcDbVisualStyle
  2
3D Hidden
 70
     6
177
     2
291
     0
 71
     1
176
     1
 72
     2
176
     1
 73
     2
176
     1
 90
        0
176
     1
 40
-0.6
176
     1
 41
-30.0
176
     1
 62
     5
 63
     7
421
 16777215
176
     1
 74
     2
176
     1
 91
        2
176
     1
 64
     7
176
     1
 65
   257
176
     1
 75
     2
176
     1
175
     1
176
     1
 42
40.0
176
     1
 92
        0
176
     1
 66
   257
176
     1
 43
1.0
176
     1
 76
     1
176
     1
 77
     6
176
     1
 78
     2
176
     1
 67
     7
176
     1
 79
     3
176
     1
170
     0
176
     1
171
     0
176
     1
290
     0
176
     1
 93
        1
176
     1
 44
0.0
176
     1
173
     0
176
     1
  0
VISUALSTYLE
  5
30
102
{ACAD_REACTORS
330
2A
102
}
330
2A
100
AcDbVisualStyle
  2
3dWireframe
 70
     5
177
     2
291
     0
 71
     0
176
     1
 72
     2
176
     1
 73
     0
176
     1
 90
        0
176
     1
 40
-0.6
176
     1
 41
-30.0
176
     1
 62
     5
 63
     7
421
 16777215
176
     1
 74
     1
176
     1
 91
        4
176
     1
 64
     7
176
     1
 65
   257
176
     1
 75
     1
176
     1
175
     1
176
     1
 42
1.0
176
     1
 92
        0
176
     1
 66
   257
176
     1
 43
1.0
176
     1
 76
     1
176
     1
 77
     6
176
     1
 78
     2
176
     1
 67
     7
176
     1
 79
     5
176
     1
170
     0
176
     1
171
     0
176
     1
290
     0
176
     1
 93
        1
176
     1
 44
0.0
176
     1
173
     0
176
     1
  0
VISUALSTYLE
  5
32
102
{ACAD_REACTORS
330
2A
102
}
330
2A
100
AcDbVisualStyle
  2
Basic
 70
     7
177
     2
291
     1
 71
     1
176
     1
 72
     0
176
     1
 73
     1
176
     1
 90
        0
176
     1
 40
-0.6
176
     1
 41
-30.0
176
     1
 62
     5
 63
     7
421
 16777215
176
     1
 74
     0
176
     1
 91
        4
176
     1
 64
     7
176
     1
 65
   257
176
     1
 75
     1
176
     1
175
     1
176
     1
 42
1.0
176
     1
 92
        8
176
     1
 66
     7
176
     1
 43
1.0
176
     1
 76
     1
176
     1
 77
     6
176
     1
 78
     2
176
     1
 67
     7
176
     1
 79
     5
176
     1
170
     0
176
     1
171
     0
176
     1
290
     0
176
     1
 93
        1
176
     1
 44
0.0
176
     1
173
     0
176
     1
  0
VISUALSTYLE
  5
36
102
{ACAD_REACTORS
330
2A
102
}
330
2A
100
AcDbVisualStyle
  2
Brighten
 70
    12
177
     2
291
     1
 71
     2
176
     1
 72
     2
176
     1
 73
     0
176
     1
 90
        0
176
     1
 40
-0.6
176
     1
 41
-30.0
176
     1
 62
     5
 63
     7
421
 16777215
176
     1
 74
     1
176
     1
 91
        4
176
     1
 64
     7
176
     1
 65
   257
176
     1
 75
     1
176
     1
175
     1
176
     1
 42
1.0
176
     1
 92
        8
176
     1
 66
     7
176
     1
 43
1.0
176
     1
 76
     1
176
     1
 77
     6
176
     1
 78
     2
176
     1
 67
     7
176
     1
 79
     5
176
     1
170
     0
176
     1
171
     0
176
     1
290
     0
176
     1
 93
        1
176
     1
 44
50.0
176
     1
173
     0
176
     1
  0
VISUALSTYLE
  5
3A
102
{ACAD_REACTORS
330
2A
102
}
330
2A
100
AcDbVisualStyle
  2
ColorChange
 70
    16
177
     2
291
     1
 71
     2
176
     1
 72
     2
176
     1
 73
     3
176
     1
 90
        0
176
     1
 40
-0.6
176
     1
 41
-30.0
176
     1
 62
     5
 63
     8
421
  8421504
176
     1
 74
     1
176
     1
 91
        4
176
     1
 64
     7
176
     1
 65
   257
176
     1
 75
     1
176
     1
175
     1
176
     1
 42
1.0
176
     1
 92
        8
176
     1
 66
     8
424
  8421504
176
     1
 43
1.0
176
     1
 76
     1
176
     1
 77
     6
176
     1
 78
     2
176
     1
 67
     7
176
     1
 79
     5
176
     1
170
     0
176
     1
171
     0
176
     1
290
     0
176
     1
 93
        1
176
     1
 44
0.0
176
     1
173
     0
176
     1
  0
VISUALSTYLE
  5
34
102
{ACAD_REACTORS
330
2A
102
}
330
2A
100
AcDbVisualStyle
  2
Conceptual
 70
     9
177
     2
291
     0
 71
     3
176
     1
 72
     2
176
     1
 73
     0
176
     1
 90
        0
176
     1
 40
-0.6
176
     1
 41
-30.0
176
     1
 62
     5
 63
     7
421
 16777215
176
     1
 74
     2
176
     1
 91
        2
176
     1
 64
     7
176
     1
 65
   257
176
     1
 75
     1
176
     1
175
     1
176
     1
 42
40.0
176
     1
 92
        8
176
     1
 66
     7
176
     1
 43
1.0
176
     1
 76
     1
176
     1
 77
     6
176
     1
 78
     2
176
     1
 67
     7
176
     1
 79
     3
176
     1
170
     0
176
     1
171
     0
176
     1
290
     0
176
     1
 93
        1
176
     1
 44
0.0
176
     1
173
     0
176
     1
  0
VISUALSTYLE
  5
35
102
{ACAD_REACTORS
330
2A
102
}
330
2A
100
AcDbVisualStyle
  2
Dim
 70
    11
177
     2
291
     1
 71
     2
176
     1
 72
     2
176
     1
 73
     0
176
     1
 90
        0
176
     1
 40
-0.6
176
     1
 41
-30.0
176
     1
 62
     5
 63
     7
421
 16777215
176
     1
 74
     1
176
     1
 91
        4
176
     1
 64
     7
176
     1
 65
   257
176
     1
 75
     1
176
     1
175
     1
176
     1
 42
1.0
176
     1
 92
        8
176
     1
 66
     7
176
     1
 43
1.0
176
     1
 76
     1
176
     1
 77
     6
176
     1
 78
     2
176
     1
 67
     7
176
     1
 79
     5
176
     1
170
     0
176
     1
171
     0
176
     1
290
     0
176
     1
 93
        1
176
     1
 44
-50.0
176
     1
173
     0
176
     1
  0
VISUALSTYLE
  5
39
102
{ACAD_REACTORS
330
2A
102
}
330
2A
100
AcDbVisualStyle
  2
Facepattern
 70
    15
177
     2
291
     1
 71
     2
176
     1
 72
     2
176
     1
 73
     0
176
     1
 90
        0
176
     1
 40
-0.6
176
     1
 41
-30.0
176
     1
 62
     5
 63
     7
421
 16777215
176
     1
 74
     1
176
     1
 91
        4
176
     1
 64
     7
176
     1
 65
   257
176
     1
 75
     1
176
     1
175
     1
176
     1
 42
1.0
176
     1
 92
        8
176
     1
 66
     7
176
     1
 43
1.0
176
     1
 76
     1
176
     1
 77
     6
176
     1
 78
     2
176
     1
 67
     7
176
     1
 79
     5
176
     1
170
     0
176
     1
171
     0
176
     1
290
     0
176
     1
 93
        1
176
     1
 44
0.0
176
     1
173
     0
176
     1
  0
VISUALSTYLE
  5
2B
102
{ACAD_REACTORS
330
2A
102
}
330
2A
100
AcDbVisualStyle
  2
Flat
 70
     0
177
     2
291
     1
 71
     2
176
     1
 72
     1
176
     1
 73
     1
176
     1
 90
        2
176
     1
 40
-0.6
176
     1
 41
30.0
176
     1
 62
     5
 63
     7
421
 16777215
176
     1
 74
     0
176
     1
 91
        4
176
     1
 64
     7
176
     1
 65
   257
176
     1
 75
     1
176
     1
175
     1
176
     1
 42
1.0
176
     1
 92
        8
176
     1
 66
     7
176
     1
 43
1.0
176
     1
 76
     1
176
     1
 77
     6
176
     1
 78
     2
176
     1
 67
     7
176
     1
 79
     5
176
     1
170
     0
176
     1
171
     0
176
     1
290
     0
176
     1
 93
       13
176
     1
 44
0.0
176
     1
173
     0
176
     1
  0
VISUALSTYLE
  5
2C
102
{ACAD_REACTORS
330
2A
102
}
330
2A
100
AcDbVisualStyle
  2
FlatWithEdges
 70
     1
177
     2
291
     1
 71
     2
176
     1
 72
     1
176
     1
 73
     1
176
     1
 90
        2
176
     1
 40
-0.6
176
     1
 41
30.0
176
     1
 62
     5
 63
     7
421
 16777215
176
     1
 74
     1
176
     1
 91
        4
176
     1
 64
     7
176
     1
 65
   257
176
     1
 75
     1
176
     1
175
     1
176
     1
 42
1.0
176
     1
 92
        0
176
     1
 66
   257
176
     1
 43
1.0
176
     1
 76
     1
176
     1
 77
     6
176
     1
 78
     2
176
     1
 67
     7
176
     1
 79
     5
176
     1
170
     0
176
     1
171
     0
176
     1
290
     0
176
     1
 93
       13
176
     1
 44
0.0
176
     1
173
     0
176
     1
  0
VISUALSTYLE
  5
2D
102
{ACAD_REACTORS
330
2A
102
}
330
2A
100
AcDbVisualStyle
  2
Gouraud
 70
     2
177
     2
291
     1
 71
     2
176
     1
 72
     2
176
     1
 73
     1
176
     1
 90
        2
176
     1
 40
-0.6
176
     1
 41
30.0
176
     1
 62
     5
 63
     7
421
 16777215
176
     1
 74
     0
176
     1
 91
        4
176
     1
 64
     7
176
     1
 65
   257
176
     1
 75
     1
176
     1
175
     1
176
     1
 42
1.0
176
     1
 92
        0
176
     1
 66
     7
176
     1
 43
1.0
176
     1
 76
     1
176
     1
 77
     6
176
     1
 78
     2
176
     1
 67
     7
176
     1
 79
     5
176
     1
170
     0
176
     1
171
     0
176
     1
290
     0
176
     1
 93
       13
176
     1
 44
0.0
176
     1
173
     0
176
     1
  0
VISUALSTYLE
  5
2E
102
{ACAD_REACTORS
330
2A
102
}
330
2A
100
AcDbVisualStyle
  2
GouraudWithEdges
 70
     3
177
     2
291
     1
 71
     2
176
     1
 72
     2
176
     1
 73
     1
176
     1
 90
        2
176
     1
 40
-0.6
176
     1
 41
30.0
176
     1
 62
     5
 63
     7
421
 16777215
176
     1
 74
     1
176
     1
 91
        4
176
     1
 64
     7
176
     1
 65
   257
176
     1
 75
     1
176
     1
175
     1
176
     1
 42
1.0
176
     1
 92
        0
176
     1
 66
   257
176
     1
 43
1.0
176
     1
 76
     1
176
     1
 77
     6
176
     1
 78
     2
176
     1
 67
     7
176
     1
 79
     5
176
     1
170
     0
176
     1
171
     0
176
     1
290
     0
176
     1
 93
       13
176
     1
 44
0.0
176
     1
173
     0
176
     1
  0
VISUALSTYLE
  5
38
102
{ACAD_REACTORS
330
2A
102
}
330
2A
100
AcDbVisualStyle
  2
Linepattern
 70
    14
177
     2
291
     1
 71
     2
176
     1
 72
     2
176
     1
 73
     0
176
     1
 90
        0
176
     1
 40
-0.6
176
     1
 41
-30.0
176
     1
 62
     5
 63
     7
421
 16777215
176
     1
 74
     1
176
     1
 91
        4
176
     1
 64
     7
176
     1
 65
   257
176
     1
 75
     7
176
     1
175
     7
176
     1
 42
1.0
176
     1
 92
        8
176
     1
 66
     7
176
     1
 43
1.0
176
     1
 76
     1
176
     1
 77
     6
176
     1
 78
     2
176
     1
 67
     7
176
     1
 79
     5
176
     1
170
     0
176
     1
171
     0
176
     1
290
     0
176
     1
 93
        1
176
     1
 44
0.0
176
     1
173
     0
176
     1
  0
VISUALSTYLE
  5
33
102
{ACAD_REACTORS
330
2A
102
}
330
2A
100
AcDbVisualStyle
  2
Realistic
 70
     8
177
     2
291
     0
 71
     2
176
     1
 72
     2
176
     1
 73
     0
176
     1
 90
        0
176
     1
 40
-0.6
176
     1
 41
-30.0
176
     1
 62
     5
 63
     7
421
 16777215
176
     1
 74
     1
176
     1
 91
        0
176
     1
 64
     7
176
     1
 65
   257
176
     1
 75
     1
176
     1
175
     1
176
     1
 42
1.0
176
     1
 92
        8
176
     1
 66
     8
424
  7895160
176
     1
 43
1.0
176
     1
 76
     1
176
     1
 77
     6
176
     1
 78
     2
176
     1
 67
     7
176
     1
 79
     5
176
     1
170
     0
176
     1
171
     0
176
     1
290
     0
176
     1
 93
       13
176
     1
 44
0.0
176
     1
173
     0
176
     1
  0
VISUALSTYLE
  5
37
102
{ACAD_REACTORS
330
2A
102
}
330
2A
100
AcDbVisualStyle
  2
Thicken
 70
    13
177
     2
291
     1
 71
     2
176
     1
 72
     2
176
     1
 73
     0
176
     1
 90
        0
176
     1
 40
-0.6
176
     1
 41
-30.0
176
     1
 62
     5
 63
     7
421
 16777215
176
     1
 74
     1
176
     1
 91
        4
176
     1
 64
     7
176
     1
 65
   257
176
     1
 75
     1
176
     1
175
     1
176
     1
 42
1.0
176
     1
 92
       12
176
     1
 66
     7
176
     1
 43
1.0
176
     1
 76
     1
176
     1
 77
     6
176
     1
 78
     2
176
     1
 67
     7
176
     1
 79
     5
176
     1
170
     0
176
     1
171
     0
176
     1
290
     0
176
     1
 93
        1
176
     1
 44
0.0
176
     1
173
     0
176
     1
  0
ENDSEC
  0
EOF
