  0
SECTION
  2
HEADER
  9
$ACADVER
  1
AC1021
  9
$ACADMAINTVER
 70
    25
  9
$DWGCODEPAGE
  3
ANSI_1252
  9
$LASTSAVEDBY
  1
ACER
  9
$INSBASE
 10
0.0
 20
0.0
 30
0.0
  9
$EXTMIN
 10
1.000000000000000E+20
 20
1.000000000000000E+20
 30
1.000000000000000E+20
  9
$EXTMAX
 10
-1.000000000000000E+20
 20
-1.000000000000000E+20
 30
-1.000000000000000E+20
  9
$LIMMIN
 10
0.0
 20
0.0
  9
$LIMMAX
 10
12.0
 20
9.0
  9
$ORTHOMODE
 70
     0
  9
$REGENMODE
 70
     1
  9
$FILLMODE
 70
     1
  9
$QTEXTMODE
 70
     0
  9
$MIRRTEXT
 70
     1
  9
$LTSCALE
 40
1.0
  9
$ATTMODE
 70
     1
  9
$TEXTSIZE
 40
0.2
  9
$TRACEWID
 40
0.05
  9
$TEXTSTYLE
  7
Standard
  9
$CLAYER
  8
Vinilo v2_Sketch1
  9
$CELTYPE
  6
ByLayer
  9
$CECOLOR
 62
   256
  9
$CELTSCALE
 40
1.0
  9
$DISPSILH
 70
     0
  9
$DIMSCALE
 40
1.0
  9
$DIMASZ
 40
0.18
  9
$DIMEXO
 40
0.0625
  9
$DIMDLI
 40
0.38
  9
$DIMRND
 40
0.0
  9
$DIMDLE
 40
0.0
  9
$DIMEXE
 40
0.18
  9
$DIMTP
 40
0.0
  9
$DIMTM
 40
0.0
  9
$DIMTXT
 40
0.18
  9
$DIMCEN
 40
0.09
  9
$DIMTSZ
 40
0.0
  9
$DIMTOL
 70
     0
  9
$DIMLIM
 70
     0
  9
$DIMTIH
 70
     1
  9
$DIMTOH
 70
     1
  9
$DIMSE1
 70
     0
  9
$DIMSE2
 70
     0
  9
$DIMTAD
 70
     0
  9
$DIMZIN
 70
     0
  9
$DIMBLK
  1

  9
$DIMASO
 70
     1
  9
$DIMSHO
 70
     1
  9
$DIMPOST
  1

  9
$DIMAPOST
  1

  9
$DIMALT
 70
     0
  9
$DIMALTD
 70
     2
  9
$DIMALTF
 40
25.4
  9
$DIMLFAC
 40
1.0
  9
$DIMTOFL
 70
     0
  9
$DIMTVP
 40
0.0
  9
$DIMTIX
 70
     0
  9
$DIMSOXD
 70
     0
  9
$DIMSAH
 70
     0
  9
$DIMBLK1
  1

  9
$DIMBLK2
  1

  9
$DIMSTYLE
  2
STANDARD_ACAD
  9
$DIMCLRD
 70
     0
  9
$DIMCLRE
 70
     0
  9
$DIMCLRT
 70
     0
  9
$DIMTFAC
 40
1.0
  9
$DIMGAP
 40
0.09
  9
$DIMJUST
 70
     0
  9
$DIMSD1
 70
     0
  9
$DIMSD2
 70
     0
  9
$DIMTOLJ
 70
     1
  9
$DIMTZIN
 70
     0
  9
$DIMALTZ
 70
     0
  9
$DIMALTTZ
 70
     0
  9
$DIMUPT
 70
     0
  9
$DIMDEC
 70
     4
  9
$DIMTDEC
 70
     4
  9
$DIMALTU
 70
     2
  9
$DIMALTTD
 70
     2
  9
$DIMTXSTY
  7
Standard
  9
$DIMAUNIT
 70
     0
  9
$DIMADEC
 70
     0
  9
$DIMALTRND
 40
0.0
  9
$DIMAZIN
 70
     0
  9
$DIMDSEP
 70
    46
  9
$DIMATFIT
 70
     3
  9
$DIMFRAC
 70
     0
  9
$DIMLDRBLK
  1

  9
$DIMLUNIT
 70
     2
  9
$DIMLWD
 70
    -2
  9
$DIMLWE
 70
    -2
  9
$DIMTMOVE
 70
     2
  9
$DIMFXL
 40
1.0
  9
$DIMFXLON
 70
     0
  9
$DIMJOGANG
 40
0.7853981633974483
  9
$DIMTFILL
 70
     0
  9
$DIMTFILLCLR
 70
     0
  9
$DIMARCSYM
 70
     0
  9
$DIMLTYPE
  6

  9
$DIMLTEX1
  6

  9
$DIMLTEX2
  6

  9
$LUNITS
 70
     2
  9
$LUPREC
 70
     3
  9
$SKETCHINC
 40
0.1
  9
$FILLETRAD
 40
0.5
  9
$AUNITS
 70
     0
  9
$AUPREC
 70
     0
  9
$MENU
  1
.
  9
$ELEVATION
 40
0.0
  9
$PELEVATION
 40
0.0
  9
$THICKNESS
 40
0.0
  9
$LIMCHECK
 70
     0
  9
$CHAMFERA
 40
0.0
  9
$CHAMFERB
 40
0.0
  9
$CHAMFERC
 40
0.0
  9
$CHAMFERD
 40
0.0
  9
$SKPOLY
 70
     0
  9
$TDCREATE
 40
2459676.465818842
  9
$TDUCREATE
 40
2459676.632485509
  9
$TDUPDATE
 40
2459676.465841007
  9
$TDUUPDATE
 40
2459676.632507673
  9
$TDINDWG
 40
0.0000000116
  9
$TDUSRTIMER
 40
0.0000000116
  9
$USRTIMER
 70
     1
  9
$ANGBASE
 50
0.0
  9
$ANGDIR
 70
     0
  9
$PDMODE
 70
     0
  9
$PDSIZE
 40
0.0
  9
$PLINEWID
 40
0.0
  9
$SPLFRAME
 70
     0
  9
$SPLINETYPE
 70
     6
  9
$SPLINESEGS
 70
     8
  9
$HANDSEED
  5
212
  9
$SURFTAB1
 70
     6
  9
$SURFTAB2
 70
     6
  9
$SURFTYPE
 70
     6
  9
$SURFU
 70
     6
  9
$SURFV
 70
     6
  9
$UCSBASE
  2

  9
$UCSNAME
  2

  9
$UCSORG
 10
0.0
 20
0.0
 30
0.0
  9
$UCSXDIR
 10
1.0
 20
0.0
 30
0.0
  9
$UCSYDIR
 10
0.0
 20
1.0
 30
0.0
  9
$UCSORTHOREF
  2

  9
$UCSORTHOVIEW
 70
     0
  9
$UCSORGTOP
 10
0.0
 20
0.0
 30
0.0
  9
$UCSORGBOTTOM
 10
0.0
 20
0.0
 30
0.0
  9
$UCSORGLEFT
 10
0.0
 20
0.0
 30
0.0
  9
$UCSORGRIGHT
 10
0.0
 20
0.0
 30
0.0
  9
$UCSORGFRONT
 10
0.0
 20
0.0
 30
0.0
  9
$UCSORGBACK
 10
0.0
 20
0.0
 30
0.0
  9
$PUCSBASE
  2

  9
$PUCSNAME
  2

  9
$PUCSORG
 10
0.0
 20
0.0
 30
0.0
  9
$PUCSXDIR
 10
1.0
 20
0.0
 30
0.0
  9
$PUCSYDIR
 10
0.0
 20
1.0
 30
0.0
  9
$PUCSORTHOREF
  2

  9
$PUCSORTHOVIEW
 70
     0
  9
$PUCSORGTOP
 10
0.0
 20
0.0
 30
0.0
  9
$PUCSORGBOTTOM
 10
0.0
 20
0.0
 30
0.0
  9
$PUCSORGLEFT
 10
0.0
 20
0.0
 30
0.0
  9
$PUCSORGRIGHT
 10
0.0
 20
0.0
 30
0.0
  9
$PUCSORGFRONT
 10
0.0
 20
0.0
 30
0.0
  9
$PUCSORGBACK
 10
0.0
 20
0.0
 30
0.0
  9
$USERI1
 70
     0
  9
$USERI2
 70
     0
  9
$USERI3
 70
     0
  9
$USERI4
 70
     0
  9
$USERI5
 70
     0
  9
$USERR1
 40
0.0
  9
$USERR2
 40
0.0
  9
$USERR3
 40
0.0
  9
$USERR4
 40
0.0
  9
$USERR5
 40
0.0
  9
$WORLDVIEW
 70
     1
  9
$SHADEDGE
 70
     3
  9
$SHADEDIF
 70
    70
  9
$TILEMODE
 70
     1
  9
$MAXACTVP
 70
    64
  9
$PINSBASE
 10
0.0
 20
0.0
 30
0.0
  9
$PLIMCHECK
 70
     0
  9
$PEXTMIN
 10
1.000000000000000E+20
 20
1.000000000000000E+20
 30
1.000000000000000E+20
  9
$PEXTMAX
 10
-1.000000000000000E+20
 20
-1.000000000000000E+20
 30
-1.000000000000000E+20
  9
$PLIMMIN
 10
0.0
 20
0.0
  9
$PLIMMAX
 10
12.0
 20
9.0
  9
$UNITMODE
 70
     0
  9
$VISRETAIN
 70
     1
  9
$PLINEGEN
 70
     0
  9
$PSLTSCALE
 70
     1
  9
$TREEDEPTH
 70
  3020
  9
$CMLSTYLE
  2
Standard
  9
$CMLJUST
 70
     0
  9
$CMLSCALE
 40
1.0
  9
$PROXYGRAPHICS
 70
     1
  9
$MEASUREMENT
 70
     1
  9
$CELWEIGHT
370
    -1
  9
$ENDCAPS
280
     0
  9
$JOINSTYLE
280
     0
  9
$LWDISPLAY
290
     0
  9
$INSUNITS
 70
     4
  9
$HYPERLINKBASE
  1

  9
$STYLESHEET
  1

  9
$XEDIT
290
     1
  9
$CEPSNTYPE
380
     0
  9
$PSTYLEMODE
290
     1
  9
$FINGERPRINTGUID
  2
{3fbea831-7692-4078-84a9-c53526c6f611}
  9
$VERSIONGUID
  2
{FAEB1C32-E019-11D5-929B-00C0DF256EC4}
  9
$EXTNAMES
290
     1
  9
$PSVPSCALE
 40
0.0
  9
$OLESTARTUP
290
     0
  9
$SORTENTS
280
   127
  9
$INDEXCTL
280
     0
  9
$HIDETEXT
280
     1
  9
$XCLIPFRAME
290
     0
  9
$HALOGAP
280
     0
  9
$OBSCOLOR
 70
   257
  9
$OBSLTYPE
280
     0
  9
$INTERSECTIONDISPLAY
280
     0
  9
$INTERSECTIONCOLOR
 70
   257
  9
$DIMASSOC
280
     2
  9
$PROJECTNAME
  1

  9
$CAMERADISPLAY
290
     0
  9
$LENSLENGTH
 40
50.0
  9
$CAMERAHEIGHT
 40
0.0
  9
$STEPSPERSEC
 40
2.0
  9
$STEPSIZE
 40
6.0
  9
$3DDWFPREC
 40
2.0
  9
$PSOLWIDTH
 40
0.25
  9
$PSOLHEIGHT
 40
4.0
  9
$LOFTANG1
 40
1.570796326794897
  9
$LOFTANG2
 40
1.570796326794897
  9
$LOFTMAG1
 40
0.0
  9
$LOFTMAG2
 40
0.0
  9
$LOFTPARAM
 70
     7
  9
$LOFTNORMALS
280
     1
  9
$LATITUDE
 40
37.795
  9
$LONGITUDE
 40
-122.394
  9
$NORTHDIRECTION
 40
0.0
  9
$TIMEZONE
 70
 -8000
  9
$LIGHTGLYPHDISPLAY
280
     1
  9
$TILEMODELIGHTSYNCH
280
     1
  9
$CMATERIAL
347
44
  9
$SOLIDHIST
280
     0
  9
$SHOWHIST
280
     1
  9
$DWFFRAME
280
     2
  9
$DGNFRAME
280
     2
  9
$REALWORLDSCALE
290
     1
  9
$INTERFERECOLOR
 62
   256
  9
$CSHADOW
280
     0
  9
$SHADOWPLANELOCATION
 40
0.0
  0
ENDSEC
  0
SECTION
  2
CLASSES
  0
CLASS
  1
ACDBDICTIONARYWDFLT
  2
AcDbDictionaryWithDefault
  3
ObjectDBX Classes
 90
        0
 91
        3
280
     0
281
     0
  0
CLASS
  1
VISUALSTYLE
  2
AcDbVisualStyle
  3
ObjectDBX Classes
 90
     4095
 91
        3
280
     0
281
     0
  0
CLASS
  1
MATERIAL
  2
AcDbMaterial
  3
ObjectDBX Classes
 90
     1153
 91
        3
280
     0
281
     0
  0
CLASS
  1
SCALE
  2
AcDbScale
  3
ObjectDBX Classes
 90
     1153
 91
        3
280
     0
281
     0
  0
CLASS
  1
TABLESTYLE
  2
AcDbTableStyle
  3
ObjectDBX Classes
 90
     4095
 91
        3
280
     0
281
     0
  0
CLASS
  1
MLEADERSTYLE
  2
AcDbMLeaderStyle
  3
ACDB_MLEADERSTYLE_CLASS
 90
     4095
 91
        3
280
     0
281
     0
  0
CLASS
  1
SUN
  2
AcDbSun
  3
SCENEOE
 90
     1153
 91
        3
280
     0
281
     0
  0
CLASS
  1
DICTIONARYVAR
  2
AcDbDictionaryVar
  3
ObjectDBX Classes
 90
        0
 91
        3
280
     0
281
     0
  0
CLASS
  1
CELLSTYLEMAP
  2
AcDbCellStyleMap
  3
ObjectDBX Classes
 90
     1152
 91
        3
280
     0
281
     0
  0
ENDSEC
  0
SECTION
  2
TABLES
  0
TABLE
  2
VPORT
  5
8
330
0
100
AcDbSymbolTable
 70
     1
  0
VPORT
  5
29
330
8
100
AcDbSymbolTableRecord
100
AcDbViewportTableRecord
  2
*Active
 70
     0
 10
0.0
 20
0.0
 11
1.0
 21
1.0
 12
10.42990654205607
 22
4.5
 13
0.0
 23
0.0
 14
0.5
 24
0.5
 15
0.5
 25
0.5
 16
0.0
 26
0.0
 36
1.0
 17
0.0
 27
0.0
 37
0.0
 40
9.0
 41
1.972972972850329
 42
50.0
 43
0.0
 44
0.0
 50
0.0
 51
0.0
 71
     0
 72
   100
 73
     1
 74
     3
 75
     0
 76
     0
 77
     0
 78
     0
281
     0
 65
     1
110
0.0
120
0.0
130
0.0
111
1.0
121
0.0
131
0.0
112
0.0
122
1.0
132
0.0
 79
     0
146
0.0
348
2F
 60
     3
 61
     5
292
     1
282
     1
141
0.0
142
0.0
 63
   250
361
6D
  0
ENDTAB
  0
TABLE
  2
LTYPE
  5
5
330
0
100
AcDbSymbolTable
 70
     1
  0
LTYPE
  5
14
330
5
100
AcDbSymbolTableRecord
100
AcDbLinetypeTableRecord
  2
ByBlock
 70
     0
  3

 72
    65
 73
     0
 40
0.0
  0
LTYPE
  5
15
330
5
100
AcDbSymbolTableRecord
100
AcDbLinetypeTableRecord
  2
ByLayer
 70
     0
  3

 72
    65
 73
     0
 40
0.0
  0
LTYPE
  5
16
330
5
100
AcDbSymbolTableRecord
100
AcDbLinetypeTableRecord
  2
Continuous
 70
     0
  3
Solid line
 72
    65
 73
     0
 40
0.0
  0
ENDTAB
  0
TABLE
  2
LAYER
  5
2
330
0
100
AcDbSymbolTable
 70
     2
  0
LAYER
  5
10
330
2
100
AcDbSymbolTableRecord
100
AcDbLayerTableRecord
  2
0
 70
     0
 62
     7
  6
Continuous
370
    -3
390
F
347
46
  0
LAYER
  5
6F
330
2
100
AcDbSymbolTableRecord
100
AcDbLayerTableRecord
  2
Vinilo v2_Sketch1
 70
     0
 62
    18
420
        0
  6
Continuous
370
    -3
390
F
347
46
  0
ENDTAB
  0
TABLE
  2
STYLE
  5
3
330
0
100
AcDbSymbolTable
 70
     1
  0
STYLE
  5
11
330
3
100
AcDbSymbolTableRecord
100
AcDbTextStyleTableRecord
  2
Standard
 70
     0
 40
0.0
 41
1.0
 50
0.0
 71
     0
 42
0.2
  3
txt
  4

  0
ENDTAB
  0
TABLE
  2
VIEW
  5
6
330
0
100
AcDbSymbolTable
 70
     0
  0
ENDTAB
  0
TABLE
  2
UCS
  5
7
330
0
100
AcDbSymbolTable
 70
     0
  0
ENDTAB
  0
TABLE
  2
APPID
  5
9
330
0
100
AcDbSymbolTable
 70
     3
  0
APPID
  5
12
330
9
100
AcDbSymbolTableRecord
100
AcDbRegAppTableRecord
  2
ACAD
 70
     0
  0
APPID
  5
6E
330
9
100
AcDbSymbolTableRecord
100
AcDbRegAppTableRecord
  2
Rhino
 70
     0
  0
APPID
  5
20A
330
9
100
AcDbSymbolTableRecord
100
AcDbRegAppTableRecord
  2
ACAD_MLEADERVER
 70
     0
  0
ENDTAB
  0
TABLE
  2
DIMSTYLE
  5
A
330
0
100
AcDbSymbolTable
 70
     1
100
AcDbDimStyleTable
  0
DIMSTYLE
105
27
330
A
100
AcDbSymbolTableRecord
100
AcDbDimStyleTableRecord
  2
STANDARD_ACAD
 70
     0
178
     0
340
11
  0
ENDTAB
  0
TABLE
  2
BLOCK_RECORD
  5
1
330
0
100
AcDbSymbolTable
 70
     1
  0
BLOCK_RECORD
  5
1F
330
1
100
AcDbSymbolTableRecord
100
AcDbBlockTableRecord
  2
*Model_Space
340
22
 70
     0
280
     1
281
     0
  0
BLOCK_RECORD
  5
1B
330
1
100
AcDbSymbolTableRecord
100
AcDbBlockTableRecord
  2
*Paper_Space
340
1E
 70
     0
280
     1
281
     0
  0
BLOCK_RECORD
  5
23
330
1
100
AcDbSymbolTableRecord
100
AcDbBlockTableRecord
  2
*Paper_Space0
340
26
 70
     0
280
     1
281
     0
  0
ENDTAB
  0
ENDSEC
  0
SECTION
  2
BLOCKS
  0
BLOCK
  5
20
330
1F
100
AcDbEntity
  8
0
100
AcDbBlockBegin
  2
*Model_Space
 70
     0
 10
0.0
 20
0.0
 30
0.0
  3
*Model_Space
  1

  0
ENDBLK
  5
21
330
1F
100
AcDbEntity
  8
0
100
AcDbBlockEnd
  0
BLOCK
  5
1C
330
1B
100
AcDbEntity
 67
     1
  8
0
100
AcDbBlockBegin
  2
*Paper_Space
 70
     0
 10
0.0
 20
0.0
 30
0.0
  3
*Paper_Space
  1

  0
ENDBLK
  5
1D
330
1B
100
AcDbEntity
 67
     1
  8
0
100
AcDbBlockEnd
  0
BLOCK
  5
24
330
23
100
AcDbEntity
  8
0
100
AcDbBlockBegin
  2
*Paper_Space0
 70
     0
 10
0.0
 20
0.0
 30
0.0
  3
*Paper_Space0
  1

  0
ENDBLK
  5
25
330
23
100
AcDbEntity
  8
0
100
AcDbBlockEnd
  0
ENDSEC
  0
SECTION
  2
ENTITIES
  0
LINE
  5
70
330
1F
100
AcDbEntity
  8
Vinilo v2_Sketch1
100
AcDbLine
 10
-4.521765461024934
 20
0.2891996243210803
 30
0.0
 11
-4.521765461024934
 21
0.4880718827774363
 31
0.0
  0
LINE
  5
71
330
1F
100
AcDbEntity
  8
Vinilo v2_Sketch1
100
AcDbLine
 10
-4.521765461024934
 20
0.4880718827774363
 30
0.0
 11
-4.635125847529974
 21
0.4880718827774363
 31
0.0
  0
LINE
  5
72
330
1F
100
AcDbEntity
  8
Vinilo v2_Sketch1
100
AcDbLine
 10
-4.635125847529974
 20
0.4880718827774363
 30
0.0
 11
-4.635125847529974
 21
0.2625449519435187
 31
0.0
  0
SPLINE
  5
73
330
1F
100
AcDbEntity
  8
Vinilo v2_Sketch1
100
AcDbSpline
210
0.0
220
0.0
230
1.0
 70
     8
 71
     2
 72
    10
 73
     7
 74
     0
 42
0.0000000001
 43
0.0000000001
 40
-20.0
 40
-20.0
 40
-20.0
 40
-19.0
 40
-19.0
 40
-18.0
 40
-18.0
 40
-17.0
 40
-17.0
 40
-17.0
 10
-4.635125847529974
 20
0.2625449519435187
 30
0.0
 10
-4.635125847529974
 20
0.2291173557709833
 30
0.0
 10
-4.64398993061572
 20
0.2150214501532556
 30
0.0
 10
-4.652854013701466
 20
0.2009255292955082
 30
0.0
 10
-4.671830642279403
 20
0.2009255292955082
 30
0.0
 10
-4.683815881381258
 20
0.2009255292955082
 30
0.0
 10
-4.690307885894762
 20
0.2056696864399923
 30
0.0
  0
SPLINE
  5
74
330
1F
100
AcDbEntity
  8
Vinilo v2_Sketch1
100
AcDbSpline
210
0.0
220
0.0
230
1.0
 70
     8
 71
     2
 72
     8
 73
     5
 74
     0
 42
0.0000000001
 43
0.0000000001
 40
-17.0
 40
-17.0
 40
-17.0
 40
-16.0
 40
-16.0
 40
-15.0
 40
-15.0
 40
-15.0
 10
-4.690307885894762
 20
0.2056696864399923
 30
0.0
 10
-4.69979620018373
 20
0.2129107683973626
 30
0.0
 10
-4.703791279884348
 20
0.2246463150179284
 30
0.0
 10
-4.707786359584967
 20
0.2363818616384941
 30
0.0
 10
-4.708036052066255
 20
0.2606020323234916
 30
0.0
  0
SPLINE
  5
75
330
1F
100
AcDbEntity
  8
Vinilo v2_Sketch1
100
AcDbSpline
210
0.0
220
0.0
230
1.0
 70
    24
 71
     2
 72
     6
 73
     3
 74
     0
 42
0.0000000001
 43
0.0000000001
 40
-15.0
 40
-15.0
 40
-15.0
 40
-14.0
 40
-14.0
 40
-14.0
 10
-4.708036052066255
 20
0.2606020323234916
 30
0.0
 10
-4.762094474265244
 20
0.2532361041254769
 30
0.0
 10
-4.816152896464233
 20
0.2458701759274622
 30
0.0
  0
SPLINE
  5
76
330
1F
100
AcDbEntity
  8
Vinilo v2_Sketch1
100
AcDbSpline
210
0.0
220
0.0
230
1.0
 70
     8
 71
     2
 72
    16
 73
    13
 74
     0
 42
0.0000000001
 43
0.0000000001
 40
-14.0
 40
-14.0
 40
-14.0
 40
-13.0
 40
-13.0
 40
-12.0
 40
-12.0
 40
-11.0
 40
-11.0
 40
-10.0
 40
-10.0
 40
-9.0
 40
-9.0
 40
-8.0
 40
-8.0
 40
-8.0
 10
-4.816152896464233
 20
0.2458701759274622
 30
0.0
 10
-4.813156586688769
 20
0.2034224541083945
 30
0.0
 10
-4.796552036683075
 20
0.1745829725195574
 30
0.0
 10
-4.779947486677381
 20
0.1457434909307203
 30
0.0
 10
-4.749485003960167
 20
0.1307619420534023
 30
0.0
 10
-4.719022521242954
 20
0.1157803931760843
 30
0.0
 10
-4.663590790396878
 20
0.1157803931760843
 30
0.0
 10
-4.611155369326266
 20
0.1157803931760843
 30
0.0
 10
-4.577571730592944
 20
0.1384868031932694
 30
0.0
 10
-4.543988091859623
 20
0.1611932132104545
 30
0.0
 10
-4.532876776442279
 20
0.1938814703116547
 30
0.0
 10
-4.521765461024934
 20
0.2265697274128549
 30
0.0
 10
-4.521765461024934
 20
0.2891996243210803
 30
0.0
  0
SPLINE
  5
77
330
1F
100
AcDbEntity
  8
Vinilo v2_Sketch1
100
AcDbSpline
210
0.0
220
0.0
230
1.0
 70
    11
 71
     2
 72
    20
 73
    17
 74
     0
 42
0.0000000001
 43
0.0000000001
 40
-8.0
 40
-8.0
 40
-8.0
 40
-7.0
 40
-7.0
 40
-6.0
 40
-6.0
 40
-5.0
 40
-5.0
 40
-4.0
 40
-4.0
 40
-3.0
 40
-3.0
 40
-2.0
 40
-2.0
 40
-1.0
 40
-1.0
 40
0.0
 40
0.0
 40
0.0
 10
-4.465584652734992
 20
0.2538603353286984
 30
0.0
 10
-4.465584652734992
 20
0.1886905977123652
 30
0.0
 10
-4.417144311364997
 20
0.1484901082248953
 30
0.0
 10
-4.377692899321394
 20
0.116030085657373
 30
0.0
 10
-4.313771624111503
 20
0.116030085657373
 30
0.0
 10
-4.242109881981666
 20
0.116030085657373
 30
0.0
 10
-4.201534853772262
 20
0.1551069589790441
 30
0.0
 10
-4.16095982556286
 20
0.1941838323007151
 30
0.0
 10
-4.16095982556286
 20
0.2553584902164303
 30
0.0
 10
-4.16095982556286
 20
0.3097914511373523
 30
0.0
 10
-4.19366954061167
 20
0.3469956308493586
 30
0.0
 10
-4.234369415061717
 20
0.3931887398877557
 30
0.0
 10
-4.314021316592792
 20
0.3931887398877557
 30
0.0
 10
-4.38368551887232
 20
0.3931887398877557
 30
0.0
 10
-4.424635085803656
 20
0.353862174084796
 30
0.0
 10
-4.465584652734992
 20
0.3145356082818362
 30
0.0
 10
-4.465584652734992
 20
0.2538603353286984
 30
0.0
  0
SPLINE
  5
78
330
1F
100
AcDbEntity
  8
Vinilo v2_Sketch1
100
AcDbSpline
210
0.0
220
0.0
230
1.0
 70
    11
 71
     2
 72
    20
 73
    17
 74
     0
 42
0.0000000001
 43
0.0000000001
 40
0.0
 40
0.0
 40
0.0
 40
1.0
 40
1.0
 40
2.0
 40
2.0
 40
3.0
 40
3.0
 40
4.0
 40
4.0
 40
5.0
 40
5.0
 40
6.0
 40
6.0
 40
7.0
 40
7.0
 40
8.0
 40
8.0
 40
8.0
 10
-4.36371012036923
 20
0.254110027809987
 30
0.0
 10
-4.36371012036923
 20
0.2186536954670012
 30
0.0
 10
-4.349352802695133
 20
0.2016746067393741
 30
0.0
 10
-4.334995485021037
 20
0.1846955180117471
 30
0.0
 10
-4.313272239148926
 20
0.1846955180117471
 30
0.0
 10
-4.291299300795526
 20
0.1846955180117471
 30
0.0
 10
-4.277191675602718
 20
0.2014249142580855
 30
0.0
 10
-4.26308405040991
 20
0.2181543105044239
 30
0.0
 10
-4.26308405040991
 20
0.2551087977351416
 30
0.0
 10
-4.26308405040991
 20
0.289566360152973
 30
0.0
 10
-4.277316521843362
 20
0.3064206026399557
 30
0.0
 10
-4.291548993276815
 20
0.3232748451269385
 30
0.0
 10
-4.312523161705061
 20
0.3232748451269385
 30
0.0
 10
-4.334745792539748
 20
0.3232748451269385
 30
0.0
 10
-4.349227956454489
 20
0.3061709101586672
 30
0.0
 10
-4.36371012036923
 20
0.2890669751903957
 30
0.0
 10
-4.36371012036923
 20
0.254110027809987
 30
0.0
  0
LINE
  5
79
330
1F
100
AcDbEntity
  8
Vinilo v2_Sketch1
100
AcDbLine
 10
-4.015888493934164
 20
0.3437496285926064
 30
0.0
 11
-4.015888493934164
 21
0.3871961203368285
 31
0.0
  0
LINE
  5
7A
330
1F
100
AcDbEntity
  8
Vinilo v2_Sketch1
100
AcDbLine
 10
-4.015888493934164
 20
0.3871961203368285
 30
0.0
 11
-4.111021329305133
 21
0.3871961203368285
 31
0.0
  0
LINE
  5
7B
330
1F
100
AcDbEntity
  8
Vinilo v2_Sketch1
100
AcDbLine
 10
-4.111021329305133
 20
0.3871961203368285
 30
0.0
 11
-4.111021329305133
 21
0.1220227052083002
 31
0.0
  0
LINE
  5
7C
330
1F
100
AcDbEntity
  8
Vinilo v2_Sketch1
100
AcDbLine
 10
-4.111021329305133
 20
0.1220227052083002
 30
0.0
 11
-4.008897104458082
 21
0.1220227052083002
 31
0.0
  0
LINE
  5
7D
330
1F
100
AcDbEntity
  8
Vinilo v2_Sketch1
100
AcDbLine
 10
-4.008897104458082
 20
0.1220227052083002
 30
0.0
 11
-4.008897104458082
 21
0.2109132285470535
 31
0.0
  0
SPLINE
  5
7E
330
1F
100
AcDbEntity
  8
Vinilo v2_Sketch1
100
AcDbSpline
210
0.0
220
0.0
230
1.0
 70
     8
 71
     2
 72
    10
 73
     7
 74
     0
 42
0.0000000001
 43
0.0000000001
 40
-15.0
 40
-15.0
 40
-15.0
 40
-14.0
 40
-14.0
 40
-13.0
 40
-13.0
 40
-12.0
 40
-12.0
 40
-12.0
 10
-4.008897104458082
 20
0.2109132285470535
 30
0.0
 10
-4.008897104458082
 20
0.274584811275655
 30
0.0
 10
-3.993166478136899
 20
0.297806212035498
 30
0.0
 10
-3.982180008960198
 20
0.3142859158005477
 30
0.0
 10
-3.962204610457108
 20
0.3142859158005477
 30
0.0
 10
-3.951717526242985
 20
0.3142859158005477
 30
0.0
 10
-3.933739667590204
 20
0.3067951413618887
 30
0.0
  0
SPLINE
  5
7F
330
1F
100
AcDbEntity
  8
Vinilo v2_Sketch1
100
AcDbSpline
210
0.0
220
0.0
230
1.0
 70
    24
 71
     2
 72
     6
 73
     3
 74
     0
 42
0.0000000001
 43
0.0000000001
 40
-12.0
 40
-12.0
 40
-12.0
 40
-11.0
 40
-11.0
 40
-11.0
 10
-3.933739667590204
 20
0.3067951413618887
 30
0.0
 10
-3.91800904126902
 20
0.3430005511487405
 30
0.0
 10
-3.902278414947836
 20
0.3792059609355923
 30
0.0
  0
SPLINE
  5
80
330
1F
100
AcDbEntity
  8
Vinilo v2_Sketch1
100
AcDbSpline
210
0.0
220
0.0
230
1.0
 70
     8
 71
     2
 72
    10
 73
     7
 74
     0
 42
0.0000000001
 43
0.0000000001
 40
-11.0
 40
-11.0
 40
-11.0
 40
-10.0
 40
-10.0
 40
-9.0
 40
-9.0
 40
-8.0
 40
-8.0
 40
-8.0
 10
-3.902278414947836
 20
0.3792059609355923
 30
0.0
 10
-3.928995510445719
 20
0.3931887398877557
 30
0.0
 10
-3.951467833761697
 20
0.3931887398877557
 30
0.0
 10
-3.972941387152519
 20
0.3931887398877557
 30
0.0
 10
-3.987548397307904
 20
0.3825768094329889
 30
0.0
 10
-4.002155407463289
 20
0.3719648789782219
 30
0.0
 10
-4.015888493934164
 20
0.3437496285926064
 30
0.0
  0
LINE
  5
81
330
1F
100
AcDbEntity
  8
Vinilo v2_Sketch1
100
AcDbLine
 10
-3.605144362214363
 20
0.1250190149837637
 30
0.0
 11
-3.605394054695651
 21
0.1367545616043295
 31
0.0
  0
LINE
  5
82
330
1F
100
AcDbEntity
  8
Vinilo v2_Sketch1
100
AcDbLine
 10
-3.605394054695651
 20
0.1367545616043295
 30
0.0
 11
-3.605394054695651
 21
0.3871961203368285
 31
0.0
  0
LINE
  5
83
330
1F
100
AcDbEntity
  8
Vinilo v2_Sketch1
100
AcDbLine
 10
-3.605394054695651
 20
0.3871961203368285
 30
0.0
 11
-3.70052689006662
 21
0.3871961203368285
 31
0.0
  0
LINE
  5
84
330
1F
100
AcDbEntity
  8
Vinilo v2_Sketch1
100
AcDbLine
 10
-3.70052689006662
 20
0.3871961203368285
 30
0.0
 11
-3.70052689006662
 21
0.3479944007745132
 31
0.0
  0
SPLINE
  5
85
330
1F
100
AcDbEntity
  8
Vinilo v2_Sketch1
100
AcDbSpline
210
0.0
220
0.0
230
1.0
 70
     8
 71
     2
 72
    20
 73
    17
 74
     0
 42
0.0000000001
 43
0.0000000001
 40
-25.0
 40
-25.0
 40
-25.0
 40
-24.0
 40
-24.0
 40
-23.0
 40
-23.0
 40
-22.0
 40
-22.0
 40
-21.0
 40
-21.0
 40
-20.0
 40
-20.0
 40
-19.0
 40
-19.0
 40
-18.0
 40
-18.0
 40
-17.0
 40
-17.0
 40
-17.0
 10
-3.70052689006662
 20
0.3479944007745132
 30
0.0
 10
-3.718005363756825
 20
0.3722145714595105
 30
0.0
 10
-3.738105608500559
 20
0.3827016556736331
 30
0.0
 10
-3.758205853244295
 20
0.3931887398877557
 30
0.0
 10
-3.789167720924085
 20
0.3931887398877557
 30
0.0
 10
-3.83760806229408
 20
0.3931887398877557
 30
0.0
 10
-3.867571160048716
 20
0.3607287173202334
 30
0.0
 10
-3.897534257803351
 20
0.3282686947527111
 30
0.0
 10
-3.897534257803351
 20
0.2663449593931301
 30
0.0
 10
-3.897534257803351
 20
0.2121616909534967
 30
0.0
 10
-3.874312857043509
 20
0.1792022834233971
 30
0.0
 10
-3.841603141994698
 20
0.1327594819037114
 30
0.0
 10
-3.788418643480219
 20
0.1327594819037114
 30
0.0
 10
-3.761202163019758
 20
0.1327594819037114
 30
0.0
 10
-3.737731069778627
 20
0.145244105968143
 30
0.0
 10
-3.722749520901309
 20
0.1532342653693793
 30
0.0
 10
-3.707767972023991
 20
0.1709624315408723
 30
0.0
  0
SPLINE
  5
86
330
1F
100
AcDbEntity
  8
Vinilo v2_Sketch1
100
AcDbSpline
210
0.0
220
0.0
230
1.0
 70
    24
 71
     2
 72
     6
 73
     3
 74
     0
 42
0.0000000001
 43
0.0000000001
 40
-17.0
 40
-17.0
 40
-17.0
 40
-16.0
 40
-16.0
 40
-16.0
 10
-3.707767972023991
 20
0.1709624315408723
 30
0.0
 10
-3.707767972023991
 20
0.1508621867971373
 30
0.0
 10
-3.707767972023991
 20
0.1307619420534023
 30
0.0
  0
SPLINE
  5
87
330
1F
100
AcDbEntity
  8
Vinilo v2_Sketch1
100
AcDbSpline
210
0.0
220
0.0
230
1.0
 70
     8
 71
     2
 72
    12
 73
     9
 74
     0
 42
0.0000000001
 43
0.0000000001
 40
-16.0
 40
-16.0
 40
-16.0
 40
-15.0
 40
-15.0
 40
-14.0
 40
-14.0
 40
-13.0
 40
-13.0
 40
-12.0
 40
-12.0
 40
-12.0
 10
-3.707767972023991
 20
0.1307619420534023
 30
0.0
 10
-3.707767972023991
 20
0.1015479217426322
 30
0.0
 10
-3.718629594960046
 20
0.0898123751220665
 30
0.0
 10
-3.729491217896102
 20
0.0780768285015007
 30
0.0
 10
-3.751464156249501
 20
0.0780768285015007
 30
0.0
 10
-3.768443244977128
 20
0.0780768285015007
 30
0.0
 10
-3.779679406635117
 20
0.0858172954214484
 30
0.0
 10
-3.787419873555065
 20
0.0910608375285096
 30
0.0
 10
-3.791165260774394
 20
0.1047939239993845
 30
0.0
  0
SPLINE
  5
88
330
1F
100
AcDbEntity
  8
Vinilo v2_Sketch1
100
AcDbSpline
210
0.0
220
0.0
230
1.0
 70
    24
 71
     2
 72
     6
 73
     3
 74
     0
 42
0.0000000001
 43
0.0000000001
 40
-12.0
 40
-12.0
 40
-12.0
 40
-11.0
 40
-11.0
 40
-11.0
 10
-3.791165260774394
 20
0.1047939239993845
 30
0.0
 10
-3.840479525828899
 20
0.1104120048283787
 30
0.0
 10
-3.889793790883404
 20
0.116030085657373
 30
0.0
  0
SPLINE
  5
89
330
1F
100
AcDbEntity
  8
Vinilo v2_Sketch1
100
AcDbSpline
210
0.0
220
0.0
230
1.0
 70
     8
 71
     2
 72
    18
 73
    15
 74
     0
 42
0.0000000001
 43
0.0000000001
 40
-11.0
 40
-11.0
 40
-11.0
 40
-10.0
 40
-10.0
 40
-9.0
 40
-9.0
 40
-8.0
 40
-8.0
 40
-7.0
 40
-7.0
 40
-6.0
 40
-6.0
 40
-5.0
 40
-5.0
 40
-4.0
 40
-4.0
 40
-4.0
 10
-3.889793790883404
 20
0.116030085657373
 30
0.0
 10
-3.890293175845982
 20
0.1075405412935595
 30
0.0
 10
-3.890293175845982
 20
0.1025466916677867
 30
0.0
 10
-3.890293175845982
 20
0.0623462021803168
 30
0.0
 10
-3.860454924331989
 20
0.0383757239766081
 30
0.0
 10
-3.830616672817998
 20
0.0144052457728993
 30
0.0
 10
-3.750715078805635
 20
0.0144052457728993
 30
0.0
 10
-3.715758131425227
 20
0.0144052457728993
 30
0.0
 10
-3.68866649720541
 20
0.0206475578051151
 30
0.0
 10
-3.661574862985594
 20
0.026889869837331
 30
0.0
 10
-3.643971543054744
 20
0.0408726487894944
 30
0.0
 10
-3.626368223123896
 20
0.0548554277416579
 30
0.0
 10
-3.615756292669129
 20
0.0774525972982792
 30
0.0
 10
-3.605144362214363
 20
0.1000497668549004
 30
0.0
 10
-3.605144362214363
 20
0.1250190149837637
 30
0.0
  0
SPLINE
  5
8A
330
1F
100
AcDbEntity
  8
Vinilo v2_Sketch1
100
AcDbSpline
210
0.0
220
0.0
230
1.0
 70
    11
 71
     2
 72
    20
 73
    17
 74
     0
 42
0.0000000001
 43
0.0000000001
 40
0.0
 40
0.0
 40
0.0
 40
1.0
 40
1.0
 40
2.0
 40
2.0
 40
3.0
 40
3.0
 40
4.0
 40
4.0
 40
5.0
 40
5.0
 40
6.0
 40
6.0
 40
7.0
 40
7.0
 40
8.0
 40
8.0
 40
8.0
 10
-3.796159110400167
 20
0.2586044924731825
 30
0.0
 10
-3.796159110400167
 20
0.2298898571249897
 30
0.0
 10
-3.783924178817024
 20
0.2160319244134705
 30
0.0
 10
-3.77168924723388
 20
0.2021739917019514
 30
0.0
 10
-3.75171384873079
 20
0.2021739917019514
 30
0.0
 10
-3.732737220152854
 20
0.2021739917019514
 30
0.0
 10
-3.719878057366489
 20
0.2165313093760478
 30
0.0
 10
-3.707018894580125
 20
0.2308886270501442
 30
0.0
 10
-3.707018894580125
 20
0.2598529548796257
 30
0.0
 10
-3.707018894580125
 20
0.2888172827091071
 30
0.0
 10
-3.720502288569711
 20
0.304173370308358
 30
0.0
 10
-3.733985682559297
 20
0.3195294579076089
 30
0.0
 10
-3.753461696099811
 20
0.3195294579076089
 30
0.0
 10
-3.772937709640324
 20
0.3195294579076089
 30
0.0
 10
-3.784548410020245
 20
0.3054218327148012
 30
0.0
 10
-3.796159110400167
 20
0.2913142075219934
 30
0.0
 10
-3.796159110400167
 20
0.2586044924731825
 30
0.0
  0
LINE
  5
8B
330
1F
100
AcDbEntity
  8
Vinilo v2_Sketch1
100
AcDbLine
 10
-3.453331333590873
 20
0.2293904721624124
 30
0.0
 11
-3.249582268859349
 21
0.2293904721624124
 31
0.0
  0
LINE
  5
8C
330
1F
100
AcDbEntity
  8
Vinilo v2_Sketch1
100
AcDbLine
 10
-3.249582268859349
 20
0.2293904721624124
 30
0.0
 11
-3.249582268859349
 21
0.2408763263016895
 31
0.0
  0
SPLINE
  5
8D
330
1F
100
AcDbEntity
  8
Vinilo v2_Sketch1
100
AcDbSpline
210
0.0
220
0.0
230
1.0
 70
     8
 71
     2
 72
    24
 73
    21
 74
     0
 42
0.0000000001
 43
0.0000000001
 40
-27.0
 40
-27.0
 40
-27.0
 40
-26.0
 40
-26.0
 40
-25.0
 40
-25.0
 40
-24.0
 40
-24.0
 40
-23.0
 40
-23.0
 40
-22.0
 40
-22.0
 40
-21.0
 40
-21.0
 40
-20.0
 40
-20.0
 40
-19.0
 40
-19.0
 40
-18.0
 40
-18.0
 40
-17.0
 40
-17.0
 40
-17.0
 10
-3.249582268859349
 20
0.2408763263016895
 30
0.0
 10
-3.249582268859349
 20
0.2933117473723025
 30
0.0
 10
-3.266811050068264
 20
0.3260214624211134
 30
0.0
 10
-3.28403983127718
 20
0.3587311774699243
 30
0.0
 10
-3.31699923880728
 20
0.37595995867884
 30
0.0
 10
-3.349958646337379
 20
0.3931887398877557
 30
0.0
 10
-3.406888532071187
 20
0.3931887398877557
 30
0.0
 10
-3.477052119313293
 20
0.3931887398877557
 30
0.0
 10
-3.51687807007883
 20
0.3547360977693063
 30
0.0
 10
-3.556704020844367
 20
0.3162834556508568
 30
0.0
 10
-3.556704020844367
 20
0.254110027809987
 30
0.0
 10
-3.556704020844367
 20
0.2104138435844763
 30
0.0
 10
-3.536853468581921
 20
0.1780786672575983
 30
0.0
 10
-3.517002916319475
 20
0.1457434909307203
 30
0.0
 10
-3.48679012608355
 20
0.1308867882940466
 30
0.0
 10
-3.456577335847625
 20
0.116030085657373
 30
0.0
 10
-3.403892222295724
 20
0.116030085657373
 30
0.0
 10
-3.343216949342586
 20
0.116030085657373
 30
0.0
 10
-3.310756926775064
 20
0.133383713106933
 30
0.0
 10
-3.278296904207541
 20
0.150737340556493
 30
0.0
 10
-3.255325195928987
 20
0.1906881375626742
 30
0.0
  0
SPLINE
  5
8E
330
1F
100
AcDbEntity
  8
Vinilo v2_Sketch1
100
AcDbSpline
210
0.0
220
0.0
230
1.0
 70
    24
 71
     2
 72
     6
 73
     3
 74
     0
 42
0.0000000001
 43
0.0000000001
 40
-17.0
 40
-17.0
 40
-17.0
 40
-16.0
 40
-16.0
 40
-16.0
 10
-3.255325195928987
 20
0.1906881375626742
 30
0.0
 10
-3.305388538427358
 20
0.195307448466514
 30
0.0
 10
-3.355451880925729
 20
0.1999267593703537
 30
0.0
  0
SPLINE
  5
8F
330
1F
100
AcDbEntity
  8
Vinilo v2_Sketch1
100
AcDbSpline
210
0.0
220
0.0
230
1.0
 70
     8
 71
     2
 72
    12
 73
     9
 74
     0
 42
0.0000000001
 43
0.0000000001
 40
-16.0
 40
-16.0
 40
-16.0
 40
-15.0
 40
-15.0
 40
-14.0
 40
-14.0
 40
-13.0
 40
-13.0
 40
-12.0
 40
-12.0
 40
-12.0
 10
-3.355451880925729
 20
0.1999267593703537
 30
0.0
 10
-3.364940195214697
 20
0.1879415202684993
 30
0.0
 10
-3.373180047097222
 20
0.1831973631240152
 30
0.0
 10
-3.386663441086808
 20
0.1757065886853563
 30
0.0
 10
-3.401644989964126
 20
0.1757065886853563
 30
0.0
 10
-3.425365775686546
 20
0.1757065886853563
 30
0.0
 10
-3.440097632082575
 20
0.192935369894272
 30
0.0
 10
-3.450584716296698
 20
0.2049206089961264
 30
0.0
 10
-3.453331333590873
 20
0.2293904721624124
 30
0.0
  0
SPLINE
  5
90
330
1F
100
AcDbEntity
  8
Vinilo v2_Sketch1
100
AcDbSpline
210
0.0
220
0.0
230
1.0
 70
     8
 71
     2
 72
    12
 73
     9
 74
     0
 42
0.0000000001
 43
0.0000000001
 40
0.0
 40
0.0
 40
0.0
 40
1.0
 40
1.0
 40
2.0
 40
2.0
 40
3.0
 40
3.0
 40
4.0
 40
4.0
 40
4.0
 10
-3.352954956112843
 20
0.2780805060136958
 30
0.0
 10
-3.355951265888306
 20
0.3075442188057546
 30
0.0
 10
-3.368810428674671
 20
0.3202785353514749
 30
0.0
 10
-3.381669591461036
 20
0.3330128518971951
 30
0.0
 10
-3.402643759889281
 20
0.3330128518971951
 30
0.0
 10
-3.426863930574278
 20
0.3330128518971951
 30
0.0
 10
-3.441346094489019
 20
0.3137865308379704
 30
0.0
 10
-3.450584716296698
 20
0.301801291736116
 30
0.0
 10
-3.453081641109585
 20
0.2780805060136958
 30
0.0
  0
SPLINE
  5
91
330
1F
100
AcDbEntity
  8
Vinilo v2_Sketch1
100
AcDbSpline
210
0.0
220
0.0
230
1.0
 70
    24
 71
     2
 72
     6
 73
     3
 74
     0
 42
0.0000000001
 43
0.0000000001
 40
4.0
 40
4.0
 40
4.0
 40
5.0
 40
5.0
 40
5.0
 10
-3.453081641109585
 20
0.2780805060136958
 30
0.0
 10
-3.403018298611214
 20
0.2780805060136958
 30
0.0
 10
-3.352954956112843
 20
0.2780805060136958
 30
0.0
  0
SPLINE
  5
92
330
1F
100
AcDbEntity
  8
Vinilo v2_Sketch1
100
AcDbSpline
210
0.0
220
0.0
230
1.0
 70
    24
 71
     2
 72
     6
 73
     3
 74
     0
 42
0.0000000001
 43
0.0000000001
 40
-6.0
 40
-6.0
 40
-6.0
 40
-5.0
 40
-5.0
 40
-5.0
 10
-3.025608113143444
 20
0.4880718827774363
 30
0.0
 10
-3.025608113143444
 20
0.3050472939928682
 30
0.0
 10
-3.025608113143444
 20
0.1220227052083002
 30
0.0
  0
SPLINE
  5
93
330
1F
100
AcDbEntity
  8
Vinilo v2_Sketch1
100
AcDbSpline
210
0.0
220
0.0
230
1.0
 70
    24
 71
     2
 72
     6
 73
     3
 74
     0
 42
0.0000000001
 43
0.0000000001
 40
-5.0
 40
-5.0
 40
-5.0
 40
-4.0
 40
-4.0
 40
-4.0
 10
-3.025608113143444
 20
0.1220227052083002
 30
0.0
 10
-2.880786473996038
 20
0.1220227052083002
 30
0.0
 10
-2.73596483484863
 20
0.1220227052083002
 30
0.0
  0
SPLINE
  5
94
330
1F
100
AcDbEntity
  8
Vinilo v2_Sketch1
100
AcDbSpline
210
0.0
220
0.0
230
1.0
 70
    24
 71
     2
 72
     6
 73
     3
 74
     0
 42
0.0000000001
 43
0.0000000001
 40
-4.0
 40
-4.0
 40
-4.0
 40
-3.0
 40
-3.0
 40
-3.0
 10
-2.73596483484863
 20
0.1220227052083002
 30
0.0
 10
-2.73596483484863
 20
0.1670921980808984
 30
0.0
 10
-2.73596483484863
 20
0.2121616909534967
 30
0.0
  0
SPLINE
  5
95
330
1F
100
AcDbEntity
  8
Vinilo v2_Sketch1
100
AcDbSpline
210
0.0
220
0.0
230
1.0
 70
    24
 71
     2
 72
     6
 73
     3
 74
     0
 42
0.0000000001
 43
0.0000000001
 40
-3.0
 40
-3.0
 40
-3.0
 40
-2.0
 40
-2.0
 40
-2.0
 10
-2.73596483484863
 20
0.2121616909534967
 30
0.0
 10
-2.824231126984162
 20
0.2121616909534967
 30
0.0
 10
-2.912497419119694
 20
0.2121616909534967
 30
0.0
  0
SPLINE
  5
96
330
1F
100
AcDbEntity
  8
Vinilo v2_Sketch1
100
AcDbSpline
210
0.0
220
0.0
230
1.0
 70
    24
 71
     2
 72
     6
 73
     3
 74
     0
 42
0.0000000001
 43
0.0000000001
 40
-2.0
 40
-2.0
 40
-2.0
 40
-1.0
 40
-1.0
 40
-1.0
 10
-2.912497419119694
 20
0.2121616909534967
 30
0.0
 10
-2.912497419119694
 20
0.3501167868654665
 30
0.0
 10
-2.912497419119694
 20
0.4880718827774363
 30
0.0
  0
SPLINE
  5
97
330
1F
100
AcDbEntity
  8
Vinilo v2_Sketch1
100
AcDbSpline
210
0.0
220
0.0
230
1.0
 70
    24
 71
     2
 72
     6
 73
     3
 74
     0
 42
0.0000000001
 43
0.0000000001
 40
-1.0
 40
-1.0
 40
-1.0
 40
0.0
 40
0.0
 40
0.0
 10
-2.912497419119694
 20
0.4880718827774363
 30
0.0
 10
-2.969052766131569
 20
0.4880718827774363
 30
0.0
 10
-3.025608113143444
 20
0.4880718827774363
 30
0.0
  0
LINE
  5
98
330
1F
100
AcDbEntity
  8
Vinilo v2_Sketch1
100
AcDbLine
 10
-2.506747137025665
 20
0.1649698119899451
 30
0.0
 11
-2.506747137025665
 21
0.1220227052083002
 31
0.0
  0
LINE
  5
99
330
1F
100
AcDbEntity
  8
Vinilo v2_Sketch1
100
AcDbLine
 10
-2.506747137025665
 20
0.1220227052083002
 30
0.0
 11
-2.411863994135985
 21
0.1220227052083002
 31
0.0
  0
LINE
  5
9A
330
1F
100
AcDbEntity
  8
Vinilo v2_Sketch1
100
AcDbLine
 10
-2.411863994135985
 20
0.1220227052083002
 30
0.0
 11
-2.411863994135985
 21
0.3871961203368285
 31
0.0
  0
LINE
  5
9B
330
1F
100
AcDbEntity
  8
Vinilo v2_Sketch1
100
AcDbLine
 10
-2.411863994135985
 20
0.3871961203368285
 30
0.0
 11
-2.513488834020458
 21
0.3871961203368285
 31
0.0
  0
LINE
  5
9C
330
1F
100
AcDbEntity
  8
Vinilo v2_Sketch1
100
AcDbLine
 10
-2.513488834020458
 20
0.3871961203368285
 30
0.0
 11
-2.513488834020458
 21
0.259603262398337
 31
0.0
  0
SPLINE
  5
9D
330
1F
100
AcDbEntity
  8
Vinilo v2_Sketch1
100
AcDbSpline
210
0.0
220
0.0
230
1.0
 70
     8
 71
     2
 72
    12
 73
     9
 74
     0
 42
0.0000000001
 43
0.0000000001
 40
-13.0
 40
-13.0
 40
-13.0
 40
-12.0
 40
-12.0
 40
-11.0
 40
-11.0
 40
-10.0
 40
-10.0
 40
-9.0
 40
-9.0
 40
-9.0
 10
-2.513488834020458
 20
0.259603262398337
 30
0.0
 10
-2.513488834020458
 20
0.2233978526114852
 30
0.0
 10
-2.525099534400379
 20
0.2094150736593217
 30
0.0
 10
-2.536710234780301
 20
0.1954322947071583
 30
0.0
 10
-2.554937785914372
 20
0.1954322947071583
 30
0.0
 10
-2.57166718216071
 20
0.1954322947071583
 30
0.0
 10
-2.580905803968389
 20
0.2059193789212809
 30
0.0
 10
-2.590144425776069
 20
0.2164064631354035
 30
0.0
 10
-2.590144425776069
 20
0.2413757112642668
 30
0.0
  0
SPLINE
  5
9E
330
1F
100
AcDbEntity
  8
Vinilo v2_Sketch1
100
AcDbSpline
210
0.0
220
0.0
230
1.0
 70
    24
 71
     2
 72
     6
 73
     3
 74
     0
 42
0.0000000001
 43
0.0000000001
 40
-9.0
 40
-9.0
 40
-9.0
 40
-8.0
 40
-8.0
 40
-8.0
 10
-2.590144425776069
 20
0.2413757112642668
 30
0.0
 10
-2.590144425776069
 20
0.3142859158005477
 30
0.0
 10
-2.590144425776069
 20
0.3871961203368285
 30
0.0
  0
SPLINE
  5
9F
330
1F
100
AcDbEntity
  8
Vinilo v2_Sketch1
100
AcDbSpline
210
0.0
220
0.0
230
1.0
 70
    24
 71
     2
 72
     6
 73
     3
 74
     0
 42
0.0000000001
 43
0.0000000001
 40
-8.0
 40
-8.0
 40
-8.0
 40
-7.0
 40
-7.0
 40
-7.0
 10
-2.590144425776069
 20
0.3871961203368285
 30
0.0
 10
-2.641206538199594
 20
0.3871961203368285
 30
0.0
 10
-2.69226865062312
 20
0.3871961203368285
 30
0.0
  0
SPLINE
  5
A0
330
1F
100
AcDbEntity
  8
Vinilo v2_Sketch1
100
AcDbSpline
210
0.0
220
0.0
230
1.0
 70
    24
 71
     2
 72
     6
 73
     3
 74
     0
 42
0.0000000001
 43
0.0000000001
 40
-7.0
 40
-7.0
 40
-7.0
 40
-6.0
 40
-6.0
 40
-6.0
 10
-2.69226865062312
 20
0.3871961203368285
 30
0.0
 10
-2.69226865062312
 20
0.3028000616612705
 30
0.0
 10
-2.69226865062312
 20
0.2184040029857125
 30
0.0
  0
SPLINE
  5
A1
330
1F
100
AcDbEntity
  8
Vinilo v2_Sketch1
100
AcDbSpline
210
0.0
220
0.0
230
1.0
 70
     8
 71
     2
 72
    12
 73
     9
 74
     0
 42
0.0000000001
 43
0.0000000001
 40
-6.0
 40
-6.0
 40
-6.0
 40
-5.0
 40
-5.0
 40
-4.0
 40
-4.0
 40
-3.0
 40
-3.0
 40
-2.0
 40
-2.0
 40
-2.0
 10
-2.69226865062312
 20
0.2184040029857125
 30
0.0
 10
-2.69226865062312
 20
0.1662182743963883
 30
0.0
 10
-2.668423018660055
 20
0.1411241800268806
 30
0.0
 10
-2.644577386696991
 20
0.116030085657373
 30
0.0
 10
-2.6026290498405
 20
0.116030085657373
 30
0.0
 10
-2.571167797198132
 20
0.116030085657373
 30
0.0
 10
-2.549569397566666
 20
0.1272662473153614
 30
0.0
 10
-2.527970997935199
 20
0.13850240897335
 30
0.0
 10
-2.506747137025665
 20
0.1649698119899451
 30
0.0
  0
SPLINE
  5
A2
330
1F
100
AcDbEntity
  8
Vinilo v2_Sketch1
100
AcDbSpline
210
0.0
220
0.0
230
1.0
 70
    24
 71
     2
 72
     6
 73
     3
 74
     0
 42
0.0000000001
 43
0.0000000001
 40
-4.0
 40
-4.0
 40
-4.0
 40
-3.0
 40
-3.0
 40
-3.0
 10
-2.346444564038362
 20
0.4880718827774363
 30
0.0
 10
-2.346444564038362
 20
0.4534894741189606
 30
0.0
 10
-2.346444564038362
 20
0.418907065460485
 30
0.0
  0
SPLINE
  5
A3
330
1F
100
AcDbEntity
  8
Vinilo v2_Sketch1
100
AcDbSpline
210
0.0
220
0.0
230
1.0
 70
    24
 71
     2
 72
     6
 73
     3
 74
     0
 42
0.0000000001
 43
0.0000000001
 40
-3.0
 40
-3.0
 40
-3.0
 40
-2.0
 40
-2.0
 40
-2.0
 10
-2.346444564038362
 20
0.418907065460485
 30
0.0
 10
-2.295632144096126
 20
0.418907065460485
 30
0.0
 10
-2.244819724153889
 20
0.418907065460485
 30
0.0
  0
SPLINE
  5
A4
330
1F
100
AcDbEntity
  8
Vinilo v2_Sketch1
100
AcDbSpline
210
0.0
220
0.0
230
1.0
 70
    24
 71
     2
 72
     6
 73
     3
 74
     0
 42
0.0000000001
 43
0.0000000001
 40
-2.0
 40
-2.0
 40
-2.0
 40
-1.0
 40
-1.0
 40
-1.0
 10
-2.244819724153889
 20
0.418907065460485
 30
0.0
 10
-2.244819724153889
 20
0.4534894741189606
 30
0.0
 10
-2.244819724153889
 20
0.4880718827774363
 30
0.0
  0
SPLINE
  5
A5
330
1F
100
AcDbEntity
  8
Vinilo v2_Sketch1
100
AcDbSpline
210
0.0
220
0.0
230
1.0
 70
    24
 71
     2
 72
     6
 73
     3
 74
     0
 42
0.0000000001
 43
0.0000000001
 40
-1.0
 40
-1.0
 40
-1.0
 40
0.0
 40
0.0
 40
0.0
 10
-2.244819724153889
 20
0.4880718827774363
 30
0.0
 10
-2.295632144096126
 20
0.4880718827774363
 30
0.0
 10
-2.346444564038362
 20
0.4880718827774363
 30
0.0
  0
SPLINE
  5
A6
330
1F
100
AcDbEntity
  8
Vinilo v2_Sketch1
100
AcDbSpline
210
0.0
220
0.0
230
1.0
 70
    24
 71
     2
 72
     6
 73
     3
 74
     0
 42
0.0000000001
 43
0.0000000001
 40
-4.0
 40
-4.0
 40
-4.0
 40
-3.0
 40
-3.0
 40
-3.0
 10
-2.346444564038362
 20
0.3871961203368285
 30
0.0
 10
-2.346444564038362
 20
0.2546094127725643
 30
0.0
 10
-2.346444564038362
 20
0.1220227052083002
 30
0.0
  0
SPLINE
  5
A7
330
1F
100
AcDbEntity
  8
Vinilo v2_Sketch1
100
AcDbSpline
210
0.0
220
0.0
230
1.0
 70
    24
 71
     2
 72
     6
 73
     3
 74
     0
 42
0.0000000001
 43
0.0000000001
 40
-3.0
 40
-3.0
 40
-3.0
 40
-2.0
 40
-2.0
 40
-2.0
 10
-2.346444564038362
 20
0.1220227052083002
 30
0.0
 10
-2.295632144096126
 20
0.1220227052083002
 30
0.0
 10
-2.244819724153889
 20
0.1220227052083002
 30
0.0
  0
SPLINE
  5
A8
330
1F
100
AcDbEntity
  8
Vinilo v2_Sketch1
100
AcDbSpline
210
0.0
220
0.0
230
1.0
 70
    24
 71
     2
 72
     6
 73
     3
 74
     0
 42
0.0000000001
 43
0.0000000001
 40
-2.0
 40
-2.0
 40
-2.0
 40
-1.0
 40
-1.0
 40
-1.0
 10
-2.244819724153889
 20
0.1220227052083002
 30
0.0
 10
-2.244819724153889
 20
0.2546094127725643
 30
0.0
 10
-2.244819724153889
 20
0.3871961203368285
 30
0.0
  0
SPLINE
  5
A9
330
1F
100
AcDbEntity
  8
Vinilo v2_Sketch1
100
AcDbSpline
210
0.0
220
0.0
230
1.0
 70
    24
 71
     2
 72
     6
 73
     3
 74
     0
 42
0.0000000001
 43
0.0000000001
 40
-1.0
 40
-1.0
 40
-1.0
 40
0.0
 40
0.0
 40
0.0
 10
-2.244819724153889
 20
0.3871961203368285
 30
0.0
 10
-2.295632144096126
 20
0.3871961203368285
 30
0.0
 10
-2.346444564038362
 20
0.3871961203368285
 30
0.0
  0
SPLINE
  5
AA
330
1F
100
AcDbEntity
  8
Vinilo v2_Sketch1
100
AcDbSpline
210
0.0
220
0.0
230
1.0
 70
     8
 71
     2
 72
    32
 73
    29
 74
     0
 42
0.0000000001
 43
0.0000000001
 40
-45.0
 40
-45.0
 40
-45.0
 40
-44.0
 40
-44.0
 40
-43.0
 40
-43.0
 40
-42.0
 40
-42.0
 40
-41.0
 40
-41.0
 40
-40.0
 40
-40.0
 40
-39.0
 40
-39.0
 40
-38.0
 40
-38.0
 40
-37.0
 40
-37.0
 40
-36.0
 40
-36.0
 40
-35.0
 40
-35.0
 40
-34.0
 40
-34.0
 40
-33.0
 40
-33.0
 40
-32.0
 40
-32.0
 40
-31.0
 40
-31.0
 40
-31.0
 10
-2.197877537671626
 20
0.1956819871884469
 30
0.0
 10
-2.189138300826523
 20
0.1574790375512861
 30
0.0
 10
-2.158301279387377
 20
0.1367545616043295
 30
0.0
 10
-2.127464257948231
 20
0.116030085657373
 30
0.0
 10
-2.054803745893238
 20
0.116030085657373
 30
0.0
 10
-2.00336709474778
 20
0.116030085657373
 30
0.0
 10
-1.973528843233788
 20
0.1288755933861671
 30
0.0
 10
-1.943690591719797
 20
0.1417210992099588
 30
0.0
 10
-1.929832659008278
 20
0.1634228890394616
 30
0.0
 10
-1.915974726296759
 20
0.185124673153957
 30
0.0
 10
-1.915974726296759
 20
0.2080729765723953
 30
0.0
 10
-1.915974726296759
 20
0.2307715836995402
 30
0.0
 10
-1.929083581564412
 20
0.2497287050523756
 30
0.0
 10
-1.942192436832065
 20
0.268685826405211
 30
0.0
 10
-1.96691199247964
 20
0.2789134645254947
 30
0.0
 10
-1.991631548127214
 20
0.2891411026457783
 30
0.0
 10
-2.042319121828807
 20
0.2948762268253766
 30
0.0
 10
-2.075777914321484
 20
0.2988674050809745
 30
0.0
 10
-2.085765613573029
 20
0.303853451816707
 30
0.0
 10
-2.095753312824574
 20
0.3088394985524394
 30
0.0
 10
-2.095753312824574
 20
0.3185618995426155
 30
0.0
 10
-2.095753312824574
 20
0.3272894320526573
 30
0.0
 10
-2.087887999663983
 20
0.3333971442316784
 30
0.0
 10
-2.080022686503391
 20
0.3395048564106996
 30
0.0
 10
-2.062793905294475
 20
0.3395048564106996
 30
0.0
 10
-2.045814816566848
 20
0.3395048564106996
 30
0.0
 10
-2.033829577464993
 20
0.3315146970094633
 30
0.0
 10
-2.025090340619891
 20
0.3255220774585361
 30
0.0
 10
-2.021344953400562
 20
0.3127877609128159
 30
0.0
  0
SPLINE
  5
AB
330
1F
100
AcDbEntity
  8
Vinilo v2_Sketch1
100
AcDbSpline
210
0.0
220
0.0
230
1.0
 70
    24
 71
     2
 72
     6
 73
     3
 74
     0
 42
0.0000000001
 43
0.0000000001
 40
-31.0
 40
-31.0
 40
-31.0
 40
-30.0
 40
-30.0
 40
-30.0
 10
-2.021344953400562
 20
0.3127877609128159
 30
0.0
 10
-1.973154304511855
 20
0.3175319180572999
 30
0.0
 10
-1.924963655623149
 20
0.3222760752017839
 30
0.0
  0
SPLINE
  5
AC
330
1F
100
AcDbEntity
  8
Vinilo v2_Sketch1
100
AcDbSpline
210
0.0
220
0.0
230
1.0
 70
     8
 71
     2
 72
    28
 73
    25
 74
     0
 42
0.0000000001
 43
0.0000000001
 40
-30.0
 40
-30.0
 40
-30.0
 40
-29.0
 40
-29.0
 40
-28.0
 40
-28.0
 40
-27.0
 40
-27.0
 40
-26.0
 40
-26.0
 40
-25.0
 40
-25.0
 40
-24.0
 40
-24.0
 40
-23.0
 40
-23.0
 40
-22.0
 40
-22.0
 40
-21.0
 40
-21.0
 40
-20.0
 40
-20.0
 40
-19.0
 40
-19.0
 40
-18.0
 40
-18.0
 40
-18.0
 10
-1.924963655623149
 20
0.3222760752017839
 30
0.0
 10
-1.934951385354734
 20
0.3482440627757626
 30
0.0
 10
-1.950057749992657
 20
0.3634753346144084
 30
0.0
 10
-1.965164145110619
 20
0.378706575973015
 30
0.0
 10
-1.987761314667241
 20
0.3859476579303853
 30
0.0
 10
-2.010358484223862
 20
0.3931887398877557
 30
0.0
 10
-2.057800055668702
 20
0.3931887398877557
 30
0.0
 10
-2.102744702300656
 20
0.3931887398877557
 30
0.0
 10
-2.12946179779854
 20
0.3838350254519823
 30
0.0
 10
-2.156178893296424
 20
0.3744812957761894
 30
0.0
 10
-2.171410134655031
 20
0.3555241896633735
 30
0.0
 10
-2.186641376013637
 20
0.3365670683105381
 30
0.0
 10
-2.186641376013637
 20
0.3103727664453524
 30
0.0
 10
-2.186641376013637
 20
0.2864256969117644
 30
0.0
 10
-2.172533750820829
 20
0.2677182680402176
 30
0.0
 10
-2.158426125628021
 20
0.249010831548661
 30
0.0
 10
-2.137826495921709
 20
0.2411533288981191
 30
0.0
 10
-2.117226866215397
 20
0.2332958033875478
 30
0.0
 10
-2.064292060182207
 20
0.2240689011549484
 30
0.0
 10
-2.028835727839221
 20
0.2178343920127728
 30
0.0
 10
-2.020595875956696
 20
0.2135974227209063
 30
0.0
 10
-2.009110021817419
 20
0.2076125984400096
 30
0.0
 10
-2.009110021817419
 20
0.1966417426634001
 30
0.0
 10
-2.009110021817419
 20
0.1869193416732239
 30
0.0
 10
-2.017849258662521
 20
0.1804390414947799
 30
0.0
  0
SPLINE
  5
AD
330
1F
100
AcDbEntity
  8
Vinilo v2_Sketch1
100
AcDbSpline
210
0.0
220
0.0
230
1.0
 70
     8
 71
     2
 72
    10
 73
     7
 74
     0
 42
0.0000000001
 43
0.0000000001
 40
-18.0
 40
-18.0
 40
-18.0
 40
-17.0
 40
-17.0
 40
-16.0
 40
-16.0
 40
-15.0
 40
-15.0
 40
-15.0
 10
-2.017849258662521
 20
0.1804390414947799
 30
0.0
 10
-2.02908542032051
 20
0.1717115089847381
 30
0.0
 10
-2.049560203786177
 20
0.1717115089847381
 30
0.0
 10
-2.068287139882825
 20
0.1717115089847381
 30
0.0
 10
-2.079523301540814
 20
0.1794519759046858
 30
0.0
 10
-2.090759463198802
 20
0.1871924428246334
 30
0.0
 10
-2.097001775231018
 20
0.205170301477415
 30
0.0
  0
SPLINE
  5
AE
330
1F
100
AcDbEntity
  8
Vinilo v2_Sketch1
100
AcDbSpline
210
0.0
220
0.0
230
1.0
 70
    24
 71
     2
 72
     6
 73
     3
 74
     0
 42
0.0000000001
 43
0.0000000001
 40
-15.0
 40
-15.0
 40
-15.0
 40
-14.0
 40
-14.0
 40
-14.0
 10
-2.097001775231018
 20
0.205170301477415
 30
0.0
 10
-2.147439656451322
 20
0.2004261443329309
 30
0.0
 10
-2.197877537671626
 20
0.1956819871884469
 30
0.0
  0
LINE
  5
AF
330
1F
100
AcDbEntity
  8
Vinilo v2_Sketch1
100
AcDbLine
 10
-1.500236744951184
 20
0.4880718827774363
 30
0.0
 11
-1.688754568324102
 21
0.4880718827774363
 31
0.0
  0
LINE
  5
B0
330
1F
100
AcDbEntity
  8
Vinilo v2_Sketch1
100
AcDbLine
 10
-1.688754568324102
 20
0.4880718827774363
 30
0.0
 11
-1.688754568324102
 21
0.1220227052083002
 31
0.0
  0
LINE
  5
B1
330
1F
100
AcDbEntity
  8
Vinilo v2_Sketch1
100
AcDbLine
 10
-1.688754568324102
 20
0.1220227052083002
 30
0.0
 11
-1.575144489337775
 21
0.1220227052083002
 31
0.0
  0
LINE
  5
B2
330
1F
100
AcDbEntity
  8
Vinilo v2_Sketch1
100
AcDbLine
 10
-1.575144489337775
 20
0.1220227052083002
 30
0.0
 11
-1.575144489337775
 21
0.2705897315750369
 31
0.0
  0
LINE
  5
B3
330
1F
100
AcDbEntity
  8
Vinilo v2_Sketch1
100
AcDbLine
 10
-1.575144489337775
 20
0.2705897315750369
 30
0.0
 11
-1.565156790086229
 21
0.2705897315750369
 31
0.0
  0
SPLINE
  5
B4
330
1F
100
AcDbEntity
  8
Vinilo v2_Sketch1
100
AcDbSpline
210
0.0
220
0.0
230
1.0
 70
     8
 71
     2
 72
     6
 73
     3
 74
     0
 42
0.0000000001
 43
0.0000000001
 40
-16.0
 40
-16.0
 40
-16.0
 40
-15.0
 40
-15.0
 40
-15.0
 10
-1.565156790086229
 20
0.2705897315750369
 30
0.0
 10
-1.549675856246334
 20
0.2705897315750369
 30
0.0
 10
-1.537440924663191
 20
0.2621001872112234
 30
0.0
  0
SPLINE
  5
B5
330
1F
100
AcDbEntity
  8
Vinilo v2_Sketch1
100
AcDbSpline
210
0.0
220
0.0
230
1.0
 70
     8
 71
     2
 72
     6
 73
     3
 74
     0
 42
0.0000000001
 43
0.0000000001
 40
-15.0
 40
-15.0
 40
-15.0
 40
-14.0
 40
-14.0
 40
-14.0
 10
-1.537440924663191
 20
0.2621001872112234
 30
0.0
 10
-1.5284519953368
 20
0.2556081826977189
 30
0.0
 10
-1.516966141197523
 20
0.2338849368256078
 30
0.0
  0
SPLINE
  5
B6
330
1F
100
AcDbEntity
  8
Vinilo v2_Sketch1
100
AcDbSpline
210
0.0
220
0.0
230
1.0
 70
    24
 71
     2
 72
     6
 73
     3
 74
     0
 42
0.0000000001
 43
0.0000000001
 40
-14.0
 40
-14.0
 40
-14.0
 40
-13.0
 40
-13.0
 40
-13.0
 10
-1.516966141197523
 20
0.2338849368256078
 30
0.0
 10
-1.486735794459007
 20
0.177953821016954
 30
0.0
 10
-1.456505447720492
 20
0.1220227052083002
 30
0.0
  0
SPLINE
  5
B7
330
1F
100
AcDbEntity
  8
Vinilo v2_Sketch1
100
AcDbSpline
210
0.0
220
0.0
230
1.0
 70
    24
 71
     2
 72
     6
 73
     3
 74
     0
 42
0.0000000001
 43
0.0000000001
 40
-13.0
 40
-13.0
 40
-13.0
 40
-12.0
 40
-12.0
 40
-12.0
 10
-1.456505447720492
 20
0.1220227052083002
 30
0.0
 10
-1.392601729013193
 20
0.1220227052083002
 30
0.0
 10
-1.328698010305894
 20
0.1220227052083002
 30
0.0
  0
SPLINE
  5
B8
330
1F
100
AcDbEntity
  8
Vinilo v2_Sketch1
100
AcDbSpline
210
0.0
220
0.0
230
1.0
 70
    24
 71
     2
 72
     6
 73
     3
 74
     0
 42
0.0000000001
 43
0.0000000001
 40
-12.0
 40
-12.0
 40
-12.0
 40
-11.0
 40
-11.0
 40
-11.0
 10
-1.328698010305894
 20
0.1220227052083002
 30
0.0
 10
-1.35608615434724
 20
0.1750569980895038
 30
0.0
 10
-1.383474298388587
 20
0.2280912909707075
 30
0.0
  0
SPLINE
  5
B9
330
1F
100
AcDbEntity
  8
Vinilo v2_Sketch1
100
AcDbSpline
210
0.0
220
0.0
230
1.0
 70
     8
 71
     2
 72
    10
 73
     7
 74
     0
 42
0.0000000001
 43
0.0000000001
 40
-11.0
 40
-11.0
 40
-11.0
 40
-10.0
 40
-10.0
 40
-9.0
 40
-9.0
 40
-8.0
 40
-8.0
 40
-8.0
 10
-1.383474298388587
 20
0.2280912909707075
 30
0.0
 10
-1.387465476644185
 20
0.2360892456419742
 30
0.0
 10
-1.399318066615355
 20
0.2508347647155839
 30
0.0
 10
-1.411170656586525
 20
0.2655802609291641
 30
0.0
 10
-1.417409067173721
 20
0.2700786422773992
 30
0.0
 10
-1.42664378753638
 20
0.2768242254771928
 30
0.0
 10
-1.446853272740679
 20
0.2835737406020458
 30
0.0
  0
SPLINE
  5
BA
330
1F
100
AcDbEntity
  8
Vinilo v2_Sketch1
100
AcDbSpline
210
0.0
220
0.0
230
1.0
 70
     8
 71
     2
 72
    16
 73
    13
 74
     0
 42
0.0000000001
 43
0.0000000001
 40
-8.0
 40
-8.0
 40
-8.0
 40
-7.0
 40
-7.0
 40
-6.0
 40
-6.0
 40
-5.0
 40
-5.0
 40
-4.0
 40
-4.0
 40
-3.0
 40
-3.0
 40
-2.0
 40
-2.0
 40
-2.0
 10
-1.446853272740679
 20
0.2835737406020458
 30
0.0
 10
-1.421618726350446
 20
0.2893166676716843
 30
0.0
 10
-1.407128759545665
 20
0.2980559045167864
 30
0.0
 10
-1.384395039413339
 20
0.3117889909876613
 30
0.0
 10
-1.37140322749629
 20
0.3338867755817053
 30
0.0
 10
-1.358411415579241
 20
0.3559845601757494
 30
0.0
 10
-1.358411415579241
 20
0.3864470428929626
 30
0.0
 10
-1.358411415579241
 20
0.4214039902733713
 30
0.0
 10
-1.375390504306868
 20
0.445749007199013
 30
0.0
 10
-1.392369593034495
 20
0.4700940241246547
 30
0.0
 10
-1.420085458457533
 20
0.4790829534510455
 30
0.0
 10
-1.447801323880572
 20
0.4880718827774363
 30
0.0
 10
-1.500236744951184
 20
0.4880718827774363
 30
0.0
  0
SPLINE
  5
BB
330
1F
100
AcDbEntity
  8
Vinilo v2_Sketch1
100
AcDbSpline
210
0.0
220
0.0
230
1.0
 70
     8
 71
     2
 72
     6
 73
     3
 74
     0
 42
0.0000000001
 43
0.0000000001
 40
1.0
 40
1.0
 40
1.0
 40
2.0
 40
2.0
 40
2.0
 10
-1.527453225411646
 20
0.3397545488919882
 30
0.0
 10
-1.519712758491698
 20
0.3397545488919882
 30
0.0
 10
-1.49749012765701
 20
0.344748398517761
 30
0.0
  0
SPLINE
  5
BC
330
1F
100
AcDbEntity
  8
Vinilo v2_Sketch1
100
AcDbSpline
210
0.0
220
0.0
230
1.0
 70
     8
 71
     2
 72
    12
 73
     9
 74
     0
 42
0.0000000001
 43
0.0000000001
 40
2.0
 40
2.0
 40
2.0
 40
3.0
 40
3.0
 40
4.0
 40
4.0
 40
5.0
 40
5.0
 40
6.0
 40
6.0
 40
6.0
 10
-1.49749012765701
 20
0.344748398517761
 30
0.0
 10
-1.486253965999021
 20
0.3469956308493586
 30
0.0
 10
-1.479137730282295
 20
0.356234252657038
 30
0.0
 10
-1.472021494565569
 20
0.3654728744647174
 30
0.0
 10
-1.472021494565569
 20
0.3774581135665719
 30
0.0
 10
-1.472021494565569
 20
0.3951862797380647
 30
0.0
 10
-1.483257656223557
 20
0.4046745940270329
 30
0.0
 10
-1.494493817881546
 20
0.414162908316001
 30
0.0
 10
-1.525455685561336
 20
0.414162908316001
 30
0.0
  0
LINE
  5
BD
330
1F
100
AcDbEntity
  8
Vinilo v2_Sketch1
100
AcDbLine
 10
-1.525455685561336
 20
0.414162908316001
 30
0.0
 11
-1.575144489337775
 21
0.414162908316001
 31
0.0
  0
LINE
  5
BE
330
1F
100
AcDbEntity
  8
Vinilo v2_Sketch1
100
AcDbLine
 10
-1.575144489337775
 20
0.414162908316001
 30
0.0
 11
-1.575144489337775
 21
0.3397545488919882
 31
0.0
  0
LINE
  5
BF
330
1F
100
AcDbEntity
  8
Vinilo v2_Sketch1
100
AcDbLine
 10
-1.575144489337775
 20
0.3397545488919882
 30
0.0
 11
-1.527453225411646
 21
0.3397545488919882
 31
0.0
  0
SPLINE
  5
C0
330
1F
100
AcDbEntity
  8
Vinilo v2_Sketch1
100
AcDbSpline
210
0.0
220
0.0
230
1.0
 70
    11
 71
     2
 72
    20
 73
    17
 74
     0
 42
0.0000000001
 43
0.0000000001
 40
-8.0
 40
-8.0
 40
-8.0
 40
-7.0
 40
-7.0
 40
-6.0
 40
-6.0
 40
-5.0
 40
-5.0
 40
-4.0
 40
-4.0
 40
-3.0
 40
-3.0
 40
-2.0
 40
-2.0
 40
-1.0
 40
-1.0
 40
0.0
 40
0.0
 40
0.0
 10
-1.311718921578267
 20
0.2538603353286984
 30
0.0
 10
-1.311718921578267
 20
0.1886905977123652
 30
0.0
 10
-1.263278580208272
 20
0.1484901082248953
 30
0.0
 10
-1.223827168164668
 20
0.116030085657373
 30
0.0
 10
-1.159905892954778
 20
0.116030085657373
 30
0.0
 10
-1.08824415082494
 20
0.116030085657373
 30
0.0
 10
-1.047669122615537
 20
0.1551069589790441
 30
0.0
 10
-1.007094094406134
 20
0.1941838323007151
 30
0.0
 10
-1.007094094406134
 20
0.2553584902164303
 30
0.0
 10
-1.007094094406134
 20
0.3097914511373523
 30
0.0
 10
-1.039803809454945
 20
0.3469956308493586
 30
0.0
 10
-1.080503683904992
 20
0.3931887398877557
 30
0.0
 10
-1.160155585436066
 20
0.3931887398877557
 30
0.0
 10
-1.229819787715595
 20
0.3931887398877557
 30
0.0
 10
-1.270769354646931
 20
0.353862174084796
 30
0.0
 10
-1.311718921578267
 20
0.3145356082818362
 30
0.0
 10
-1.311718921578267
 20
0.2538603353286984
 30
0.0
  0
SPLINE
  5
C1
330
1F
100
AcDbEntity
  8
Vinilo v2_Sketch1
100
AcDbSpline
210
0.0
220
0.0
230
1.0
 70
    11
 71
     2
 72
    20
 73
    17
 74
     0
 42
0.0000000001
 43
0.0000000001
 40
0.0
 40
0.0
 40
0.0
 40
1.0
 40
1.0
 40
2.0
 40
2.0
 40
3.0
 40
3.0
 40
4.0
 40
4.0
 40
5.0
 40
5.0
 40
6.0
 40
6.0
 40
7.0
 40
7.0
 40
8.0
 40
8.0
 40
8.0
 10
-1.209844389212504
 20
0.254110027809987
 30
0.0
 10
-1.209844389212504
 20
0.2186536954670012
 30
0.0
 10
-1.195487071538408
 20
0.2016746067393741
 30
0.0
 10
-1.181129753864311
 20
0.1846955180117471
 30
0.0
 10
-1.1594065079922
 20
0.1846955180117471
 30
0.0
 10
-1.1374335696388
 20
0.1846955180117471
 30
0.0
 10
-1.123325944445993
 20
0.2014249142580855
 30
0.0
 10
-1.109218319253185
 20
0.2181543105044239
 30
0.0
 10
-1.109218319253185
 20
0.2551087977351416
 30
0.0
 10
-1.109218319253185
 20
0.289566360152973
 30
0.0
 10
-1.123450790686637
 20
0.3064206026399557
 30
0.0
 10
-1.137683262120089
 20
0.3232748451269385
 30
0.0
 10
-1.158657430548335
 20
0.3232748451269385
 30
0.0
 10
-1.180880061383023
 20
0.3232748451269385
 30
0.0
 10
-1.195362225297764
 20
0.3061709101586672
 30
0.0
 10
-1.209844389212504
 20
0.2890669751903957
 30
0.0
 10
-1.209844389212504
 20
0.254110027809987
 30
0.0
  0
SPLINE
  5
C2
330
1F
100
AcDbEntity
  8
Vinilo v2_Sketch1
100
AcDbSpline
210
0.0
220
0.0
230
1.0
 70
    24
 71
     2
 72
     6
 73
     3
 74
     0
 42
0.0000000001
 43
0.0000000001
 40
-4.0
 40
-4.0
 40
-4.0
 40
-3.0
 40
-3.0
 40
-3.0
 10
-0.9544089808542325
 20
0.4880718827774363
 30
0.0
 10
-0.9544089808542325
 20
0.4534894741189606
 30
0.0
 10
-0.9544089808542325
 20
0.418907065460485
 30
0.0
  0
SPLINE
  5
C3
330
1F
100
AcDbEntity
  8
Vinilo v2_Sketch1
100
AcDbSpline
210
0.0
220
0.0
230
1.0
 70
    24
 71
     2
 72
     6
 73
     3
 74
     0
 42
0.0000000001
 43
0.0000000001
 40
-3.0
 40
-3.0
 40
-3.0
 40
-2.0
 40
-2.0
 40
-2.0
 10
-0.9544089808542325
 20
0.418907065460485
 30
0.0
 10
-0.9035965609119959
 20
0.418907065460485
 30
0.0
 10
-0.8527841409697593
 20
0.418907065460485
 30
0.0
  0
SPLINE
  5
C4
330
1F
100
AcDbEntity
  8
Vinilo v2_Sketch1
100
AcDbSpline
210
0.0
220
0.0
230
1.0
 70
    24
 71
     2
 72
     6
 73
     3
 74
     0
 42
0.0000000001
 43
0.0000000001
 40
-2.0
 40
-2.0
 40
-2.0
 40
-1.0
 40
-1.0
 40
-1.0
 10
-0.8527841409697593
 20
0.418907065460485
 30
0.0
 10
-0.8527841409697593
 20
0.4534894741189606
 30
0.0
 10
-0.8527841409697593
 20
0.4880718827774363
 30
0.0
  0
SPLINE
  5
C5
330
1F
100
AcDbEntity
  8
Vinilo v2_Sketch1
100
AcDbSpline
210
0.0
220
0.0
230
1.0
 70
    24
 71
     2
 72
     6
 73
     3
 74
     0
 42
0.0000000001
 43
0.0000000001
 40
-1.0
 40
-1.0
 40
-1.0
 40
0.0
 40
0.0
 40
0.0
 10
-0.8527841409697593
 20
0.4880718827774363
 30
0.0
 10
-0.9035965609119959
 20
0.4880718827774363
 30
0.0
 10
-0.9544089808542325
 20
0.4880718827774363
 30
0.0
  0
SPLINE
  5
C6
330
1F
100
AcDbEntity
  8
Vinilo v2_Sketch1
100
AcDbSpline
210
0.0
220
0.0
230
1.0
 70
    24
 71
     2
 72
     6
 73
     3
 74
     0
 42
0.0000000001
 43
0.0000000001
 40
-4.0
 40
-4.0
 40
-4.0
 40
-3.0
 40
-3.0
 40
-3.0
 10
-0.9544089808542325
 20
0.3871961203368285
 30
0.0
 10
-0.9544089808542325
 20
0.2546094127725643
 30
0.0
 10
-0.9544089808542325
 20
0.1220227052083002
 30
0.0
  0
SPLINE
  5
C7
330
1F
100
AcDbEntity
  8
Vinilo v2_Sketch1
100
AcDbSpline
210
0.0
220
0.0
230
1.0
 70
    24
 71
     2
 72
     6
 73
     3
 74
     0
 42
0.0000000001
 43
0.0000000001
 40
-3.0
 40
-3.0
 40
-3.0
 40
-2.0
 40
-2.0
 40
-2.0
 10
-0.9544089808542325
 20
0.1220227052083002
 30
0.0
 10
-0.9035965609119959
 20
0.1220227052083002
 30
0.0
 10
-0.8527841409697593
 20
0.1220227052083002
 30
0.0
  0
SPLINE
  5
C8
330
1F
100
AcDbEntity
  8
Vinilo v2_Sketch1
100
AcDbSpline
210
0.0
220
0.0
230
1.0
 70
    24
 71
     2
 72
     6
 73
     3
 74
     0
 42
0.0000000001
 43
0.0000000001
 40
-2.0
 40
-2.0
 40
-2.0
 40
-1.0
 40
-1.0
 40
-1.0
 10
-0.8527841409697593
 20
0.1220227052083002
 30
0.0
 10
-0.8527841409697593
 20
0.2546094127725643
 30
0.0
 10
-0.8527841409697593
 20
0.3871961203368285
 30
0.0
  0
SPLINE
  5
C9
330
1F
100
AcDbEntity
  8
Vinilo v2_Sketch1
100
AcDbSpline
210
0.0
220
0.0
230
1.0
 70
    24
 71
     2
 72
     6
 73
     3
 74
     0
 42
0.0000000001
 43
0.0000000001
 40
-1.0
 40
-1.0
 40
-1.0
 40
0.0
 40
0.0
 40
0.0
 10
-0.8527841409697593
 20
0.3871961203368285
 30
0.0
 10
-0.9035965609119959
 20
0.3871961203368285
 30
0.0
 10
-0.9544089808542325
 20
0.3871961203368285
 30
0.0
  0
LINE
  5
CA
330
1F
100
AcDbEntity
  8
Vinilo v2_Sketch1
100
AcDbLine
 10
-0.5079588243101563
 20
0.1250190149837637
 30
0.0
 11
-0.5082085167914452
 21
0.1367545616043295
 31
0.0
  0
LINE
  5
CB
330
1F
100
AcDbEntity
  8
Vinilo v2_Sketch1
100
AcDbLine
 10
-0.5082085167914452
 20
0.1367545616043295
 30
0.0
 11
-0.5082085167914452
 21
0.3871961203368285
 31
0.0
  0
LINE
  5
CC
330
1F
100
AcDbEntity
  8
Vinilo v2_Sketch1
100
AcDbLine
 10
-0.5082085167914452
 20
0.3871961203368285
 30
0.0
 11
-0.6033413521624146
 21
0.3871961203368285
 31
0.0
  0
LINE
  5
CD
330
1F
100
AcDbEntity
  8
Vinilo v2_Sketch1
100
AcDbLine
 10
-0.6033413521624146
 20
0.3871961203368285
 30
0.0
 11
-0.6033413521624146
 21
0.3479944007745132
 31
0.0
  0
SPLINE
  5
CE
330
1F
100
AcDbEntity
  8
Vinilo v2_Sketch1
100
AcDbSpline
210
0.0
220
0.0
230
1.0
 70
     8
 71
     2
 72
    20
 73
    17
 74
     0
 42
0.0000000001
 43
0.0000000001
 40
-25.0
 40
-25.0
 40
-25.0
 40
-24.0
 40
-24.0
 40
-23.0
 40
-23.0
 40
-22.0
 40
-22.0
 40
-21.0
 40
-21.0
 40
-20.0
 40
-20.0
 40
-19.0
 40
-19.0
 40
-18.0
 40
-18.0
 40
-17.0
 40
-17.0
 40
-17.0
 10
-0.6033413521624146
 20
0.3479944007745132
 30
0.0
 10
-0.6208198258526191
 20
0.3722145714595105
 30
0.0
 10
-0.6409200705963535
 20
0.3827016556736331
 30
0.0
 10
-0.6610203153400888
 20
0.3931887398877557
 30
0.0
 10
-0.6919821830198788
 20
0.3931887398877557
 30
0.0
 10
-0.7404225243898742
 20
0.3931887398877557
 30
0.0
 10
-0.77038562214451
 20
0.3607287173202334
 30
0.0
 10
-0.8003487198991458
 20
0.3282686947527111
 30
0.0
 10
-0.8003487198991458
 20
0.2663449593931301
 30
0.0
 10
-0.8003487198991458
 20
0.2121616909534967
 30
0.0
 10
-0.7771273191393029
 20
0.1792022834233971
 30
0.0
 10
-0.7444176040904923
 20
0.1327594819037114
 30
0.0
 10
-0.691233105576013
 20
0.1327594819037114
 30
0.0
 10
-0.664016625115552
 20
0.1327594819037114
 30
0.0
 10
-0.640545531874421
 20
0.145244105968143
 30
0.0
 10
-0.6255639829971029
 20
0.1532342653693793
 30
0.0
 10
-0.6105824341197847
 20
0.1709624315408723
 30
0.0
  0
SPLINE
  5
CF
330
1F
100
AcDbEntity
  8
Vinilo v2_Sketch1
100
AcDbSpline
210
0.0
220
0.0
230
1.0
 70
    24
 71
     2
 72
     6
 73
     3
 74
     0
 42
0.0000000001
 43
0.0000000001
 40
-17.0
 40
-17.0
 40
-17.0
 40
-16.0
 40
-16.0
 40
-16.0
 10
-0.6105824341197847
 20
0.1709624315408723
 30
0.0
 10
-0.6105824341197847
 20
0.1508621867971373
 30
0.0
 10
-0.6105824341197847
 20
0.1307619420534023
 30
0.0
  0
SPLINE
  5
D0
330
1F
100
AcDbEntity
  8
Vinilo v2_Sketch1
100
AcDbSpline
210
0.0
220
0.0
230
1.0
 70
     8
 71
     2
 72
    12
 73
     9
 74
     0
 42
0.0000000001
 43
0.0000000001
 40
-16.0
 40
-16.0
 40
-16.0
 40
-15.0
 40
-15.0
 40
-14.0
 40
-14.0
 40
-13.0
 40
-13.0
 40
-12.0
 40
-12.0
 40
-12.0
 10
-0.6105824341197847
 20
0.1307619420534023
 30
0.0
 10
-0.6105824341197847
 20
0.1015479217426322
 30
0.0
 10
-0.6214440570558405
 20
0.0898123751220665
 30
0.0
 10
-0.6323056799918961
 20
0.0780768285015007
 30
0.0
 10
-0.6542786183452955
 20
0.0780768285015007
 30
0.0
 10
-0.6712577070729222
 20
0.0780768285015007
 30
0.0
 10
-0.6824938687309112
 20
0.0858172954214484
 30
0.0
 10
-0.6902343356508582
 20
0.0910608375285096
 30
0.0
 10
-0.6939797228701883
 20
0.1047939239993845
 30
0.0
  0
SPLINE
  5
D1
330
1F
100
AcDbEntity
  8
Vinilo v2_Sketch1
100
AcDbSpline
210
0.0
220
0.0
230
1.0
 70
    24
 71
     2
 72
     6
 73
     3
 74
     0
 42
0.0000000001
 43
0.0000000001
 40
-12.0
 40
-12.0
 40
-12.0
 40
-11.0
 40
-11.0
 40
-11.0
 10
-0.6939797228701883
 20
0.1047939239993845
 30
0.0
 10
-0.7432939879246934
 20
0.1104120048283787
 30
0.0
 10
-0.7926082529791983
 20
0.116030085657373
 30
0.0
  0
SPLINE
  5
D2
330
1F
100
AcDbEntity
  8
Vinilo v2_Sketch1
100
AcDbSpline
210
0.0
220
0.0
230
1.0
 70
     8
 71
     2
 72
    18
 73
    15
 74
     0
 42
0.0000000001
 43
0.0000000001
 40
-11.0
 40
-11.0
 40
-11.0
 40
-10.0
 40
-10.0
 40
-9.0
 40
-9.0
 40
-8.0
 40
-8.0
 40
-7.0
 40
-7.0
 40
-6.0
 40
-6.0
 40
-5.0
 40
-5.0
 40
-4.0
 40
-4.0
 40
-4.0
 10
-0.7926082529791983
 20
0.116030085657373
 30
0.0
 10
-0.7931076379417756
 20
0.1075405412935595
 30
0.0
 10
-0.7931076379417756
 20
0.1025466916677867
 30
0.0
 10
-0.7931076379417756
 20
0.0623462021803168
 30
0.0
 10
-0.7632693864277839
 20
0.0383757239766081
 30
0.0
 10
-0.7334311349137921
 20
0.0144052457728993
 30
0.0
 10
-0.6535295409014297
 20
0.0144052457728993
 30
0.0
 10
-0.6185725935210208
 20
0.0144052457728993
 30
0.0
 10
-0.5914809593012043
 20
0.0206475578051151
 30
0.0
 10
-0.5643893250813877
 20
0.026889869837331
 30
0.0
 10
-0.5467860051505388
 20
0.0408726487894944
 30
0.0
 10
-0.5291826852196898
 20
0.0548554277416579
 30
0.0
 10
-0.5185707547649231
 20
0.0774525972982792
 30
0.0
 10
-0.5079588243101563
 20
0.1000497668549004
 30
0.0
 10
-0.5079588243101563
 20
0.1250190149837637
 30
0.0
  0
SPLINE
  5
D3
330
1F
100
AcDbEntity
  8
Vinilo v2_Sketch1
100
AcDbSpline
210
0.0
220
0.0
230
1.0
 70
    11
 71
     2
 72
    20
 73
    17
 74
     0
 42
0.0000000001
 43
0.0000000001
 40
0.0
 40
0.0
 40
0.0
 40
1.0
 40
1.0
 40
2.0
 40
2.0
 40
3.0
 40
3.0
 40
4.0
 40
4.0
 40
5.0
 40
5.0
 40
6.0
 40
6.0
 40
7.0
 40
7.0
 40
8.0
 40
8.0
 40
8.0
 10
-0.6989735724959609
 20
0.2586044924731825
 30
0.0
 10
-0.6989735724959609
 20
0.2298898571249897
 30
0.0
 10
-0.6867386409128181
 20
0.2160319244134705
 30
0.0
 10
-0.6745037093296743
 20
0.2021739917019514
 30
0.0
 10
-0.6545283108265845
 20
0.2021739917019514
 30
0.0
 10
-0.6355516822486483
 20
0.2021739917019514
 30
0.0
 10
-0.6226925194622832
 20
0.2165313093760478
 30
0.0
 10
-0.609833356675919
 20
0.2308886270501442
 30
0.0
 10
-0.609833356675919
 20
0.2598529548796257
 30
0.0
 10
-0.609833356675919
 20
0.2888172827091071
 30
0.0
 10
-0.6233167506655045
 20
0.304173370308358
 30
0.0
 10
-0.636800144655091
 20
0.3195294579076089
 30
0.0
 10
-0.6562761581956049
 20
0.3195294579076089
 30
0.0
 10
-0.675752171736118
 20
0.3195294579076089
 30
0.0
 10
-0.6873628721160395
 20
0.3054218327148012
 30
0.0
 10
-0.6989735724959609
 20
0.2913142075219934
 30
0.0
 10
-0.6989735724959609
 20
0.2586044924731825
 30
0.0
  0
SPLINE
  5
D4
330
1F
100
AcDbEntity
  8
Vinilo v2_Sketch1
100
AcDbSpline
210
0.0
220
0.0
230
1.0
 70
    11
 71
     2
 72
    24
 73
    21
 74
     0
 42
0.0000000001
 43
0.0000000001
 40
-10.0
 40
-10.0
 40
-10.0
 40
-9.0
 40
-9.0
 40
-8.0
 40
-8.0
 40
-7.0
 40
-7.0
 40
-6.0
 40
-6.0
 40
-5.0
 40
-5.0
 40
-4.0
 40
-4.0
 40
-3.0
 40
-3.0
 40
-2.0
 40
-2.0
 40
-1.0
 40
-1.0
 40
0.0
 40
0.0
 40
0.0
 10
-0.2837349761129641
 20
0.3047976015115796
 30
0.0
 10
-0.2837349761129641
 20
0.2406266338204009
 30
0.0
 10
-0.2585160355028125
 20
0.1979292195200446
 30
0.0
 10
-0.2332970948926601
 20
0.1552318052196883
 30
0.0
 10
-0.1927220666832571
 20
0.1355060991978864
 30
0.0
 10
-0.1521470384738549
 20
0.1157803931760843
 30
0.0
 10
-0.090223303114273
 20
0.1157803931760843
 30
0.0
 10
-0.0292983376798467
 20
0.1157803931760843
 30
0.0
 10
0.0115263830108443
 20
0.1386272552139942
 30
0.0
 10
0.0523511037015362
 20
0.1614741172519042
 30
0.0
 10
0.0739495033330031
 20
0.2025485304238844
 30
0.0
 10
0.0955479029644691
 20
0.2436229435958645
 30
0.0
 10
0.0955479029644691
 20
0.3077939112870433
 30
0.0
 10
0.0955479029644691
 20
0.3961850496632193
 30
0.0
 10
0.0461087916693199
 20
0.4452496222364357
 30
0.0
 10
-0.0033303196258294
 20
0.4943141948096521
 30
0.0
 10
-0.0947177677774688
 20
0.4943141948096521
 30
0.0
 10
-0.1838579835975108
 20
0.4943141948096521
 30
0.0
 10
-0.2337964798552379
 20
0.4443756985519255
 30
0.0
 10
-0.2837349761129641
 20
0.3944372022941989
 30
0.0
 10
-0.2837349761129641
 20
0.3047976015115796
 30
0.0
  0
SPLINE
  5
D5
330
1F
100
AcDbEntity
  8
Vinilo v2_Sketch1
100
AcDbSpline
210
0.0
220
0.0
230
1.0
 70
    11
 71
     2
 72
    20
 73
    17
 74
     0
 42
0.0000000001
 43
0.0000000001
 40
0.0
 40
0.0
 40
0.0
 40
1.0
 40
1.0
 40
2.0
 40
2.0
 40
3.0
 40
3.0
 40
4.0
 40
4.0
 40
5.0
 40
5.0
 40
6.0
 40
6.0
 40
7.0
 40
7.0
 40
8.0
 40
8.0
 40
8.0
 10
-0.1706242820892132
 20
0.3042982165490024
 30
0.0
 10
-0.1706242820892132
 20
0.2488664857029258
 30
0.0
 10
-0.1500246523829011
 20
0.2246463150179284
 30
0.0
 10
-0.1294250226765888
 20
0.2004261443329309
 30
0.0
 10
-0.093968690333603
 20
0.2004261443329309
 30
0.0
 10
-0.0575135880654624
 20
0.2004261443329309
 30
0.0
 10
-0.0375381895623716
 20
0.2241469300553511
 30
0.0
 10
-0.0175627910592808
 20
0.2478677157777713
 30
0.0
 10
-0.0175627910592808
 20
0.309292066174775
 30
0.0
 10
-0.0175627910592808
 20
0.3609784098015221
 30
0.0
 10
-0.0384121132468819
 20
0.3848240417645865
 30
0.0
 10
-0.059261435434483
 20
0.408669673727651
 30
0.0
 10
-0.0949674602587577
 20
0.408669673727651
 30
0.0
 10
-0.1291753301952999
 20
0.408669673727651
 30
0.0
 10
-0.1498998061422566
 20
0.3844495030426536
 30
0.0
 10
-0.1706242820892132
 20
0.3602293018776169
 30
0.0
 10
-0.1706242820892132
 20
0.3042982165490024
 30
0.0
  0
SPLINE
  5
D6
330
1F
100
AcDbEntity
  8
Vinilo v2_Sketch1
100
AcDbSpline
210
0.0
220
0.0
230
1.0
 70
     8
 71
     2
 72
    20
 73
    17
 74
     0
 42
0.0000000001
 43
0.0000000001
 40
-31.0
 40
-31.0
 40
-31.0
 40
-30.0
 40
-30.0
 40
-29.0
 40
-29.0
 40
-28.0
 40
-28.0
 40
-27.0
 40
-27.0
 40
-26.0
 40
-26.0
 40
-25.0
 40
-25.0
 40
-24.0
 40
-24.0
 40
-23.0
 40
-23.0
 40
-23.0
 10
0.3474876165847001
 20
0.2258947774243715
 30
0.0
 10
0.3407459195899069
 20
0.2046709165148377
 30
0.0
 10
0.3271376793596769
 20
0.1944335247820038
 30
0.0
 10
0.3135294391294459
 20
0.1841961330491698
 30
0.0
 10
0.2935540406263559
 20
0.1841961330491698
 30
0.0
 10
0.2695835624226471
 20
0.1841961330491698
 30
0.0
 10
0.2541026285827512
 20
0.2011440102166358
 30
0.0
 10
0.2386216947428562
 20
0.2180918721440822
 30
0.0
 10
0.2386216947428562
 20
0.2507430807576106
 30
0.0
 10
0.2386216947428562
 20
0.2873854523867176
 30
0.0
 10
0.2542274748233957
 20
0.3054549949974723
 30
0.0
 10
0.2698332549039352
 20
0.3235245376082271
 30
0.0
 10
0.2950521955140876
 20
0.3235245376082271
 30
0.0
 10
0.3150275940171784
 20
0.3235245376082271
 30
0.0
 10
0.3268879868783879
 20
0.3149101470037693
 30
0.0
 10
0.3387483797395984
 20
0.3062957563993114
 30
0.0
 10
0.3432428444027932
 20
0.2893166676716843
 30
0.0
  0
SPLINE
  5
D7
330
1F
100
AcDbEntity
  8
Vinilo v2_Sketch1
100
AcDbSpline
210
0.0
220
0.0
230
1.0
 70
    24
 71
     2
 72
     6
 73
     3
 74
     0
 42
0.0000000001
 43
0.0000000001
 40
-23.0
 40
-23.0
 40
-23.0
 40
-22.0
 40
-22.0
 40
-22.0
 10
0.3432428444027932
 20
0.2893166676716843
 30
0.0
 10
0.3910589545695668
 20
0.2956838259445445
 30
0.0
 10
0.4388750647363404
 20
0.3020509842174046
 30
0.0
  0
SPLINE
  5
D8
330
1F
100
AcDbEntity
  8
Vinilo v2_Sketch1
100
AcDbSpline
210
0.0
220
0.0
230
1.0
 70
     8
 71
     2
 72
    30
 73
    27
 74
     0
 42
0.0000000001
 43
0.0000000001
 40
-22.0
 40
-22.0
 40
-22.0
 40
-21.0
 40
-21.0
 40
-20.0
 40
-20.0
 40
-19.0
 40
-19.0
 40
-18.0
 40
-18.0
 40
-17.0
 40
-17.0
 40
-16.0
 40
-16.0
 40
-15.0
 40
-15.0
 40
-14.0
 40
-14.0
 40
-13.0
 40
-13.0
 40
-12.0
 40
-12.0
 40
-11.0
 40
-11.0
 40
-10.0
 40
-10.0
 40
-9.0
 40
-9.0
 40
-9.0
 10
0.4388750647363404
 20
0.3020509842174046
 30
0.0
 10
0.4251419782654651
 20
0.34674593836807
 30
0.0
 10
0.3910589545695673
 20
0.3699673391279129
 30
0.0
 10
0.3569759308736686
 20
0.3931887398877557
 30
0.0
 10
0.2920558857386234
 20
0.3931887398877557
 30
0.0
 10
0.2456130842189383
 20
0.3931887398877557
 30
0.0
 10
0.215899678945591
 20
0.380965512639673
 30
0.0
 10
0.1971727428489429
 20
0.3732328333697461
 30
0.0
 10
0.1794445766774504
 20
0.357391031105508
 30
0.0
 10
0.161716410505957
 20
0.3415491831212111
 30
0.0
 10
0.1514790187731236
 20
0.3215933223232603
 30
0.0
 10
0.1374962398209602
 20
0.2944002505329201
 30
0.0
 10
0.1374962398209602
 20
0.2534857966067655
 30
0.0
 10
0.1374962398209602
 20
0.2143191824296215
 30
0.0
 10
0.1489820939602373
 20
0.1906198622748219
 30
0.0
 10
0.1604679480995143
 20
0.1669205345000125
 30
0.0
 10
0.1806930390838931
 20
0.1493328203492444
 30
0.0
 10
0.2009181300682729
 20
0.1317451061984763
 30
0.0
 10
0.2290085342132441
 20
0.1238875959279246
 30
0.0
 10
0.2570989383582154
 20
0.116030085657373
 30
0.0
 10
0.2992969676959945
 20
0.116030085657373
 30
0.0
 10
0.3429931519215053
 20
0.116030085657373
 30
0.0
 10
0.3713332485477645
 20
0.128265017240516
 30
0.0
 10
0.3996733451740246
 20
0.140499948823659
 30
0.0
 10
0.4179008963080949
 20
0.1625977334177031
 30
0.0
 10
0.4361284474421652
 20
0.1846955180117471
 30
0.0
 10
0.4441186068434012
 20
0.2149083082476717
 30
0.0
  0
SPLINE
  5
D9
330
1F
100
AcDbEntity
  8
Vinilo v2_Sketch1
100
AcDbSpline
210
0.0
220
0.0
230
1.0
 70
    24
 71
     2
 72
     6
 73
     3
 74
     0
 42
0.0000000001
 43
0.0000000001
 40
-9.0
 40
-9.0
 40
-9.0
 40
-8.0
 40
-8.0
 40
-8.0
 10
0.4441186068434012
 20
0.2149083082476717
 30
0.0
 10
0.3958031117140506
 20
0.2204015428360216
 30
0.0
 10
0.3474876165847001
 20
0.2258947774243715
 30
0.0
  0
SPLINE
  5
DA
330
1F
100
AcDbEntity
  8
Vinilo v2_Sketch1
100
AcDbSpline
210
0.0
220
0.0
230
1.0
 70
     8
 71
     2
 72
    12
 73
     9
 74
     0
 42
0.0000000001
 43
0.0000000001
 40
-41.0
 40
-41.0
 40
-41.0
 40
-40.0
 40
-40.0
 40
-39.0
 40
-39.0
 40
-38.0
 40
-38.0
 40
-37.0
 40
-37.0
 40
-37.0
 10
0.583447011402459
 20
0.3013019067735387
 30
0.0
 10
0.5894396309533856
 20
0.3185306879824544
 30
0.0
 10
0.599177637723643
 20
0.3247730000146702
 30
0.0
 10
0.6116622617880738
 20
0.3327631594159065
 30
0.0
 10
0.6366315099169374
 20
0.3327631594159065
 30
0.0
 10
0.6561075234574513
 20
0.3327631594159065
 30
0.0
 10
0.6638479903773984
 20
0.3252723849772475
 30
0.0
 10
0.6715884572973463
 20
0.3177816105385886
 30
0.0
 10
0.6715884572973463
 20
0.299054674441941
 30
0.0
  0
SPLINE
  5
DB
330
1F
100
AcDbEntity
  8
Vinilo v2_Sketch1
100
AcDbSpline
210
0.0
220
0.0
230
1.0
 70
     8
 71
     2
 72
    20
 73
    17
 74
     0
 42
0.0000000001
 43
0.0000000001
 40
-37.0
 40
-37.0
 40
-37.0
 40
-36.0
 40
-36.0
 40
-35.0
 40
-35.0
 40
-34.0
 40
-34.0
 40
-33.0
 40
-33.0
 40
-32.0
 40
-32.0
 40
-31.0
 40
-31.0
 40
-30.0
 40
-30.0
 40
-29.0
 40
-29.0
 40
-29.0
 10
0.6715884572973463
 20
0.299054674441941
 30
0.0
 10
0.652611798239371
 20
0.291563900003282
 30
0.0
 10
0.6356327399917827
 20
0.2869445890994423
 30
0.0
 10
0.6186536512641561
 20
0.2823252781956026
 30
0.0
 10
0.5614740730490588
 20
0.2708394240563255
 30
0.0
 10
0.5137828091229302
 20
0.2613511097673574
 30
0.0
 10
0.4960546429514368
 20
0.241875096226844
 30
0.0
 10
0.4783264767799443
 20
0.2223990826863307
 30
0.0
 10
0.4783264767799443
 20
0.1921862924504061
 30
0.0
 10
0.4783264767799443
 20
0.1599759623641724
 30
0.0
 10
0.5029211861868744
 20
0.1380030240107727
 30
0.0
 10
0.5275158955938046
 20
0.116030085657373
 30
0.0
 10
0.5749574670386453
 20
0.116030085657373
 30
0.0
 10
0.61066349186292
 20
0.116030085657373
 30
0.0
 10
0.6376302798420921
 20
0.1270165548340728
 30
0.0
 10
0.657355985863894
 20
0.1352564067165977
 30
0.0
 10
0.6773313843669848
 20
0.1544827277758224
 30
0.0
  0
SPLINE
  5
DC
330
1F
100
AcDbEntity
  8
Vinilo v2_Sketch1
100
AcDbSpline
210
0.0
220
0.0
230
1.0
 70
     8
 71
     2
 72
     8
 73
     5
 74
     0
 42
0.0000000001
 43
0.0000000001
 40
-29.0
 40
-29.0
 40
-29.0
 40
-28.0
 40
-28.0
 40
-27.0
 40
-27.0
 40
-27.0
 10
0.6773313843669848
 20
0.1544827277758224
 30
0.0
 10
0.6790792317360054
 20
0.1429968736365454
 30
0.0
 10
0.6808270791050259
 20
0.1376284852888398
 30
0.0
 10
0.6825749264740465
 20
0.1322600969411341
 30
0.0
 10
0.688317853543685
 20
0.1220227052083002
 30
0.0
  0
SPLINE
  5
DD
330
1F
100
AcDbEntity
  8
Vinilo v2_Sketch1
100
AcDbSpline
210
0.0
220
0.0
230
1.0
 70
    24
 71
     2
 72
     6
 73
     3
 74
     0
 42
0.0000000001
 43
0.0000000001
 40
-27.0
 40
-27.0
 40
-27.0
 40
-26.0
 40
-26.0
 40
-26.0
 10
0.688317853543685
 20
0.1220227052083002
 30
0.0
 10
0.7360091174698138
 20
0.1220227052083002
 30
0.0
 10
0.7837003813959424
 20
0.1220227052083002
 30
0.0
  0
SPLINE
  5
DE
330
1F
100
AcDbEntity
  8
Vinilo v2_Sketch1
100
AcDbSpline
210
0.0
220
0.0
230
1.0
 70
     8
 71
     2
 72
     8
 73
     5
 74
     0
 42
0.0000000001
 43
0.0000000001
 40
-26.0
 40
-26.0
 40
-26.0
 40
-25.0
 40
-25.0
 40
-24.0
 40
-24.0
 40
-24.0
 10
0.7837003813959424
 20
0.1220227052083002
 30
0.0
 10
0.7757102219947064
 20
0.13850240897335
 30
0.0
 10
0.7733381434224645
 20
0.1491143394281169
 30
0.0
 10
0.7709660648502218
 20
0.1597262698828837
 30
0.0
 10
0.7709660648502218
 20
0.1784532059795312
 30
0.0
  0
SPLINE
  5
DF
330
1F
100
AcDbEntity
  8
Vinilo v2_Sketch1
100
AcDbSpline
210
0.0
220
0.0
230
1.0
 70
    24
 71
     2
 72
     6
 73
     3
 74
     0
 42
0.0000000001
 43
0.0000000001
 40
-24.0
 40
-24.0
 40
-24.0
 40
-23.0
 40
-23.0
 40
-23.0
 10
0.7709660648502218
 20
0.1784532059795312
 30
0.0
 10
0.7709660648502218
 20
0.2370060928417157
 30
0.0
 10
0.7709660648502218
 20
0.2955589797039002
 30
0.0
  0
SPLINE
  5
E0
330
1F
100
AcDbEntity
  8
Vinilo v2_Sketch1
100
AcDbSpline
210
0.0
220
0.0
230
1.0
 70
     8
 71
     2
 72
    20
 73
    17
 74
     0
 42
0.0000000001
 43
0.0000000001
 40
-23.0
 40
-23.0
 40
-23.0
 40
-22.0
 40
-22.0
 40
-21.0
 40
-21.0
 40
-20.0
 40
-20.0
 40
-19.0
 40
-19.0
 40
-18.0
 40
-18.0
 40
-17.0
 40
-17.0
 40
-16.0
 40
-16.0
 40
-15.0
 40
-15.0
 40
-15.0
 10
0.7709660648502218
 20
0.2955589797039002
 30
0.0
 10
0.7709660648502218
 20
0.3142859158005477
 30
0.0
 10
0.7634752904115636
 20
0.3348855455068599
 30
0.0
 10
0.7559845159729045
 20
0.3554851752131721
 30
0.0
 10
0.7430005069458949
 20
0.3667213368711606
 30
0.0
 10
0.7245232633305366
 20
0.3829513481549217
 30
0.0
 10
0.6968073979074979
 20
0.3880700440213387
 30
0.0
 10
0.66909153248446
 20
0.3931887398877557
 30
0.0
 10
0.6233978084086398
 20
0.3931887398877557
 30
0.0
 10
0.5949328655417361
 20
0.3931887398877557
 30
0.0
 10
0.5704630023754494
 20
0.3889439677058489
 30
0.0
 10
0.5459931392091638
 20
0.3846991955239423
 30
0.0
 10
0.5320103602570004
 20
0.3769587286039946
 30
0.0
 10
0.5125343467164866
 20
0.3662219519085834
 30
0.0
 10
0.5021721087430087
 20
0.3516149417531983
 30
0.0
 10
0.4918098707695308
 20
0.3370079315978133
 30
0.0
 10
0.4863166361811803
 20
0.3115392985063727
 30
0.0
  0
SPLINE
  5
E1
330
1F
100
AcDbEntity
  8
Vinilo v2_Sketch1
100
AcDbSpline
210
0.0
220
0.0
230
1.0
 70
    24
 71
     2
 72
     6
 73
     3
 74
     0
 42
0.0000000001
 43
0.0000000001
 40
-15.0
 40
-15.0
 40
-15.0
 40
-14.0
 40
-14.0
 40
-14.0
 10
0.4863166361811803
 20
0.3115392985063727
 30
0.0
 10
0.5348818237918196
 20
0.3064206026399557
 30
0.0
 10
0.583447011402459
 20
0.3013019067735387
 30
0.0
  0
SPLINE
  5
E2
330
1F
100
AcDbEntity
  8
Vinilo v2_Sketch1
100
AcDbSpline
210
0.0
220
0.0
230
1.0
 70
     8
 71
     2
 72
    20
 73
    17
 74
     0
 42
0.0000000001
 43
0.0000000001
 40
0.0
 40
0.0
 40
0.0
 40
1.0
 40
1.0
 40
2.0
 40
2.0
 40
3.0
 40
3.0
 40
4.0
 40
4.0
 40
5.0
 40
5.0
 40
6.0
 40
6.0
 40
7.0
 40
7.0
 40
8.0
 40
8.0
 40
8.0
 10
0.6715884572973463
 20
0.2478677157777713
 30
0.0
 10
0.6506142888691008
 20
0.2403769413391123
 30
0.0
 10
0.6278922730718356
 20
0.2346340142694737
 30
0.0
 10
0.5969304053920447
 20
0.2263941623869488
 30
0.0
 10
0.5886905535095197
 20
0.2184040029857125
 30
0.0
 10
0.5802010091457069
 20
0.2101641511031876
 30
0.0
 10
0.5802010091457069
 20
0.1996770668890651
 30
0.0
 10
0.5802010091457069
 20
0.1876918277872107
 30
0.0
 10
0.5885657072688754
 20
0.1800762071079074
 30
0.0
 10
0.5969304053920447
 20
0.172460586428604
 30
0.0
 10
0.6131604166758063
 20
0.172460586428604
 30
0.0
 10
0.630139505403433
 20
0.172460586428604
 30
0.0
 10
0.6447465155588178
 20
0.1807004383111289
 30
0.0
 10
0.6593535257142035
 20
0.1889402901936538
 30
0.0
 10
0.6654709915057745
 20
0.2008006830548639
 30
0.0
 10
0.6715884572973463
 20
0.212661075916074
 30
0.0
 10
0.6715884572973463
 20
0.2316377044940101
 30
0.0
  0
SPLINE
  5
E3
330
1F
100
AcDbEntity
  8
Vinilo v2_Sketch1
100
AcDbSpline
210
0.0
220
0.0
230
1.0
 70
    24
 71
     2
 72
     6
 73
     3
 74
     0
 42
0.0000000001
 43
0.0000000001
 40
8.0
 40
8.0
 40
8.0
 40
9.0
 40
9.0
 40
9.0
 10
0.6715884572973463
 20
0.2316377044940101
 30
0.0
 10
0.6715884572973463
 20
0.2397527101358907
 30
0.0
 10
0.6715884572973463
 20
0.2478677157777713
 30
0.0
  0
LINE
  5
E4
330
1F
100
AcDbEntity
  8
Vinilo v2_Sketch1
100
AcDbLine
 10
0.9275232506181953
 20
0.3484937857370904
 30
0.0
 11
0.9275232506181953
 21
0.3871961203368285
 31
0.0
  0
LINE
  5
E5
330
1F
100
AcDbEntity
  8
Vinilo v2_Sketch1
100
AcDbLine
 10
0.9275232506181953
 20
0.3871961203368285
 30
0.0
 11
0.8326401077285147
 21
0.3871961203368285
 31
0.0
  0
LINE
  5
E6
330
1F
100
AcDbEntity
  8
Vinilo v2_Sketch1
100
AcDbLine
 10
0.8326401077285147
 20
0.3871961203368285
 30
0.0
 11
0.8326401077285147
 21
0.1220227052083002
 31
0.0
  0
LINE
  5
E7
330
1F
100
AcDbEntity
  8
Vinilo v2_Sketch1
100
AcDbLine
 10
0.8326401077285147
 20
0.1220227052083002
 30
0.0
 11
0.9345146400942765
 21
0.1220227052083002
 31
0.0
  0
LINE
  5
E8
330
1F
100
AcDbEntity
  8
Vinilo v2_Sketch1
100
AcDbLine
 10
0.9345146400942765
 20
0.1220227052083002
 30
0.0
 11
0.9345146400942765
 21
0.2573560300667393
 31
0.0
  0
SPLINE
  5
E9
330
1F
100
AcDbEntity
  8
Vinilo v2_Sketch1
100
AcDbSpline
210
0.0
220
0.0
230
1.0
 70
     8
 71
     2
 72
    14
 73
    11
 74
     0
 42
0.0000000001
 43
0.0000000001
 40
-51.0
 40
-51.0
 40
-51.0
 40
-50.0
 40
-50.0
 40
-49.0
 40
-49.0
 40
-48.0
 40
-48.0
 40
-47.0
 40
-47.0
 40
-46.0
 40
-46.0
 40
-46.0
 10
0.9345146400942765
 20
0.2573560300667393
 30
0.0
 10
0.9345146400942765
 20
0.287568820302664
 30
0.0
 10
0.9457898162024668
 20
0.3008025218109616
 30
0.0
 10
0.957064977070637
 20
0.3140362233192591
 30
0.0
 10
0.9746058891211833
 20
0.3140362233192591
 30
0.0
 10
0.9853777788217758
 20
0.3140362233192591
 30
0.0
 10
0.9933952483381532
 20
0.3079187575276876
 30
0.0
 10
1.00141271785453
 20
0.301801291736116
 30
0.0
 10
1.004670424446343
 20
0.2918135924845707
 30
0.0
 10
1.006675767186692
 20
0.2855712804523549
 30
0.0
 10
1.006675767186692
 20
0.2680928067621505
 30
0.0
  0
SPLINE
  5
EA
330
1F
100
AcDbEntity
  8
Vinilo v2_Sketch1
100
AcDbSpline
210
0.0
220
0.0
230
1.0
 70
    24
 71
     2
 72
     6
 73
     3
 74
     0
 42
0.0000000001
 43
0.0000000001
 40
-46.0
 40
-46.0
 40
-46.0
 40
-45.0
 40
-45.0
 40
-45.0
 10
1.006675767186692
 20
0.2680928067621505
 30
0.0
 10
1.006675767186692
 20
0.1950577559852253
 30
0.0
 10
1.006675767186692
 20
0.1220227052083002
 30
0.0
  0
SPLINE
  5
EB
330
1F
100
AcDbEntity
  8
Vinilo v2_Sketch1
100
AcDbSpline
210
0.0
220
0.0
230
1.0
 70
    24
 71
     2
 72
     6
 73
     3
 74
     0
 42
0.0000000001
 43
0.0000000001
 40
-45.0
 40
-45.0
 40
-45.0
 40
-44.0
 40
-44.0
 40
-44.0
 10
1.006675767186692
 20
0.1220227052083002
 30
0.0
 10
1.057613033369573
 20
0.1220227052083002
 30
0.0
 10
1.108550299552455
 20
0.1220227052083002
 30
0.0
  0
SPLINE
  5
EC
330
1F
100
AcDbEntity
  8
Vinilo v2_Sketch1
100
AcDbSpline
210
0.0
220
0.0
230
1.0
 70
    24
 71
     2
 72
     6
 73
     3
 74
     0
 42
0.0000000001
 43
0.0000000001
 40
-44.0
 40
-44.0
 40
-44.0
 40
-43.0
 40
-43.0
 40
-43.0
 10
1.108550299552455
 20
0.1220227052083002
 30
0.0
 10
1.108550299552455
 20
0.1904384450813856
 30
0.0
 10
1.108550299552455
 20
0.2588541849544711
 30
0.0
  0
SPLINE
  5
ED
330
1F
100
AcDbEntity
  8
Vinilo v2_Sketch1
100
AcDbSpline
210
0.0
220
0.0
230
1.0
 70
     8
 71
     2
 72
    10
 73
     7
 74
     0
 42
0.0000000001
 43
0.0000000001
 40
-43.0
 40
-43.0
 40
-43.0
 40
-42.0
 40
-42.0
 40
-41.0
 40
-41.0
 40
-40.0
 40
-40.0
 40
-40.0
 10
1.108550299552455
 20
0.2588541849544711
 30
0.0
 10
1.108550299552455
 20
0.287568820302664
 30
0.0
 10
1.119499705001463
 20
0.3005528293296729
 30
0.0
 10
1.130449110450472
 20
0.3135368383566818
 30
0.0
 10
1.148364545982931
 20
0.3135368383566818
 30
0.0
 10
1.163541136631216
 20
0.3135368383566818
 30
0.0
 10
1.173743445838908
 20
0.2998037518858069
 30
0.0
  0
SPLINE
  5
EE
330
1F
100
AcDbEntity
  8
Vinilo v2_Sketch1
100
AcDbSpline
210
0.0
220
0.0
230
1.0
 70
     8
 71
     2
 72
     6
 73
     3
 74
     0
 42
0.0000000001
 43
0.0000000001
 40
-40.0
 40
-40.0
 40
-40.0
 40
-39.0
 40
-39.0
 40
-39.0
 10
1.173743445838908
 20
0.2998037518858069
 30
0.0
 10
1.180711426644869
 20
0.2910645150407047
 30
0.0
 10
1.180711426644869
 20
0.2730866563879232
 30
0.0
  0
SPLINE
  5
EF
330
1F
100
AcDbEntity
  8
Vinilo v2_Sketch1
100
AcDbSpline
210
0.0
220
0.0
230
1.0
 70
    24
 71
     2
 72
     6
 73
     3
 74
     0
 42
0.0000000001
 43
0.0000000001
 40
-39.0
 40
-39.0
 40
-39.0
 40
-38.0
 40
-38.0
 40
-38.0
 10
1.180711426644869
 20
0.2730866563879232
 30
0.0
 10
1.180711426644869
 20
0.1975546807981117
 30
0.0
 10
1.180711426644869
 20
0.1220227052083002
 30
0.0
  0
SPLINE
  5
F0
330
1F
100
AcDbEntity
  8
Vinilo v2_Sketch1
100
AcDbSpline
210
0.0
220
0.0
230
1.0
 70
    24
 71
     2
 72
     6
 73
     3
 74
     0
 42
0.0000000001
 43
0.0000000001
 40
-38.0
 40
-38.0
 40
-38.0
 40
-37.0
 40
-37.0
 40
-37.0
 10
1.180711426644869
 20
0.1220227052083002
 30
0.0
 10
1.231648692827751
 20
0.1220227052083002
 30
0.0
 10
1.282585959010632
 20
0.1220227052083002
 30
0.0
  0
SPLINE
  5
F1
330
1F
100
AcDbEntity
  8
Vinilo v2_Sketch1
100
AcDbSpline
210
0.0
220
0.0
230
1.0
 70
    24
 71
     2
 72
     6
 73
     3
 74
     0
 42
0.0000000001
 43
0.0000000001
 40
-37.0
 40
-37.0
 40
-37.0
 40
-36.0
 40
-36.0
 40
-36.0
 10
1.282585959010632
 20
0.1220227052083002
 30
0.0
 10
1.282585959010632
 20
0.2052951477180593
 30
0.0
 10
1.282585959010632
 20
0.2885675902278184
 30
0.0
  0
SPLINE
  5
F2
330
1F
100
AcDbEntity
  8
Vinilo v2_Sketch1
100
AcDbSpline
210
0.0
220
0.0
230
1.0
 70
     8
 71
     2
 72
    12
 73
     9
 74
     0
 42
0.0000000001
 43
0.0000000001
 40
-36.0
 40
-36.0
 40
-36.0
 40
-35.0
 40
-35.0
 40
-34.0
 40
-34.0
 40
-33.0
 40
-33.0
 40
-32.0
 40
-32.0
 40
-32.0
 10
1.282585959010632
 20
0.2885675902278184
 30
0.0
 10
1.282585959010632
 20
0.3425011661861632
 30
0.0
 10
1.258648643089594
 20
0.3678449530369595
 30
0.0
 10
1.234711327168557
 20
0.3931887398877557
 30
0.0
 10
1.192072434543503
 20
0.3931887398877557
 30
0.0
 10
1.163147121164222
 20
0.3931887398877557
 30
0.0
 10
1.143448725257561
 20
0.3838252718394319
 30
0.0
 10
1.1237503293509
 20
0.3744618037911083
 30
0.0
 10
1.099811062707352
 20
0.3484937857370904
 30
0.0
  0
SPLINE
  5
F3
330
1F
100
AcDbEntity
  8
Vinilo v2_Sketch1
100
AcDbSpline
210
0.0
220
0.0
230
1.0
 70
     8
 71
     2
 72
    12
 73
     9
 74
     0
 42
0.0000000001
 43
0.0000000001
 40
-32.0
 40
-32.0
 40
-32.0
 40
-31.0
 40
-31.0
 40
-30.0
 40
-30.0
 40
-29.0
 40
-29.0
 40
-28.0
 40
-28.0
 40
-28.0
 10
1.099811062707352
 20
0.3484937857370904
 30
0.0
 10
1.088059910306706
 20
0.3707164165717787
 30
0.0
 10
1.069555356576207
 20
0.3819525782297672
 30
0.0
 10
1.051050802845706
 20
0.3931887398877557
 30
0.0
 10
1.019293040381808
 20
0.3931887398877557
 30
0.0
 10
0.9897864116945284
 20
0.3931887398877557
 30
0.0
 10
0.9689078286692759
 20
0.3829513481549217
 30
0.0
 10
0.9480292456440244
 20
0.3727139564220878
 30
0.0
 10
0.9275232506181953
 20
0.3484937857370904
 30
0.0
  0
LINE
  5
F4
330
1F
100
AcDbEntity
  8
Vinilo v2_Sketch1
100
AcDbLine
 10
1.438893452297316
 20
0.3479944007745132
 30
0.0
 11
1.438893452297316
 21
0.3871961203368285
 31
0.0
  0
LINE
  5
F5
330
1F
100
AcDbEntity
  8
Vinilo v2_Sketch1
100
AcDbLine
 10
1.438893452297316
 20
0.3871961203368285
 30
0.0
 11
1.343760616926347
 21
0.3871961203368285
 31
0.0
  0
LINE
  5
F6
330
1F
100
AcDbEntity
  8
Vinilo v2_Sketch1
100
AcDbLine
 10
1.343760616926347
 20
0.3871961203368285
 30
0.0
 11
1.343760616926347
 21
0.0211469427676924
 31
0.0
  0
LINE
  5
F7
330
1F
100
AcDbEntity
  8
Vinilo v2_Sketch1
100
AcDbLine
 10
1.343760616926347
 20
0.0211469427676924
 30
0.0
 11
1.446384226735976
 21
0.0211469427676924
 31
0.0
  0
LINE
  5
F8
330
1F
100
AcDbEntity
  8
Vinilo v2_Sketch1
100
AcDbLine
 10
1.446384226735976
 20
0.0211469427676924
 30
0.0
 11
1.446384226735976
 21
0.1477410307810294
 31
0.0
  0
SPLINE
  5
F9
330
1F
100
AcDbEntity
  8
Vinilo v2_Sketch1
100
AcDbSpline
210
0.0
220
0.0
230
1.0
 70
     8
 71
     2
 72
    20
 73
    17
 74
     0
 42
0.0000000001
 43
0.0000000001
 40
-13.0
 40
-13.0
 40
-13.0
 40
-12.0
 40
-12.0
 40
-11.0
 40
-11.0
 40
-10.0
 40
-10.0
 40
-9.0
 40
-9.0
 40
-8.0
 40
-8.0
 40
-7.0
 40
-7.0
 40
-6.0
 40
-6.0
 40
-5.0
 40
-5.0
 40
-5.0
 10
1.446384226735976
 20
0.1477410307810294
 30
0.0
 10
1.461615468094582
 20
0.1320104044598455
 30
0.0
 10
1.480966635394451
 20
0.1240202450586092
 30
0.0
 10
1.500317802694321
 20
0.116030085657373
 30
0.0
 10
1.523788895935452
 20
0.116030085657373
 30
0.0
 10
1.572229237305446
 20
0.116030085657373
 30
0.0
 10
1.603940182429103
 20
0.1508621867971373
 30
0.0
 10
1.63565112755276
 20
0.1856942879369016
 30
0.0
 10
1.63565112755276
 20
0.2518627954783894
 30
0.0
 10
1.63565112755276
 20
0.3117889909876613
 30
0.0
 10
1.606561953482634
 20
0.3524888654377085
 30
0.0
 10
1.577472779412508
 20
0.3931887398877557
 30
0.0
 10
1.524288280898029
 20
0.3931887398877557
 30
0.0
 10
1.497321492918857
 20
0.3931887398877557
 30
0.0
 10
1.475098862084168
 20
0.38145319326719
 30
0.0
 10
1.458619158319118
 20
0.3727139564220878
 30
0.0
 10
1.438893452297316
 20
0.3479944007745132
 30
0.0
  0
SPLINE
  5
FA
330
1F
100
AcDbEntity
  8
Vinilo v2_Sketch1
100
AcDbSpline
210
0.0
220
0.0
230
1.0
 70
    11
 71
     2
 72
    20
 73
    17
 74
     0
 42
0.0000000001
 43
0.0000000001
 40
0.0
 40
0.0
 40
0.0
 40
1.0
 40
1.0
 40
2.0
 40
2.0
 40
3.0
 40
3.0
 40
4.0
 40
4.0
 40
5.0
 40
5.0
 40
6.0
 40
6.0
 40
7.0
 40
7.0
 40
8.0
 40
8.0
 40
8.0
 10
1.44563514929211
 20
0.2538603353286984
 30
0.0
 10
1.44563514929211
 20
0.2223990826863307
 30
0.0
 10
1.458868850800407
 20
0.2071678413277241
 30
0.0
 10
1.472102552308705
 20
0.1919365999691174
 30
0.0
 10
1.492327643293084
 20
0.1919365999691174
 30
0.0
 10
1.510055809464577
 20
0.1919365999691174
 30
0.0
 10
1.522041048566431
 20
0.2065436101245025
 30
0.0
 10
1.534026287668286
 20
0.2211506202798875
 30
0.0
 10
1.534026287668286
 20
0.2561075676602961
 30
0.0
 10
1.534026287668286
 20
0.2883178977465298
 30
0.0
 10
1.521541663603854
 20
0.3034242928644921
 30
0.0
 10
1.509057039539422
 20
0.3185306879824544
 30
0.0
 10
1.491079180886641
 20
0.3185306879824544
 30
0.0
 10
1.471603167346127
 20
0.3185306879824544
 30
0.0
 10
1.458619158319118
 20
0.3032994466238478
 30
0.0
 10
1.44563514929211
 20
0.2880682052652412
 30
0.0
 10
1.44563514929211
 20
0.2538603353286984
 30
0.0
  0
SPLINE
  5
FB
330
1F
100
AcDbEntity
  8
Vinilo v2_Sketch1
100
AcDbSpline
210
0.0
220
0.0
230
1.0
 70
    11
 71
     2
 72
    20
 73
    17
 74
     0
 42
0.0000000001
 43
0.0000000001
 40
-8.0
 40
-8.0
 40
-8.0
 40
-7.0
 40
-7.0
 40
-6.0
 40
-6.0
 40
-5.0
 40
-5.0
 40
-4.0
 40
-4.0
 40
-3.0
 40
-3.0
 40
-2.0
 40
-2.0
 40
-1.0
 40
-1.0
 40
0.0
 40
0.0
 40
0.0
 10
1.671856537339611
 20
0.2538603353286984
 30
0.0
 10
1.671856537339611
 20
0.1886905977123652
 30
0.0
 10
1.720296878709606
 20
0.1484901082248953
 30
0.0
 10
1.75974829075321
 20
0.116030085657373
 30
0.0
 10
1.8236695659631
 20
0.116030085657373
 30
0.0
 10
1.895331308092938
 20
0.116030085657373
 30
0.0
 10
1.935906336302341
 20
0.1551069589790441
 30
0.0
 10
1.976481364511744
 20
0.1941838323007151
 30
0.0
 10
1.976481364511744
 20
0.2553584902164303
 30
0.0
 10
1.976481364511744
 20
0.3097914511373523
 30
0.0
 10
1.943771649462933
 20
0.3469956308493586
 30
0.0
 10
1.903071775012886
 20
0.3931887398877557
 30
0.0
 10
1.823419873481811
 20
0.3931887398877557
 30
0.0
 10
1.753755671202283
 20
0.3931887398877557
 30
0.0
 10
1.712806104270947
 20
0.353862174084796
 30
0.0
 10
1.671856537339611
 20
0.3145356082818362
 30
0.0
 10
1.671856537339611
 20
0.2538603353286984
 30
0.0
  0
SPLINE
  5
FC
330
1F
100
AcDbEntity
  8
Vinilo v2_Sketch1
100
AcDbSpline
210
0.0
220
0.0
230
1.0
 70
    11
 71
     2
 72
    20
 73
    17
 74
     0
 42
0.0000000001
 43
0.0000000001
 40
0.0
 40
0.0
 40
0.0
 40
1.0
 40
1.0
 40
2.0
 40
2.0
 40
3.0
 40
3.0
 40
4.0
 40
4.0
 40
5.0
 40
5.0
 40
6.0
 40
6.0
 40
7.0
 40
7.0
 40
8.0
 40
8.0
 40
8.0
 10
1.773731069705374
 20
0.254110027809987
 30
0.0
 10
1.773731069705374
 20
0.2186536954670012
 30
0.0
 10
1.78808838737947
 20
0.2016746067393741
 30
0.0
 10
1.802445705053567
 20
0.1846955180117471
 30
0.0
 10
1.824168950925677
 20
0.1846955180117471
 30
0.0
 10
1.846141889279077
 20
0.1846955180117471
 30
0.0
 10
1.860249514471885
 20
0.2014249142580855
 30
0.0
 10
1.874357139664693
 20
0.2181543105044239
 30
0.0
 10
1.874357139664693
 20
0.2551087977351416
 30
0.0
 10
1.874357139664693
 20
0.289566360152973
 30
0.0
 10
1.860124668231241
 20
0.3064206026399557
 30
0.0
 10
1.845892196797788
 20
0.3232748451269385
 30
0.0
 10
1.824918028369544
 20
0.3232748451269385
 30
0.0
 10
1.802695397534855
 20
0.3232748451269385
 30
0.0
 10
1.788213233620114
 20
0.3061709101586672
 30
0.0
 10
1.773731069705374
 20
0.2890669751903957
 30
0.0
 10
1.773731069705374
 20
0.254110027809987
 30
0.0
  0
SPLINE
  5
FD
330
1F
100
AcDbEntity
  8
Vinilo v2_Sketch1
100
AcDbSpline
210
0.0
220
0.0
230
1.0
 70
     8
 71
     2
 72
    32
 73
    29
 74
     0
 42
0.0000000001
 43
0.0000000001
 40
-45.0
 40
-45.0
 40
-45.0
 40
-44.0
 40
-44.0
 40
-43.0
 40
-43.0
 40
-42.0
 40
-42.0
 40
-41.0
 40
-41.0
 40
-40.0
 40
-40.0
 40
-39.0
 40
-39.0
 40
-38.0
 40
-38.0
 40
-37.0
 40
-37.0
 40
-36.0
 40
-36.0
 40
-35.0
 40
-35.0
 40
-34.0
 40
-34.0
 40
-33.0
 40
-33.0
 40
-32.0
 40
-32.0
 40
-31.0
 40
-31.0
 40
-31.0
 10
2.007443232191535
 20
0.1956819871884469
 30
0.0
 10
2.016182469036636
 20
0.1574790375512861
 30
0.0
 10
2.047019490475783
 20
0.1367545616043295
 30
0.0
 10
2.077856511914928
 20
0.116030085657373
 30
0.0
 10
2.150517023969921
 20
0.116030085657373
 30
0.0
 10
2.201953675115379
 20
0.116030085657373
 30
0.0
 10
2.231791926629371
 20
0.1288755933861671
 30
0.0
 10
2.261630178143363
 20
0.1417210992099588
 30
0.0
 10
2.275488110854882
 20
0.1634228890394616
 30
0.0
 10
2.289346043566401
 20
0.185124673153957
 30
0.0
 10
2.289346043566401
 20
0.2080729765723953
 30
0.0
 10
2.289346043566401
 20
0.2307715836995402
 30
0.0
 10
2.276237188298748
 20
0.2497287050523756
 30
0.0
 10
2.263128333031095
 20
0.268685826405211
 30
0.0
 10
2.23840877738352
 20
0.2789134645254947
 30
0.0
 10
2.213689221735945
 20
0.2891411026457783
 30
0.0
 10
2.163001648034352
 20
0.2948762268253766
 30
0.0
 10
2.129542855541676
 20
0.2988674050809745
 30
0.0
 10
2.119555156290131
 20
0.303853451816707
 30
0.0
 10
2.109567457038585
 20
0.3088394985524394
 30
0.0
 10
2.109567457038585
 20
0.3185618995426155
 30
0.0
 10
2.109567457038585
 20
0.3272894320526573
 30
0.0
 10
2.117432770199177
 20
0.3333971442316784
 30
0.0
 10
2.125298083359769
 20
0.3395048564106996
 30
0.0
 10
2.142526864568685
 20
0.3395048564106996
 30
0.0
 10
2.159505953296311
 20
0.3395048564106996
 30
0.0
 10
2.171491192398166
 20
0.3315146970094633
 30
0.0
 10
2.180230429243268
 20
0.3255220774585361
 30
0.0
 10
2.183975816462598
 20
0.3127877609128159
 30
0.0
  0
SPLINE
  5
FE
330
1F
100
AcDbEntity
  8
Vinilo v2_Sketch1
100
AcDbSpline
210
0.0
220
0.0
230
1.0
 70
    24
 71
     2
 72
     6
 73
     3
 74
     0
 42
0.0000000001
 43
0.0000000001
 40
-31.0
 40
-31.0
 40
-31.0
 40
-30.0
 40
-30.0
 40
-30.0
 10
2.183975816462598
 20
0.3127877609128159
 30
0.0
 10
2.232166465351304
 20
0.3175319180572999
 30
0.0
 10
2.28035711424001
 20
0.3222760752017839
 30
0.0
  0
SPLINE
  5
FF
330
1F
100
AcDbEntity
  8
Vinilo v2_Sketch1
100
AcDbSpline
210
0.0
220
0.0
230
1.0
 70
     8
 71
     2
 72
    28
 73
    25
 74
     0
 42
0.0000000001
 43
0.0000000001
 40
-30.0
 40
-30.0
 40
-30.0
 40
-29.0
 40
-29.0
 40
-28.0
 40
-28.0
 40
-27.0
 40
-27.0
 40
-26.0
 40
-26.0
 40
-25.0
 40
-25.0
 40
-24.0
 40
-24.0
 40
-23.0
 40
-23.0
 40
-22.0
 40
-22.0
 40
-21.0
 40
-21.0
 40
-20.0
 40
-20.0
 40
-19.0
 40
-19.0
 40
-18.0
 40
-18.0
 40
-18.0
 10
2.28035711424001
 20
0.3222760752017839
 30
0.0
 10
2.270369384508426
 20
0.3482440627757626
 30
0.0
 10
2.255263019870502
 20
0.3634753346144084
 30
0.0
 10
2.240156624752541
 20
0.378706575973015
 30
0.0
 10
2.217559455195919
 20
0.3859476579303853
 30
0.0
 10
2.194962285639297
 20
0.3931887398877557
 30
0.0
 10
2.147520714194457
 20
0.3931887398877557
 30
0.0
 10
2.102576067562503
 20
0.3931887398877557
 30
0.0
 10
2.07585897206462
 20
0.3838350254519823
 30
0.0
 10
2.049141876566736
 20
0.3744812957761894
 30
0.0
 10
2.03391063520813
 20
0.3555241896633735
 30
0.0
 10
2.018679393849523
 20
0.3365670683105381
 30
0.0
 10
2.018679393849523
 20
0.3103727664453524
 30
0.0
 10
2.018679393849523
 20
0.2864256969117644
 30
0.0
 10
2.032787019042331
 20
0.2677182680402176
 30
0.0
 10
2.046894644235138
 20
0.249010831548661
 30
0.0
 10
2.06749427394145
 20
0.2411533288981191
 30
0.0
 10
2.088093903647763
 20
0.2332958033875478
 30
0.0
 10
2.141028709680953
 20
0.2240689011549484
 30
0.0
 10
2.176485042023939
 20
0.2178343920127728
 30
0.0
 10
2.184724893906464
 20
0.2135974227209063
 30
0.0
 10
2.196210748045741
 20
0.2076125984400096
 30
0.0
 10
2.196210748045741
 20
0.1966417426634001
 30
0.0
 10
2.196210748045741
 20
0.1869193416732239
 30
0.0
 10
2.187471511200639
 20
0.1804390414947799
 30
0.0
  0
SPLINE
  5
100
330
1F
100
AcDbEntity
  8
Vinilo v2_Sketch1
100
AcDbSpline
210
0.0
220
0.0
230
1.0
 70
     8
 71
     2
 72
    10
 73
     7
 74
     0
 42
0.0000000001
 43
0.0000000001
 40
-18.0
 40
-18.0
 40
-18.0
 40
-17.0
 40
-17.0
 40
-16.0
 40
-16.0
 40
-15.0
 40
-15.0
 40
-15.0
 10
2.187471511200639
 20
0.1804390414947799
 30
0.0
 10
2.17623534954265
 20
0.1717115089847381
 30
0.0
 10
2.155760566076982
 20
0.1717115089847381
 30
0.0
 10
2.137033629980335
 20
0.1717115089847381
 30
0.0
 10
2.125797468322346
 20
0.1794519759046858
 30
0.0
 10
2.114561306664358
 20
0.1871924428246334
 30
0.0
 10
2.108318994632142
 20
0.205170301477415
 30
0.0
  0
SPLINE
  5
101
330
1F
100
AcDbEntity
  8
Vinilo v2_Sketch1
100
AcDbSpline
210
0.0
220
0.0
230
1.0
 70
    24
 71
     2
 72
     6
 73
     3
 74
     0
 42
0.0000000001
 43
0.0000000001
 40
-15.0
 40
-15.0
 40
-15.0
 40
-14.0
 40
-14.0
 40
-14.0
 10
2.108318994632142
 20
0.205170301477415
 30
0.0
 10
2.057881113411838
 20
0.2004261443329309
 30
0.0
 10
2.007443232191535
 20
0.1956819871884469
 30
0.0
  0
LINE
  5
102
330
1F
100
AcDbEntity
  8
Vinilo v2_Sketch1
100
AcDbLine
 10
2.705084024911975
 20
0.4880718827774363
 30
0.0
 11
2.516566201539057
 21
0.4880718827774363
 31
0.0
  0
LINE
  5
103
330
1F
100
AcDbEntity
  8
Vinilo v2_Sketch1
100
AcDbLine
 10
2.516566201539057
 20
0.4880718827774363
 30
0.0
 11
2.516566201539057
 21
0.1220227052083002
 31
0.0
  0
LINE
  5
104
330
1F
100
AcDbEntity
  8
Vinilo v2_Sketch1
100
AcDbLine
 10
2.516566201539057
 20
0.1220227052083002
 30
0.0
 11
2.630176280525385
 21
0.1220227052083002
 31
0.0
  0
LINE
  5
105
330
1F
100
AcDbEntity
  8
Vinilo v2_Sketch1
100
AcDbLine
 10
2.630176280525385
 20
0.1220227052083002
 30
0.0
 11
2.630176280525385
 21
0.2705897315750369
 31
0.0
  0
LINE
  5
106
330
1F
100
AcDbEntity
  8
Vinilo v2_Sketch1
100
AcDbLine
 10
2.630176280525385
 20
0.2705897315750369
 30
0.0
 11
2.64016397977693
 21
0.2705897315750369
 31
0.0
  0
SPLINE
  5
107
330
1F
100
AcDbEntity
  8
Vinilo v2_Sketch1
100
AcDbSpline
210
0.0
220
0.0
230
1.0
 70
     8
 71
     2
 72
     6
 73
     3
 74
     0
 42
0.0000000001
 43
0.0000000001
 40
-16.0
 40
-16.0
 40
-16.0
 40
-15.0
 40
-15.0
 40
-15.0
 10
2.64016397977693
 20
0.2705897315750369
 30
0.0
 10
2.655644913616825
 20
0.2705897315750369
 30
0.0
 10
2.667879845199969
 20
0.2621001872112234
 30
0.0
  0
SPLINE
  5
108
330
1F
100
AcDbEntity
  8
Vinilo v2_Sketch1
100
AcDbSpline
210
0.0
220
0.0
230
1.0
 70
     8
 71
     2
 72
     6
 73
     3
 74
     0
 42
0.0000000001
 43
0.0000000001
 40
-15.0
 40
-15.0
 40
-15.0
 40
-14.0
 40
-14.0
 40
-14.0
 10
2.667879845199969
 20
0.2621001872112234
 30
0.0
 10
2.67686877452636
 20
0.2556081826977189
 30
0.0
 10
2.688354628665637
 20
0.2338849368256078
 30
0.0
  0
SPLINE
  5
109
330
1F
100
AcDbEntity
  8
Vinilo v2_Sketch1
100
AcDbSpline
210
0.0
220
0.0
230
1.0
 70
    24
 71
     2
 72
     6
 73
     3
 74
     0
 42
0.0000000001
 43
0.0000000001
 40
-14.0
 40
-14.0
 40
-14.0
 40
-13.0
 40
-13.0
 40
-13.0
 10
2.688354628665637
 20
0.2338849368256078
 30
0.0
 10
2.718584975404152
 20
0.177953821016954
 30
0.0
 10
2.748815322142668
 20
0.1220227052083002
 30
0.0
  0
SPLINE
  5
10A
330
1F
100
AcDbEntity
  8
Vinilo v2_Sketch1
100
AcDbSpline
210
0.0
220
0.0
230
1.0
 70
    24
 71
     2
 72
     6
 73
     3
 74
     0
 42
0.0000000001
 43
0.0000000001
 40
-13.0
 40
-13.0
 40
-13.0
 40
-12.0
 40
-12.0
 40
-12.0
 10
2.748815322142668
 20
0.1220227052083002
 30
0.0
 10
2.812719040849967
 20
0.1220227052083002
 30
0.0
 10
2.876622759557266
 20
0.1220227052083002
 30
0.0
  0
SPLINE
  5
10B
330
1F
100
AcDbEntity
  8
Vinilo v2_Sketch1
100
AcDbSpline
210
0.0
220
0.0
230
1.0
 70
    24
 71
     2
 72
     6
 73
     3
 74
     0
 42
0.0000000001
 43
0.0000000001
 40
-12.0
 40
-12.0
 40
-12.0
 40
-11.0
 40
-11.0
 40
-11.0
 10
2.876622759557266
 20
0.1220227052083002
 30
0.0
 10
2.849234615515919
 20
0.1750569980895038
 30
0.0
 10
2.821846471474572
 20
0.2280912909707075
 30
0.0
  0
SPLINE
  5
10C
330
1F
100
AcDbEntity
  8
Vinilo v2_Sketch1
100
AcDbSpline
210
0.0
220
0.0
230
1.0
 70
     8
 71
     2
 72
    10
 73
     7
 74
     0
 42
0.0000000001
 43
0.0000000001
 40
-11.0
 40
-11.0
 40
-11.0
 40
-10.0
 40
-10.0
 40
-9.0
 40
-9.0
 40
-8.0
 40
-8.0
 40
-8.0
 10
2.821846471474572
 20
0.2280912909707075
 30
0.0
 10
2.817855293218974
 20
0.2360892456419742
 30
0.0
 10
2.806002703247805
 20
0.2508347647155839
 30
0.0
 10
2.794150113276634
 20
0.2655802609291641
 30
0.0
 10
2.787911702689438
 20
0.2700786422773992
 30
0.0
 10
2.77867698232678
 20
0.2768242254771928
 30
0.0
 10
2.758467497122481
 20
0.2835737406020458
 30
0.0
  0
SPLINE
  5
10D
330
1F
100
AcDbEntity
  8
Vinilo v2_Sketch1
100
AcDbSpline
210
0.0
220
0.0
230
1.0
 70
     8
 71
     2
 72
    16
 73
    13
 74
     0
 42
0.0000000001
 43
0.0000000001
 40
-8.0
 40
-8.0
 40
-8.0
 40
-7.0
 40
-7.0
 40
-6.0
 40
-6.0
 40
-5.0
 40
-5.0
 40
-4.0
 40
-4.0
 40
-3.0
 40
-3.0
 40
-2.0
 40
-2.0
 40
-2.0
 10
2.758467497122481
 20
0.2835737406020458
 30
0.0
 10
2.783702043512713
 20
0.2893166676716843
 30
0.0
 10
2.798192010317494
 20
0.2980559045167864
 30
0.0
 10
2.82092573044982
 20
0.3117889909876613
 30
0.0
 10
2.833917542366869
 20
0.3338867755817053
 30
0.0
 10
2.846909354283919
 20
0.3559845601757494
 30
0.0
 10
2.846909354283919
 20
0.3864470428929626
 30
0.0
 10
2.846909354283919
 20
0.4214039902733713
 30
0.0
 10
2.829930265556291
 20
0.445749007199013
 30
0.0
 10
2.812951176828665
 20
0.4700940241246547
 30
0.0
 10
2.785235311405626
 20
0.4790829534510455
 30
0.0
 10
2.757519445982588
 20
0.4880718827774363
 30
0.0
 10
2.705084024911975
 20
0.4880718827774363
 30
0.0
  0
SPLINE
  5
10E
330
1F
100
AcDbEntity
  8
Vinilo v2_Sketch1
100
AcDbSpline
210
0.0
220
0.0
230
1.0
 70
     8
 71
     2
 72
     6
 73
     3
 74
     0
 42
0.0000000001
 43
0.0000000001
 40
1.0
 40
1.0
 40
1.0
 40
2.0
 40
2.0
 40
2.0
 10
2.677867544451514
 20
0.3397545488919882
 30
0.0
 10
2.685608011371461
 20
0.3397545488919882
 30
0.0
 10
2.70783064220615
 20
0.344748398517761
 30
0.0
  0
SPLINE
  5
10F
330
1F
100
AcDbEntity
  8
Vinilo v2_Sketch1
100
AcDbSpline
210
0.0
220
0.0
230
1.0
 70
     8
 71
     2
 72
    12
 73
     9
 74
     0
 42
0.0000000001
 43
0.0000000001
 40
2.0
 40
2.0
 40
2.0
 40
3.0
 40
3.0
 40
4.0
 40
4.0
 40
5.0
 40
5.0
 40
6.0
 40
6.0
 40
6.0
 10
2.70783064220615
 20
0.344748398517761
 30
0.0
 10
2.719066803864139
 20
0.3469956308493586
 30
0.0
 10
2.726183039580865
 20
0.356234252657038
 30
0.0
 10
2.73329927529759
 20
0.3654728744647174
 30
0.0
 10
2.73329927529759
 20
0.3774581135665719
 30
0.0
 10
2.73329927529759
 20
0.3951862797380647
 30
0.0
 10
2.722063113639602
 20
0.4046745940270329
 30
0.0
 10
2.710826951981614
 20
0.414162908316001
 30
0.0
 10
2.679865084301823
 20
0.414162908316001
 30
0.0
  0
LINE
  5
110
330
1F
100
AcDbEntity
  8
Vinilo v2_Sketch1
100
AcDbLine
 10
2.679865084301823
 20
0.414162908316001
 30
0.0
 11
2.630176280525385
 21
0.414162908316001
 31
0.0
  0
LINE
  5
111
330
1F
100
AcDbEntity
  8
Vinilo v2_Sketch1
100
AcDbLine
 10
2.630176280525385
 20
0.414162908316001
 30
0.0
 11
2.630176280525385
 21
0.3397545488919882
 31
0.0
  0
LINE
  5
112
330
1F
100
AcDbEntity
  8
Vinilo v2_Sketch1
100
AcDbLine
 10
2.630176280525385
 20
0.3397545488919882
 30
0.0
 11
2.677867544451514
 21
0.3397545488919882
 31
0.0
  0
SPLINE
  5
113
330
1F
100
AcDbEntity
  8
Vinilo v2_Sketch1
100
AcDbSpline
210
0.0
220
0.0
230
1.0
 70
     8
 71
     2
 72
    12
 73
     9
 74
     0
 42
0.0000000001
 43
0.0000000001
 40
-41.0
 40
-41.0
 40
-41.0
 40
-40.0
 40
-40.0
 40
-39.0
 40
-39.0
 40
-38.0
 40
-38.0
 40
-37.0
 40
-37.0
 40
-37.0
 10
2.998722382907408
 20
0.3013019067735387
 30
0.0
 10
3.004715002458334
 20
0.3185306879824544
 30
0.0
 10
3.014453009228592
 20
0.3247730000146702
 30
0.0
 10
3.026937633293023
 20
0.3327631594159065
 30
0.0
 10
3.051906881421886
 20
0.3327631594159065
 30
0.0
 10
3.0713828949624
 20
0.3327631594159065
 30
0.0
 10
3.079123361882347
 20
0.3252723849772475
 30
0.0
 10
3.086863828802295
 20
0.3177816105385886
 30
0.0
 10
3.086863828802295
 20
0.299054674441941
 30
0.0
  0
SPLINE
  5
114
330
1F
100
AcDbEntity
  8
Vinilo v2_Sketch1
100
AcDbSpline
210
0.0
220
0.0
230
1.0
 70
     8
 71
     2
 72
    20
 73
    17
 74
     0
 42
0.0000000001
 43
0.0000000001
 40
-37.0
 40
-37.0
 40
-37.0
 40
-36.0
 40
-36.0
 40
-35.0
 40
-35.0
 40
-34.0
 40
-34.0
 40
-33.0
 40
-33.0
 40
-32.0
 40
-32.0
 40
-31.0
 40
-31.0
 40
-30.0
 40
-30.0
 40
-29.0
 40
-29.0
 40
-29.0
 10
3.086863828802295
 20
0.299054674441941
 30
0.0
 10
3.06788716974432
 20
0.291563900003282
 30
0.0
 10
3.050908111496731
 20
0.2869445890994423
 30
0.0
 10
3.033929022769104
 20
0.2823252781956026
 30
0.0
 10
2.976749444554007
 20
0.2708394240563255
 30
0.0
 10
2.929058180627879
 20
0.2613511097673574
 30
0.0
 10
2.911330014456385
 20
0.241875096226844
 30
0.0
 10
2.893601848284893
 20
0.2223990826863307
 30
0.0
 10
2.893601848284893
 20
0.1921862924504061
 30
0.0
 10
2.893601848284893
 20
0.1599759623641724
 30
0.0
 10
2.918196557691823
 20
0.1380030240107727
 30
0.0
 10
2.942791267098753
 20
0.116030085657373
 30
0.0
 10
2.990232838543594
 20
0.116030085657373
 30
0.0
 10
3.025938863367869
 20
0.116030085657373
 30
0.0
 10
3.052905651347041
 20
0.1270165548340728
 30
0.0
 10
3.072631357368843
 20
0.1352564067165977
 30
0.0
 10
3.092606755871933
 20
0.1544827277758224
 30
0.0
  0
SPLINE
  5
115
330
1F
100
AcDbEntity
  8
Vinilo v2_Sketch1
100
AcDbSpline
210
0.0
220
0.0
230
1.0
 70
     8
 71
     2
 72
     8
 73
     5
 74
     0
 42
0.0000000001
 43
0.0000000001
 40
-29.0
 40
-29.0
 40
-29.0
 40
-28.0
 40
-28.0
 40
-27.0
 40
-27.0
 40
-27.0
 10
3.092606755871933
 20
0.1544827277758224
 30
0.0
 10
3.094354603240954
 20
0.1429968736365454
 30
0.0
 10
3.096102450609975
 20
0.1376284852888398
 30
0.0
 10
3.097850297978995
 20
0.1322600969411341
 30
0.0
 10
3.103593225048634
 20
0.1220227052083002
 30
0.0
  0
SPLINE
  5
116
330
1F
100
AcDbEntity
  8
Vinilo v2_Sketch1
100
AcDbSpline
210
0.0
220
0.0
230
1.0
 70
    24
 71
     2
 72
     6
 73
     3
 74
     0
 42
0.0000000001
 43
0.0000000001
 40
-27.0
 40
-27.0
 40
-27.0
 40
-26.0
 40
-26.0
 40
-26.0
 10
3.103593225048634
 20
0.1220227052083002
 30
0.0
 10
3.151284488974762
 20
0.1220227052083002
 30
0.0
 10
3.198975752900891
 20
0.1220227052083002
 30
0.0
  0
SPLINE
  5
117
330
1F
100
AcDbEntity
  8
Vinilo v2_Sketch1
100
AcDbSpline
210
0.0
220
0.0
230
1.0
 70
     8
 71
     2
 72
     8
 73
     5
 74
     0
 42
0.0000000001
 43
0.0000000001
 40
-26.0
 40
-26.0
 40
-26.0
 40
-25.0
 40
-25.0
 40
-24.0
 40
-24.0
 40
-24.0
 10
3.198975752900891
 20
0.1220227052083002
 30
0.0
 10
3.190985593499655
 20
0.13850240897335
 30
0.0
 10
3.188613514927413
 20
0.1491143394281169
 30
0.0
 10
3.186241436355171
 20
0.1597262698828837
 30
0.0
 10
3.186241436355171
 20
0.1784532059795312
 30
0.0
  0
SPLINE
  5
118
330
1F
100
AcDbEntity
  8
Vinilo v2_Sketch1
100
AcDbSpline
210
0.0
220
0.0
230
1.0
 70
    24
 71
     2
 72
     6
 73
     3
 74
     0
 42
0.0000000001
 43
0.0000000001
 40
-24.0
 40
-24.0
 40
-24.0
 40
-23.0
 40
-23.0
 40
-23.0
 10
3.186241436355171
 20
0.1784532059795312
 30
0.0
 10
3.186241436355171
 20
0.2370060928417157
 30
0.0
 10
3.186241436355171
 20
0.2955589797039002
 30
0.0
  0
SPLINE
  5
119
330
1F
100
AcDbEntity
  8
Vinilo v2_Sketch1
100
AcDbSpline
210
0.0
220
0.0
230
1.0
 70
     8
 71
     2
 72
    20
 73
    17
 74
     0
 42
0.0000000001
 43
0.0000000001
 40
-23.0
 40
-23.0
 40
-23.0
 40
-22.0
 40
-22.0
 40
-21.0
 40
-21.0
 40
-20.0
 40
-20.0
 40
-19.0
 40
-19.0
 40
-18.0
 40
-18.0
 40
-17.0
 40
-17.0
 40
-16.0
 40
-16.0
 40
-15.0
 40
-15.0
 40
-15.0
 10
3.186241436355171
 20
0.2955589797039002
 30
0.0
 10
3.186241436355171
 20
0.3142859158005477
 30
0.0
 10
3.178750661916512
 20
0.3348855455068599
 30
0.0
 10
3.171259887477853
 20
0.3554851752131721
 30
0.0
 10
3.158275878450844
 20
0.3667213368711606
 30
0.0
 10
3.139798634835485
 20
0.3829513481549217
 30
0.0
 10
3.112082769412447
 20
0.3880700440213387
 30
0.0
 10
3.084366903989409
 20
0.3931887398877557
 30
0.0
 10
3.038673179913589
 20
0.3931887398877557
 30
0.0
 10
3.010208237046685
 20
0.3931887398877557
 30
0.0
 10
2.985738373880398
 20
0.3889439677058489
 30
0.0
 10
2.961268510714112
 20
0.3846991955239423
 30
0.0
 10
2.947285731761949
 20
0.3769587286039946
 30
0.0
 10
2.927809718221435
 20
0.3662219519085834
 30
0.0
 10
2.917447480247957
 20
0.3516149417531983
 30
0.0
 10
2.90708524227448
 20
0.3370079315978133
 30
0.0
 10
2.901592007686129
 20
0.3115392985063727
 30
0.0
  0
SPLINE
  5
11A
330
1F
100
AcDbEntity
  8
Vinilo v2_Sketch1
100
AcDbSpline
210
0.0
220
0.0
230
1.0
 70
    24
 71
     2
 72
     6
 73
     3
 74
     0
 42
0.0000000001
 43
0.0000000001
 40
-15.0
 40
-15.0
 40
-15.0
 40
-14.0
 40
-14.0
 40
-14.0
 10
2.901592007686129
 20
0.3115392985063727
 30
0.0
 10
2.950157195296768
 20
0.3064206026399557
 30
0.0
 10
2.998722382907408
 20
0.3013019067735387
 30
0.0
  0
SPLINE
  5
11B
330
1F
100
AcDbEntity
  8
Vinilo v2_Sketch1
100
AcDbSpline
210
0.0
220
0.0
230
1.0
 70
     8
 71
     2
 72
    20
 73
    17
 74
     0
 42
0.0000000001
 43
0.0000000001
 40
0.0
 40
0.0
 40
0.0
 40
1.0
 40
1.0
 40
2.0
 40
2.0
 40
3.0
 40
3.0
 40
4.0
 40
4.0
 40
5.0
 40
5.0
 40
6.0
 40
6.0
 40
7.0
 40
7.0
 40
8.0
 40
8.0
 40
8.0
 10
3.086863828802295
 20
0.2478677157777713
 30
0.0
 10
3.06588966037405
 20
0.2403769413391123
 30
0.0
 10
3.043167644576784
 20
0.2346340142694737
 30
0.0
 10
3.012205776896993
 20
0.2263941623869488
 30
0.0
 10
3.003965925014469
 20
0.2184040029857125
 30
0.0
 10
2.995476380650655
 20
0.2101641511031876
 30
0.0
 10
2.995476380650655
 20
0.1996770668890651
 30
0.0
 10
2.995476380650655
 20
0.1876918277872107
 30
0.0
 10
3.003841078773824
 20
0.1800762071079074
 30
0.0
 10
3.012205776896993
 20
0.172460586428604
 30
0.0
 10
3.028435788180755
 20
0.172460586428604
 30
0.0
 10
3.045414876908382
 20
0.172460586428604
 30
0.0
 10
3.060021887063766
 20
0.1807004383111289
 30
0.0
 10
3.074628897219152
 20
0.1889402901936538
 30
0.0
 10
3.080746363010723
 20
0.2008006830548639
 30
0.0
 10
3.086863828802295
 20
0.212661075916074
 30
0.0
 10
3.086863828802295
 20
0.2316377044940101
 30
0.0
  0
SPLINE
  5
11C
330
1F
100
AcDbEntity
  8
Vinilo v2_Sketch1
100
AcDbSpline
210
0.0
220
0.0
230
1.0
 70
    24
 71
     2
 72
     6
 73
     3
 74
     0
 42
0.0000000001
 43
0.0000000001
 40
8.0
 40
8.0
 40
8.0
 40
9.0
 40
9.0
 40
9.0
 10
3.086863828802295
 20
0.2316377044940101
 30
0.0
 10
3.086863828802295
 20
0.2397527101358907
 30
0.0
 10
3.086863828802295
 20
0.2478677157777713
 30
0.0
  0
LINE
  5
11D
330
1F
100
AcDbEntity
  8
Vinilo v2_Sketch1
100
AcDbLine
 10
3.342798622123144
 20
0.3484937857370904
 30
0.0
 11
3.342798622123144
 21
0.3871961203368285
 31
0.0
  0
LINE
  5
11E
330
1F
100
AcDbEntity
  8
Vinilo v2_Sketch1
100
AcDbLine
 10
3.342798622123144
 20
0.3871961203368285
 30
0.0
 11
3.247915479233463
 21
0.3871961203368285
 31
0.0
  0
LINE
  5
11F
330
1F
100
AcDbEntity
  8
Vinilo v2_Sketch1
100
AcDbLine
 10
3.247915479233463
 20
0.3871961203368285
 30
0.0
 11
3.247915479233463
 21
0.1220227052083002
 31
0.0
  0
LINE
  5
120
330
1F
100
AcDbEntity
  8
Vinilo v2_Sketch1
100
AcDbLine
 10
3.247915479233463
 20
0.1220227052083002
 30
0.0
 11
3.349790011599226
 21
0.1220227052083002
 31
0.0
  0
LINE
  5
121
330
1F
100
AcDbEntity
  8
Vinilo v2_Sketch1
100
AcDbLine
 10
3.349790011599226
 20
0.1220227052083002
 30
0.0
 11
3.349790011599226
 21
0.2573560300667393
 31
0.0
  0
SPLINE
  5
122
330
1F
100
AcDbEntity
  8
Vinilo v2_Sketch1
100
AcDbSpline
210
0.0
220
0.0
230
1.0
 70
     8
 71
     2
 72
    14
 73
    11
 74
     0
 42
0.0000000001
 43
0.0000000001
 40
-51.0
 40
-51.0
 40
-51.0
 40
-50.0
 40
-50.0
 40
-49.0
 40
-49.0
 40
-48.0
 40
-48.0
 40
-47.0
 40
-47.0
 40
-46.0
 40
-46.0
 40
-46.0
 10
3.349790011599226
 20
0.2573560300667393
 30
0.0
 10
3.349790011599226
 20
0.287568820302664
 30
0.0
 10
3.361065187707415
 20
0.3008025218109616
 30
0.0
 10
3.372340348575586
 20
0.3140362233192591
 30
0.0
 10
3.389881260626131
 20
0.3140362233192591
 30
0.0
 10
3.400653150326725
 20
0.3140362233192591
 30
0.0
 10
3.408670619843102
 20
0.3079187575276876
 30
0.0
 10
3.416688089359479
 20
0.301801291736116
 30
0.0
 10
3.419945795951291
 20
0.2918135924845707
 30
0.0
 10
3.42195113869164
 20
0.2855712804523549
 30
0.0
 10
3.42195113869164
 20
0.2680928067621505
 30
0.0
  0
SPLINE
  5
123
330
1F
100
AcDbEntity
  8
Vinilo v2_Sketch1
100
AcDbSpline
210
0.0
220
0.0
230
1.0
 70
    24
 71
     2
 72
     6
 73
     3
 74
     0
 42
0.0000000001
 43
0.0000000001
 40
-46.0
 40
-46.0
 40
-46.0
 40
-45.0
 40
-45.0
 40
-45.0
 10
3.42195113869164
 20
0.2680928067621505
 30
0.0
 10
3.42195113869164
 20
0.1950577559852253
 30
0.0
 10
3.42195113869164
 20
0.1220227052083002
 30
0.0
  0
SPLINE
  5
124
330
1F
100
AcDbEntity
  8
Vinilo v2_Sketch1
100
AcDbSpline
210
0.0
220
0.0
230
1.0
 70
    24
 71
     2
 72
     6
 73
     3
 74
     0
 42
0.0000000001
 43
0.0000000001
 40
-45.0
 40
-45.0
 40
-45.0
 40
-44.0
 40
-44.0
 40
-44.0
 10
3.42195113869164
 20
0.1220227052083002
 30
0.0
 10
3.472888404874522
 20
0.1220227052083002
 30
0.0
 10
3.523825671057403
 20
0.1220227052083002
 30
0.0
  0
SPLINE
  5
125
330
1F
100
AcDbEntity
  8
Vinilo v2_Sketch1
100
AcDbSpline
210
0.0
220
0.0
230
1.0
 70
    24
 71
     2
 72
     6
 73
     3
 74
     0
 42
0.0000000001
 43
0.0000000001
 40
-44.0
 40
-44.0
 40
-44.0
 40
-43.0
 40
-43.0
 40
-43.0
 10
3.523825671057403
 20
0.1220227052083002
 30
0.0
 10
3.523825671057403
 20
0.1904384450813856
 30
0.0
 10
3.523825671057403
 20
0.2588541849544711
 30
0.0
  0
SPLINE
  5
126
330
1F
100
AcDbEntity
  8
Vinilo v2_Sketch1
100
AcDbSpline
210
0.0
220
0.0
230
1.0
 70
     8
 71
     2
 72
    10
 73
     7
 74
     0
 42
0.0000000001
 43
0.0000000001
 40
-43.0
 40
-43.0
 40
-43.0
 40
-42.0
 40
-42.0
 40
-41.0
 40
-41.0
 40
-40.0
 40
-40.0
 40
-40.0
 10
3.523825671057403
 20
0.2588541849544711
 30
0.0
 10
3.523825671057403
 20
0.287568820302664
 30
0.0
 10
3.534775076506411
 20
0.3005528293296729
 30
0.0
 10
3.54572448195542
 20
0.3135368383566818
 30
0.0
 10
3.563639917487879
 20
0.3135368383566818
 30
0.0
 10
3.578816508136164
 20
0.3135368383566818
 30
0.0
 10
3.589018817343858
 20
0.2998037518858069
 30
0.0
  0
SPLINE
  5
127
330
1F
100
AcDbEntity
  8
Vinilo v2_Sketch1
100
AcDbSpline
210
0.0
220
0.0
230
1.0
 70
     8
 71
     2
 72
     6
 73
     3
 74
     0
 42
0.0000000001
 43
0.0000000001
 40
-40.0
 40
-40.0
 40
-40.0
 40
-39.0
 40
-39.0
 40
-39.0
 10
3.589018817343858
 20
0.2998037518858069
 30
0.0
 10
3.595986798149819
 20
0.2910645150407047
 30
0.0
 10
3.595986798149819
 20
0.2730866563879232
 30
0.0
  0
SPLINE
  5
128
330
1F
100
AcDbEntity
  8
Vinilo v2_Sketch1
100
AcDbSpline
210
0.0
220
0.0
230
1.0
 70
    24
 71
     2
 72
     6
 73
     3
 74
     0
 42
0.0000000001
 43
0.0000000001
 40
-39.0
 40
-39.0
 40
-39.0
 40
-38.0
 40
-38.0
 40
-38.0
 10
3.595986798149819
 20
0.2730866563879232
 30
0.0
 10
3.595986798149819
 20
0.1975546807981117
 30
0.0
 10
3.595986798149819
 20
0.1220227052083002
 30
0.0
  0
SPLINE
  5
129
330
1F
100
AcDbEntity
  8
Vinilo v2_Sketch1
100
AcDbSpline
210
0.0
220
0.0
230
1.0
 70
    24
 71
     2
 72
     6
 73
     3
 74
     0
 42
0.0000000001
 43
0.0000000001
 40
-38.0
 40
-38.0
 40
-38.0
 40
-37.0
 40
-37.0
 40
-37.0
 10
3.595986798149819
 20
0.1220227052083002
 30
0.0
 10
3.646924064332699
 20
0.1220227052083002
 30
0.0
 10
3.69786133051558
 20
0.1220227052083002
 30
0.0
  0
SPLINE
  5
12A
330
1F
100
AcDbEntity
  8
Vinilo v2_Sketch1
100
AcDbSpline
210
0.0
220
0.0
230
1.0
 70
    24
 71
     2
 72
     6
 73
     3
 74
     0
 42
0.0000000001
 43
0.0000000001
 40
-37.0
 40
-37.0
 40
-37.0
 40
-36.0
 40
-36.0
 40
-36.0
 10
3.69786133051558
 20
0.1220227052083002
 30
0.0
 10
3.69786133051558
 20
0.2052951477180593
 30
0.0
 10
3.69786133051558
 20
0.2885675902278184
 30
0.0
  0
SPLINE
  5
12B
330
1F
100
AcDbEntity
  8
Vinilo v2_Sketch1
100
AcDbSpline
210
0.0
220
0.0
230
1.0
 70
     8
 71
     2
 72
    12
 73
     9
 74
     0
 42
0.0000000001
 43
0.0000000001
 40
-36.0
 40
-36.0
 40
-36.0
 40
-35.0
 40
-35.0
 40
-34.0
 40
-34.0
 40
-33.0
 40
-33.0
 40
-32.0
 40
-32.0
 40
-32.0
 10
3.69786133051558
 20
0.2885675902278184
 30
0.0
 10
3.69786133051558
 20
0.3425011661861632
 30
0.0
 10
3.673924014594543
 20
0.3678449530369595
 30
0.0
 10
3.649986698673505
 20
0.3931887398877557
 30
0.0
 10
3.60734780604845
 20
0.3931887398877557
 30
0.0
 10
3.578422492669171
 20
0.3931887398877557
 30
0.0
 10
3.55872409676251
 20
0.3838252718394319
 30
0.0
 10
3.539025700855848
 20
0.3744618037911083
 30
0.0
 10
3.515086434212301
 20
0.3484937857370904
 30
0.0
  0
SPLINE
  5
12C
330
1F
100
AcDbEntity
  8
Vinilo v2_Sketch1
100
AcDbSpline
210
0.0
220
0.0
230
1.0
 70
     8
 71
     2
 72
    12
 73
     9
 74
     0
 42
0.0000000001
 43
0.0000000001
 40
-32.0
 40
-32.0
 40
-32.0
 40
-31.0
 40
-31.0
 40
-30.0
 40
-30.0
 40
-29.0
 40
-29.0
 40
-28.0
 40
-28.0
 40
-28.0
 10
3.515086434212301
 20
0.3484937857370904
 30
0.0
 10
3.503335281811654
 20
0.3707164165717787
 30
0.0
 10
3.484830728081155
 20
0.3819525782297672
 30
0.0
 10
3.466326174350654
 20
0.3931887398877557
 30
0.0
 10
3.434568411886757
 20
0.3931887398877557
 30
0.0
 10
3.405061783199477
 20
0.3931887398877557
 30
0.0
 10
3.384183200174225
 20
0.3829513481549217
 30
0.0
 10
3.363304617148972
 20
0.3727139564220878
 30
0.0
 10
3.342798622123144
 20
0.3484937857370904
 30
0.0
  0
SPLINE
  5
12D
330
1F
100
AcDbEntity
  8
Vinilo v2_Sketch1
100
AcDbSpline
210
0.0
220
0.0
230
1.0
 70
     8
 71
     2
 72
    12
 73
     9
 74
     0
 42
0.0000000001
 43
0.0000000001
 40
-41.0
 40
-41.0
 40
-41.0
 40
-40.0
 40
-40.0
 40
-39.0
 40
-39.0
 40
-38.0
 40
-38.0
 40
-37.0
 40
-37.0
 40
-37.0
 10
3.851172514026801
 20
0.3013019067735387
 30
0.0
 10
3.857165133577729
 20
0.3185306879824544
 30
0.0
 10
3.866903140347985
 20
0.3247730000146702
 30
0.0
 10
3.879387764412416
 20
0.3327631594159065
 30
0.0
 10
3.90435701254128
 20
0.3327631594159065
 30
0.0
 10
3.923833026081793
 20
0.3327631594159065
 30
0.0
 10
3.931573493001742
 20
0.3252723849772475
 30
0.0
 10
3.939313959921689
 20
0.3177816105385886
 30
0.0
 10
3.939313959921689
 20
0.299054674441941
 30
0.0
  0
SPLINE
  5
12E
330
1F
100
AcDbEntity
  8
Vinilo v2_Sketch1
100
AcDbSpline
210
0.0
220
0.0
230
1.0
 70
     8
 71
     2
 72
    20
 73
    17
 74
     0
 42
0.0000000001
 43
0.0000000001
 40
-37.0
 40
-37.0
 40
-37.0
 40
-36.0
 40
-36.0
 40
-35.0
 40
-35.0
 40
-34.0
 40
-34.0
 40
-33.0
 40
-33.0
 40
-32.0
 40
-32.0
 40
-31.0
 40
-31.0
 40
-30.0
 40
-30.0
 40
-29.0
 40
-29.0
 40
-29.0
 10
3.939313959921689
 20
0.299054674441941
 30
0.0
 10
3.920337300863713
 20
0.291563900003282
 30
0.0
 10
3.903358242616126
 20
0.2869445890994423
 30
0.0
 10
3.886379153888499
 20
0.2823252781956026
 30
0.0
 10
3.829199575673402
 20
0.2708394240563255
 30
0.0
 10
3.781508311747272
 20
0.2613511097673574
 30
0.0
 10
3.763780145575779
 20
0.241875096226844
 30
0.0
 10
3.746051979404287
 20
0.2223990826863307
 30
0.0
 10
3.746051979404287
 20
0.1921862924504061
 30
0.0
 10
3.746051979404287
 20
0.1599759623641724
 30
0.0
 10
3.770646688811218
 20
0.1380030240107727
 30
0.0
 10
3.795241398218147
 20
0.116030085657373
 30
0.0
 10
3.842682969662987
 20
0.116030085657373
 30
0.0
 10
3.878388994487262
 20
0.116030085657373
 30
0.0
 10
3.905355782466434
 20
0.1270165548340728
 30
0.0
 10
3.925081488488237
 20
0.1352564067165977
 30
0.0
 10
3.945056886991327
 20
0.1544827277758224
 30
0.0
  0
SPLINE
  5
12F
330
1F
100
AcDbEntity
  8
Vinilo v2_Sketch1
100
AcDbSpline
210
0.0
220
0.0
230
1.0
 70
     8
 71
     2
 72
     8
 73
     5
 74
     0
 42
0.0000000001
 43
0.0000000001
 40
-29.0
 40
-29.0
 40
-29.0
 40
-28.0
 40
-28.0
 40
-27.0
 40
-27.0
 40
-27.0
 10
3.945056886991327
 20
0.1544827277758224
 30
0.0
 10
3.946804734360347
 20
0.1429968736365454
 30
0.0
 10
3.948552581729368
 20
0.1376284852888398
 30
0.0
 10
3.950300429098388
 20
0.1322600969411341
 30
0.0
 10
3.956043356168028
 20
0.1220227052083002
 30
0.0
  0
SPLINE
  5
130
330
1F
100
AcDbEntity
  8
Vinilo v2_Sketch1
100
AcDbSpline
210
0.0
220
0.0
230
1.0
 70
    24
 71
     2
 72
     6
 73
     3
 74
     0
 42
0.0000000001
 43
0.0000000001
 40
-27.0
 40
-27.0
 40
-27.0
 40
-26.0
 40
-26.0
 40
-26.0
 10
3.956043356168028
 20
0.1220227052083002
 30
0.0
 10
4.003734620094157
 20
0.1220227052083002
 30
0.0
 10
4.051425884020285
 20
0.1220227052083002
 30
0.0
  0
SPLINE
  5
131
330
1F
100
AcDbEntity
  8
Vinilo v2_Sketch1
100
AcDbSpline
210
0.0
220
0.0
230
1.0
 70
     8
 71
     2
 72
     8
 73
     5
 74
     0
 42
0.0000000001
 43
0.0000000001
 40
-26.0
 40
-26.0
 40
-26.0
 40
-25.0
 40
-25.0
 40
-24.0
 40
-24.0
 40
-24.0
 10
4.051425884020285
 20
0.1220227052083002
 30
0.0
 10
4.043435724619049
 20
0.13850240897335
 30
0.0
 10
4.041063646046807
 20
0.1491143394281169
 30
0.0
 10
4.038691567474565
 20
0.1597262698828837
 30
0.0
 10
4.038691567474565
 20
0.1784532059795312
 30
0.0
  0
SPLINE
  5
132
330
1F
100
AcDbEntity
  8
Vinilo v2_Sketch1
100
AcDbSpline
210
0.0
220
0.0
230
1.0
 70
    24
 71
     2
 72
     6
 73
     3
 74
     0
 42
0.0000000001
 43
0.0000000001
 40
-24.0
 40
-24.0
 40
-24.0
 40
-23.0
 40
-23.0
 40
-23.0
 10
4.038691567474565
 20
0.1784532059795312
 30
0.0
 10
4.038691567474565
 20
0.2370060928417157
 30
0.0
 10
4.038691567474565
 20
0.2955589797039002
 30
0.0
  0
SPLINE
  5
133
330
1F
100
AcDbEntity
  8
Vinilo v2_Sketch1
100
AcDbSpline
210
0.0
220
0.0
230
1.0
 70
     8
 71
     2
 72
    20
 73
    17
 74
     0
 42
0.0000000001
 43
0.0000000001
 40
-23.0
 40
-23.0
 40
-23.0
 40
-22.0
 40
-22.0
 40
-21.0
 40
-21.0
 40
-20.0
 40
-20.0
 40
-19.0
 40
-19.0
 40
-18.0
 40
-18.0
 40
-17.0
 40
-17.0
 40
-16.0
 40
-16.0
 40
-15.0
 40
-15.0
 40
-15.0
 10
4.038691567474565
 20
0.2955589797039002
 30
0.0
 10
4.038691567474565
 20
0.3142859158005477
 30
0.0
 10
4.031200793035906
 20
0.3348855455068599
 30
0.0
 10
4.023710018597248
 20
0.3554851752131721
 30
0.0
 10
4.010726009570239
 20
0.3667213368711606
 30
0.0
 10
3.992248765954879
 20
0.3829513481549217
 30
0.0
 10
3.964532900531841
 20
0.3880700440213387
 30
0.0
 10
3.936817035108802
 20
0.3931887398877557
 30
0.0
 10
3.891123311032982
 20
0.3931887398877557
 30
0.0
 10
3.862658368166078
 20
0.3931887398877557
 30
0.0
 10
3.838188504999792
 20
0.3889439677058489
 30
0.0
 10
3.813718641833507
 20
0.3846991955239423
 30
0.0
 10
3.799735862881342
 20
0.3769587286039946
 30
0.0
 10
3.780259849340829
 20
0.3662219519085834
 30
0.0
 10
3.769897611367351
 20
0.3516149417531983
 30
0.0
 10
3.759535373393873
 20
0.3370079315978133
 30
0.0
 10
3.754042138805523
 20
0.3115392985063727
 30
0.0
  0
SPLINE
  5
134
330
1F
100
AcDbEntity
  8
Vinilo v2_Sketch1
100
AcDbSpline
210
0.0
220
0.0
230
1.0
 70
    24
 71
     2
 72
     6
 73
     3
 74
     0
 42
0.0000000001
 43
0.0000000001
 40
-15.0
 40
-15.0
 40
-15.0
 40
-14.0
 40
-14.0
 40
-14.0
 10
3.754042138805523
 20
0.3115392985063727
 30
0.0
 10
3.802607326416162
 20
0.3064206026399557
 30
0.0
 10
3.851172514026801
 20
0.3013019067735387
 30
0.0
  0
SPLINE
  5
135
330
1F
100
AcDbEntity
  8
Vinilo v2_Sketch1
100
AcDbSpline
210
0.0
220
0.0
230
1.0
 70
     8
 71
     2
 72
    20
 73
    17
 74
     0
 42
0.0000000001
 43
0.0000000001
 40
0.0
 40
0.0
 40
0.0
 40
1.0
 40
1.0
 40
2.0
 40
2.0
 40
3.0
 40
3.0
 40
4.0
 40
4.0
 40
5.0
 40
5.0
 40
6.0
 40
6.0
 40
7.0
 40
7.0
 40
8.0
 40
8.0
 40
8.0
 10
3.939313959921689
 20
0.2478677157777713
 30
0.0
 10
3.918339791493444
 20
0.2403769413391123
 30
0.0
 10
3.895617775696177
 20
0.2346340142694737
 30
0.0
 10
3.864655908016387
 20
0.2263941623869488
 30
0.0
 10
3.856416056133862
 20
0.2184040029857125
 30
0.0
 10
3.847926511770049
 20
0.2101641511031876
 30
0.0
 10
3.847926511770049
 20
0.1996770668890651
 30
0.0
 10
3.847926511770049
 20
0.1876918277872107
 30
0.0
 10
3.856291209893219
 20
0.1800762071079074
 30
0.0
 10
3.864655908016387
 20
0.172460586428604
 30
0.0
 10
3.880885919300148
 20
0.172460586428604
 30
0.0
 10
3.897865008027776
 20
0.172460586428604
 30
0.0
 10
3.912472018183161
 20
0.1807004383111289
 30
0.0
 10
3.927079028338545
 20
0.1889402901936538
 30
0.0
 10
3.933196494130117
 20
0.2008006830548639
 30
0.0
 10
3.939313959921689
 20
0.212661075916074
 30
0.0
 10
3.939313959921689
 20
0.2316377044940101
 30
0.0
  0
SPLINE
  5
136
330
1F
100
AcDbEntity
  8
Vinilo v2_Sketch1
100
AcDbSpline
210
0.0
220
0.0
230
1.0
 70
    24
 71
     2
 72
     6
 73
     3
 74
     0
 42
0.0000000001
 43
0.0000000001
 40
8.0
 40
8.0
 40
8.0
 40
9.0
 40
9.0
 40
9.0
 10
3.939313959921689
 20
0.2316377044940101
 30
0.0
 10
3.939313959921689
 20
0.2397527101358907
 30
0.0
 10
3.939313959921689
 20
0.2478677157777713
 30
0.0
  0
SPLINE
  5
137
330
1F
100
AcDbEntity
  8
Vinilo v2_Sketch1
100
AcDbSpline
210
0.0
220
0.0
230
1.0
 70
    24
 71
     2
 72
     6
 73
     3
 74
     0
 42
0.0000000001
 43
0.0000000001
 40
-4.0
 40
-4.0
 40
-4.0
 40
-3.0
 40
-3.0
 40
-3.0
 10
4.10311222764703
 20
0.4880718827774363
 30
0.0
 10
4.10311222764703
 20
0.3050472939928682
 30
0.0
 10
4.10311222764703
 20
0.1220227052083002
 30
0.0
  0
SPLINE
  5
138
330
1F
100
AcDbEntity
  8
Vinilo v2_Sketch1
100
AcDbSpline
210
0.0
220
0.0
230
1.0
 70
    24
 71
     2
 72
     6
 73
     3
 74
     0
 42
0.0000000001
 43
0.0000000001
 40
-3.0
 40
-3.0
 40
-3.0
 40
-2.0
 40
-2.0
 40
-2.0
 10
4.10311222764703
 20
0.1220227052083002
 30
0.0
 10
4.154049493829913
 20
0.1220227052083002
 30
0.0
 10
4.204986760012795
 20
0.1220227052083002
 30
0.0
  0
SPLINE
  5
139
330
1F
100
AcDbEntity
  8
Vinilo v2_Sketch1
100
AcDbSpline
210
0.0
220
0.0
230
1.0
 70
    24
 71
     2
 72
     6
 73
     3
 74
     0
 42
0.0000000001
 43
0.0000000001
 40
-2.0
 40
-2.0
 40
-2.0
 40
-1.0
 40
-1.0
 40
-1.0
 10
4.204986760012795
 20
0.1220227052083002
 30
0.0
 10
4.204986760012795
 20
0.3050472939928682
 30
0.0
 10
4.204986760012795
 20
0.4880718827774363
 30
0.0
  0
SPLINE
  5
13A
330
1F
100
AcDbEntity
  8
Vinilo v2_Sketch1
100
AcDbSpline
210
0.0
220
0.0
230
1.0
 70
    24
 71
     2
 72
     6
 73
     3
 74
     0
 42
0.0000000001
 43
0.0000000001
 40
-1.0
 40
-1.0
 40
-1.0
 40
0.0
 40
0.0
 40
0.0
 10
4.204986760012795
 20
0.4880718827774363
 30
0.0
 10
4.154049493829913
 20
0.4880718827774363
 30
0.0
 10
4.10311222764703
 20
0.4880718827774363
 30
0.0
  0
SPLINE
  5
13B
330
1F
100
AcDbEntity
  8
Vinilo v2_Sketch1
100
AcDbSpline
210
0.0
220
0.0
230
1.0
 70
    24
 71
     2
 72
     6
 73
     3
 74
     0
 42
0.0000000001
 43
0.0000000001
 40
-4.0
 40
-4.0
 40
-4.0
 40
-3.0
 40
-3.0
 40
-3.0
 10
4.273402499885879
 20
0.4880718827774363
 30
0.0
 10
4.273402499885879
 20
0.3050472939928682
 30
0.0
 10
4.273402499885879
 20
0.1220227052083002
 30
0.0
  0
SPLINE
  5
13C
330
1F
100
AcDbEntity
  8
Vinilo v2_Sketch1
100
AcDbSpline
210
0.0
220
0.0
230
1.0
 70
    24
 71
     2
 72
     6
 73
     3
 74
     0
 42
0.0000000001
 43
0.0000000001
 40
-3.0
 40
-3.0
 40
-3.0
 40
-2.0
 40
-2.0
 40
-2.0
 10
4.273402499885879
 20
0.1220227052083002
 30
0.0
 10
4.324339766068761
 20
0.1220227052083002
 30
0.0
 10
4.375277032251643
 20
0.1220227052083002
 30
0.0
  0
SPLINE
  5
13D
330
1F
100
AcDbEntity
  8
Vinilo v2_Sketch1
100
AcDbSpline
210
0.0
220
0.0
230
1.0
 70
    24
 71
     2
 72
     6
 73
     3
 74
     0
 42
0.0000000001
 43
0.0000000001
 40
-2.0
 40
-2.0
 40
-2.0
 40
-1.0
 40
-1.0
 40
-1.0
 10
4.375277032251643
 20
0.1220227052083002
 30
0.0
 10
4.375277032251643
 20
0.3050472939928682
 30
0.0
 10
4.375277032251643
 20
0.4880718827774363
 30
0.0
  0
SPLINE
  5
13E
330
1F
100
AcDbEntity
  8
Vinilo v2_Sketch1
100
AcDbSpline
210
0.0
220
0.0
230
1.0
 70
    24
 71
     2
 72
     6
 73
     3
 74
     0
 42
0.0000000001
 43
0.0000000001
 40
-1.0
 40
-1.0
 40
-1.0
 40
0.0
 40
0.0
 40
0.0
 10
4.375277032251643
 20
0.4880718827774363
 30
0.0
 10
4.324339766068761
 20
0.4880718827774363
 30
0.0
 10
4.273402499885879
 20
0.4880718827774363
 30
0.0
  0
SPLINE
  5
13F
330
1F
100
AcDbEntity
  8
Vinilo v2_Sketch1
100
AcDbSpline
210
0.0
220
0.0
230
1.0
 70
    11
 71
     2
 72
    20
 73
    17
 74
     0
 42
0.0000000001
 43
0.0000000001
 40
-8.0
 40
-8.0
 40
-8.0
 40
-7.0
 40
-7.0
 40
-6.0
 40
-6.0
 40
-5.0
 40
-5.0
 40
-4.0
 40
-4.0
 40
-3.0
 40
-3.0
 40
-2.0
 40
-2.0
 40
-1.0
 40
-1.0
 40
0.0
 40
0.0
 40
0.0
 10
4.427712453322255
 20
0.2538603353286984
 30
0.0
 10
4.427712453322255
 20
0.1886905977123652
 30
0.0
 10
4.476152794692251
 20
0.1484901082248953
 30
0.0
 10
4.515604206735854
 20
0.116030085657373
 30
0.0
 10
4.579525481945744
 20
0.116030085657373
 30
0.0
 10
4.651187224075582
 20
0.116030085657373
 30
0.0
 10
4.691762252284986
 20
0.1551069589790441
 30
0.0
 10
4.732337280494386
 20
0.1941838323007151
 30
0.0
 10
4.732337280494386
 20
0.2553584902164303
 30
0.0
 10
4.732337280494386
 20
0.3097914511373523
 30
0.0
 10
4.699627565445576
 20
0.3469956308493586
 30
0.0
 10
4.65892769099553
 20
0.3931887398877557
 30
0.0
 10
4.579275789464455
 20
0.3931887398877557
 30
0.0
 10
4.509611587184926
 20
0.3931887398877557
 30
0.0
 10
4.46866202025359
 20
0.353862174084796
 30
0.0
 10
4.427712453322255
 20
0.3145356082818362
 30
0.0
 10
4.427712453322255
 20
0.2538603353286984
 30
0.0
  0
SPLINE
  5
140
330
1F
100
AcDbEntity
  8
Vinilo v2_Sketch1
100
AcDbSpline
210
0.0
220
0.0
230
1.0
 70
    11
 71
     2
 72
    20
 73
    17
 74
     0
 42
0.0000000001
 43
0.0000000001
 40
0.0
 40
0.0
 40
0.0
 40
1.0
 40
1.0
 40
2.0
 40
2.0
 40
3.0
 40
3.0
 40
4.0
 40
4.0
 40
5.0
 40
5.0
 40
6.0
 40
6.0
 40
7.0
 40
7.0
 40
8.0
 40
8.0
 40
8.0
 10
4.529586985688017
 20
0.254110027809987
 30
0.0
 10
4.529586985688017
 20
0.2186536954670012
 30
0.0
 10
4.543944303362114
 20
0.2016746067393741
 30
0.0
 10
4.55830162103621
 20
0.1846955180117471
 30
0.0
 10
4.580024866908322
 20
0.1846955180117471
 30
0.0
 10
4.60199780526172
 20
0.1846955180117471
 30
0.0
 10
4.616105430454528
 20
0.2014249142580855
 30
0.0
 10
4.630213055647336
 20
0.2181543105044239
 30
0.0
 10
4.630213055647336
 20
0.2551087977351416
 30
0.0
 10
4.630213055647336
 20
0.289566360152973
 30
0.0
 10
4.615980584213885
 20
0.3064206026399557
 30
0.0
 10
4.601748112780433
 20
0.3232748451269385
 30
0.0
 10
4.580773944352186
 20
0.3232748451269385
 30
0.0
 10
4.5585513135175
 20
0.3232748451269385
 30
0.0
 10
4.544069149602757
 20
0.3061709101586672
 30
0.0
 10
4.529586985688017
 20
0.2890669751903957
 30
0.0
 10
4.529586985688017
 20
0.254110027809987
 30
0.0
  0
SPLINE
  5
141
330
1F
100
AcDbEntity
  8
Vinilo v2_Sketch1
100
AcDbSpline
210
0.0
220
0.0
230
1.0
 70
    11
 71
     2
 72
    24
 73
    21
 74
     0
 42
0.0000000001
 43
0.0000000001
 40
-10.0
 40
-10.0
 40
-10.0
 40
-9.0
 40
-9.0
 40
-8.0
 40
-8.0
 40
-7.0
 40
-7.0
 40
-6.0
 40
-6.0
 40
-5.0
 40
-5.0
 40
-4.0
 40
-4.0
 40
-3.0
 40
-3.0
 40
-2.0
 40
-2.0
 40
-1.0
 40
-1.0
 40
0.0
 40
0.0
 40
0.0
 10
-2.822220016890305
 20
-0.2808810825990382
 30
0.0
 10
-2.822220016890305
 20
-0.3450520502902169
 30
0.0
 10
-2.797001076280153
 20
-0.3877494645905732
 30
0.0
 10
-2.771782135670001
 20
-0.4304468788909295
 30
0.0
 10
-2.731207107460599
 20
-0.4501725849127315
 30
0.0
 10
-2.690632079251196
 20
-0.4698982909345335
 30
0.0
 10
-2.628708343891615
 20
-0.4698982909345335
 30
0.0
 10
-2.567783378457188
 20
-0.4698982909345335
 30
0.0
 10
-2.526958657766497
 20
-0.4470514288966236
 30
0.0
 10
-2.486133937075805
 20
-0.4242045668587137
 30
0.0
 10
-2.464535537444339
 20
-0.3831301536867334
 30
0.0
 10
-2.442937137812871
 20
-0.3420557405147533
 30
0.0
 10
-2.442937137812871
 20
-0.2778847728235746
 30
0.0
 10
-2.442937137812871
 20
-0.1894936344473984
 30
0.0
 10
-2.492376249108021
 20
-0.1404290618741821
 30
0.0
 10
-2.541815360403171
 20
-0.0913644893009657
 30
0.0
 10
-2.63320280855481
 20
-0.0913644893009657
 30
0.0
 10
-2.722343024374852
 20
-0.0913644893009657
 30
0.0
 10
-2.772281520632579
 20
-0.1413029855586924
 30
0.0
 10
-2.822220016890305
 20
-0.191241481816419
 30
0.0
 10
-2.822220016890305
 20
-0.2808810825990382
 30
0.0
  0
SPLINE
  5
142
330
1F
100
AcDbEntity
  8
Vinilo v2_Sketch1
100
AcDbSpline
210
0.0
220
0.0
230
1.0
 70
    11
 71
     2
 72
    20
 73
    17
 74
     0
 42
0.0000000001
 43
0.0000000001
 40
0.0
 40
0.0
 40
0.0
 40
1.0
 40
1.0
 40
2.0
 40
2.0
 40
3.0
 40
3.0
 40
4.0
 40
4.0
 40
5.0
 40
5.0
 40
6.0
 40
6.0
 40
7.0
 40
7.0
 40
8.0
 40
8.0
 40
8.0
 10
-2.709109322866555
 20
-0.2813804675616155
 30
0.0
 10
-2.709109322866555
 20
-0.3368121984076921
 30
0.0
 10
-2.688509693160242
 20
-0.3610323690926894
 30
0.0
 10
-2.66791006345393
 20
-0.3852525397776869
 30
0.0
 10
-2.632453731110944
 20
-0.3852525397776869
 30
0.0
 10
-2.595998628842803
 20
-0.3852525397776869
 30
0.0
 10
-2.576023230339713
 20
-0.3615317540552668
 30
0.0
 10
-2.556047831836622
 20
-0.3378109683328465
 30
0.0
 10
-2.556047831836622
 20
-0.2763866179358427
 30
0.0
 10
-2.556047831836622
 20
-0.2247002743090959
 30
0.0
 10
-2.576897154024223
 20
-0.2008546423460313
 30
0.0
 10
-2.597746476211824
 20
-0.1770090103829669
 30
0.0
 10
-2.633452501036099
 20
-0.1770090103829669
 30
0.0
 10
-2.667660370972642
 20
-0.1770090103829669
 30
0.0
 10
-2.688384846919598
 20
-0.2012291810679643
 30
0.0
 10
-2.709109322866555
 20
-0.225449382233001
 30
0.0
 10
-2.709109322866555
 20
-0.2813804675616155
 30
0.0
  0
LINE
  5
143
330
1F
100
AcDbEntity
  8
Vinilo v2_Sketch1
100
AcDbLine
 10
-2.266154861060519
 20
-0.3668377192826502
 30
0.0
 11
-2.266154861060519
 21
-0.2728909231978019
 31
0.0
  0
LINE
  5
144
330
1F
100
AcDbEntity
  8
Vinilo v2_Sketch1
100
AcDbLine
 10
-2.266154861060519
 20
-0.2728909231978019
 30
0.0
 11
-2.210223745251866
 21
-0.2728909231978019
 31
0.0
  0
LINE
  5
145
330
1F
100
AcDbEntity
  8
Vinilo v2_Sketch1
100
AcDbLine
 10
-2.210223745251866
 20
-0.2728909231978019
 30
0.0
 11
-2.210223745251866
 21
-0.1984825637737894
 31
0.0
  0
LINE
  5
146
330
1F
100
AcDbEntity
  8
Vinilo v2_Sketch1
100
AcDbLine
 10
-2.210223745251866
 20
-0.1984825637737894
 30
0.0
 11
-2.266154861060519
 21
-0.1984825637737894
 31
0.0
  0
LINE
  5
147
330
1F
100
AcDbEntity
  8
Vinilo v2_Sketch1
100
AcDbLine
 10
-2.266154861060519
 20
-0.1984825637737894
 30
0.0
 11
-2.266154861060519
 21
-0.0976068013331815
 31
0.0
  0
LINE
  5
148
330
1F
100
AcDbEntity
  8
Vinilo v2_Sketch1
100
AcDbLine
 10
-2.266154861060519
 20
-0.0976068013331815
 30
0.0
 11
-2.368029393426281
 21
-0.1497925299225058
 31
0.0
  0
LINE
  5
149
330
1F
100
AcDbEntity
  8
Vinilo v2_Sketch1
100
AcDbLine
 10
-2.368029393426281
 20
-0.1497925299225058
 30
0.0
 11
-2.368029393426281
 21
-0.1984825637737894
 31
0.0
  0
LINE
  5
14A
330
1F
100
AcDbEntity
  8
Vinilo v2_Sketch1
100
AcDbLine
 10
-2.368029393426281
 20
-0.1984825637737894
 30
0.0
 11
-2.405483265619577
 21
-0.1984825637737894
 31
0.0
  0
LINE
  5
14B
330
1F
100
AcDbEntity
  8
Vinilo v2_Sketch1
100
AcDbLine
 10
-2.405483265619577
 20
-0.1984825637737894
 30
0.0
 11
-2.405483265619577
 21
-0.2728909231978019
 31
0.0
  0
LINE
  5
14C
330
1F
100
AcDbEntity
  8
Vinilo v2_Sketch1
100
AcDbLine
 10
-2.405483265619577
 20
-0.2728909231978019
 30
0.0
 11
-2.368029393426281
 21
-0.2728909231978019
 31
0.0
  0
LINE
  5
14D
330
1F
100
AcDbEntity
  8
Vinilo v2_Sketch1
100
AcDbLine
 10
-2.368029393426281
 20
-0.2728909231978019
 30
0.0
 11
-2.368029393426281
 21
-0.3661588678491466
 31
0.0
  0
SPLINE
  5
14E
330
1F
100
AcDbEntity
  8
Vinilo v2_Sketch1
100
AcDbSpline
210
0.0
220
0.0
230
1.0
 70
     8
 71
     2
 72
    12
 73
     9
 74
     0
 42
0.0000000001
 43
0.0000000001
 40
-23.0
 40
-23.0
 40
-23.0
 40
-22.0
 40
-22.0
 40
-21.0
 40
-21.0
 40
-20.0
 40
-20.0
 40
-19.0
 40
-19.0
 40
-19.0
 10
-2.368029393426281
 20
-0.3661588678491466
 30
0.0
 10
-2.368029393426281
 20
-0.4105456154632312
 30
0.0
 10
-2.359415002821823
 20
-0.4303708007130368
 30
0.0
 10
-2.350800612217366
 20
-0.4501959954878547
 30
0.0
 10
-2.332822753564585
 20
-0.4599222960180486
 30
0.0
 10
-2.314844894911803
 20
-0.4696485984532448
 30
0.0
 10
-2.27689163775593
 20
-0.4696485984532448
 30
0.0
 10
-2.244181922707119
 20
-0.4696485984532448
 30
0.0
 10
-2.206478358032536
 20
-0.46140874657072
 30
0.0
  0
SPLINE
  5
14F
330
1F
100
AcDbEntity
  8
Vinilo v2_Sketch1
100
AcDbSpline
210
0.0
220
0.0
230
1.0
 70
    24
 71
     2
 72
     6
 73
     3
 74
     0
 42
0.0000000001
 43
0.0000000001
 40
-19.0
 40
-19.0
 40
-19.0
 40
-18.0
 40
-18.0
 40
-18.0
 10
-2.206478358032536
 20
-0.46140874657072
 30
0.0
 10
-2.210223745251866
 20
-0.4263328051171972
 30
0.0
 10
-2.213969132471195
 20
-0.3912568636636745
 30
0.0
  0
SPLINE
  5
150
330
1F
100
AcDbEntity
  8
Vinilo v2_Sketch1
100
AcDbSpline
210
0.0
220
0.0
230
1.0
 70
     8
 71
     2
 72
    10
 73
     7
 74
     0
 42
0.0000000001
 43
0.0000000001
 40
-18.0
 40
-18.0
 40
-18.0
 40
-17.0
 40
-17.0
 40
-16.0
 40
-16.0
 40
-15.0
 40
-15.0
 40
-15.0
 10
-2.213969132471195
 20
-0.3912568636636745
 30
0.0
 10
-2.234194223455575
 20
-0.3977371638421185
 30
0.0
 10
-2.245430385113563
 20
-0.3977371638421185
 30
0.0
 10
-2.257915009177994
 20
-0.3977371638421185
 30
0.0
 10
-2.262908858803767
 20
-0.3892632252583855
 30
0.0
 10
-2.266154861060519
 20
-0.383781695005096
 30
0.0
 10
-2.266154861060519
 20
-0.3668377192826502
 30
0.0
  0
SPLINE
  5
151
330
1F
100
AcDbEntity
  8
Vinilo v2_Sketch1
100
AcDbSpline
210
0.0
220
0.0
230
1.0
 70
    11
 71
     2
 72
    20
 73
    17
 74
     0
 42
0.0000000001
 43
0.0000000001
 40
-8.0
 40
-8.0
 40
-8.0
 40
-7.0
 40
-7.0
 40
-6.0
 40
-6.0
 40
-5.0
 40
-5.0
 40
-4.0
 40
-4.0
 40
-3.0
 40
-3.0
 40
-2.0
 40
-2.0
 40
-1.0
 40
-1.0
 40
0.0
 40
0.0
 40
0.0
 10
-2.174268027946302
 20
-0.3318183487819194
 30
0.0
 10
-2.174268027946302
 20
-0.3969880863982527
 30
0.0
 10
-2.125827686576307
 20
-0.4371885758857225
 30
0.0
 10
-2.086376274532704
 20
-0.4696485984532448
 30
0.0
 10
-2.022454999322814
 20
-0.4696485984532448
 30
0.0
 10
-1.950793257192975
 20
-0.4696485984532448
 30
0.0
 10
-1.910218228983573
 20
-0.4305717251315738
 30
0.0
 10
-1.86964320077417
 20
-0.3914948518099027
 30
0.0
 10
-1.86964320077417
 20
-0.3303201938941875
 30
0.0
 10
-1.86964320077417
 20
-0.2758872329732657
 30
0.0
 10
-1.902352915822981
 20
-0.2386830532612592
 30
0.0
 10
-1.943052790273028
 20
-0.1924899442228621
 30
0.0
 10
-2.022704691804102
 20
-0.1924899442228621
 30
0.0
 10
-2.092368894083631
 20
-0.1924899442228621
 30
0.0
 10
-2.133318461014967
 20
-0.2318165100258218
 30
0.0
 10
-2.174268027946302
 20
-0.2711430758287816
 30
0.0
 10
-2.174268027946302
 20
-0.3318183487819194
 30
0.0
  0
SPLINE
  5
152
330
1F
100
AcDbEntity
  8
Vinilo v2_Sketch1
100
AcDbSpline
210
0.0
220
0.0
230
1.0
 70
    11
 71
     2
 72
    20
 73
    17
 74
     0
 42
0.0000000001
 43
0.0000000001
 40
0.0
 40
0.0
 40
0.0
 40
1.0
 40
1.0
 40
2.0
 40
2.0
 40
3.0
 40
3.0
 40
4.0
 40
4.0
 40
5.0
 40
5.0
 40
6.0
 40
6.0
 40
7.0
 40
7.0
 40
8.0
 40
8.0
 40
8.0
 10
-2.07239349558054
 20
-0.3315686563006308
 30
0.0
 10
-2.07239349558054
 20
-0.3670249886436167
 30
0.0
 10
-2.058036177906444
 20
-0.3840040773712438
 30
0.0
 10
-2.043678860232347
 20
-0.4009831660988707
 30
0.0
 10
-2.021955614360236
 20
-0.4009831660988707
 30
0.0
 10
-1.999982676006836
 20
-0.4009831660988707
 30
0.0
 10
-1.985875050814028
 20
-0.3842537698525323
 30
0.0
 10
-1.971767425621221
 20
-0.3675243736061939
 30
0.0
 10
-1.971767425621221
 20
-0.3305698863754762
 30
0.0
 10
-1.971767425621221
 20
-0.2961123239576449
 30
0.0
 10
-1.985999897054673
 20
-0.2792580814706621
 30
0.0
 10
-2.000232368488125
 20
-0.2624038389836794
 30
0.0
 10
-2.02120653691637
 20
-0.2624038389836794
 30
0.0
 10
-2.043429167751059
 20
-0.2624038389836794
 30
0.0
 10
-2.0579113316658
 20
-0.2795077739519507
 30
0.0
 10
-2.07239349558054
 20
-0.296611708920222
 30
0.0
 10
-2.07239349558054
 20
-0.3315686563006308
 30
0.0
  0
LINE
  5
153
330
1F
100
AcDbEntity
  8
Vinilo v2_Sketch1
100
AcDbLine
 10
-1.724571869145474
 20
-0.2419290555180114
 30
0.0
 11
-1.724571869145474
 21
-0.1984825637737894
 31
0.0
  0
LINE
  5
154
330
1F
100
AcDbEntity
  8
Vinilo v2_Sketch1
100
AcDbLine
 10
-1.724571869145474
 20
-0.1984825637737894
 30
0.0
 11
-1.819704704516443
 21
-0.1984825637737894
 31
0.0
  0
LINE
  5
155
330
1F
100
AcDbEntity
  8
Vinilo v2_Sketch1
100
AcDbLine
 10
-1.819704704516443
 20
-0.1984825637737894
 30
0.0
 11
-1.819704704516443
 21
-0.4636559789023177
 31
0.0
  0
LINE
  5
156
330
1F
100
AcDbEntity
  8
Vinilo v2_Sketch1
100
AcDbLine
 10
-1.819704704516443
 20
-0.4636559789023177
 30
0.0
 11
-1.717580479669392
 21
-0.4636559789023177
 31
0.0
  0
LINE
  5
157
330
1F
100
AcDbEntity
  8
Vinilo v2_Sketch1
100
AcDbLine
 10
-1.717580479669392
 20
-0.4636559789023177
 30
0.0
 11
-1.717580479669392
 21
-0.3747654555635642
 31
0.0
  0
SPLINE
  5
158
330
1F
100
AcDbEntity
  8
Vinilo v2_Sketch1
100
AcDbSpline
210
0.0
220
0.0
230
1.0
 70
     8
 71
     2
 72
    10
 73
     7
 74
     0
 42
0.0000000001
 43
0.0000000001
 40
-15.0
 40
-15.0
 40
-15.0
 40
-14.0
 40
-14.0
 40
-13.0
 40
-13.0
 40
-12.0
 40
-12.0
 40
-12.0
 10
-1.717580479669392
 20
-0.3747654555635642
 30
0.0
 10
-1.717580479669392
 20
-0.3110938728349628
 30
0.0
 10
-1.701849853348208
 20
-0.2878724720751199
 30
0.0
 10
-1.690863384171508
 20
-0.2713927683100702
 30
0.0
 10
-1.670887985668418
 20
-0.2713927683100702
 30
0.0
 10
-1.660400901454295
 20
-0.2713927683100702
 30
0.0
 10
-1.642423042801513
 20
-0.2788835427487292
 30
0.0
  0
SPLINE
  5
159
330
1F
100
AcDbEntity
  8
Vinilo v2_Sketch1
100
AcDbSpline
210
0.0
220
0.0
230
1.0
 70
    24
 71
     2
 72
     6
 73
     3
 74
     0
 42
0.0000000001
 43
0.0000000001
 40
-12.0
 40
-12.0
 40
-12.0
 40
-11.0
 40
-11.0
 40
-11.0
 10
-1.642423042801513
 20
-0.2788835427487292
 30
0.0
 10
-1.62669241648033
 20
-0.2426781329618773
 30
0.0
 10
-1.610961790159146
 20
-0.2064727231750255
 30
0.0
  0
SPLINE
  5
15A
330
1F
100
AcDbEntity
  8
Vinilo v2_Sketch1
100
AcDbSpline
210
0.0
220
0.0
230
1.0
 70
     8
 71
     2
 72
    10
 73
     7
 74
     0
 42
0.0000000001
 43
0.0000000001
 40
-11.0
 40
-11.0
 40
-11.0
 40
-10.0
 40
-10.0
 40
-9.0
 40
-9.0
 40
-8.0
 40
-8.0
 40
-8.0
 10
-1.610961790159146
 20
-0.2064727231750255
 30
0.0
 10
-1.63767888565703
 20
-0.1924899442228621
 30
0.0
 10
-1.660151208973007
 20
-0.1924899442228621
 30
0.0
 10
-1.681624762363829
 20
-0.1924899442228621
 30
0.0
 10
-1.696231772519214
 20
-0.2031018746776289
 30
0.0
 10
-1.710838782674599
 20
-0.2137138051323959
 30
0.0
 10
-1.724571869145474
 20
-0.2419290555180114
 30
0.0
  0
LINE
  5
15B
330
1F
100
AcDbEntity
  8
Vinilo v2_Sketch1
100
AcDbLine
 10
-1.497601403654107
 20
-0.2419290555180114
 30
0.0
 11
-1.497601403654107
 21
-0.1984825637737894
 31
0.0
  0
LINE
  5
15C
330
1F
100
AcDbEntity
  8
Vinilo v2_Sketch1
100
AcDbLine
 10
-1.497601403654107
 20
-0.1984825637737894
 30
0.0
 11
-1.592734239025076
 21
-0.1984825637737894
 31
0.0
  0
LINE
  5
15D
330
1F
100
AcDbEntity
  8
Vinilo v2_Sketch1
100
AcDbLine
 10
-1.592734239025076
 20
-0.1984825637737894
 30
0.0
 11
-1.592734239025076
 21
-0.4636559789023177
 31
0.0
  0
LINE
  5
15E
330
1F
100
AcDbEntity
  8
Vinilo v2_Sketch1
100
AcDbLine
 10
-1.592734239025076
 20
-0.4636559789023177
 30
0.0
 11
-1.490610014178025
 21
-0.4636559789023177
 31
0.0
  0
LINE
  5
15F
330
1F
100
AcDbEntity
  8
Vinilo v2_Sketch1
100
AcDbLine
 10
-1.490610014178025
 20
-0.4636559789023177
 30
0.0
 11
-1.490610014178025
 21
-0.3747654555635642
 31
0.0
  0
SPLINE
  5
160
330
1F
100
AcDbEntity
  8
Vinilo v2_Sketch1
100
AcDbSpline
210
0.0
220
0.0
230
1.0
 70
     8
 71
     2
 72
    10
 73
     7
 74
     0
 42
0.0000000001
 43
0.0000000001
 40
-15.0
 40
-15.0
 40
-15.0
 40
-14.0
 40
-14.0
 40
-13.0
 40
-13.0
 40
-12.0
 40
-12.0
 40
-12.0
 10
-1.490610014178025
 20
-0.3747654555635642
 30
0.0
 10
-1.490610014178025
 20
-0.3110938728349628
 30
0.0
 10
-1.474879387856841
 20
-0.2878724720751199
 30
0.0
 10
-1.463892918680141
 20
-0.2713927683100702
 30
0.0
 10
-1.44391752017705
 20
-0.2713927683100702
 30
0.0
 10
-1.433430435962928
 20
-0.2713927683100702
 30
0.0
 10
-1.415452577310146
 20
-0.2788835427487292
 30
0.0
  0
SPLINE
  5
161
330
1F
100
AcDbEntity
  8
Vinilo v2_Sketch1
100
AcDbSpline
210
0.0
220
0.0
230
1.0
 70
    24
 71
     2
 72
     6
 73
     3
 74
     0
 42
0.0000000001
 43
0.0000000001
 40
-12.0
 40
-12.0
 40
-12.0
 40
-11.0
 40
-11.0
 40
-11.0
 10
-1.415452577310146
 20
-0.2788835427487292
 30
0.0
 10
-1.399721950988962
 20
-0.2426781329618773
 30
0.0
 10
-1.383991324667778
 20
-0.2064727231750255
 30
0.0
  0
SPLINE
  5
162
330
1F
100
AcDbEntity
  8
Vinilo v2_Sketch1
100
AcDbSpline
210
0.0
220
0.0
230
1.0
 70
     8
 71
     2
 72
    10
 73
     7
 74
     0
 42
0.0000000001
 43
0.0000000001
 40
-11.0
 40
-11.0
 40
-11.0
 40
-10.0
 40
-10.0
 40
-9.0
 40
-9.0
 40
-8.0
 40
-8.0
 40
-8.0
 10
-1.383991324667778
 20
-0.2064727231750255
 30
0.0
 10
-1.410708420165662
 20
-0.1924899442228621
 30
0.0
 10
-1.433180743481639
 20
-0.1924899442228621
 30
0.0
 10
-1.454654296872462
 20
-0.1924899442228621
 30
0.0
 10
-1.469261307027847
 20
-0.2031018746776289
 30
0.0
 10
-1.483868317183232
 20
-0.2137138051323959
 30
0.0
 10
-1.497601403654107
 20
-0.2419290555180114
 30
0.0
  0
SPLINE
  5
163
330
1F
100
AcDbEntity
  8
Vinilo v2_Sketch1
100
AcDbSpline
210
0.0
220
0.0
230
1.0
 70
    24
 71
     2
 72
     6
 73
     3
 74
     0
 42
0.0000000001
 43
0.0000000001
 40
-4.0
 40
-4.0
 40
-4.0
 40
-3.0
 40
-3.0
 40
-3.0
 10
-1.363017156239533
 20
-0.0976068013331815
 30
0.0
 10
-1.363017156239533
 20
-0.1321892099916572
 30
0.0
 10
-1.363017156239533
 20
-0.1667716186501328
 30
0.0
  0
SPLINE
  5
164
330
1F
100
AcDbEntity
  8
Vinilo v2_Sketch1
100
AcDbSpline
210
0.0
220
0.0
230
1.0
 70
    24
 71
     2
 72
     6
 73
     3
 74
     0
 42
0.0000000001
 43
0.0000000001
 40
-3.0
 40
-3.0
 40
-3.0
 40
-2.0
 40
-2.0
 40
-2.0
 10
-1.363017156239533
 20
-0.1667716186501328
 30
0.0
 10
-1.312204736297296
 20
-0.1667716186501328
 30
0.0
 10
-1.26139231635506
 20
-0.1667716186501328
 30
0.0
  0
SPLINE
  5
165
330
1F
100
AcDbEntity
  8
Vinilo v2_Sketch1
100
AcDbSpline
210
0.0
220
0.0
230
1.0
 70
    24
 71
     2
 72
     6
 73
     3
 74
     0
 42
0.0000000001
 43
0.0000000001
 40
-2.0
 40
-2.0
 40
-2.0
 40
-1.0
 40
-1.0
 40
-1.0
 10
-1.26139231635506
 20
-0.1667716186501328
 30
0.0
 10
-1.26139231635506
 20
-0.1321892099916572
 30
0.0
 10
-1.26139231635506
 20
-0.0976068013331815
 30
0.0
  0
SPLINE
  5
166
330
1F
100
AcDbEntity
  8
Vinilo v2_Sketch1
100
AcDbSpline
210
0.0
220
0.0
230
1.0
 70
    24
 71
     2
 72
     6
 73
     3
 74
     0
 42
0.0000000001
 43
0.0000000001
 40
-1.0
 40
-1.0
 40
-1.0
 40
0.0
 40
0.0
 40
0.0
 10
-1.26139231635506
 20
-0.0976068013331815
 30
0.0
 10
-1.312204736297296
 20
-0.0976068013331815
 30
0.0
 10
-1.363017156239533
 20
-0.0976068013331815
 30
0.0
  0
SPLINE
  5
167
330
1F
100
AcDbEntity
  8
Vinilo v2_Sketch1
100
AcDbSpline
210
0.0
220
0.0
230
1.0
 70
    24
 71
     2
 72
     6
 73
     3
 74
     0
 42
0.0000000001
 43
0.0000000001
 40
-4.0
 40
-4.0
 40
-4.0
 40
-3.0
 40
-3.0
 40
-3.0
 10
-1.363017156239533
 20
-0.1984825637737894
 30
0.0
 10
-1.363017156239533
 20
-0.3310692713380535
 30
0.0
 10
-1.363017156239533
 20
-0.4636559789023177
 30
0.0
  0
SPLINE
  5
168
330
1F
100
AcDbEntity
  8
Vinilo v2_Sketch1
100
AcDbSpline
210
0.0
220
0.0
230
1.0
 70
    24
 71
     2
 72
     6
 73
     3
 74
     0
 42
0.0000000001
 43
0.0000000001
 40
-3.0
 40
-3.0
 40
-3.0
 40
-2.0
 40
-2.0
 40
-2.0
 10
-1.363017156239533
 20
-0.4636559789023177
 30
0.0
 10
-1.312204736297296
 20
-0.4636559789023177
 30
0.0
 10
-1.26139231635506
 20
-0.4636559789023177
 30
0.0
  0
SPLINE
  5
169
330
1F
100
AcDbEntity
  8
Vinilo v2_Sketch1
100
AcDbSpline
210
0.0
220
0.0
230
1.0
 70
    24
 71
     2
 72
     6
 73
     3
 74
     0
 42
0.0000000001
 43
0.0000000001
 40
-2.0
 40
-2.0
 40
-2.0
 40
-1.0
 40
-1.0
 40
-1.0
 10
-1.26139231635506
 20
-0.4636559789023177
 30
0.0
 10
-1.26139231635506
 20
-0.3310692713380535
 30
0.0
 10
-1.26139231635506
 20
-0.1984825637737894
 30
0.0
  0
SPLINE
  5
16A
330
1F
100
AcDbEntity
  8
Vinilo v2_Sketch1
100
AcDbSpline
210
0.0
220
0.0
230
1.0
 70
    24
 71
     2
 72
     6
 73
     3
 74
     0
 42
0.0000000001
 43
0.0000000001
 40
-1.0
 40
-1.0
 40
-1.0
 40
0.0
 40
0.0
 40
0.0
 10
-1.26139231635506
 20
-0.1984825637737894
 30
0.0
 10
-1.312204736297296
 20
-0.1984825637737894
 30
0.0
 10
-1.363017156239533
 20
-0.1984825637737894
 30
0.0
  0
LINE
  5
16B
330
1F
100
AcDbEntity
  8
Vinilo v2_Sketch1
100
AcDbLine
 10
-1.101838820811623
 20
-0.2416793630367229
 30
0.0
 11
-1.101838820811623
 21
-0.1984825637737894
 31
0.0
  0
LINE
  5
16C
330
1F
100
AcDbEntity
  8
Vinilo v2_Sketch1
100
AcDbLine
 10
-1.101838820811623
 20
-0.1984825637737894
 30
0.0
 11
-1.196472271220015
 21
-0.1984825637737894
 31
0.0
  0
LINE
  5
16D
330
1F
100
AcDbEntity
  8
Vinilo v2_Sketch1
100
AcDbLine
 10
-1.196472271220015
 20
-0.1984825637737894
 30
0.0
 11
-1.196472271220015
 21
-0.4636559789023177
 31
0.0
  0
LINE
  5
16E
330
1F
100
AcDbEntity
  8
Vinilo v2_Sketch1
100
AcDbLine
 10
-1.196472271220015
 20
-0.4636559789023177
 30
0.0
 11
-1.094847431335541
 21
-0.4636559789023177
 31
0.0
  0
LINE
  5
16F
330
1F
100
AcDbEntity
  8
Vinilo v2_Sketch1
100
AcDbLine
 10
-1.094847431335541
 20
-0.4636559789023177
 30
0.0
 11
-1.094847431335541
 21
-0.3363128134451148
 31
0.0
  0
SPLINE
  5
170
330
1F
100
AcDbEntity
  8
Vinilo v2_Sketch1
100
AcDbSpline
210
0.0
220
0.0
230
1.0
 70
     8
 71
     2
 72
    12
 73
     9
 74
     0
 42
0.0000000001
 43
0.0000000001
 40
-13.0
 40
-13.0
 40
-13.0
 40
-12.0
 40
-12.0
 40
-11.0
 40
-11.0
 40
-10.0
 40
-10.0
 40
-9.0
 40
-9.0
 40
-9.0
 10
-1.094847431335541
 20
-0.3363128134451148
 30
0.0
 10
-1.094847431335541
 20
-0.300107403658263
 30
0.0
 10
-1.083361577196264
 20
-0.2861246247060995
 30
0.0
 10
-1.071875723056987
 20
-0.2721418457539361
 30
0.0
 10
-1.053398479441628
 20
-0.2721418457539361
 30
0.0
 10
-1.03666908319529
 20
-0.2721418457539361
 30
0.0
 10
-1.02743046138761
 20
-0.2825040837274143
 30
0.0
 10
-1.018191839579931
 20
-0.2928663217008927
 30
0.0
 10
-1.018191839579931
 20
-0.3178355698297559
 30
0.0
  0
SPLINE
  5
171
330
1F
100
AcDbEntity
  8
Vinilo v2_Sketch1
100
AcDbSpline
210
0.0
220
0.0
230
1.0
 70
    24
 71
     2
 72
     6
 73
     3
 74
     0
 42
0.0000000001
 43
0.0000000001
 40
-9.0
 40
-9.0
 40
-9.0
 40
-8.0
 40
-8.0
 40
-8.0
 10
-1.018191839579931
 20
-0.3178355698297559
 30
0.0
 10
-1.018191839579931
 20
-0.3907457743660368
 30
0.0
 10
-1.018191839579931
 20
-0.4636559789023177
 30
0.0
  0
SPLINE
  5
172
330
1F
100
AcDbEntity
  8
Vinilo v2_Sketch1
100
AcDbSpline
210
0.0
220
0.0
230
1.0
 70
    24
 71
     2
 72
     6
 73
     3
 74
     0
 42
0.0000000001
 43
0.0000000001
 40
-8.0
 40
-8.0
 40
-8.0
 40
-7.0
 40
-7.0
 40
-7.0
 10
-1.018191839579931
 20
-0.4636559789023177
 30
0.0
 10
-0.9671297271564055
 20
-0.4636559789023177
 30
0.0
 10
-0.9160676147328801
 20
-0.4636559789023177
 30
0.0
  0
SPLINE
  5
173
330
1F
100
AcDbEntity
  8
Vinilo v2_Sketch1
100
AcDbSpline
210
0.0
220
0.0
230
1.0
 70
    24
 71
     2
 72
     6
 73
     3
 74
     0
 42
0.0000000001
 43
0.0000000001
 40
-7.0
 40
-7.0
 40
-7.0
 40
-6.0
 40
-6.0
 40
-6.0
 10
-0.9160676147328801
 20
-0.4636559789023177
 30
0.0
 10
-0.9160676147328801
 20
-0.379384766467404
 30
0.0
 10
-0.9160676147328801
 20
-0.2951135540324903
 30
0.0
  0
SPLINE
  5
174
330
1F
100
AcDbEntity
  8
Vinilo v2_Sketch1
100
AcDbSpline
210
0.0
220
0.0
230
1.0
 70
     8
 71
     2
 72
    12
 73
     9
 74
     0
 42
0.0000000001
 43
0.0000000001
 40
-6.0
 40
-6.0
 40
-6.0
 40
-5.0
 40
-5.0
 40
-4.0
 40
-4.0
 40
-3.0
 40
-3.0
 40
-2.0
 40
-2.0
 40
-2.0
 10
-0.9160676147328801
 20
-0.2951135540324903
 30
0.0
 10
-0.9160676147328801
 20
-0.2426781329618773
 30
0.0
 10
-0.9399132466959447
 20
-0.2175840385923697
 30
0.0
 10
-0.9637588786590091
 20
-0.1924899442228621
 30
0.0
 10
-1.005956907996788
 20
-0.1924899442228621
 30
0.0
 10
-1.037168468157867
 20
-0.1924899442228621
 30
0.0
 10
-1.058891714029978
 20
-0.203850952121495
 30
0.0
 10
-1.080614959902089
 20
-0.2152119600201277
 30
0.0
 10
-1.101838820811623
 20
-0.2416793630367229
 30
0.0
  0
SPLINE
  5
175
330
1F
100
AcDbEntity
  8
Vinilo v2_Sketch1
100
AcDbSpline
210
0.0
220
0.0
230
1.0
 70
    11
 71
     2
 72
    20
 73
    17
 74
     0
 42
0.0000000001
 43
0.0000000001
 40
-8.0
 40
-8.0
 40
-8.0
 40
-7.0
 40
-7.0
 40
-6.0
 40
-6.0
 40
-5.0
 40
-5.0
 40
-4.0
 40
-4.0
 40
-3.0
 40
-3.0
 40
-2.0
 40
-2.0
 40
-1.0
 40
-1.0
 40
0.0
 40
0.0
 40
0.0
 10
-0.8678769658441741
 20
-0.3318183487819194
 30
0.0
 10
-0.8678769658441741
 20
-0.3969880863982527
 30
0.0
 10
-0.8194366244741793
 20
-0.4371885758857225
 30
0.0
 10
-0.7799852124305753
 20
-0.4696485984532448
 30
0.0
 10
-0.7160639372206852
 20
-0.4696485984532448
 30
0.0
 10
-0.6444021950908473
 20
-0.4696485984532448
 30
0.0
 10
-0.6038271668814447
 20
-0.4305717251315738
 30
0.0
 10
-0.5632521386720417
 20
-0.3914948518099027
 30
0.0
 10
-0.5632521386720417
 20
-0.3303201938941875
 30
0.0
 10
-0.5632521386720417
 20
-0.2758872329732657
 30
0.0
 10
-0.5959618537208528
 20
-0.2386830532612592
 30
0.0
 10
-0.6366617281708997
 20
-0.1924899442228621
 30
0.0
 10
-0.7163136297019737
 20
-0.1924899442228621
 30
0.0
 10
-0.7859778319815026
 20
-0.1924899442228621
 30
0.0
 10
-0.8269273989128384
 20
-0.2318165100258218
 30
0.0
 10
-0.8678769658441741
 20
-0.2711430758287816
 30
0.0
 10
-0.8678769658441741
 20
-0.3318183487819194
 30
0.0
  0
SPLINE
  5
176
330
1F
100
AcDbEntity
  8
Vinilo v2_Sketch1
100
AcDbSpline
210
0.0
220
0.0
230
1.0
 70
    11
 71
     2
 72
    20
 73
    17
 74
     0
 42
0.0000000001
 43
0.0000000001
 40
0.0
 40
0.0
 40
0.0
 40
1.0
 40
1.0
 40
2.0
 40
2.0
 40
3.0
 40
3.0
 40
4.0
 40
4.0
 40
5.0
 40
5.0
 40
6.0
 40
6.0
 40
7.0
 40
7.0
 40
8.0
 40
8.0
 40
8.0
 10
-0.7660024334784118
 20
-0.3315686563006308
 30
0.0
 10
-0.7660024334784118
 20
-0.3670249886436167
 30
0.0
 10
-0.7516451158043156
 20
-0.3840040773712438
 30
0.0
 10
-0.7372877981302193
 20
-0.4009831660988707
 30
0.0
 10
-0.7155645522581079
 20
-0.4009831660988707
 30
0.0
 10
-0.693591613904708
 20
-0.4009831660988707
 30
0.0
 10
-0.6794839887119006
 20
-0.3842537698525323
 30
0.0
 10
-0.6653763635190928
 20
-0.3675243736061939
 30
0.0
 10
-0.6653763635190928
 20
-0.3305698863754762
 30
0.0
 10
-0.6653763635190928
 20
-0.2961123239576449
 30
0.0
 10
-0.6796088349525446
 20
-0.2792580814706621
 30
0.0
 10
-0.693841306385997
 20
-0.2624038389836794
 30
0.0
 10
-0.714815474814242
 20
-0.2624038389836794
 30
0.0
 10
-0.7370381056489304
 20
-0.2624038389836794
 30
0.0
 10
-0.7515202695636711
 20
-0.2795077739519507
 30
0.0
 10
-0.7660024334784118
 20
-0.296611708920222
 30
0.0
 10
-0.7660024334784118
 20
-0.3315686563006308
 30
0.0
  0
SPLINE
  5
177
330
1F
100
AcDbEntity
  8
Vinilo v2_Sketch1
100
AcDbSpline
210
0.0
220
0.0
230
1.0
 70
    24
 71
     2
 72
     6
 73
     3
 74
     0
 42
0.0000000001
 43
0.0000000001
 40
-4.0
 40
-4.0
 40
-4.0
 40
-3.0
 40
-3.0
 40
-3.0
 10
-0.5108167176014287
 20
-0.0976068013331815
 30
0.0
 10
-0.5108167176014287
 20
-0.2806313901177496
 30
0.0
 10
-0.5108167176014287
 20
-0.4636559789023177
 30
0.0
  0
SPLINE
  5
178
330
1F
100
AcDbEntity
  8
Vinilo v2_Sketch1
100
AcDbSpline
210
0.0
220
0.0
230
1.0
 70
    24
 71
     2
 72
     6
 73
     3
 74
     0
 42
0.0000000001
 43
0.0000000001
 40
-3.0
 40
-3.0
 40
-3.0
 40
-2.0
 40
-2.0
 40
-2.0
 10
-0.5108167176014287
 20
-0.4636559789023177
 30
0.0
 10
-0.4598794514185475
 20
-0.4636559789023177
 30
0.0
 10
-0.4089421852356664
 20
-0.4636559789023177
 30
0.0
  0
SPLINE
  5
179
330
1F
100
AcDbEntity
  8
Vinilo v2_Sketch1
100
AcDbSpline
210
0.0
220
0.0
230
1.0
 70
    24
 71
     2
 72
     6
 73
     3
 74
     0
 42
0.0000000001
 43
0.0000000001
 40
-2.0
 40
-2.0
 40
-2.0
 40
-1.0
 40
-1.0
 40
-1.0
 10
-0.4089421852356664
 20
-0.4636559789023177
 30
0.0
 10
-0.4089421852356664
 20
-0.2806313901177496
 30
0.0
 10
-0.4089421852356664
 20
-0.0976068013331815
 30
0.0
  0
SPLINE
  5
17A
330
1F
100
AcDbEntity
  8
Vinilo v2_Sketch1
100
AcDbSpline
210
0.0
220
0.0
230
1.0
 70
    24
 71
     2
 72
     6
 73
     3
 74
     0
 42
0.0000000001
 43
0.0000000001
 40
-1.0
 40
-1.0
 40
-1.0
 40
0.0
 40
0.0
 40
0.0
 10
-0.4089421852356664
 20
-0.0976068013331815
 30
0.0
 10
-0.4598794514185475
 20
-0.0976068013331815
 30
0.0
 10
-0.5108167176014287
 20
-0.0976068013331815
 30
0.0
  0
SPLINE
  5
17B
330
1F
100
AcDbEntity
  8
Vinilo v2_Sketch1
100
AcDbSpline
210
0.0
220
0.0
230
1.0
 70
     8
 71
     2
 72
    12
 73
     9
 74
     0
 42
0.0000000001
 43
0.0000000001
 40
-41.0
 40
-41.0
 40
-41.0
 40
-40.0
 40
-40.0
 40
-39.0
 40
-39.0
 40
-38.0
 40
-38.0
 40
-37.0
 40
-37.0
 40
-37.0
 10
-0.2513862295425391
 20
-0.2843767773370791
 30
0.0
 10
-0.2453936099916116
 20
-0.2671479961281634
 30
0.0
 10
-0.2356556032213551
 20
-0.2609056840959475
 30
0.0
 10
-0.2231709791569233
 20
-0.2529155246947113
 30
0.0
 10
-0.1982017310280603
 20
-0.2529155246947113
 30
0.0
 10
-0.1787257174875468
 20
-0.2529155246947113
 30
0.0
 10
-0.1709852505675993
 20
-0.2604062991333703
 30
0.0
 10
-0.1632447836476513
 20
-0.2678970735720293
 30
0.0
 10
-0.1632447836476513
 20
-0.2866240096686768
 30
0.0
  0
SPLINE
  5
17C
330
1F
100
AcDbEntity
  8
Vinilo v2_Sketch1
100
AcDbSpline
210
0.0
220
0.0
230
1.0
 70
     8
 71
     2
 72
    20
 73
    17
 74
     0
 42
0.0000000001
 43
0.0000000001
 40
-37.0
 40
-37.0
 40
-37.0
 40
-36.0
 40
-36.0
 40
-35.0
 40
-35.0
 40
-34.0
 40
-34.0
 40
-33.0
 40
-33.0
 40
-32.0
 40
-32.0
 40
-31.0
 40
-31.0
 40
-30.0
 40
-30.0
 40
-29.0
 40
-29.0
 40
-29.0
 10
-0.1632447836476513
 20
-0.2866240096686768
 30
0.0
 10
-0.1822214427056267
 20
-0.2941147841073358
 30
0.0
 10
-0.1992005009532145
 20
-0.2987340950111755
 30
0.0
 10
-0.2161795896808416
 20
-0.3033534059150151
 30
0.0
 10
-0.2733591678959388
 20
-0.3148392600542923
 30
0.0
 10
-0.3210504318220676
 20
-0.3243275743432604
 30
0.0
 10
-0.3387785979935605
 20
-0.3438035878837737
 30
0.0
 10
-0.3565067641650534
 20
-0.3632796014242872
 30
0.0
 10
-0.3565067641650534
 20
-0.3934923916602118
 30
0.0
 10
-0.3565067641650534
 20
-0.4257027217464455
 30
0.0
 10
-0.3319120547581232
 20
-0.4476756600998452
 30
0.0
 10
-0.3073173453511926
 20
-0.4696485984532448
 30
0.0
 10
-0.2598757739063524
 20
-0.4696485984532448
 30
0.0
 10
-0.2241697490820781
 20
-0.4696485984532448
 30
0.0
 10
-0.1972029611029055
 20
-0.4586621292765449
 30
0.0
 10
-0.1774772550811036
 20
-0.4504222773940201
 30
0.0
 10
-0.1575018565780128
 20
-0.4311959563347953
 30
0.0
  0
SPLINE
  5
17D
330
1F
100
AcDbEntity
  8
Vinilo v2_Sketch1
100
AcDbSpline
210
0.0
220
0.0
230
1.0
 70
     8
 71
     2
 72
     8
 73
     5
 74
     0
 42
0.0000000001
 43
0.0000000001
 40
-29.0
 40
-29.0
 40
-29.0
 40
-28.0
 40
-28.0
 40
-27.0
 40
-27.0
 40
-27.0
 10
-0.1575018565780128
 20
-0.4311959563347953
 30
0.0
 10
-0.1557540092089923
 20
-0.4426818104740725
 30
0.0
 10
-0.1540061618399722
 20
-0.4480501988217781
 30
0.0
 10
-0.1522583144709516
 20
-0.4534185871694837
 30
0.0
 10
-0.1465153874013131
 20
-0.4636559789023177
 30
0.0
  0
SPLINE
  5
17E
330
1F
100
AcDbEntity
  8
Vinilo v2_Sketch1
100
AcDbSpline
210
0.0
220
0.0
230
1.0
 70
    24
 71
     2
 72
     6
 73
     3
 74
     0
 42
0.0000000001
 43
0.0000000001
 40
-27.0
 40
-27.0
 40
-27.0
 40
-26.0
 40
-26.0
 40
-26.0
 10
-0.1465153874013131
 20
-0.4636559789023177
 30
0.0
 10
-0.0988241234751842
 20
-0.4636559789023177
 30
0.0
 10
-0.0511328595490552
 20
-0.4636559789023177
 30
0.0
  0
SPLINE
  5
17F
330
1F
100
AcDbEntity
  8
Vinilo v2_Sketch1
100
AcDbSpline
210
0.0
220
0.0
230
1.0
 70
     8
 71
     2
 72
     8
 73
     5
 74
     0
 42
0.0000000001
 43
0.0000000001
 40
-26.0
 40
-26.0
 40
-26.0
 40
-25.0
 40
-25.0
 40
-24.0
 40
-24.0
 40
-24.0
 10
-0.0511328595490552
 20
-0.4636559789023177
 30
0.0
 10
-0.0591230189502912
 20
-0.447176275137268
 30
0.0
 10
-0.0614950975225336
 20
-0.4365643446825009
 30
0.0
 10
-0.0638671760947755
 20
-0.425952414227734
 30
0.0
 10
-0.0638671760947755
 20
-0.4072254781310867
 30
0.0
  0
SPLINE
  5
180
330
1F
100
AcDbEntity
  8
Vinilo v2_Sketch1
100
AcDbSpline
210
0.0
220
0.0
230
1.0
 70
    24
 71
     2
 72
     6
 73
     3
 74
     0
 42
0.0000000001
 43
0.0000000001
 40
-24.0
 40
-24.0
 40
-24.0
 40
-23.0
 40
-23.0
 40
-23.0
 10
-0.0638671760947755
 20
-0.4072254781310867
 30
0.0
 10
-0.0638671760947755
 20
-0.3486725912689022
 30
0.0
 10
-0.0638671760947755
 20
-0.2901197044067177
 30
0.0
  0
SPLINE
  5
181
330
1F
100
AcDbEntity
  8
Vinilo v2_Sketch1
100
AcDbSpline
210
0.0
220
0.0
230
1.0
 70
     8
 71
     2
 72
    20
 73
    17
 74
     0
 42
0.0000000001
 43
0.0000000001
 40
-23.0
 40
-23.0
 40
-23.0
 40
-22.0
 40
-22.0
 40
-21.0
 40
-21.0
 40
-20.0
 40
-20.0
 40
-19.0
 40
-19.0
 40
-18.0
 40
-18.0
 40
-17.0
 40
-17.0
 40
-16.0
 40
-16.0
 40
-15.0
 40
-15.0
 40
-15.0
 10
-0.0638671760947755
 20
-0.2901197044067177
 30
0.0
 10
-0.0638671760947755
 20
-0.2713927683100702
 30
0.0
 10
-0.0713579505334345
 20
-0.2507931386037578
 30
0.0
 10
-0.0788487249720936
 20
-0.2301935088974457
 30
0.0
 10
-0.0918327339991022
 20
-0.2189573472394572
 30
0.0
 10
-0.110309977614461
 20
-0.202727335955696
 30
0.0
 10
-0.1380258430374993
 20
-0.1976086400892791
 30
0.0
 10
-0.1657417084605377
 20
-0.1924899442228621
 30
0.0
 10
-0.2114354325363579
 20
-0.1924899442228621
 30
0.0
 10
-0.239900375403262
 20
-0.1924899442228621
 30
0.0
 10
-0.2643702385695477
 20
-0.1967347164047688
 30
0.0
 10
-0.2888401017358339
 20
-0.2009794885866756
 30
0.0
 10
-0.3028228806879973
 20
-0.2087199555066232
 30
0.0
 10
-0.3222988942285108
 20
-0.2194567322020345
 30
0.0
 10
-0.3326611322019891
 20
-0.2340637423574195
 30
0.0
 10
-0.3430233701754674
 20
-0.2486707525128045
 30
0.0
 10
-0.3485166047638175
 20
-0.2741393856042451
 30
0.0
  0
SPLINE
  5
182
330
1F
100
AcDbEntity
  8
Vinilo v2_Sketch1
100
AcDbSpline
210
0.0
220
0.0
230
1.0
 70
    24
 71
     2
 72
     6
 73
     3
 74
     0
 42
0.0000000001
 43
0.0000000001
 40
-15.0
 40
-15.0
 40
-15.0
 40
-14.0
 40
-14.0
 40
-14.0
 10
-0.3485166047638175
 20
-0.2741393856042451
 30
0.0
 10
-0.2999514171531783
 20
-0.2792580814706621
 30
0.0
 10
-0.2513862295425391
 20
-0.2843767773370791
 30
0.0
  0
SPLINE
  5
183
330
1F
100
AcDbEntity
  8
Vinilo v2_Sketch1
100
AcDbSpline
210
0.0
220
0.0
230
1.0
 70
     8
 71
     2
 72
    20
 73
    17
 74
     0
 42
0.0000000001
 43
0.0000000001
 40
0.0
 40
0.0
 40
0.0
 40
1.0
 40
1.0
 40
2.0
 40
2.0
 40
3.0
 40
3.0
 40
4.0
 40
4.0
 40
5.0
 40
5.0
 40
6.0
 40
6.0
 40
7.0
 40
7.0
 40
8.0
 40
8.0
 40
8.0
 10
-0.1632447836476513
 20
-0.3378109683328465
 30
0.0
 10
-0.1842189520758969
 20
-0.3453017427715056
 30
0.0
 10
-0.206940967873162
 20
-0.3510446698411441
 30
0.0
 10
-0.2379028355529526
 20
-0.359284521723669
 30
0.0
 10
-0.2461426874354779
 20
-0.3672746811249054
 30
0.0
 10
-0.2546322317992912
 20
-0.3755145330074302
 30
0.0
 10
-0.2546322317992912
 20
-0.3860016172215527
 30
0.0
 10
-0.2546322317992912
 20
-0.3979868563234071
 30
0.0
 10
-0.2462675336761219
 20
-0.4056024770027105
 30
0.0
 10
-0.2379028355529526
 20
-0.4132180976820138
 30
0.0
 10
-0.2216728242691917
 20
-0.4132180976820138
 30
0.0
 10
-0.2046937355415646
 20
-0.4132180976820138
 30
0.0
 10
-0.1900867253861794
 20
-0.4049782457994889
 30
0.0
 10
-0.1754797152307946
 20
-0.396738393916964
 30
0.0
 10
-0.1693622494392232
 20
-0.3848780010557539
 30
0.0
 10
-0.1632447836476513
 20
-0.3730176081945439
 30
0.0
 10
-0.1632447836476513
 20
-0.3540409796166077
 30
0.0
  0
SPLINE
  5
184
330
1F
100
AcDbEntity
  8
Vinilo v2_Sketch1
100
AcDbSpline
210
0.0
220
0.0
230
1.0
 70
    24
 71
     2
 72
     6
 73
     3
 74
     0
 42
0.0000000001
 43
0.0000000001
 40
8.0
 40
8.0
 40
8.0
 40
9.0
 40
9.0
 40
9.0
 10
-0.1632447836476513
 20
-0.3540409796166077
 30
0.0
 10
-0.1632447836476513
 20
-0.3459259739747271
 30
0.0
 10
-0.1632447836476513
 20
-0.3378109683328465
 30
0.0
  0
LINE
  5
185
330
1F
100
AcDbEntity
  8
Vinilo v2_Sketch1
100
AcDbLine
 10
0.093189394635775
 20
-0.2419290555180114
 30
0.0
 11
0.093189394635775
 21
-0.1984825637737894
 31
0.0
  0
LINE
  5
186
330
1F
100
AcDbEntity
  8
Vinilo v2_Sketch1
100
AcDbLine
 10
0.093189394635775
 20
-0.1984825637737894
 30
0.0
 11
-0.0019434407351944
 21
-0.1984825637737894
 31
0.0
  0
LINE
  5
187
330
1F
100
AcDbEntity
  8
Vinilo v2_Sketch1
100
AcDbLine
 10
-0.0019434407351944
 20
-0.1984825637737894
 30
0.0
 11
-0.0019434407351944
 21
-0.4636559789023177
 31
0.0
  0
LINE
  5
188
330
1F
100
AcDbEntity
  8
Vinilo v2_Sketch1
100
AcDbLine
 10
-0.0019434407351944
 20
-0.4636559789023177
 30
0.0
 11
0.1001807841118567
 21
-0.4636559789023177
 31
0.0
  0
LINE
  5
189
330
1F
100
AcDbEntity
  8
Vinilo v2_Sketch1
100
AcDbLine
 10
0.1001807841118567
 20
-0.4636559789023177
 30
0.0
 11
0.1001807841118567
 21
-0.3747654555635642
 31
0.0
  0
SPLINE
  5
18A
330
1F
100
AcDbEntity
  8
Vinilo v2_Sketch1
100
AcDbSpline
210
0.0
220
0.0
230
1.0
 70
     8
 71
     2
 72
    10
 73
     7
 74
     0
 42
0.0000000001
 43
0.0000000001
 40
-15.0
 40
-15.0
 40
-15.0
 40
-14.0
 40
-14.0
 40
-13.0
 40
-13.0
 40
-12.0
 40
-12.0
 40
-12.0
 10
0.1001807841118567
 20
-0.3747654555635642
 30
0.0
 10
0.1001807841118567
 20
-0.3110938728349628
 30
0.0
 10
0.1159114104330406
 20
-0.2878724720751199
 30
0.0
 10
0.1268978796097403
 20
-0.2713927683100702
 30
0.0
 10
0.1468732781128311
 20
-0.2713927683100702
 30
0.0
 10
0.1573603623269534
 20
-0.2713927683100702
 30
0.0
 10
0.1753382209797353
 20
-0.2788835427487292
 30
0.0
  0
SPLINE
  5
18B
330
1F
100
AcDbEntity
  8
Vinilo v2_Sketch1
100
AcDbSpline
210
0.0
220
0.0
230
1.0
 70
    24
 71
     2
 72
     6
 73
     3
 74
     0
 42
0.0000000001
 43
0.0000000001
 40
-12.0
 40
-12.0
 40
-12.0
 40
-11.0
 40
-11.0
 40
-11.0
 10
0.1753382209797353
 20
-0.2788835427487292
 30
0.0
 10
0.1910688473009192
 20
-0.2426781329618773
 30
0.0
 10
0.2067994736221032
 20
-0.2064727231750255
 30
0.0
  0
SPLINE
  5
18C
330
1F
100
AcDbEntity
  8
Vinilo v2_Sketch1
100
AcDbSpline
210
0.0
220
0.0
230
1.0
 70
     8
 71
     2
 72
    10
 73
     7
 74
     0
 42
0.0000000001
 43
0.0000000001
 40
-11.0
 40
-11.0
 40
-11.0
 40
-10.0
 40
-10.0
 40
-9.0
 40
-9.0
 40
-8.0
 40
-8.0
 40
-8.0
 10
0.2067994736221032
 20
-0.2064727231750255
 30
0.0
 10
0.1800823781242191
 20
-0.1924899442228621
 30
0.0
 10
0.1576100548082424
 20
-0.1924899442228621
 30
0.0
 10
0.1361365014174199
 20
-0.1924899442228621
 30
0.0
 10
0.1215294912620347
 20
-0.2031018746776289
 30
0.0
 10
0.1069224811066495
 20
-0.2137138051323959
 30
0.0
 10
0.093189394635775
 20
-0.2419290555180114
 30
0.0
  0
SPLINE
  5
18D
330
1F
100
AcDbEntity
  8
Vinilo v2_Sketch1
100
AcDbSpline
210
0.0
220
0.0
230
1.0
 70
    24
 71
     2
 72
     6
 73
     3
 74
     0
 42
0.0000000001
 43
0.0000000001
 40
-4.0
 40
-4.0
 40
-4.0
 40
-3.0
 40
-3.0
 40
-3.0
 10
0.2277736420503483
 20
-0.0976068013331815
 30
0.0
 10
0.2277736420503483
 20
-0.1321892099916572
 30
0.0
 10
0.2277736420503483
 20
-0.1667716186501328
 30
0.0
  0
SPLINE
  5
18E
330
1F
100
AcDbEntity
  8
Vinilo v2_Sketch1
100
AcDbSpline
210
0.0
220
0.0
230
1.0
 70
    24
 71
     2
 72
     6
 73
     3
 74
     0
 42
0.0000000001
 43
0.0000000001
 40
-3.0
 40
-3.0
 40
-3.0
 40
-2.0
 40
-2.0
 40
-2.0
 10
0.2277736420503483
 20
-0.1667716186501328
 30
0.0
 10
0.278586061992585
 20
-0.1667716186501328
 30
0.0
 10
0.3293984819348216
 20
-0.1667716186501328
 30
0.0
  0
SPLINE
  5
18F
330
1F
100
AcDbEntity
  8
Vinilo v2_Sketch1
100
AcDbSpline
210
0.0
220
0.0
230
1.0
 70
    24
 71
     2
 72
     6
 73
     3
 74
     0
 42
0.0000000001
 43
0.0000000001
 40
-2.0
 40
-2.0
 40
-2.0
 40
-1.0
 40
-1.0
 40
-1.0
 10
0.3293984819348216
 20
-0.1667716186501328
 30
0.0
 10
0.3293984819348216
 20
-0.1321892099916572
 30
0.0
 10
0.3293984819348216
 20
-0.0976068013331815
 30
0.0
  0
SPLINE
  5
190
330
1F
100
AcDbEntity
  8
Vinilo v2_Sketch1
100
AcDbSpline
210
0.0
220
0.0
230
1.0
 70
    24
 71
     2
 72
     6
 73
     3
 74
     0
 42
0.0000000001
 43
0.0000000001
 40
-1.0
 40
-1.0
 40
-1.0
 40
0.0
 40
0.0
 40
0.0
 10
0.3293984819348216
 20
-0.0976068013331815
 30
0.0
 10
0.278586061992585
 20
-0.0976068013331815
 30
0.0
 10
0.2277736420503483
 20
-0.0976068013331815
 30
0.0
  0
SPLINE
  5
191
330
1F
100
AcDbEntity
  8
Vinilo v2_Sketch1
100
AcDbSpline
210
0.0
220
0.0
230
1.0
 70
    24
 71
     2
 72
     6
 73
     3
 74
     0
 42
0.0000000001
 43
0.0000000001
 40
-4.0
 40
-4.0
 40
-4.0
 40
-3.0
 40
-3.0
 40
-3.0
 10
0.2277736420503483
 20
-0.1984825637737894
 30
0.0
 10
0.2277736420503483
 20
-0.3310692713380535
 30
0.0
 10
0.2277736420503483
 20
-0.4636559789023177
 30
0.0
  0
SPLINE
  5
192
330
1F
100
AcDbEntity
  8
Vinilo v2_Sketch1
100
AcDbSpline
210
0.0
220
0.0
230
1.0
 70
    24
 71
     2
 72
     6
 73
     3
 74
     0
 42
0.0000000001
 43
0.0000000001
 40
-3.0
 40
-3.0
 40
-3.0
 40
-2.0
 40
-2.0
 40
-2.0
 10
0.2277736420503483
 20
-0.4636559789023177
 30
0.0
 10
0.278586061992585
 20
-0.4636559789023177
 30
0.0
 10
0.3293984819348216
 20
-0.4636559789023177
 30
0.0
  0
SPLINE
  5
193
330
1F
100
AcDbEntity
  8
Vinilo v2_Sketch1
100
AcDbSpline
210
0.0
220
0.0
230
1.0
 70
    24
 71
     2
 72
     6
 73
     3
 74
     0
 42
0.0000000001
 43
0.0000000001
 40
-2.0
 40
-2.0
 40
-2.0
 40
-1.0
 40
-1.0
 40
-1.0
 10
0.3293984819348216
 20
-0.4636559789023177
 30
0.0
 10
0.3293984819348216
 20
-0.3310692713380535
 30
0.0
 10
0.3293984819348216
 20
-0.1984825637737894
 30
0.0
  0
SPLINE
  5
194
330
1F
100
AcDbEntity
  8
Vinilo v2_Sketch1
100
AcDbSpline
210
0.0
220
0.0
230
1.0
 70
    24
 71
     2
 72
     6
 73
     3
 74
     0
 42
0.0000000001
 43
0.0000000001
 40
-1.0
 40
-1.0
 40
-1.0
 40
0.0
 40
0.0
 40
0.0
 10
0.3293984819348216
 20
-0.1984825637737894
 30
0.0
 10
0.278586061992585
 20
-0.1984825637737894
 30
0.0
 10
0.2277736420503483
 20
-0.1984825637737894
 30
0.0
  0
LINE
  5
195
330
1F
100
AcDbEntity
  8
Vinilo v2_Sketch1
100
AcDbLine
 10
0.4889519774782584
 20
-0.2416793630367229
 30
0.0
 11
0.4889519774782584
 21
-0.1984825637737894
 31
0.0
  0
LINE
  5
196
330
1F
100
AcDbEntity
  8
Vinilo v2_Sketch1
100
AcDbLine
 10
0.4889519774782584
 20
-0.1984825637737894
 30
0.0
 11
0.3943185270698668
 21
-0.1984825637737894
 31
0.0
  0
LINE
  5
197
330
1F
100
AcDbEntity
  8
Vinilo v2_Sketch1
100
AcDbLine
 10
0.3943185270698668
 20
-0.1984825637737894
 30
0.0
 11
0.3943185270698668
 21
-0.4636559789023177
 31
0.0
  0
LINE
  5
198
330
1F
100
AcDbEntity
  8
Vinilo v2_Sketch1
100
AcDbLine
 10
0.3943185270698668
 20
-0.4636559789023177
 30
0.0
 11
0.49594336695434
 21
-0.4636559789023177
 31
0.0
  0
LINE
  5
199
330
1F
100
AcDbEntity
  8
Vinilo v2_Sketch1
100
AcDbLine
 10
0.49594336695434
 20
-0.4636559789023177
 30
0.0
 11
0.49594336695434
 21
-0.3363128134451148
 31
0.0
  0
SPLINE
  5
19A
330
1F
100
AcDbEntity
  8
Vinilo v2_Sketch1
100
AcDbSpline
210
0.0
220
0.0
230
1.0
 70
     8
 71
     2
 72
    12
 73
     9
 74
     0
 42
0.0000000001
 43
0.0000000001
 40
-13.0
 40
-13.0
 40
-13.0
 40
-12.0
 40
-12.0
 40
-11.0
 40
-11.0
 40
-10.0
 40
-10.0
 40
-9.0
 40
-9.0
 40
-9.0
 10
0.49594336695434
 20
-0.3363128134451148
 30
0.0
 10
0.49594336695434
 20
-0.300107403658263
 30
0.0
 10
0.5074292210936175
 20
-0.2861246247060995
 30
0.0
 10
0.5189150752328946
 20
-0.2721418457539361
 30
0.0
 10
0.5373923188482533
 20
-0.2721418457539361
 30
0.0
 10
0.5541217150945915
 20
-0.2721418457539361
 30
0.0
 10
0.563360336902271
 20
-0.2825040837274143
 30
0.0
 10
0.5725989587099507
 20
-0.2928663217008927
 30
0.0
 10
0.5725989587099507
 20
-0.3178355698297559
 30
0.0
  0
SPLINE
  5
19B
330
1F
100
AcDbEntity
  8
Vinilo v2_Sketch1
100
AcDbSpline
210
0.0
220
0.0
230
1.0
 70
    24
 71
     2
 72
     6
 73
     3
 74
     0
 42
0.0000000001
 43
0.0000000001
 40
-9.0
 40
-9.0
 40
-9.0
 40
-8.0
 40
-8.0
 40
-8.0
 10
0.5725989587099507
 20
-0.3178355698297559
 30
0.0
 10
0.5725989587099507
 20
-0.3907457743660368
 30
0.0
 10
0.5725989587099507
 20
-0.4636559789023177
 30
0.0
  0
SPLINE
  5
19C
330
1F
100
AcDbEntity
  8
Vinilo v2_Sketch1
100
AcDbSpline
210
0.0
220
0.0
230
1.0
 70
    24
 71
     2
 72
     6
 73
     3
 74
     0
 42
0.0000000001
 43
0.0000000001
 40
-8.0
 40
-8.0
 40
-8.0
 40
-7.0
 40
-7.0
 40
-7.0
 10
0.5725989587099507
 20
-0.4636559789023177
 30
0.0
 10
0.623661071133476
 20
-0.4636559789023177
 30
0.0
 10
0.6747231835570013
 20
-0.4636559789023177
 30
0.0
  0
SPLINE
  5
19D
330
1F
100
AcDbEntity
  8
Vinilo v2_Sketch1
100
AcDbSpline
210
0.0
220
0.0
230
1.0
 70
    24
 71
     2
 72
     6
 73
     3
 74
     0
 42
0.0000000001
 43
0.0000000001
 40
-7.0
 40
-7.0
 40
-7.0
 40
-6.0
 40
-6.0
 40
-6.0
 10
0.6747231835570013
 20
-0.4636559789023177
 30
0.0
 10
0.6747231835570013
 20
-0.379384766467404
 30
0.0
 10
0.6747231835570013
 20
-0.2951135540324903
 30
0.0
  0
SPLINE
  5
19E
330
1F
100
AcDbEntity
  8
Vinilo v2_Sketch1
100
AcDbSpline
210
0.0
220
0.0
230
1.0
 70
     8
 71
     2
 72
    12
 73
     9
 74
     0
 42
0.0000000001
 43
0.0000000001
 40
-6.0
 40
-6.0
 40
-6.0
 40
-5.0
 40
-5.0
 40
-4.0
 40
-4.0
 40
-3.0
 40
-3.0
 40
-2.0
 40
-2.0
 40
-2.0
 10
0.6747231835570013
 20
-0.2951135540324903
 30
0.0
 10
0.6747231835570013
 20
-0.2426781329618773
 30
0.0
 10
0.650877551593937
 20
-0.2175840385923697
 30
0.0
 10
0.6270319196308727
 20
-0.1924899442228621
 30
0.0
 10
0.5848338902930935
 20
-0.1924899442228621
 30
0.0
 10
0.5536223301320146
 20
-0.1924899442228621
 30
0.0
 10
0.5318990842599033
 20
-0.203850952121495
 30
0.0
 10
0.5101758383877923
 20
-0.2152119600201277
 30
0.0
 10
0.4889519774782584
 20
-0.2416793630367229
 30
0.0
  0
LINE
  5
19F
330
1F
100
AcDbEntity
  8
Vinilo v2_Sketch1
100
AcDbLine
 10
1.015303728034697
 20
-0.4606596691268541
 30
0.0
 11
1.015054035553409
 21
-0.4489241225062883
 31
0.0
  0
LINE
  5
1A0
330
1F
100
AcDbEntity
  8
Vinilo v2_Sketch1
100
AcDbLine
 10
1.015054035553409
 20
-0.4489241225062883
 30
0.0
 11
1.015054035553409
 21
-0.1984825637737894
 31
0.0
  0
LINE
  5
1A1
330
1F
100
AcDbEntity
  8
Vinilo v2_Sketch1
100
AcDbLine
 10
1.015054035553409
 20
-0.1984825637737894
 30
0.0
 11
0.9199212001824395
 21
-0.1984825637737894
 31
0.0
  0
LINE
  5
1A2
330
1F
100
AcDbEntity
  8
Vinilo v2_Sketch1
100
AcDbLine
 10
0.9199212001824395
 20
-0.1984825637737894
 30
0.0
 11
0.9199212001824395
 21
-0.2376842833361047
 31
0.0
  0
SPLINE
  5
1A3
330
1F
100
AcDbEntity
  8
Vinilo v2_Sketch1
100
AcDbSpline
210
0.0
220
0.0
230
1.0
 70
     8
 71
     2
 72
    20
 73
    17
 74
     0
 42
0.0000000001
 43
0.0000000001
 40
-25.0
 40
-25.0
 40
-25.0
 40
-24.0
 40
-24.0
 40
-23.0
 40
-23.0
 40
-22.0
 40
-22.0
 40
-21.0
 40
-21.0
 40
-20.0
 40
-20.0
 40
-19.0
 40
-19.0
 40
-18.0
 40
-18.0
 40
-17.0
 40
-17.0
 40
-17.0
 10
0.9199212001824395
 20
-0.2376842833361047
 30
0.0
 10
0.902442726492235
 20
-0.2134641126511072
 30
0.0
 10
0.8823424817485003
 20
-0.2029770284369847
 30
0.0
 10
0.862242237004765
 20
-0.1924899442228621
 30
0.0
 10
0.8312803693249744
 20
-0.1924899442228621
 30
0.0
 10
0.7828400279549799
 20
-0.1924899442228621
 30
0.0
 10
0.7528769302003436
 20
-0.2249499667903844
 30
0.0
 10
0.7229138324457078
 20
-0.2574099893579067
 30
0.0
 10
0.7229138324457078
 20
-0.3193337247174877
 30
0.0
 10
0.7229138324457078
 20
-0.3735169931571211
 30
0.0
 10
0.7461352332055509
 20
-0.4064764006872207
 30
0.0
 10
0.7788449482543615
 20
-0.4529192022069064
 30
0.0
 10
0.8320294467688407
 20
-0.4529192022069064
 30
0.0
 10
0.8592459272293017
 20
-0.4529192022069064
 30
0.0
 10
0.8827170204704331
 20
-0.4404345781424748
 30
0.0
 10
0.8976985693477508
 20
-0.4324444187412385
 30
0.0
 10
0.9126801182250689
 20
-0.4147162525697455
 30
0.0
  0
SPLINE
  5
1A4
330
1F
100
AcDbEntity
  8
Vinilo v2_Sketch1
100
AcDbSpline
210
0.0
220
0.0
230
1.0
 70
    24
 71
     2
 72
     6
 73
     3
 74
     0
 42
0.0000000001
 43
0.0000000001
 40
-17.0
 40
-17.0
 40
-17.0
 40
-16.0
 40
-16.0
 40
-16.0
 10
0.9126801182250689
 20
-0.4147162525697455
 30
0.0
 10
0.9126801182250689
 20
-0.4348164973134805
 30
0.0
 10
0.9126801182250689
 20
-0.4549167420572156
 30
0.0
  0
SPLINE
  5
1A5
330
1F
100
AcDbEntity
  8
Vinilo v2_Sketch1
100
AcDbSpline
210
0.0
220
0.0
230
1.0
 70
     8
 71
     2
 72
    12
 73
     9
 74
     0
 42
0.0000000001
 43
0.0000000001
 40
-16.0
 40
-16.0
 40
-16.0
 40
-15.0
 40
-15.0
 40
-14.0
 40
-14.0
 40
-13.0
 40
-13.0
 40
-12.0
 40
-12.0
 40
-12.0
 10
0.9126801182250689
 20
-0.4549167420572156
 30
0.0
 10
0.9126801182250689
 20
-0.4841307623679856
 30
0.0
 10
0.9018184952890133
 20
-0.4958663089885513
 30
0.0
 10
0.8909568723529581
 20
-0.5076018556091171
 30
0.0
 10
0.8689839339995582
 20
-0.5076018556091171
 30
0.0
 10
0.8520048452719311
 20
-0.5076018556091171
 30
0.0
 10
0.8407686836139425
 20
-0.4998613886891694
 30
0.0
 10
0.833028216693995
 20
-0.4946178465821082
 30
0.0
 10
0.8292828294746655
 20
-0.4808847601112334
 30
0.0
  0
SPLINE
  5
1A6
330
1F
100
AcDbEntity
  8
Vinilo v2_Sketch1
100
AcDbSpline
210
0.0
220
0.0
230
1.0
 70
    24
 71
     2
 72
     6
 73
     3
 74
     0
 42
0.0000000001
 43
0.0000000001
 40
-12.0
 40
-12.0
 40
-12.0
 40
-11.0
 40
-11.0
 40
-11.0
 10
0.8292828294746655
 20
-0.4808847601112334
 30
0.0
 10
0.7799685644201604
 20
-0.4752666792822391
 30
0.0
 10
0.7306542993656554
 20
-0.4696485984532448
 30
0.0
  0
SPLINE
  5
1A7
330
1F
100
AcDbEntity
  8
Vinilo v2_Sketch1
100
AcDbSpline
210
0.0
220
0.0
230
1.0
 70
     8
 71
     2
 72
    18
 73
    15
 74
     0
 42
0.0000000001
 43
0.0000000001
 40
-11.0
 40
-11.0
 40
-11.0
 40
-10.0
 40
-10.0
 40
-9.0
 40
-9.0
 40
-8.0
 40
-8.0
 40
-7.0
 40
-7.0
 40
-6.0
 40
-6.0
 40
-5.0
 40
-5.0
 40
-4.0
 40
-4.0
 40
-4.0
 10
0.7306542993656554
 20
-0.4696485984532448
 30
0.0
 10
0.730154914403078
 20
-0.4781381428170585
 30
0.0
 10
0.730154914403078
 20
-0.483131992442831
 30
0.0
 10
0.730154914403078
 20
-0.523332481930301
 30
0.0
 10
0.7599931659170698
 20
-0.5473029601340098
 30
0.0
 10
0.7898314174310616
 20
-0.5712734383377186
 30
0.0
 10
0.869733011443424
 20
-0.5712734383377186
 30
0.0
 10
0.904689958823833
 20
-0.5712734383377186
 30
0.0
 10
0.9317815930436495
 20
-0.5650311263055028
 30
0.0
 10
0.958873227263466
 20
-0.5587888142732869
 30
0.0
 10
0.976476547194315
 20
-0.5448060353211235
 30
0.0
 10
0.9940798671251634
 20
-0.5308232563689601
 30
0.0
 10
1.00469179757993
 20
-0.5082260868123386
 30
0.0
 10
1.015303728034697
 20
-0.4856289172557173
 30
0.0
 10
1.015303728034697
 20
-0.4606596691268541
 30
0.0
  0
SPLINE
  5
1A8
330
1F
100
AcDbEntity
  8
Vinilo v2_Sketch1
100
AcDbSpline
210
0.0
220
0.0
230
1.0
 70
    11
 71
     2
 72
    20
 73
    17
 74
     0
 42
0.0000000001
 43
0.0000000001
 40
0.0
 40
0.0
 40
0.0
 40
1.0
 40
1.0
 40
2.0
 40
2.0
 40
3.0
 40
3.0
 40
4.0
 40
4.0
 40
5.0
 40
5.0
 40
6.0
 40
6.0
 40
7.0
 40
7.0
 40
8.0
 40
8.0
 40
8.0
 10
0.8242889798488927
 20
-0.3270741916374355
 30
0.0
 10
0.8242889798488927
 20
-0.3557888269856282
 30
0.0
 10
0.8365239114320361
 20
-0.3696467596971473
 30
0.0
 10
0.8487588430151789
 20
-0.3835046924086665
 30
0.0
 10
0.8687342415182697
 20
-0.3835046924086665
 30
0.0
 10
0.8877108700962059
 20
-0.3835046924086665
 30
0.0
 10
0.9005700328825705
 20
-0.36914737473457
 30
0.0
 10
0.9134291956689348
 20
-0.3547900570604736
 30
0.0
 10
0.9134291956689348
 20
-0.3258257292309923
 30
0.0
 10
0.9134291956689348
 20
-0.2968614014015107
 30
0.0
 10
0.8999458016793487
 20
-0.2815053138022598
 30
0.0
 10
0.8864624076897627
 20
-0.2661492262030088
 30
0.0
 10
0.8669863941492492
 20
-0.2661492262030088
 30
0.0
 10
0.8475103806087357
 20
-0.2661492262030088
 30
0.0
 10
0.8358996802288142
 20
-0.2802568513958167
 30
0.0
 10
0.8242889798488927
 20
-0.2943644765886244
 30
0.0
 10
0.8242889798488927
 20
-0.3270741916374355
 30
0.0
  0
SPLINE
  5
1A9
330
1F
100
AcDbEntity
  8
Vinilo v2_Sketch1
100
AcDbSpline
210
0.0
220
0.0
230
1.0
 70
    11
 71
     2
 72
    20
 73
    17
 74
     0
 42
0.0000000001
 43
0.0000000001
 40
-8.0
 40
-8.0
 40
-8.0
 40
-7.0
 40
-7.0
 40
-6.0
 40
-6.0
 40
-5.0
 40
-5.0
 40
-4.0
 40
-4.0
 40
-3.0
 40
-3.0
 40
-2.0
 40
-2.0
 40
-1.0
 40
-1.0
 40
0.0
 40
0.0
 40
0.0
 10
1.063993761885981
 20
-0.3318183487819194
 30
0.0
 10
1.063993761885981
 20
-0.3969880863982527
 30
0.0
 10
1.112434103255976
 20
-0.4371885758857225
 30
0.0
 10
1.15188551529958
 20
-0.4696485984532448
 30
0.0
 10
1.21580679050947
 20
-0.4696485984532448
 30
0.0
 10
1.287468532639307
 20
-0.4696485984532448
 30
0.0
 10
1.32804356084871
 20
-0.4305717251315738
 30
0.0
 10
1.368618589058114
 20
-0.3914948518099027
 30
0.0
 10
1.368618589058114
 20
-0.3303201938941875
 30
0.0
 10
1.368618589058114
 20
-0.2758872329732657
 30
0.0
 10
1.335908874009303
 20
-0.2386830532612592
 30
0.0
 10
1.295208999559256
 20
-0.1924899442228621
 30
0.0
 10
1.215557098028181
 20
-0.1924899442228621
 30
0.0
 10
1.145892895748652
 20
-0.1924899442228621
 30
0.0
 10
1.104943328817317
 20
-0.2318165100258218
 30
0.0
 10
1.063993761885981
 20
-0.2711430758287816
 30
0.0
 10
1.063993761885981
 20
-0.3318183487819194
 30
0.0
  0
SPLINE
  5
1AA
330
1F
100
AcDbEntity
  8
Vinilo v2_Sketch1
100
AcDbSpline
210
0.0
220
0.0
230
1.0
 70
    11
 71
     2
 72
    20
 73
    17
 74
     0
 42
0.0000000001
 43
0.0000000001
 40
0.0
 40
0.0
 40
0.0
 40
1.0
 40
1.0
 40
2.0
 40
2.0
 40
3.0
 40
3.0
 40
4.0
 40
4.0
 40
5.0
 40
5.0
 40
6.0
 40
6.0
 40
7.0
 40
7.0
 40
8.0
 40
8.0
 40
8.0
 10
1.165868294251743
 20
-0.3315686563006308
 30
0.0
 10
1.165868294251743
 20
-0.3670249886436167
 30
0.0
 10
1.18022561192584
 20
-0.3840040773712438
 30
0.0
 10
1.194582929599936
 20
-0.4009831660988707
 30
0.0
 10
1.216306175472047
 20
-0.4009831660988707
 30
0.0
 10
1.238279113825447
 20
-0.4009831660988707
 30
0.0
 10
1.252386739018255
 20
-0.3842537698525323
 30
0.0
 10
1.266494364211063
 20
-0.3675243736061939
 30
0.0
 10
1.266494364211063
 20
-0.3305698863754762
 30
0.0
 10
1.266494364211063
 20
-0.2961123239576449
 30
0.0
 10
1.252261892777611
 20
-0.2792580814706621
 30
0.0
 10
1.238029421344158
 20
-0.2624038389836794
 30
0.0
 10
1.217055252915913
 20
-0.2624038389836794
 30
0.0
 10
1.194832622081225
 20
-0.2624038389836794
 30
0.0
 10
1.180350458166484
 20
-0.2795077739519507
 30
0.0
 10
1.165868294251743
 20
-0.296611708920222
 30
0.0
 10
1.165868294251743
 20
-0.3315686563006308
 30
0.0
  0
SPLINE
  5
1AB
330
1F
100
AcDbEntity
  8
Vinilo v2_Sketch1
100
AcDbSpline
210
0.0
220
0.0
230
1.0
 70
    24
 71
     2
 72
     6
 73
     3
 74
     0
 42
0.0000000001
 43
0.0000000001
 40
-4.0
 40
-4.0
 40
-4.0
 40
-3.0
 40
-3.0
 40
-3.0
 10
1.421054010128727
 20
-0.0976068013331815
 30
0.0
 10
1.421054010128727
 20
-0.2806313901177496
 30
0.0
 10
1.421054010128727
 20
-0.4636559789023177
 30
0.0
  0
SPLINE
  5
1AC
330
1F
100
AcDbEntity
  8
Vinilo v2_Sketch1
100
AcDbSpline
210
0.0
220
0.0
230
1.0
 70
    24
 71
     2
 72
     6
 73
     3
 74
     0
 42
0.0000000001
 43
0.0000000001
 40
-3.0
 40
-3.0
 40
-3.0
 40
-2.0
 40
-2.0
 40
-2.0
 10
1.421054010128727
 20
-0.4636559789023177
 30
0.0
 10
1.471991276311608
 20
-0.4636559789023177
 30
0.0
 10
1.522928542494489
 20
-0.4636559789023177
 30
0.0
  0
SPLINE
  5
1AD
330
1F
100
AcDbEntity
  8
Vinilo v2_Sketch1
100
AcDbSpline
210
0.0
220
0.0
230
1.0
 70
    24
 71
     2
 72
     6
 73
     3
 74
     0
 42
0.0000000001
 43
0.0000000001
 40
-2.0
 40
-2.0
 40
-2.0
 40
-1.0
 40
-1.0
 40
-1.0
 10
1.522928542494489
 20
-0.4636559789023177
 30
0.0
 10
1.522928542494489
 20
-0.2806313901177496
 30
0.0
 10
1.522928542494489
 20
-0.0976068013331815
 30
0.0
  0
SPLINE
  5
1AE
330
1F
100
AcDbEntity
  8
Vinilo v2_Sketch1
100
AcDbSpline
210
0.0
220
0.0
230
1.0
 70
    24
 71
     2
 72
     6
 73
     3
 74
     0
 42
0.0000000001
 43
0.0000000001
 40
-1.0
 40
-1.0
 40
-1.0
 40
0.0
 40
0.0
 40
0.0
 10
1.522928542494489
 20
-0.0976068013331815
 30
0.0
 10
1.471991276311608
 20
-0.0976068013331815
 30
0.0
 10
1.421054010128727
 20
-0.0976068013331815
 30
0.0
  0
SPLINE
  5
1AF
330
1F
100
AcDbEntity
  8
Vinilo v2_Sketch1
100
AcDbSpline
210
0.0
220
0.0
230
1.0
 70
    11
 71
     2
 72
    20
 73
    17
 74
     0
 42
0.0000000001
 43
0.0000000001
 40
-8.0
 40
-8.0
 40
-8.0
 40
-7.0
 40
-7.0
 40
-6.0
 40
-6.0
 40
-5.0
 40
-5.0
 40
-4.0
 40
-4.0
 40
-3.0
 40
-3.0
 40
-2.0
 40
-2.0
 40
-1.0
 40
-1.0
 40
0.0
 40
0.0
 40
0.0
 10
1.575363963565102
 20
-0.3318183487819194
 30
0.0
 10
1.575363963565102
 20
-0.3969880863982527
 30
0.0
 10
1.623804304935097
 20
-0.4371885758857225
 30
0.0
 10
1.6632557169787
 20
-0.4696485984532448
 30
0.0
 10
1.727176992188591
 20
-0.4696485984532448
 30
0.0
 10
1.798838734318428
 20
-0.4696485984532448
 30
0.0
 10
1.839413762527832
 20
-0.4305717251315738
 30
0.0
 10
1.879988790737234
 20
-0.3914948518099027
 30
0.0
 10
1.879988790737234
 20
-0.3303201938941875
 30
0.0
 10
1.879988790737234
 20
-0.2758872329732657
 30
0.0
 10
1.847279075688424
 20
-0.2386830532612592
 30
0.0
 10
1.806579201238376
 20
-0.1924899442228621
 30
0.0
 10
1.726927299707302
 20
-0.1924899442228621
 30
0.0
 10
1.657263097427774
 20
-0.1924899442228621
 30
0.0
 10
1.616313530496438
 20
-0.2318165100258218
 30
0.0
 10
1.575363963565102
 20
-0.2711430758287816
 30
0.0
 10
1.575363963565102
 20
-0.3318183487819194
 30
0.0
  0
SPLINE
  5
1B0
330
1F
100
AcDbEntity
  8
Vinilo v2_Sketch1
100
AcDbSpline
210
0.0
220
0.0
230
1.0
 70
    11
 71
     2
 72
    20
 73
    17
 74
     0
 42
0.0000000001
 43
0.0000000001
 40
0.0
 40
0.0
 40
0.0
 40
1.0
 40
1.0
 40
2.0
 40
2.0
 40
3.0
 40
3.0
 40
4.0
 40
4.0
 40
5.0
 40
5.0
 40
6.0
 40
6.0
 40
7.0
 40
7.0
 40
8.0
 40
8.0
 40
8.0
 10
1.677238495930865
 20
-0.3315686563006308
 30
0.0
 10
1.677238495930865
 20
-0.3670249886436167
 30
0.0
 10
1.691595813604961
 20
-0.3840040773712438
 30
0.0
 10
1.705953131279057
 20
-0.4009831660988707
 30
0.0
 10
1.727676377151168
 20
-0.4009831660988707
 30
0.0
 10
1.749649315504568
 20
-0.4009831660988707
 30
0.0
 10
1.763756940697376
 20
-0.3842537698525323
 30
0.0
 10
1.777864565890184
 20
-0.3675243736061939
 30
0.0
 10
1.777864565890184
 20
-0.3305698863754762
 30
0.0
 10
1.777864565890184
 20
-0.2961123239576449
 30
0.0
 10
1.763632094456731
 20
-0.2792580814706621
 30
0.0
 10
1.749399623023279
 20
-0.2624038389836794
 30
0.0
 10
1.728425454595035
 20
-0.2624038389836794
 30
0.0
 10
1.706202823760345
 20
-0.2624038389836794
 30
0.0
 10
1.691720659845605
 20
-0.2795077739519507
 30
0.0
 10
1.677238495930865
 20
-0.296611708920222
 30
0.0
 10
1.677238495930865
 20
-0.3315686563006308
 30
0.0
  0
LINE
  5
1B1
330
1F
100
AcDbEntity
  8
Vinilo v2_Sketch1
100
AcDbLine
 10
2.208833788594364
 20
-0.4606596691268541
 30
0.0
 11
2.208584096113075
 21
-0.4489241225062883
 31
0.0
  0
LINE
  5
1B2
330
1F
100
AcDbEntity
  8
Vinilo v2_Sketch1
100
AcDbLine
 10
2.208584096113075
 20
-0.4489241225062883
 30
0.0
 11
2.208584096113075
 21
-0.1984825637737894
 31
0.0
  0
LINE
  5
1B3
330
1F
100
AcDbEntity
  8
Vinilo v2_Sketch1
100
AcDbLine
 10
2.208584096113075
 20
-0.1984825637737894
 30
0.0
 11
2.113451260742106
 21
-0.1984825637737894
 31
0.0
  0
LINE
  5
1B4
330
1F
100
AcDbEntity
  8
Vinilo v2_Sketch1
100
AcDbLine
 10
2.113451260742106
 20
-0.1984825637737894
 30
0.0
 11
2.113451260742106
 21
-0.2376842833361047
 31
0.0
  0
SPLINE
  5
1B5
330
1F
100
AcDbEntity
  8
Vinilo v2_Sketch1
100
AcDbSpline
210
0.0
220
0.0
230
1.0
 70
     8
 71
     2
 72
    20
 73
    17
 74
     0
 42
0.0000000001
 43
0.0000000001
 40
-25.0
 40
-25.0
 40
-25.0
 40
-24.0
 40
-24.0
 40
-23.0
 40
-23.0
 40
-22.0
 40
-22.0
 40
-21.0
 40
-21.0
 40
-20.0
 40
-20.0
 40
-19.0
 40
-19.0
 40
-18.0
 40
-18.0
 40
-17.0
 40
-17.0
 40
-17.0
 10
2.113451260742106
 20
-0.2376842833361047
 30
0.0
 10
2.095972787051902
 20
-0.2134641126511072
 30
0.0
 10
2.075872542308167
 20
-0.2029770284369847
 30
0.0
 10
2.055772297564432
 20
-0.1924899442228621
 30
0.0
 10
2.024810429884642
 20
-0.1924899442228621
 30
0.0
 10
1.976370088514647
 20
-0.1924899442228621
 30
0.0
 10
1.946406990760011
 20
-0.2249499667903844
 30
0.0
 10
1.916443893005375
 20
-0.2574099893579067
 30
0.0
 10
1.916443893005375
 20
-0.3193337247174877
 30
0.0
 10
1.916443893005375
 20
-0.3735169931571211
 30
0.0
 10
1.939665293765218
 20
-0.4064764006872207
 30
0.0
 10
1.972375008814029
 20
-0.4529192022069064
 30
0.0
 10
2.025559507328508
 20
-0.4529192022069064
 30
0.0
 10
2.052775987788968
 20
-0.4529192022069064
 30
0.0
 10
2.076247081030099
 20
-0.4404345781424748
 30
0.0
 10
2.091228629907418
 20
-0.4324444187412385
 30
0.0
 10
2.106210178784736
 20
-0.4147162525697455
 30
0.0
  0
SPLINE
  5
1B6
330
1F
100
AcDbEntity
  8
Vinilo v2_Sketch1
100
AcDbSpline
210
0.0
220
0.0
230
1.0
 70
    24
 71
     2
 72
     6
 73
     3
 74
     0
 42
0.0000000001
 43
0.0000000001
 40
-17.0
 40
-17.0
 40
-17.0
 40
-16.0
 40
-16.0
 40
-16.0
 10
2.106210178784736
 20
-0.4147162525697455
 30
0.0
 10
2.106210178784736
 20
-0.4348164973134805
 30
0.0
 10
2.106210178784736
 20
-0.4549167420572156
 30
0.0
  0
SPLINE
  5
1B7
330
1F
100
AcDbEntity
  8
Vinilo v2_Sketch1
100
AcDbSpline
210
0.0
220
0.0
230
1.0
 70
     8
 71
     2
 72
    12
 73
     9
 74
     0
 42
0.0000000001
 43
0.0000000001
 40
-16.0
 40
-16.0
 40
-16.0
 40
-15.0
 40
-15.0
 40
-14.0
 40
-14.0
 40
-13.0
 40
-13.0
 40
-12.0
 40
-12.0
 40
-12.0
 10
2.106210178784736
 20
-0.4549167420572156
 30
0.0
 10
2.106210178784736
 20
-0.4841307623679856
 30
0.0
 10
2.09534855584868
 20
-0.4958663089885513
 30
0.0
 10
2.084486932912625
 20
-0.5076018556091171
 30
0.0
 10
2.062513994559225
 20
-0.5076018556091171
 30
0.0
 10
2.045534905831599
 20
-0.5076018556091171
 30
0.0
 10
2.03429874417361
 20
-0.4998613886891694
 30
0.0
 10
2.026558277253662
 20
-0.4946178465821082
 30
0.0
 10
2.022812890034333
 20
-0.4808847601112334
 30
0.0
  0
SPLINE
  5
1B8
330
1F
100
AcDbEntity
  8
Vinilo v2_Sketch1
100
AcDbSpline
210
0.0
220
0.0
230
1.0
 70
    24
 71
     2
 72
     6
 73
     3
 74
     0
 42
0.0000000001
 43
0.0000000001
 40
-12.0
 40
-12.0
 40
-12.0
 40
-11.0
 40
-11.0
 40
-11.0
 10
2.022812890034333
 20
-0.4808847601112334
 30
0.0
 10
1.973498624979828
 20
-0.4752666792822391
 30
0.0
 10
1.924184359925323
 20
-0.4696485984532448
 30
0.0
  0
SPLINE
  5
1B9
330
1F
100
AcDbEntity
  8
Vinilo v2_Sketch1
100
AcDbSpline
210
0.0
220
0.0
230
1.0
 70
     8
 71
     2
 72
    18
 73
    15
 74
     0
 42
0.0000000001
 43
0.0000000001
 40
-11.0
 40
-11.0
 40
-11.0
 40
-10.0
 40
-10.0
 40
-9.0
 40
-9.0
 40
-8.0
 40
-8.0
 40
-7.0
 40
-7.0
 40
-6.0
 40
-6.0
 40
-5.0
 40
-5.0
 40
-4.0
 40
-4.0
 40
-4.0
 10
1.924184359925323
 20
-0.4696485984532448
 30
0.0
 10
1.923684974962745
 20
-0.4781381428170585
 30
0.0
 10
1.923684974962745
 20
-0.483131992442831
 30
0.0
 10
1.923684974962745
 20
-0.523332481930301
 30
0.0
 10
1.953523226476737
 20
-0.5473029601340098
 30
0.0
 10
1.983361477990729
 20
-0.5712734383377186
 30
0.0
 10
2.063263072003091
 20
-0.5712734383377186
 30
0.0
 10
2.0982200193835
 20
-0.5712734383377186
 30
0.0
 10
2.125311653603316
 20
-0.5650311263055028
 30
0.0
 10
2.152403287823133
 20
-0.5587888142732869
 30
0.0
 10
2.170006607753982
 20
-0.5448060353211235
 30
0.0
 10
2.18760992768483
 20
-0.5308232563689601
 30
0.0
 10
2.198221858139597
 20
-0.5082260868123386
 30
0.0
 10
2.208833788594364
 20
-0.4856289172557173
 30
0.0
 10
2.208833788594364
 20
-0.4606596691268541
 30
0.0
  0
SPLINE
  5
1BA
330
1F
100
AcDbEntity
  8
Vinilo v2_Sketch1
100
AcDbSpline
210
0.0
220
0.0
230
1.0
 70
    11
 71
     2
 72
    20
 73
    17
 74
     0
 42
0.0000000001
 43
0.0000000001
 40
0.0
 40
0.0
 40
0.0
 40
1.0
 40
1.0
 40
2.0
 40
2.0
 40
3.0
 40
3.0
 40
4.0
 40
4.0
 40
5.0
 40
5.0
 40
6.0
 40
6.0
 40
7.0
 40
7.0
 40
8.0
 40
8.0
 40
8.0
 10
2.01781904040856
 20
-0.3270741916374355
 30
0.0
 10
2.01781904040856
 20
-0.3557888269856282
 30
0.0
 10
2.030053971991703
 20
-0.3696467596971473
 30
0.0
 10
2.042288903574846
 20
-0.3835046924086665
 30
0.0
 10
2.062264302077936
 20
-0.3835046924086665
 30
0.0
 10
2.081240930655872
 20
-0.3835046924086665
 30
0.0
 10
2.094100093442238
 20
-0.36914737473457
 30
0.0
 10
2.106959256228602
 20
-0.3547900570604736
 30
0.0
 10
2.106959256228602
 20
-0.3258257292309923
 30
0.0
 10
2.106959256228602
 20
-0.2968614014015107
 30
0.0
 10
2.093475862239015
 20
-0.2815053138022598
 30
0.0
 10
2.07999246824943
 20
-0.2661492262030088
 30
0.0
 10
2.060516454708916
 20
-0.2661492262030088
 30
0.0
 10
2.041040441168403
 20
-0.2661492262030088
 30
0.0
 10
2.029429740788481
 20
-0.2802568513958167
 30
0.0
 10
2.01781904040856
 20
-0.2943644765886244
 30
0.0
 10
2.01781904040856
 20
-0.3270741916374355
 30
0.0
  0
SPLINE
  5
1BB
330
1F
100
AcDbEntity
  8
Vinilo v2_Sketch1
100
AcDbSpline
210
0.0
220
0.0
230
1.0
 70
    24
 71
     2
 72
     6
 73
     3
 74
     0
 42
0.0000000001
 43
0.0000000001
 40
-4.0
 40
-4.0
 40
-4.0
 40
-3.0
 40
-3.0
 40
-3.0
 10
2.273753833729409
 20
-0.1984825637737894
 30
0.0
 10
2.273753833729409
 20
-0.3310692713380535
 30
0.0
 10
2.273753833729409
 20
-0.4636559789023177
 30
0.0
  0
SPLINE
  5
1BC
330
1F
100
AcDbEntity
  8
Vinilo v2_Sketch1
100
AcDbSpline
210
0.0
220
0.0
230
1.0
 70
    24
 71
     2
 72
     6
 73
     3
 74
     0
 42
0.0000000001
 43
0.0000000001
 40
-3.0
 40
-3.0
 40
-3.0
 40
-2.0
 40
-2.0
 40
-2.0
 10
2.273753833729409
 20
-0.4636559789023177
 30
0.0
 10
2.324566253671645
 20
-0.4636559789023177
 30
0.0
 10
2.375378673613882
 20
-0.4636559789023177
 30
0.0
  0
SPLINE
  5
1BD
330
1F
100
AcDbEntity
  8
Vinilo v2_Sketch1
100
AcDbSpline
210
0.0
220
0.0
230
1.0
 70
    24
 71
     2
 72
     6
 73
     3
 74
     0
 42
0.0000000001
 43
0.0000000001
 40
-2.0
 40
-2.0
 40
-2.0
 40
-1.0
 40
-1.0
 40
-1.0
 10
2.375378673613882
 20
-0.4636559789023177
 30
0.0
 10
2.375378673613882
 20
-0.3310692713380535
 30
0.0
 10
2.375378673613882
 20
-0.1984825637737894
 30
0.0
  0
SPLINE
  5
1BE
330
1F
100
AcDbEntity
  8
Vinilo v2_Sketch1
100
AcDbSpline
210
0.0
220
0.0
230
1.0
 70
    24
 71
     2
 72
     6
 73
     3
 74
     0
 42
0.0000000001
 43
0.0000000001
 40
-1.0
 40
-1.0
 40
-1.0
 40
0.0
 40
0.0
 40
0.0
 10
2.375378673613882
 20
-0.1984825637737894
 30
0.0
 10
2.324566253671645
 20
-0.1984825637737894
 30
0.0
 10
2.273753833729409
 20
-0.1984825637737894
 30
0.0
  0
SPLINE
  5
1BF
330
1F
100
AcDbEntity
  8
Vinilo v2_Sketch1
100
AcDbSpline
210
0.0
220
0.0
230
1.0
 70
    24
 71
     2
 72
     6
 73
     3
 74
     0
 42
0.0000000001
 43
0.0000000001
 40
-4.0
 40
-4.0
 40
-4.0
 40
-3.0
 40
-3.0
 40
-3.0
 10
2.321694790136826
 20
-0.0913644893009657
 30
0.0
 10
2.300720621708581
 20
-0.1286935152536164
 30
0.0
 10
2.279746453280336
 20
-0.166022541206267
 30
0.0
  0
SPLINE
  5
1C0
330
1F
100
AcDbEntity
  8
Vinilo v2_Sketch1
100
AcDbSpline
210
0.0
220
0.0
230
1.0
 70
    24
 71
     2
 72
     6
 73
     3
 74
     0
 42
0.0000000001
 43
0.0000000001
 40
-3.0
 40
-3.0
 40
-3.0
 40
-2.0
 40
-2.0
 40
-2.0
 10
2.279746453280336
 20
-0.166022541206267
 30
0.0
 10
2.304091470205978
 20
-0.166022541206267
 30
0.0
 10
2.328436487131619
 20
-0.166022541206267
 30
0.0
  0
SPLINE
  5
1C1
330
1F
100
AcDbEntity
  8
Vinilo v2_Sketch1
100
AcDbSpline
210
0.0
220
0.0
230
1.0
 70
    24
 71
     2
 72
     6
 73
     3
 74
     0
 42
0.0000000001
 43
0.0000000001
 40
-2.0
 40
-2.0
 40
-2.0
 40
-1.0
 40
-1.0
 40
-1.0
 10
2.328436487131619
 20
-0.166022541206267
 30
0.0
 10
2.368761822859733
 20
-0.1286935152536164
 30
0.0
 10
2.409087158587848
 20
-0.0913644893009657
 30
0.0
  0
SPLINE
  5
1C2
330
1F
100
AcDbEntity
  8
Vinilo v2_Sketch1
100
AcDbSpline
210
0.0
220
0.0
230
1.0
 70
    24
 71
     2
 72
     6
 73
     3
 74
     0
 42
0.0000000001
 43
0.0000000001
 40
-1.0
 40
-1.0
 40
-1.0
 40
0.0
 40
0.0
 40
0.0
 10
2.409087158587848
 20
-0.0913644893009657
 30
0.0
 10
2.365390974362337
 20
-0.0913644893009657
 30
0.0
 10
2.321694790136826
 20
-0.0913644893009657
 30
0.0
  0
SPLINE
  5
1C3
330
1F
100
AcDbEntity
  8
Vinilo v2_Sketch1
100
AcDbSpline
210
0.0
220
0.0
230
1.0
 70
     8
 71
     2
 72
    12
 73
     9
 74
     0
 42
0.0000000001
 43
0.0000000001
 40
-41.0
 40
-41.0
 40
-41.0
 40
-40.0
 40
-40.0
 40
-39.0
 40
-39.0
 40
-38.0
 40
-38.0
 40
-37.0
 40
-37.0
 40
-37.0
 10
2.532934629307011
 20
-0.2843767773370791
 30
0.0
 10
2.538927248857937
 20
-0.2671479961281634
 30
0.0
 10
2.548665255628195
 20
-0.2609056840959475
 30
0.0
 10
2.561149879692625
 20
-0.2529155246947113
 30
0.0
 10
2.586119127821489
 20
-0.2529155246947113
 30
0.0
 10
2.605595141362003
 20
-0.2529155246947113
 30
0.0
 10
2.61333560828195
 20
-0.2604062991333703
 30
0.0
 10
2.621076075201898
 20
-0.2678970735720293
 30
0.0
 10
2.621076075201898
 20
-0.2866240096686768
 30
0.0
  0
SPLINE
  5
1C4
330
1F
100
AcDbEntity
  8
Vinilo v2_Sketch1
100
AcDbSpline
210
0.0
220
0.0
230
1.0
 70
     8
 71
     2
 72
    20
 73
    17
 74
     0
 42
0.0000000001
 43
0.0000000001
 40
-37.0
 40
-37.0
 40
-37.0
 40
-36.0
 40
-36.0
 40
-35.0
 40
-35.0
 40
-34.0
 40
-34.0
 40
-33.0
 40
-33.0
 40
-32.0
 40
-32.0
 40
-31.0
 40
-31.0
 40
-30.0
 40
-30.0
 40
-29.0
 40
-29.0
 40
-29.0
 10
2.621076075201898
 20
-0.2866240096686768
 30
0.0
 10
2.602099416143922
 20
-0.2941147841073358
 30
0.0
 10
2.585120357896334
 20
-0.2987340950111755
 30
0.0
 10
2.568141269168708
 20
-0.3033534059150151
 30
0.0
 10
2.51096169095361
 20
-0.3148392600542923
 30
0.0
 10
2.463270427027481
 20
-0.3243275743432604
 30
0.0
 10
2.445542260855988
 20
-0.3438035878837737
 30
0.0
 10
2.427814094684496
 20
-0.3632796014242872
 30
0.0
 10
2.427814094684496
 20
-0.3934923916602118
 30
0.0
 10
2.427814094684496
 20
-0.4257027217464455
 30
0.0
 10
2.452408804091426
 20
-0.4476756600998452
 30
0.0
 10
2.477003513498356
 20
-0.4696485984532448
 30
0.0
 10
2.524445084943197
 20
-0.4696485984532448
 30
0.0
 10
2.560151109767472
 20
-0.4696485984532448
 30
0.0
 10
2.587117897746644
 20
-0.4586621292765449
 30
0.0
 10
2.606843603768445
 20
-0.4504222773940201
 30
0.0
 10
2.626819002271537
 20
-0.4311959563347953
 30
0.0
  0
SPLINE
  5
1C5
330
1F
100
AcDbEntity
  8
Vinilo v2_Sketch1
100
AcDbSpline
210
0.0
220
0.0
230
1.0
 70
     8
 71
     2
 72
     8
 73
     5
 74
     0
 42
0.0000000001
 43
0.0000000001
 40
-29.0
 40
-29.0
 40
-29.0
 40
-28.0
 40
-28.0
 40
-27.0
 40
-27.0
 40
-27.0
 10
2.626819002271537
 20
-0.4311959563347953
 30
0.0
 10
2.628566849640557
 20
-0.4426818104740725
 30
0.0
 10
2.630314697009577
 20
-0.4480501988217781
 30
0.0
 10
2.632062544378598
 20
-0.4534185871694837
 30
0.0
 10
2.637805471448237
 20
-0.4636559789023177
 30
0.0
  0
SPLINE
  5
1C6
330
1F
100
AcDbEntity
  8
Vinilo v2_Sketch1
100
AcDbSpline
210
0.0
220
0.0
230
1.0
 70
    24
 71
     2
 72
     6
 73
     3
 74
     0
 42
0.0000000001
 43
0.0000000001
 40
-27.0
 40
-27.0
 40
-27.0
 40
-26.0
 40
-26.0
 40
-26.0
 10
2.637805471448237
 20
-0.4636559789023177
 30
0.0
 10
2.685496735374366
 20
-0.4636559789023177
 30
0.0
 10
2.733187999300494
 20
-0.4636559789023177
 30
0.0
  0
SPLINE
  5
1C7
330
1F
100
AcDbEntity
  8
Vinilo v2_Sketch1
100
AcDbSpline
210
0.0
220
0.0
230
1.0
 70
     8
 71
     2
 72
     8
 73
     5
 74
     0
 42
0.0000000001
 43
0.0000000001
 40
-26.0
 40
-26.0
 40
-26.0
 40
-25.0
 40
-25.0
 40
-24.0
 40
-24.0
 40
-24.0
 10
2.733187999300494
 20
-0.4636559789023177
 30
0.0
 10
2.725197839899258
 20
-0.447176275137268
 30
0.0
 10
2.722825761327016
 20
-0.4365643446825009
 30
0.0
 10
2.720453682754774
 20
-0.425952414227734
 30
0.0
 10
2.720453682754774
 20
-0.4072254781310867
 30
0.0
  0
SPLINE
  5
1C8
330
1F
100
AcDbEntity
  8
Vinilo v2_Sketch1
100
AcDbSpline
210
0.0
220
0.0
230
1.0
 70
    24
 71
     2
 72
     6
 73
     3
 74
     0
 42
0.0000000001
 43
0.0000000001
 40
-24.0
 40
-24.0
 40
-24.0
 40
-23.0
 40
-23.0
 40
-23.0
 10
2.720453682754774
 20
-0.4072254781310867
 30
0.0
 10
2.720453682754774
 20
-0.3486725912689022
 30
0.0
 10
2.720453682754774
 20
-0.2901197044067177
 30
0.0
  0
SPLINE
  5
1C9
330
1F
100
AcDbEntity
  8
Vinilo v2_Sketch1
100
AcDbSpline
210
0.0
220
0.0
230
1.0
 70
     8
 71
     2
 72
    20
 73
    17
 74
     0
 42
0.0000000001
 43
0.0000000001
 40
-23.0
 40
-23.0
 40
-23.0
 40
-22.0
 40
-22.0
 40
-21.0
 40
-21.0
 40
-20.0
 40
-20.0
 40
-19.0
 40
-19.0
 40
-18.0
 40
-18.0
 40
-17.0
 40
-17.0
 40
-16.0
 40
-16.0
 40
-15.0
 40
-15.0
 40
-15.0
 10
2.720453682754774
 20
-0.2901197044067177
 30
0.0
 10
2.720453682754774
 20
-0.2713927683100702
 30
0.0
 10
2.712962908316115
 20
-0.2507931386037578
 30
0.0
 10
2.705472133877456
 20
-0.2301935088974457
 30
0.0
 10
2.692488124850446
 20
-0.2189573472394572
 30
0.0
 10
2.674010881235088
 20
-0.202727335955696
 30
0.0
 10
2.646295015812049
 20
-0.1976086400892791
 30
0.0
 10
2.618579150389011
 20
-0.1924899442228621
 30
0.0
 10
2.572885426313191
 20
-0.1924899442228621
 30
0.0
 10
2.544420483446288
 20
-0.1924899442228621
 30
0.0
 10
2.519950620280001
 20
-0.1967347164047688
 30
0.0
 10
2.495480757113715
 20
-0.2009794885866756
 30
0.0
 10
2.481497978161552
 20
-0.2087199555066232
 30
0.0
 10
2.462021964621038
 20
-0.2194567322020345
 30
0.0
 10
2.45165972664756
 20
-0.2340637423574195
 30
0.0
 10
2.441297488674082
 20
-0.2486707525128045
 30
0.0
 10
2.435804254085732
 20
-0.2741393856042451
 30
0.0
  0
SPLINE
  5
1CA
330
1F
100
AcDbEntity
  8
Vinilo v2_Sketch1
100
AcDbSpline
210
0.0
220
0.0
230
1.0
 70
    24
 71
     2
 72
     6
 73
     3
 74
     0
 42
0.0000000001
 43
0.0000000001
 40
-15.0
 40
-15.0
 40
-15.0
 40
-14.0
 40
-14.0
 40
-14.0
 10
2.435804254085732
 20
-0.2741393856042451
 30
0.0
 10
2.484369441696371
 20
-0.2792580814706621
 30
0.0
 10
2.532934629307011
 20
-0.2843767773370791
 30
0.0
  0
SPLINE
  5
1CB
330
1F
100
AcDbEntity
  8
Vinilo v2_Sketch1
100
AcDbSpline
210
0.0
220
0.0
230
1.0
 70
     8
 71
     2
 72
    20
 73
    17
 74
     0
 42
0.0000000001
 43
0.0000000001
 40
0.0
 40
0.0
 40
0.0
 40
1.0
 40
1.0
 40
2.0
 40
2.0
 40
3.0
 40
3.0
 40
4.0
 40
4.0
 40
5.0
 40
5.0
 40
6.0
 40
6.0
 40
7.0
 40
7.0
 40
8.0
 40
8.0
 40
8.0
 10
2.621076075201898
 20
-0.3378109683328465
 30
0.0
 10
2.600101906773652
 20
-0.3453017427715056
 30
0.0
 10
2.577379890976387
 20
-0.3510446698411441
 30
0.0
 10
2.546418023296596
 20
-0.359284521723669
 30
0.0
 10
2.538178171414071
 20
-0.3672746811249054
 30
0.0
 10
2.529688627050259
 20
-0.3755145330074302
 30
0.0
 10
2.529688627050259
 20
-0.3860016172215527
 30
0.0
 10
2.529688627050259
 20
-0.3979868563234071
 30
0.0
 10
2.538053325173427
 20
-0.4056024770027105
 30
0.0
 10
2.546418023296596
 20
-0.4132180976820138
 30
0.0
 10
2.562648034580358
 20
-0.4132180976820138
 30
0.0
 10
2.579627123307985
 20
-0.4132180976820138
 30
0.0
 10
2.594234133463369
 20
-0.4049782457994889
 30
0.0
 10
2.608841143618755
 20
-0.396738393916964
 30
0.0
 10
2.614958609410326
 20
-0.3848780010557539
 30
0.0
 10
2.621076075201898
 20
-0.3730176081945439
 30
0.0
 10
2.621076075201898
 20
-0.3540409796166077
 30
0.0
  0
SPLINE
  5
1CC
330
1F
100
AcDbEntity
  8
Vinilo v2_Sketch1
100
AcDbSpline
210
0.0
220
0.0
230
1.0
 70
    24
 71
     2
 72
     6
 73
     3
 74
     0
 42
0.0000000001
 43
0.0000000001
 40
8.0
 40
8.0
 40
8.0
 40
9.0
 40
9.0
 40
9.0
 10
2.621076075201898
 20
-0.3540409796166077
 30
0.0
 10
2.621076075201898
 20
-0.3459259739747271
 30
0.0
 10
2.621076075201898
 20
-0.3378109683328465
 30
0.0
  0
LINE
  5
1CD
330
1F
100
AcDbEntity
  8
Vinilo v2_Sketch1
100
AcDbLine
 10
5.5
 20
1.5
 30
0.0
 11
-5.5
 21
1.5
 31
0.0
  0
LINE
  5
1CE
330
1F
100
AcDbEntity
  8
Vinilo v2_Sketch1
100
AcDbLine
 10
-5.5
 20
1.5
 30
0.0
 11
-5.5
 21
-1.5
 31
0.0
  0
LINE
  5
1CF
330
1F
100
AcDbEntity
  8
Vinilo v2_Sketch1
100
AcDbLine
 10
-5.215928535445232
 20
1.158867706185154
 30
0.0
 11
-5.215928535445232
 21
-1.158867706185154
 31
0.0
  0
LINE
  5
1D0
330
1F
100
AcDbEntity
  8
Vinilo v2_Sketch1
100
AcDbLine
 10
5.215928535445232
 20
1.158867706185154
 30
0.0
 11
-5.215928535445232
 21
1.158867706185154
 31
0.0
  0
LINE
  5
1D1
330
1F
100
AcDbEntity
  8
Vinilo v2_Sketch1
100
AcDbLine
 10
-5.5
 20
-1.5
 30
0.0
 11
5.5
 21
-1.5
 31
0.0
  0
LINE
  5
1D2
330
1F
100
AcDbEntity
  8
Vinilo v2_Sketch1
100
AcDbLine
 10
5.5
 20
-1.5
 30
0.0
 11
5.5
 21
1.5
 31
0.0
  0
LINE
  5
1D3
330
1F
100
AcDbEntity
  8
Vinilo v2_Sketch1
100
AcDbLine
 10
-5.215928535445232
 20
-1.158867706185154
 30
0.0
 11
5.215928535445232
 21
-1.158867706185154
 31
0.0
  0
LINE
  5
1D4
330
1F
100
AcDbEntity
  8
Vinilo v2_Sketch1
100
AcDbLine
 10
5.215928535445232
 20
-1.158867706185154
 30
0.0
 11
5.215928535445232
 21
1.158867706185154
 31
0.0
  0
ENDSEC
  0
SECTION
  2
OBJECTS
  0
DICTIONARY
  5
C
330
0
100
AcDbDictionary
281
     1
  3
ACAD_DETAILVIEWSTYLE
350
210
  3
ACAD_GROUP
350
D
  3
ACAD_LAYOUT
350
1A
  3
ACAD_MATERIAL
350
43
  3
ACAD_MLEADERSTYLE
350
6B
  3
ACAD_MLINESTYLE
350
17
  3
ACAD_PLOTSETTINGS
350
19
  3
ACAD_PLOTSTYLENAME
350
E
  3
ACAD_SCALELIST
350
47
  3
ACAD_SECTIONVIEWSTYLE
350
211
  3
ACAD_TABLESTYLE
350
69
  3
ACAD_VISUALSTYLE
350
2A
  3
ACDB_RECOMPOSE_DATA
350
20D
  3
AcDbVariableDictionary
350
1D5
  0
SUN
  5
6D
330
29
100
AcDbSun
 90
        1
290
     0
 63
     7
421
 16777215
 40
1.0
291
     1
 91
  2455826
 92
 54000000
292
     0
 70
     2
 71
   256
280
     1
  0
DICTIONARY
  5
210
102
{ACAD_REACTORS
330
C
102
}
330
C
100
AcDbDictionary
281
     1
  0
DICTIONARY
  5
D
102
{ACAD_REACTORS
330
C
102
}
330
C
100
AcDbDictionary
281
     1
  0
DICTIONARY
  5
1A
102
{ACAD_REACTORS
330
C
102
}
330
C
100
AcDbDictionary
281
     1
  3
Layout1
350
1E
  3
Layout2
350
26
  3
Model
350
22
  0
DICTIONARY
  5
43
102
{ACAD_REACTORS
330
C
102
}
330
C
100
AcDbDictionary
281
     1
  3
ByBlock
350
45
  3
ByLayer
350
44
  3
Global
350
46
  0
DICTIONARY
  5
6B
102
{ACAD_REACTORS
330
C
102
}
330
C
100
AcDbDictionary
281
     1
  3
Standard
350
6C
  0
DICTIONARY
  5
17
102
{ACAD_REACTORS
330
C
102
}
330
C
100
AcDbDictionary
281
     1
  3
Standard
350
18
  0
DICTIONARY
  5
19
102
{ACAD_REACTORS
330
C
102
}
330
C
100
AcDbDictionary
281
     1
  0
ACDBDICTIONARYWDFLT
  5
E
102
{ACAD_REACTORS
330
C
102
}
330
C
100
AcDbDictionary
281
     1
  3
Normal
350
F
100
AcDbDictionaryWithDefault
340
F
  0
DICTIONARY
  5
47
102
{ACAD_REACTORS
330
C
102
}
330
C
100
AcDbDictionary
281
     1
  3
A0
350
48
  3
A1
350
49
  3
A2
350
4A
  3
A3
350
4B
  3
A4
350
4C
  3
A5
350
4D
  3
A6
350
4E
  3
A7
350
4F
  3
A8
350
50
  3
A9
350
51
  3
B0
350
52
  3
B1
350
53
  3
B2
350
54
  3
B3
350
55
  3
B4
350
56
  3
B5
350
57
  3
B6
350
58
  3
B7
350
59
  3
B8
350
5A
  3
B9
350
5B
  3
C0
350
5C
  3
C1
350
5D
  3
C2
350
5E
  3
C3
350
5F
  3
C4
350
60
  3
C5
350
61
  3
C6
350
62
  3
C7
350
63
  3
C8
350
64
  3
C9
350
65
  3
D0
350
66
  3
D1
350
67
  3
D2
350
68
  0
DICTIONARY
  5
211
102
{ACAD_REACTORS
330
C
102
}
330
C
100
AcDbDictionary
281
     1
  0
DICTIONARY
  5
69
102
{ACAD_REACTORS
330
C
102
}
330
C
100
AcDbDictionary
281
     1
  3
Standard
350
6A
  0
DICTIONARY
  5
2A
102
{ACAD_REACTORS
330
C
102
}
330
C
100
AcDbDictionary
281
     1
  3
2dWireframe
350
2F
  3
Basic
350
32
  3
Brighten
350
36
  3
ColorChange
350
3A
  3
Conceptual
350
34
  3
Dim
350
35
  3
EdgeColorOff
350
3D
  3
Facepattern
350
39
  3
Flat
350
2B
  3
FlatWithEdges
350
2C
  3
Gouraud
350
2D
  3
GouraudWithEdges
350
2E
  3
Hidden
350
31
  3
JitterOff
350
3B
  3
Linepattern
350
38
  3
OverhangOff
350
3C
  3
Realistic
350
33
  3
Shaded
350
42
  3
Shaded with edges
350
41
  3
Shades of Gray
350
3E
  3
Sketchy
350
3F
  3
Thicken
350
37
  3
Wireframe
350
30
  3
X-Ray
350
40
  0
XRECORD
  5
20D
102
{ACAD_REACTORS
330
C
102
}
330
C
100
AcDbXrecord
280
     1
 90
        1
330
6A
  0
DICTIONARY
  5
1D5
102
{ACAD_REACTORS
330
C
102
}
330
C
100
AcDbDictionary
281
     1
  3
CANNOSCALE
350
1D6
  3
CMLEADERSTYLE
350
20F
  3
CTABLESTYLE
350
20E
  3
XCLIPFRAME
350
1D7
  0
LAYOUT
  5
1E
102
{ACAD_REACTORS
330
1A
102
}
330
1A
100
AcDbPlotSettings
  1

  2
none_device
  4

  6

 40
0.0
 41
0.0
 42
0.0
 43
0.0
 44
0.0
 45
0.0
 46
0.0
 47
0.0
 48
0.0
 49
0.0
140
0.0
141
0.0
142
1.0
143
1.0
 70
   688
 72
     0
 73
     0
 74
     5
  7

 75
    16
 76
     0
 77
     2
 78
   300
147
1.0
148
0.0
149
0.0
100
AcDbLayout
  1
Layout1
 70
     1
 71
     1
 10
0.0
 20
0.0
 11
12.0
 21
9.0
 12
0.0
 22
0.0
 32
0.0
 14
1.000000000000000E+20
 24
1.000000000000000E+20
 34
1.000000000000000E+20
 15
-1.000000000000000E+20
 25
-1.000000000000000E+20
 35
-1.000000000000000E+20
146
0.0
 13
0.0
 23
0.0
 33
0.0
 16
1.0
 26
0.0
 36
0.0
 17
0.0
 27
1.0
 37
0.0
 76
     0
330
1B
  0
LAYOUT
  5
26
102
{ACAD_REACTORS
330
1A
102
}
330
1A
100
AcDbPlotSettings
  1

  2
none_device
  4

  6

 40
0.0
 41
0.0
 42
0.0
 43
0.0
 44
0.0
 45
0.0
 46
0.0
 47
0.0
 48
0.0
 49
0.0
140
0.0
141
0.0
142
1.0
143
1.0
 70
   688
 72
     0
 73
     0
 74
     5
  7

 75
    16
 76
     0
 77
     2
 78
   300
147
1.0
148
0.0
149
0.0
100
AcDbLayout
  1
Layout2
 70
     1
 71
     2
 10
0.0
 20
0.0
 11
0.0
 21
0.0
 12
0.0
 22
0.0
 32
0.0
 14
0.0
 24
0.0
 34
0.0
 15
0.0
 25
0.0
 35
0.0
146
0.0
 13
0.0
 23
0.0
 33
0.0
 16
1.0
 26
0.0
 36
0.0
 17
0.0
 27
1.0
 37
0.0
 76
     0
330
23
  0
LAYOUT
  5
22
102
{ACAD_REACTORS
330
1A
102
}
330
1A
100
AcDbPlotSettings
  1

  2
none_device
  4
Letter_(8.50_x_11.00_Inches)
  6

 40
6.35
 41
6.35
 42
6.35000508
 43
6.35000508
 44
215.9
 45
279.4
 46
0.0
 47
0.0
 48
0.0
 49
0.0
140
0.0
141
0.0
142
1.0
143
1.0
 70
  1712
 72
     0
 73
     0
 74
     0
  7

 75
     0
 76
     0
 77
     2
 78
   300
147
1.0
148
0.0
149
0.0
100
AcDbLayout
  1
Model
 70
     1
 71
     0
 10
0.0
 20
0.0
 11
12.0
 21
9.0
 12
0.0
 22
0.0
 32
0.0
 14
1.000000000000000E+20
 24
1.000000000000000E+20
 34
1.000000000000000E+20
 15
-1.000000000000000E+20
 25
-1.000000000000000E+20
 35
-1.000000000000000E+20
146
0.0
 13
0.0
 23
0.0
 33
0.0
 16
1.0
 26
0.0
 36
0.0
 17
0.0
 27
1.0
 37
0.0
 76
     0
330
1F
331
29
  0
MATERIAL
  5
45
102
{ACAD_REACTORS
330
43
102
}
330
43
100
AcDbMaterial
  1
ByBlock
 72
     1
 94
      127
  0
MATERIAL
  5
44
102
{ACAD_REACTORS
330
43
102
}
330
43
100
AcDbMaterial
  1
ByLayer
 72
     1
 94
      127
  0
MATERIAL
  5
46
102
{ACAD_REACTORS
330
43
102
}
330
43
100
AcDbMaterial
  1
Global
 72
     1
 94
      127
  0
MLEADERSTYLE
  5
6C
102
{ACAD_REACTORS
330
6B
102
}
102
{ACAD_XDICTIONARY
360
20B
102
}
330
6B
100
AcDbMLeaderStyle
170
     2
171
     1
172
     0
 90
        2
 40
0.0
 41
0.0
173
     1
 91
-1056964608
340
14
 92
       -2
290
     1
 42
0.09
291
     1
 43
0.36
  3
Standard
341
0
 44
0.18
300

342
11
174
     1
178
     6
175
     1
176
     0
 93
-1056964608
 45
0.18
292
     0
297
     0
 46
0.18
343
0
 94
-1056964608
 47
1.0
 49
1.0
140
1.0
293
     1
141
0.0
294
     1
177
     0
142
1.0
295
     0
296
     0
143
0.125
1001
ACAD_MLEADERVER
1070
     2
  0
MLINESTYLE
  5
18
102
{ACAD_REACTORS
330
17
102
}
330
17
100
AcDbMlineStyle
  2
Standard
 70
     0
  3

 62
   256
 51
90.0
 52
90.0
 71
     2
 49
0.5
 62
   256
  6
BYLAYER
 49
-0.5
 62
   256
  6
BYLAYER
  0
ACDBPLACEHOLDER
  5
F
102
{ACAD_REACTORS
330
E
102
}
330
E
  0
SCALE
  5
48
102
{ACAD_REACTORS
330
47
102
}
330
47
100
AcDbScale
 70
     0
300
1:1
140
1.0
141
1.0
290
     1
  0
SCALE
  5
49
102
{ACAD_REACTORS
330
47
102
}
330
47
100
AcDbScale
 70
     0
300
1:2
140
1.0
141
2.0
290
     0
  0
SCALE
  5
4A
102
{ACAD_REACTORS
330
47
102
}
330
47
100
AcDbScale
 70
     0
300
1:4
140
1.0
141
4.0
290
     0
  0
SCALE
  5
4B
102
{ACAD_REACTORS
330
47
102
}
330
47
100
AcDbScale
 70
     0
300
1:5
140
1.0
141
5.0
290
     0
  0
SCALE
  5
4C
102
{ACAD_REACTORS
330
47
102
}
330
47
100
AcDbScale
 70
     0
300
1:8
140
1.0
141
8.0
290
     0
  0
SCALE
  5
4D
102
{ACAD_REACTORS
330
47
102
}
330
47
100
AcDbScale
 70
     0
300
1:10
140
1.0
141
10.0
290
     0
  0
SCALE
  5
4E
102
{ACAD_REACTORS
330
47
102
}
330
47
100
AcDbScale
 70
     0
300
1:16
140
1.0
141
16.0
290
     0
  0
SCALE
  5
4F
102
{ACAD_REACTORS
330
47
102
}
330
47
100
AcDbScale
 70
     0
300
1:20
140
1.0
141
20.0
290
     0
  0
SCALE
  5
50
102
{ACAD_REACTORS
330
47
102
}
330
47
100
AcDbScale
 70
     0
300
1:30
140
1.0
141
30.0
290
     0
  0
SCALE
  5
51
102
{ACAD_REACTORS
330
47
102
}
330
47
100
AcDbScale
 70
     0
300
1:40
140
1.0
141
40.0
290
     0
  0
SCALE
  5
52
102
{ACAD_REACTORS
330
47
102
}
330
47
100
AcDbScale
 70
     0
300
1:50
140
1.0
141
50.0
290
     0
  0
SCALE
  5
53
102
{ACAD_REACTORS
330
47
102
}
330
47
100
AcDbScale
 70
     0
300
1:100
140
1.0
141
100.0
290
     0
  0
SCALE
  5
54
102
{ACAD_REACTORS
330
47
102
}
330
47
100
AcDbScale
 70
     0
300
2:1
140
2.0
141
1.0
290
     0
  0
SCALE
  5
55
102
{ACAD_REACTORS
330
47
102
}
330
47
100
AcDbScale
 70
     0
300
4:1
140
4.0
141
1.0
290
     0
  0
SCALE
  5
56
102
{ACAD_REACTORS
330
47
102
}
330
47
100
AcDbScale
 70
     0
300
8:1
140
8.0
141
1.0
290
     0
  0
SCALE
  5
57
102
{ACAD_REACTORS
330
47
102
}
330
47
100
AcDbScale
 70
     0
300
10:1
140
10.0
141
1.0
290
     0
  0
SCALE
  5
58
102
{ACAD_REACTORS
330
47
102
}
330
47
100
AcDbScale
 70
     0
300
100:1
140
100.0
141
1.0
290
     0
  0
SCALE
  5
59
102
{ACAD_REACTORS
330
47
102
}
330
47
100
AcDbScale
 70
     0
300
1/128" = 1'-0"
140
0.0078125
141
12.0
290
     0
  0
SCALE
  5
5A
102
{ACAD_REACTORS
330
47
102
}
330
47
100
AcDbScale
 70
     0
300
1/64" = 1'-0"
140
0.015625
141
12.0
290
     0
  0
SCALE
  5
5B
102
{ACAD_REACTORS
330
47
102
}
330
47
100
AcDbScale
 70
     0
300
1/32" = 1'-0"
140
0.03125
141
12.0
290
     0
  0
SCALE
  5
5C
102
{ACAD_REACTORS
330
47
102
}
330
47
100
AcDbScale
 70
     0
300
1/16" = 1'-0"
140
0.0625
141
12.0
290
     0
  0
SCALE
  5
5D
102
{ACAD_REACTORS
330
47
102
}
330
47
100
AcDbScale
 70
     0
300
3/32" = 1'-0"
140
0.09375
141
12.0
290
     0
  0
SCALE
  5
5E
102
{ACAD_REACTORS
330
47
102
}
330
47
100
AcDbScale
 70
     0
300
1/8" = 1'-0"
140
0.125
141
12.0
290
     0
  0
SCALE
  5
5F
102
{ACAD_REACTORS
330
47
102
}
330
47
100
AcDbScale
 70
     0
300
3/16" = 1'-0"
140
0.1875
141
12.0
290
     0
  0
SCALE
  5
60
102
{ACAD_REACTORS
330
47
102
}
330
47
100
AcDbScale
 70
     0
300
1/4" = 1'-0"
140
0.25
141
12.0
290
     0
  0
SCALE
  5
61
102
{ACAD_REACTORS
330
47
102
}
330
47
100
AcDbScale
 70
     0
300
3/8" = 1'-0"
140
0.375
141
12.0
290
     0
  0
SCALE
  5
62
102
{ACAD_REACTORS
330
47
102
}
330
47
100
AcDbScale
 70
     0
300
1/2" = 1'-0"
140
0.5
141
12.0
290
     0
  0
SCALE
  5
63
102
{ACAD_REACTORS
330
47
102
}
330
47
100
AcDbScale
 70
     0
300
3/4" = 1'-0"
140
0.75
141
12.0
290
     0
  0
SCALE
  5
64
102
{ACAD_REACTORS
330
47
102
}
330
47
100
AcDbScale
 70
     0
300
1" = 1'-0"
140
1.0
141
12.0
290
     0
  0
SCALE
  5
65
102
{ACAD_REACTORS
330
47
102
}
330
47
100
AcDbScale
 70
     0
300
1-1/2" = 1'-0"
140
1.5
141
12.0
290
     0
  0
SCALE
  5
66
102
{ACAD_REACTORS
330
47
102
}
330
47
100
AcDbScale
 70
     0
300
3" = 1'-0"
140
3.0
141
12.0
290
     0
  0
SCALE
  5
67
102
{ACAD_REACTORS
330
47
102
}
330
47
100
AcDbScale
 70
     0
300
6" = 1'-0"
140
6.0
141
12.0
290
     0
  0
SCALE
  5
68
102
{ACAD_REACTORS
330
47
102
}
330
47
100
AcDbScale
 70
     0
300
1'-0" = 1'-0"
140
12.0
141
12.0
290
     0
  0
TABLESTYLE
  5
6A
102
{ACAD_REACTORS
330
69
102
}
102
{ACAD_XDICTIONARY
360
208
102
}
330
69
100
AcDbTableStyle
  3
Standard
 70
     0
 71
     0
 40
0.06
 41
0.06
280
     0
281
     0
  7
Standard
140
0.18
170
     2
 62
     0
 63
   257
283
     0
 90
        4
 91
        0
  1

274
    -2
284
     1
 64
     0
275
    -2
285
     1
 65
     0
276
    -2
286
     1
 66
     0
277
    -2
287
     1
 67
     0
278
    -2
288
     1
 68
     0
279
    -2
289
     1
 69
     0
  7
Standard
140
0.25
170
     5
 62
     0
 63
   257
283
     0
 90
        4
 91
        0
  1

274
    -2
284
     1
 64
     0
275
    -2
285
     1
 65
     0
276
    -2
286
     1
 66
     0
277
    -2
287
     1
 67
     0
278
    -2
288
     1
 68
     0
279
    -2
289
     1
 69
     0
  7
Standard
140
0.18
170
     5
 62
     0
 63
   257
283
     0
 90
        4
 91
        0
  1

274
    -2
284
     1
 64
     0
275
    -2
285
     1
 65
     0
276
    -2
286
     1
 66
     0
277
    -2
287
     1
 67
     0
278
    -2
288
     1
 68
     0
279
    -2
289
     1
 69
     0
  0
VISUALSTYLE
  5
2F
102
{ACAD_REACTORS
330
2A
102
}
102
{ACAD_XDICTIONARY
360
1E0
102
}
330
2A
100
AcDbVisualStyle
  2
2dWireframe
 70
     4
 71
     0
 72
     2
 73
     0
 90
        0
 40
0.6
 41
30.0
 62
     5
 63
     7
421
 16777215
 74
     1
 91
        4
 64
     7
 65
   257
 75
     1
175
     1
 42
1.0
 92
        0
 66
   257
 43
1.0
 76
     1
 77
     6
 78
     2
 67
     7
 79
     5
170
     0
171
     0
290
     0
174
     0
 93
        1
 44
0.0
173
     0
291
     0
 45
0.0
  0
VISUALSTYLE
  5
32
102
{ACAD_REACTORS
330
2A
102
}
102
{ACAD_XDICTIONARY
360
1E6
102
}
330
2A
100
AcDbVisualStyle
  2
Basic
 70
     7
 71
     1
 72
     0
 73
     1
 90
        0
 40
0.6
 41
30.0
 62
     5
 63
     7
421
 16777215
 74
     0
 91
        4
 64
     7
 65
   257
 75
     1
175
     1
 42
1.0
 92
        8
 66
     7
 43
1.0
 76
     1
 77
     6
 78
     2
 67
     7
 79
     5
170
     0
171
     0
290
     0
174
     0
 93
        1
 44
0.0
173
     0
291
     1
 45
0.0
  0
VISUALSTYLE
  5
36
102
{ACAD_REACTORS
330
2A
102
}
102
{ACAD_XDICTIONARY
360
1EE
102
}
330
2A
100
AcDbVisualStyle
  2
Brighten
 70
    12
 71
     2
 72
     2
 73
     0
 90
        0
 40
0.6
 41
30.0
 62
     5
 63
     7
421
 16777215
 74
     1
 91
        4
 64
     7
 65
   257
 75
     1
175
     1
 42
1.0
 92
        8
 66
     7
 43
1.0
 76
     1
 77
     6
 78
     2
 67
     7
 79
     5
170
     0
171
     0
290
     0
174
     0
 93
        1
 44
50.0
173
     0
291
     1
 45
0.0
  0
VISUALSTYLE
  5
3A
102
{ACAD_REACTORS
330
2A
102
}
102
{ACAD_XDICTIONARY
360
1F6
102
}
330
2A
100
AcDbVisualStyle
  2
ColorChange
 70
    16
 71
     2
 72
     2
 73
     3
 90
        0
 40
0.6
 41
30.0
 62
     5
 63
     8
421
  8421504
 74
     1
 91
        4
 64
     7
 65
   257
 75
     1
175
     1
 42
1.0
 92
        8
 66
     8
424
  8421504
 43
1.0
 76
     1
 77
     6
 78
     2
 67
     7
 79
     5
170
     0
171
     0
290
     0
174
     0
 93
        1
 44
0.0
173
     0
291
     1
 45
0.0
  0
VISUALSTYLE
  5
34
102
{ACAD_REACTORS
330
2A
102
}
102
{ACAD_XDICTIONARY
360
1EA
102
}
330
2A
100
AcDbVisualStyle
  2
Conceptual
 70
     9
 71
     3
 72
     2
 73
     0
 90
        0
 40
0.6
 41
30.0
 62
     5
 63
     7
421
 16777215
 74
     2
 91
        2
 64
     7
 65
   257
 75
     1
175
     1
 42
179.0
 92
        8
 66
     7
 43
1.0
 76
     1
 77
     6
 78
     2
 67
     7
 79
     3
170
     0
171
     0
290
     0
174
     0
 93
        1
 44
0.0
173
     0
291
     0
 45
0.0
  0
VISUALSTYLE
  5
35
102
{ACAD_REACTORS
330
2A
102
}
102
{ACAD_XDICTIONARY
360
1EC
102
}
330
2A
100
AcDbVisualStyle
  2
Dim
 70
    11
 71
     2
 72
     2
 73
     0
 90
        0
 40
0.6
 41
30.0
 62
     5
 63
     7
421
 16777215
 74
     1
 91
        4
 64
     7
 65
   257
 75
     1
175
     1
 42
1.0
 92
        8
 66
     7
 43
1.0
 76
     1
 77
     6
 78
     2
 67
     7
 79
     5
170
     0
171
     0
290
     0
174
     0
 93
        1
 44
-50.0
173
     0
291
     1
 45
0.0
  0
VISUALSTYLE
  5
3D
102
{ACAD_REACTORS
330
2A
102
}
102
{ACAD_XDICTIONARY
360
1FC
102
}
330
2A
100
AcDbVisualStyle
  2
EdgeColorOff
 70
    22
 71
     2
 72
     2
 73
     0
 90
        0
 40
0.6
 41
30.0
 62
     5
 63
     7
421
 16777215
 74
     1
 91
        4
 64
     7
 65
   257
 75
     1
175
     1
 42
1.0
 92
        8
 66
     7
 43
1.0
 76
     1
 77
     6
 78
     2
 67
     7
 79
     5
170
     0
171
     0
290
     0
174
     0
 93
        1
 44
0.0
173
     0
291
     1
 45
0.0
  0
VISUALSTYLE
  5
39
102
{ACAD_REACTORS
330
2A
102
}
102
{ACAD_XDICTIONARY
360
1F4
102
}
330
2A
100
AcDbVisualStyle
  2
Facepattern
 70
    15
 71
     2
 72
     2
 73
     0
 90
        0
 40
0.6
 41
30.0
 62
     5
 63
     7
421
 16777215
 74
     1
 91
        4
 64
     7
 65
   257
 75
     1
175
     1
 42
1.0
 92
        8
 66
     7
 43
1.0
 76
     1
 77
     6
 78
     2
 67
     7
 79
     5
170
     0
171
     0
290
     0
174
     0
 93
        1
 44
0.0
173
     0
291
     1
 45
0.0
  0
VISUALSTYLE
  5
2B
102
{ACAD_REACTORS
330
2A
102
}
102
{ACAD_XDICTIONARY
360
1D8
102
}
330
2A
100
AcDbVisualStyle
  2
Flat
 70
     0
 71
     2
 72
     1
 73
     1
 90
        2
 40
0.6
 41
30.0
 62
     5
 63
     7
421
 16777215
 74
     0
 91
        0
 64
     7
 65
   257
 75
     1
175
     1
 42
1.0
 92
        8
 66
     7
 43
1.0
 76
     1
 77
     6
 78
     2
 67
     7
 79
     5
170
     0
171
     0
290
     0
174
     0
 93
       13
 44
0.0
173
     0
291
     1
 45
0.0
  0
VISUALSTYLE
  5
2C
102
{ACAD_REACTORS
330
2A
102
}
102
{ACAD_XDICTIONARY
360
1DA
102
}
330
2A
100
AcDbVisualStyle
  2
FlatWithEdges
 70
     1
 71
     2
 72
     1
 73
     1
 90
        2
 40
0.6
 41
30.0
 62
     5
 63
     7
421
 16777215
 74
     1
 91
        0
 64
     7
 65
   257
 75
     1
175
     1
 42
1.0
 92
        0
 66
   257
 43
1.0
 76
     1
 77
     6
 78
     2
 67
     7
 79
     5
170
     0
171
     0
290
     0
174
     0
 93
       13
 44
0.0
173
     0
291
     1
 45
0.0
  0
VISUALSTYLE
  5
2D
102
{ACAD_REACTORS
330
2A
102
}
102
{ACAD_XDICTIONARY
360
1DC
102
}
330
2A
100
AcDbVisualStyle
  2
Gouraud
 70
     2
 71
     2
 72
     2
 73
     1
 90
        2
 40
0.6
 41
30.0
 62
     5
 63
     7
421
 16777215
 74
     0
 91
        0
 64
     7
 65
   257
 75
     1
175
     1
 42
1.0
 92
        0
 66
     7
 43
1.0
 76
     1
 77
     6
 78
     2
 67
     7
 79
     5
170
     0
171
     0
290
     0
174
     0
 93
       13
 44
0.0
173
     0
291
     1
 45
0.0
  0
VISUALSTYLE
  5
2E
102
{ACAD_REACTORS
330
2A
102
}
102
{ACAD_XDICTIONARY
360
1DE
102
}
330
2A
100
AcDbVisualStyle
  2
GouraudWithEdges
 70
     3
 71
     2
 72
     2
 73
     1
 90
        2
 40
0.6
 41
30.0
 62
     5
 63
     7
421
 16777215
 74
     1
 91
        0
 64
     7
 65
   257
 75
     1
175
     1
 42
1.0
 92
        0
 66
   257
 43
1.0
 76
     1
 77
     6
 78
     2
 67
     7
 79
     5
170
     0
171
     0
290
     0
174
     0
 93
       13
 44
0.0
173
     0
291
     1
 45
0.0
  0
VISUALSTYLE
  5
31
102
{ACAD_REACTORS
330
2A
102
}
102
{ACAD_XDICTIONARY
360
1E4
102
}
330
2A
100
AcDbVisualStyle
  2
Hidden
 70
     6
 71
     1
 72
     2
 73
     2
 90
        0
 40
0.6
 41
30.0
 62
     5
 63
     7
421
 16777215
 74
     2
 91
        2
 64
     7
 65
   257
 75
     2
175
     1
 42
40.0
 92
        0
 66
   257
 43
1.0
 76
     1
 77
     6
 78
     2
 67
     7
 79
     3
170
     0
171
     0
290
     0
174
     0
 93
        1
 44
0.0
173
     0
291
     0
 45
0.0
  0
VISUALSTYLE
  5
3B
102
{ACAD_REACTORS
330
2A
102
}
102
{ACAD_XDICTIONARY
360
1F8
102
}
330
2A
100
AcDbVisualStyle
  2
JitterOff
 70
    20
 71
     2
 72
     2
 73
     0
 90
        0
 40
0.6
 41
30.0
 62
     5
 63
     7
421
 16777215
 74
     1
 91
        4
 64
     7
 65
   257
 75
     1
175
     1
 42
1.0
 92
       10
 66
     7
 43
1.0
 76
     1
 77
     6
 78
     2
 67
     7
 79
     5
170
     0
171
     0
290
     0
174
     0
 93
        1
 44
0.0
173
     0
291
     1
 45
0.0
  0
VISUALSTYLE
  5
38
102
{ACAD_REACTORS
330
2A
102
}
102
{ACAD_XDICTIONARY
360
1F2
102
}
330
2A
100
AcDbVisualStyle
  2
Linepattern
 70
    14
 71
     2
 72
     2
 73
     0
 90
        0
 40
0.6
 41
30.0
 62
     5
 63
     7
421
 16777215
 74
     1
 91
        4
 64
     7
 65
   257
 75
     7
175
     7
 42
1.0
 92
        8
 66
     7
 43
1.0
 76
     1
 77
     6
 78
     2
 67
     7
 79
     5
170
     0
171
     0
290
     0
174
     0
 93
        1
 44
0.0
173
     0
291
     1
 45
0.0
  0
VISUALSTYLE
  5
3C
102
{ACAD_REACTORS
330
2A
102
}
102
{ACAD_XDICTIONARY
360
1FA
102
}
330
2A
100
AcDbVisualStyle
  2
OverhangOff
 70
    21
 71
     2
 72
     2
 73
     0
 90
        0
 40
0.6
 41
30.0
 62
     5
 63
     7
421
 16777215
 74
     1
 91
        4
 64
     7
 65
   257
 75
     1
175
     1
 42
1.0
 92
        9
 66
     7
 43
1.0
 76
     1
 77
     6
 78
     2
 67
     7
 79
     5
170
     0
171
     0
290
     0
174
     0
 93
        1
 44
0.0
173
     0
291
     1
 45
0.0
  0
VISUALSTYLE
  5
33
102
{ACAD_REACTORS
330
2A
102
}
102
{ACAD_XDICTIONARY
360
1E8
102
}
330
2A
100
AcDbVisualStyle
  2
Realistic
 70
     8
 71
     2
 72
     3
 73
     0
 90
        2
 40
0.6
 41
30.0
 62
     5
 63
     7
421
 16777215
 74
     0
 91
        0
 64
     7
 65
   257
 75
     1
175
     1
 42
1.0
 92
        8
 66
   257
 43
1.0
 76
     1
 77
     6
 78
     2
 67
     7
 79
     3
170
     0
171
     0
290
     0
174
     0
 93
       13
 44
0.0
173
     0
291
     0
 45
0.0
  0
VISUALSTYLE
  5
42
102
{ACAD_REACTORS
330
2A
102
}
102
{ACAD_XDICTIONARY
360
206
102
}
330
2A
100
AcDbVisualStyle
  2
Shaded
 70
    27
 71
     2
 72
     2
 73
     1
 90
        2
 40
0.6
 41
30.0
 62
     5
 63
     7
421
 16777215
 74
     0
 91
        4
 64
     7
 65
   257
 75
     1
175
     1
 42
1.0
 92
        8
 66
   257
 43
1.0
 76
     1
 77
     6
 78
     2
 67
     8
425
  7895160
 79
     3
170
     0
171
     0
290
     0
174
     0
 93
        5
 44
0.0
173
     0
291
     0
 45
0.0
  0
VISUALSTYLE
  5
41
102
{ACAD_REACTORS
330
2A
102
}
102
{ACAD_XDICTIONARY
360
204
102
}
330
2A
100
AcDbVisualStyle
  2
Shaded with edges
 70
    26
 71
     2
 72
     2
 73
     1
 90
        2
 40
0.6
 41
30.0
 62
     5
 63
     7
421
 16777215
 74
     1
 91
       10
 64
     7
 65
   257
 75
     2
175
     1
 42
1.0
 92
        8
 66
   257
 43
1.0
 76
     1
 77
     6
 78
     2
 67
     7
 79
     3
170
     0
171
     0
290
     0
174
     0
 93
        5
 44
0.0
173
     0
291
     0
 45
0.0
  0
VISUALSTYLE
  5
3E
102
{ACAD_REACTORS
330
2A
102
}
102
{ACAD_XDICTIONARY
360
1FE
102
}
330
2A
100
AcDbVisualStyle
  2
Shades of Gray
 70
    23
 71
     2
 72
     2
 73
     3
 90
        0
 40
0.6
 41
30.0
 62
     5
 63
     7
421
 16777215
 74
     2
 91
        2
 64
     7
 65
     7
 75
     1
175
     1
 42
40.0
 92
        8
 66
     7
 43
1.0
 76
     1
 77
     6
 78
     2
 67
     7
 79
     3
170
     0
171
     0
290
     0
174
     0
 93
        1
 44
0.0
173
     0
291
     0
 45
0.0
  0
VISUALSTYLE
  5
3F
102
{ACAD_REACTORS
330
2A
102
}
102
{ACAD_XDICTIONARY
360
200
102
}
330
2A
100
AcDbVisualStyle
  2
Sketchy
 70
    24
 71
     1
 72
     2
 73
     2
 90
        0
 40
0.6
 41
30.0
 62
     5
 63
     7
421
 16777215
 74
     2
 91
        2
 64
     7
 65
     7
 75
     1
175
     1
 42
40.0
 92
       11
 66
     7
 43
1.0
 76
     1
 77
     6
 78
     2
 67
     7
 79
     6
170
     0
171
     0
290
     0
174
     0
 93
        1
 44
0.0
173
     0
291
     0
 45
0.0
  0
VISUALSTYLE
  5
37
102
{ACAD_REACTORS
330
2A
102
}
102
{ACAD_XDICTIONARY
360
1F0
102
}
330
2A
100
AcDbVisualStyle
  2
Thicken
 70
    13
 71
     2
 72
     2
 73
     0
 90
        0
 40
0.6
 41
30.0
 62
     5
 63
     7
421
 16777215
 74
     1
 91
        4
 64
     7
 65
   257
 75
     1
175
     1
 42
1.0
 92
       12
 66
     7
 43
1.0
 76
     1
 77
     6
 78
     2
 67
     7
 79
     5
170
     0
171
     0
290
     0
174
     0
 93
        1
 44
0.0
173
     0
291
     1
 45
0.0
  0
VISUALSTYLE
  5
30
102
{ACAD_REACTORS
330
2A
102
}
102
{ACAD_XDICTIONARY
360
1E2
102
}
330
2A
100
AcDbVisualStyle
  2
Wireframe
 70
     5
 71
     0
 72
     2
 73
     0
 90
        0
 40
0.6
 41
30.0
 62
     5
 63
     7
421
 16777215
 74
     1
 91
        4
 64
     7
 65
   257
 75
     1
175
     1
 42
1.0
 92
        0
 66
   257
 43
1.0
 76
     1
 77
     6
 78
     2
 67
     7
 79
     3
170
     0
171
     0
290
     0
174
     0
 93
        1
 44
0.0
173
     0
291
     0
 45
0.0
  0
VISUALSTYLE
  5
40
102
{ACAD_REACTORS
330
2A
102
}
102
{ACAD_XDICTIONARY
360
202
102
}
330
2A
100
AcDbVisualStyle
  2
X-Ray
 70
    25
 71
     2
 72
     2
 73
     1
 90
        1
 40
0.5
 41
30.0
 62
     5
 63
     7
421
 16777215
 74
     1
 91
        0
 64
     7
 65
   257
 75
     1
175
     1
 42
1.0
 92
        8
 66
     7
 43
1.0
 76
     1
 77
     6
 78
     2
 67
     7
 79
     3
170
     0
171
     0
290
     0
174
     0
 93
       13
 44
0.0
173
     0
291
     0
 45
0.0
  0
DICTIONARYVAR
  5
1D6
102
{ACAD_REACTORS
330
1D5
102
}
330
1D5
100
DictionaryVariables
280
     0
  1
1:1
  0
DICTIONARYVAR
  5
20F
102
{ACAD_REACTORS
330
1D5
102
}
330
1D5
100
DictionaryVariables
280
     0
  1
Standard
  0
DICTIONARYVAR
  5
20E
102
{ACAD_REACTORS
330
1D5
102
}
330
1D5
100
DictionaryVariables
280
     0
  1
Standard
  0
DICTIONARYVAR
  5
1D7
102
{ACAD_REACTORS
330
1D5
102
}
330
1D5
100
DictionaryVariables
280
     0
  1
2
  0
DICTIONARY
  5
20B
330
6C
100
AcDbDictionary
280
     1
281
     1
  3
ACAD_XREC_ROUNDTRIP
360
20C
  0
DICTIONARY
  5
208
330
6A
100
AcDbDictionary
280
     1
281
     1
  3
ACAD_ROUNDTRIP_2008_TABLESTYLE_CELLSTYLEMAP
360
209
  0
DICTIONARY
  5
1E0
330
2F
100
AcDbDictionary
280
     1
281
     1
  3
ACAD_XREC_ROUNDTRIP
360
1E1
  0
DICTIONARY
  5
1E6
330
32
100
AcDbDictionary
280
     1
281
     1
  3
ACAD_XREC_ROUNDTRIP
360
1E7
  0
DICTIONARY
  5
1EE
330
36
100
AcDbDictionary
280
     1
281
     1
  3
ACAD_XREC_ROUNDTRIP
360
1EF
  0
DICTIONARY
  5
1F6
330
3A
100
AcDbDictionary
280
     1
281
     1
  3
ACAD_XREC_ROUNDTRIP
360
1F7
  0
DICTIONARY
  5
1EA
330
34
100
AcDbDictionary
280
     1
281
     1
  3
ACAD_XREC_ROUNDTRIP
360
1EB
  0
DICTIONARY
  5
1EC
330
35
100
AcDbDictionary
280
     1
281
     1
  3
ACAD_XREC_ROUNDTRIP
360
1ED
  0
DICTIONARY
  5
1FC
330
3D
100
AcDbDictionary
280
     1
281
     1
  3
ACAD_XREC_ROUNDTRIP
360
1FD
  0
DICTIONARY
  5
1F4
330
39
100
AcDbDictionary
280
     1
281
     1
  3
ACAD_XREC_ROUNDTRIP
360
1F5
  0
DICTIONARY
  5
1D8
330
2B
100
AcDbDictionary
280
     1
281
     1
  3
ACAD_XREC_ROUNDTRIP
360
1D9
  0
DICTIONARY
  5
1DA
330
2C
100
AcDbDictionary
280
     1
281
     1
  3
ACAD_XREC_ROUNDTRIP
360
1DB
  0
DICTIONARY
  5
1DC
330
2D
100
AcDbDictionary
280
     1
281
     1
  3
ACAD_XREC_ROUNDTRIP
360
1DD
  0
DICTIONARY
  5
1DE
330
2E
100
AcDbDictionary
280
     1
281
     1
  3
ACAD_XREC_ROUNDTRIP
360
1DF
  0
DICTIONARY
  5
1E4
330
31
100
AcDbDictionary
280
     1
281
     1
  3
ACAD_XREC_ROUNDTRIP
360
1E5
  0
DICTIONARY
  5
1F8
330
3B
100
AcDbDictionary
280
     1
281
     1
  3
ACAD_XREC_ROUNDTRIP
360
1F9
  0
DICTIONARY
  5
1F2
330
38
100
AcDbDictionary
280
     1
281
     1
  3
ACAD_XREC_ROUNDTRIP
360
1F3
  0
DICTIONARY
  5
1FA
330
3C
100
AcDbDictionary
280
     1
281
     1
  3
ACAD_XREC_ROUNDTRIP
360
1FB
  0
DICTIONARY
  5
1E8
330
33
100
AcDbDictionary
280
     1
281
     1
  3
ACAD_XREC_ROUNDTRIP
360
1E9
  0
DICTIONARY
  5
206
330
42
100
AcDbDictionary
280
     1
281
     1
  3
ACAD_XREC_ROUNDTRIP
360
207
  0
DICTIONARY
  5
204
330
41
100
AcDbDictionary
280
     1
281
     1
  3
ACAD_XREC_ROUNDTRIP
360
205
  0
DICTIONARY
  5
1FE
330
3E
100
AcDbDictionary
280
     1
281
     1
  3
ACAD_XREC_ROUNDTRIP
360
1FF
  0
DICTIONARY
  5
200
330
3F
100
AcDbDictionary
280
     1
281
     1
  3
ACAD_XREC_ROUNDTRIP
360
201
  0
DICTIONARY
  5
1F0
330
37
100
AcDbDictionary
280
     1
281
     1
  3
ACAD_XREC_ROUNDTRIP
360
1F1
  0
DICTIONARY
  5
1E2
330
30
100
AcDbDictionary
280
     1
281
     1
  3
ACAD_XREC_ROUNDTRIP
360
1E3
  0
DICTIONARY
  5
202
330
40
100
AcDbDictionary
280
     1
281
     1
  3
ACAD_XREC_ROUNDTRIP
360
203
  0
XRECORD
  5
20C
102
{ACAD_REACTORS
330
20B
102
}
330
20B
100
AcDbXrecord
280
     1
102
ACAD_ROUNDTRIP_2010_MLEADER_STYLE
  0
CELLSTYLEMAP
  5
209
102
{ACAD_REACTORS
330
208
102
}
330
208
100
AcDbCellStyleMap
 90
        3
300
CELLSTYLE
  1
TABLEFORMAT_BEGIN
 90
        5
170
     1
 91
        0
 92
    32768
 62
   257
 93
        1
300
CONTENTFORMAT
  1
CONTENTFORMAT_BEGIN
 90
        0
 91
        0
 92
        4
 93
        0
300

 40
0.0
140
1.0
 94
        5
 62
     0
340
11
144
0.25
309
CONTENTFORMAT_END
171
     1
301
MARGIN
  1
CELLMARGIN_BEGIN
 40
0.06
 40
0.06
 40
0.06
 40
0.06
 40
0.06
 40
0.06
309
CELLMARGIN_END
 94
        6
 95
        1
302
GRIDFORMAT
  1
GRIDFORMAT_BEGIN
 90
        0
 91
        1
 62
     0
 92
       -2
340
14
 93
        0
 40
0.045
309
GRIDFORMAT_END
 95
        2
302
GRIDFORMAT
  1
GRIDFORMAT_BEGIN
 90
        0
 91
        1
 62
     0
 92
       -2
340
14
 93
        0
 40
0.045
309
GRIDFORMAT_END
 95
        4
302
GRIDFORMAT
  1
GRIDFORMAT_BEGIN
 90
        0
 91
        1
 62
     0
 92
       -2
340
14
 93
        0
 40
0.045
309
GRIDFORMAT_END
 95
        8
302
GRIDFORMAT
  1
GRIDFORMAT_BEGIN
 90
        0
 91
        1
 62
     0
 92
       -2
340
14
 93
        0
 40
0.045
309
GRIDFORMAT_END
 95
       16
302
GRIDFORMAT
  1
GRIDFORMAT_BEGIN
 90
        0
 91
        1
 62
     0
 92
       -2
340
14
 93
        0
 40
0.045
309
GRIDFORMAT_END
 95
       32
302
GRIDFORMAT
  1
GRIDFORMAT_BEGIN
 90
        0
 91
        1
 62
     0
 92
       -2
340
14
 93
        0
 40
0.045
309
GRIDFORMAT_END
309
TABLEFORMAT_END
  1
CELLSTYLE_BEGIN
 90
        1
 91
        1
300
_TITLE
309
CELLSTYLE_END
300
CELLSTYLE
  1
TABLEFORMAT_BEGIN
 90
        5
170
     1
 91
        0
 92
        0
 62
   257
 93
        1
300
CONTENTFORMAT
  1
CONTENTFORMAT_BEGIN
 90
        0
 91
        0
 92
        4
 93
        0
300

 40
0.0
140
1.0
 94
        5
 62
     0
340
11
144
0.18
309
CONTENTFORMAT_END
171
     1
301
MARGIN
  1
CELLMARGIN_BEGIN
 40
0.06
 40
0.06
 40
0.06
 40
0.06
 40
0.06
 40
0.06
309
CELLMARGIN_END
 94
        6
 95
        1
302
GRIDFORMAT
  1
GRIDFORMAT_BEGIN
 90
        0
 91
        1
 62
     0
 92
       -2
340
14
 93
        0
 40
0.045
309
GRIDFORMAT_END
 95
        2
302
GRIDFORMAT
  1
GRIDFORMAT_BEGIN
 90
        0
 91
        1
 62
     0
 92
       -2
340
14
 93
        0
 40
0.045
309
GRIDFORMAT_END
 95
        4
302
GRIDFORMAT
  1
GRIDFORMAT_BEGIN
 90
        0
 91
        1
 62
     0
 92
       -2
340
14
 93
        0
 40
0.045
309
GRIDFORMAT_END
 95
        8
302
GRIDFORMAT
  1
GRIDFORMAT_BEGIN
 90
        0
 91
        1
 62
     0
 92
       -2
340
14
 93
        0
 40
0.045
309
GRIDFORMAT_END
 95
       16
302
GRIDFORMAT
  1
GRIDFORMAT_BEGIN
 90
        0
 91
        1
 62
     0
 92
       -2
340
14
 93
        0
 40
0.045
309
GRIDFORMAT_END
 95
       32
302
GRIDFORMAT
  1
GRIDFORMAT_BEGIN
 90
        0
 91
        1
 62
     0
 92
       -2
340
14
 93
        0
 40
0.045
309
GRIDFORMAT_END
309
TABLEFORMAT_END
  1
CELLSTYLE_BEGIN
 90
        2
 91
        1
300
_HEADER
309
CELLSTYLE_END
300
CELLSTYLE
  1
TABLEFORMAT_BEGIN
 90
        5
170
     1
 91
        0
 92
        0
 62
   257
 93
        1
300
CONTENTFORMAT
  1
CONTENTFORMAT_BEGIN
 90
        0
 91
        0
 92
        4
 93
        0
300

 40
0.0
140
1.0
 94
        2
 62
     0
340
11
144
0.18
309
CONTENTFORMAT_END
171
     1
301
MARGIN
  1
CELLMARGIN_BEGIN
 40
0.06
 40
0.06
 40
0.06
 40
0.06
 40
0.06
 40
0.06
309
CELLMARGIN_END
 94
        6
 95
        1
302
GRIDFORMAT
  1
GRIDFORMAT_BEGIN
 90
        0
 91
        1
 62
     0
 92
       -2
340
14
 93
        0
 40
0.045
309
GRIDFORMAT_END
 95
        2
302
GRIDFORMAT
  1
GRIDFORMAT_BEGIN
 90
        0
 91
        1
 62
     0
 92
       -2
340
14
 93
        0
 40
0.045
309
GRIDFORMAT_END
 95
        4
302
GRIDFORMAT
  1
GRIDFORMAT_BEGIN
 90
        0
 91
        1
 62
     0
 92
       -2
340
14
 93
        0
 40
0.045
309
GRIDFORMAT_END
 95
        8
302
GRIDFORMAT
  1
GRIDFORMAT_BEGIN
 90
        0
 91
        1
 62
     0
 92
       -2
340
14
 93
        0
 40
0.045
309
GRIDFORMAT_END
 95
       16
302
GRIDFORMAT
  1
GRIDFORMAT_BEGIN
 90
        0
 91
        1
 62
     0
 92
       -2
340
14
 93
        0
 40
0.045
309
GRIDFORMAT_END
 95
       32
302
GRIDFORMAT
  1
GRIDFORMAT_BEGIN
 90
        0
 91
        1
 62
     0
 92
       -2
340
14
 93
        0
 40
0.045
309
GRIDFORMAT_END
309
TABLEFORMAT_END
  1
CELLSTYLE_BEGIN
 90
        3
 91
        2
300
_DATA
309
CELLSTYLE_END
  0
XRECORD
  5
1E1
102
{ACAD_REACTORS
330
1E0
102
}
330
1E0
100
AcDbXrecord
280
     1
102
RTVSPropertyOp0
 70
     1
102
RTVSPropertyOp1
 70
     1
102
RTVSPropertyOp2
 70
     1
102
RTVSPropertyOp3
 70
     1
102
RTVSPropertyOp4
 70
     1
102
RTVSPropertyOp5
 70
     1
102
RTVSPropertyOp6
 70
     1
102
RTVSPropertyOp7
 70
     1
102
RTVSPropertyOp8
 70
     1
102
RTVSPropertyOp9
 70
     1
102
RTVSPropertyOp10
 70
     1
102
RTVSPropertyOp11
 70
     1
102
RTVSPropertyOp12
 70
     1
102
RTVSPropertyOp13
 70
     1
102
RTVSPropertyOp14
 70
     1
102
RTVSPropertyOp15
 70
     1
102
RTVSPropertyOp16
 70
     1
102
RTVSPropertyOp17
 70
     1
102
RTVSPropertyOp18
 70
     1
102
RTVSPropertyOp19
 70
     1
102
RTVSPropertyOp20
 70
     1
102
RTVSPropertyOp21
 70
     1
102
RTVSPropertyOp22
 70
     1
102
RTVSPropertyOp23
 70
     1
102
RTVSPropertyOp24
 70
     1
102
RTVSPropertyOp25
 70
     1
102
RTVSPropertyOp26
 70
     1
102
RTVSPropertyOp27
 70
     1
102
RTVSPropertyOp28
 70
     1
102
RTVSPropertyOp29
 70
     1
102
RTVSPropertyOp30
 70
     1
102
RTVSPropertyOp31
 70
     1
102
RTVSPropertyOp32
 70
     1
102
RTVSPropertyOp33
 70
     1
102
RTVSPropertyOp34
 70
     1
102
RTVSPropertyOp35
 70
     1
102
RTVSPropertyOp36
 70
     1
102
RTVSPropertyOp37
 70
     1
102
RTVSPropertyOp38
 70
     1
102
RTVSPropertyOp39
 70
     1
102
RTVSPropertyOp40
 70
     1
102
RTVSPropertyOp41
 70
     1
102
RTVSPropertyOp42
 70
     1
102
RTVSPropertyOp43
 70
     1
102
RTVSPropertyOp44
 70
     1
102
RTVSPropertyOp45
 70
     1
102
RTVSPropertyOp46
 70
     1
102
RTVSPropertyOp47
 70
     1
102
RTVSPropertyOp48
 70
     1
102
RTVSPropertyOp49
 70
     1
102
RTVSPropertyOp50
 70
     1
102
RTVSPropertyOp51
 70
     0
102
RTVSPropertyOp52
 70
     0
102
RTVSPropertyOp53
 70
     1
102
RTVSPropertyOp54
 70
     1
102
RTVSPropertyOp55
 70
     1
102
RTVSPropertyOp56
 70
     1
102
RTVSPropertyOp57
 70
     1
102
RTVSPost2010Prop28
280
     1
102
RTVSPost2010PropOp28
 70
     1
102
RTVSPost2010Prop29
280
     1
102
RTVSPost2010PropOp29
 70
     1
102
RTVSPost2010Prop30
280
     0
102
RTVSPost2010PropOp30
 70
     1
102
RTVSPost2010Prop31
280
     0
102
RTVSPost2010PropOp31
 70
     1
102
RTVSPost2010Prop32
280
     0
102
RTVSPost2010PropOp32
 70
     1
102
RTVSPost2010Prop33
280
     0
102
RTVSPost2010PropOp33
 70
     1
102
RTVSPost2010Prop34
280
     0
102
RTVSPost2010PropOp34
 70
     1
102
RTVSPost2010Prop35
280
     0
102
RTVSPost2010PropOp35
 70
     1
102
RTVSPost2010Prop36
280
     0
102
RTVSPost2010PropOp36
 70
     1
102
RTVSPost2010Prop37
 90
       50
102
RTVSPost2010PropOp37
 70
     1
102
RTVSPost2010Prop38
140
0.0
102
RTVSPost2010PropOp38
 70
     1
102
RTVSPost2010Prop39
140
1.0
102
RTVSPost2010PropOp39
 70
     1
102
RTVSPost2010Prop40
 90
        0
102
RTVSPost2010PropOp40
 70
     1
102
RTVSPost2010Prop41ColorIndex
 90
       18
102
RTVSPost2010Prop41ColorRGB
 90
        0
102
RTVSPost2010PropOp41
 70
     1
102
RTVSPost2010Prop42
 90
       50
102
RTVSPost2010PropOp42
 70
     1
102
RTVSPost2010Prop43
 90
        3
102
RTVSPost2010PropOp43
 70
     1
102
RTVSPost2010Prop44ColorIndex
 90
        5
102
RTVSPost2010Prop44ColorRGB
 90
      255
102
RTVSPost2010PropOp44
 70
     1
102
RTVSPost2010Prop45
280
     0
102
RTVSPost2010PropOp45
 70
     1
102
RTVSPost2010Prop46
 90
       50
102
RTVSPost2010PropOp46
 70
     1
102
RTVSPost2010Prop47
 90
       50
102
RTVSPost2010PropOp47
 70
     1
102
RTVSPost2010Prop48
 90
       50
102
RTVSPost2010PropOp48
 70
     1
102
RTVSPost2010Prop49
280
     0
102
RTVSPost2010PropOp49
 70
     1
102
RTVSPost2010Prop50
 90
       50
102
RTVSPost2010PropOp50
 70
     1
102
RTVSPost2010Prop51ColorIndex
 90
      256
102
RTVSPost2010Prop51ColorRGB
 90
-16777216
102
RTVSPost2010PropOp51
 70
     0
102
RTVSPost2010Prop52
140
1.0
102
RTVSPost2010PropOp52
 70
     0
102
RTVSPost2010Prop53
 90
        2
102
RTVSPost2010PropOp53
 70
     1
102
RTVSPost2010Prop54
  1
strokes_ogs.tif
102
RTVSPost2010PropOp54
 70
     1
102
RTVSPost2010Prop55
280
     0
102
RTVSPost2010PropOp55
 70
     1
102
RTVSPost2010Prop56
140
1.0
102
RTVSPost2010PropOp56
 70
     1
102
RTVSPost2010Prop57
140
1.0
102
RTVSPost2010PropOp57
 70
     1
  0
XRECORD
  5
1E7
102
{ACAD_REACTORS
330
1E6
102
}
330
1E6
100
AcDbXrecord
280
     1
102
RTVSPropertyOp0
 70
     1
102
RTVSPropertyOp1
 70
     1
102
RTVSPropertyOp2
 70
     1
102
RTVSPropertyOp3
 70
     1
102
RTVSPropertyOp4
 70
     1
102
RTVSPropertyOp5
 70
     1
102
RTVSPropertyOp6
 70
     1
102
RTVSPropertyOp7
 70
     1
102
RTVSPropertyOp8
 70
     1
102
RTVSPropertyOp9
 70
     1
102
RTVSPropertyOp10
 70
     1
102
RTVSPropertyOp11
 70
     1
102
RTVSPropertyOp12
 70
     1
102
RTVSPropertyOp13
 70
     1
102
RTVSPropertyOp14
 70
     1
102
RTVSPropertyOp15
 70
     1
102
RTVSPropertyOp16
 70
     1
102
RTVSPropertyOp17
 70
     1
102
RTVSPropertyOp18
 70
     1
102
RTVSPropertyOp19
 70
     1
102
RTVSPropertyOp20
 70
     1
102
RTVSPropertyOp21
 70
     1
102
RTVSPropertyOp22
 70
     1
102
RTVSPropertyOp23
 70
     1
102
RTVSPropertyOp24
 70
     1
102
RTVSPropertyOp25
 70
     1
102
RTVSPropertyOp26
 70
     1
102
RTVSPropertyOp27
 70
     1
102
RTVSPropertyOp28
 70
     1
102
RTVSPropertyOp29
 70
     1
102
RTVSPropertyOp30
 70
     1
102
RTVSPropertyOp31
 70
     1
102
RTVSPropertyOp32
 70
     1
102
RTVSPropertyOp33
 70
     1
102
RTVSPropertyOp34
 70
     1
102
RTVSPropertyOp35
 70
     1
102
RTVSPropertyOp36
 70
     1
102
RTVSPropertyOp37
 70
     1
102
RTVSPropertyOp38
 70
     1
102
RTVSPropertyOp39
 70
     1
102
RTVSPropertyOp40
 70
     1
102
RTVSPropertyOp41
 70
     1
102
RTVSPropertyOp42
 70
     1
102
RTVSPropertyOp43
 70
     1
102
RTVSPropertyOp44
 70
     1
102
RTVSPropertyOp45
 70
     1
102
RTVSPropertyOp46
 70
     1
102
RTVSPropertyOp47
 70
     1
102
RTVSPropertyOp48
 70
     1
102
RTVSPropertyOp49
 70
     1
102
RTVSPropertyOp50
 70
     1
102
RTVSPropertyOp51
 70
     0
102
RTVSPropertyOp52
 70
     0
102
RTVSPropertyOp53
 70
     1
102
RTVSPropertyOp54
 70
     1
102
RTVSPropertyOp55
 70
     1
102
RTVSPropertyOp56
 70
     1
102
RTVSPropertyOp57
 70
     1
102
RTVSPost2010Prop28
280
     0
102
RTVSPost2010PropOp28
 70
     1
102
RTVSPost2010Prop29
280
     1
102
RTVSPost2010PropOp29
 70
     1
102
RTVSPost2010Prop30
280
     1
102
RTVSPost2010PropOp30
 70
     1
102
RTVSPost2010Prop31
280
     0
102
RTVSPost2010PropOp31
 70
     1
102
RTVSPost2010Prop32
280
     0
102
RTVSPost2010PropOp32
 70
     1
102
RTVSPost2010Prop33
280
     0
102
RTVSPost2010PropOp33
 70
     1
102
RTVSPost2010Prop34
280
     0
102
RTVSPost2010PropOp34
 70
     1
102
RTVSPost2010Prop35
280
     0
102
RTVSPost2010PropOp35
 70
     1
102
RTVSPost2010Prop36
280
     0
102
RTVSPost2010PropOp36
 70
     1
102
RTVSPost2010Prop37
 90
       50
102
RTVSPost2010PropOp37
 70
     1
102
RTVSPost2010Prop38
140
0.0
102
RTVSPost2010PropOp38
 70
     1
102
RTVSPost2010Prop39
140
1.0
102
RTVSPost2010PropOp39
 70
     1
102
RTVSPost2010Prop40
 90
        0
102
RTVSPost2010PropOp40
 70
     1
102
RTVSPost2010Prop41ColorIndex
 90
       18
102
RTVSPost2010Prop41ColorRGB
 90
        0
102
RTVSPost2010PropOp41
 70
     1
102
RTVSPost2010Prop42
 90
       50
102
RTVSPost2010PropOp42
 70
     1
102
RTVSPost2010Prop43
 90
        3
102
RTVSPost2010PropOp43
 70
     1
102
RTVSPost2010Prop44ColorIndex
 90
        5
102
RTVSPost2010Prop44ColorRGB
 90
      255
102
RTVSPost2010PropOp44
 70
     1
102
RTVSPost2010Prop45
280
     0
102
RTVSPost2010PropOp45
 70
     1
102
RTVSPost2010Prop46
 90
       50
102
RTVSPost2010PropOp46
 70
     1
102
RTVSPost2010Prop47
 90
       50
102
RTVSPost2010PropOp47
 70
     1
102
RTVSPost2010Prop48
 90
       50
102
RTVSPost2010PropOp48
 70
     1
102
RTVSPost2010Prop49
280
     0
102
RTVSPost2010PropOp49
 70
     1
102
RTVSPost2010Prop50
 90
       50
102
RTVSPost2010PropOp50
 70
     1
102
RTVSPost2010Prop51ColorIndex
 90
      256
102
RTVSPost2010Prop51ColorRGB
 90
-16777216
102
RTVSPost2010PropOp51
 70
     0
102
RTVSPost2010Prop52
140
1.0
102
RTVSPost2010PropOp52
 70
     0
102
RTVSPost2010Prop53
 90
        2
102
RTVSPost2010PropOp53
 70
     1
102
RTVSPost2010Prop54
  1
strokes_ogs.tif
102
RTVSPost2010PropOp54
 70
     1
102
RTVSPost2010Prop55
280
     0
102
RTVSPost2010PropOp55
 70
     1
102
RTVSPost2010Prop56
140
1.0
102
RTVSPost2010PropOp56
 70
     1
102
RTVSPost2010Prop57
140
1.0
102
RTVSPost2010PropOp57
 70
     1
  0
XRECORD
  5
1EF
102
{ACAD_REACTORS
330
1EE
102
}
330
1EE
100
AcDbXrecord
280
     1
102
RTVSPropertyOp0
 70
     1
102
RTVSPropertyOp1
 70
     1
102
RTVSPropertyOp2
 70
     1
102
RTVSPropertyOp3
 70
     1
102
RTVSPropertyOp4
 70
     1
102
RTVSPropertyOp5
 70
     1
102
RTVSPropertyOp6
 70
     1
102
RTVSPropertyOp7
 70
     1
102
RTVSPropertyOp8
 70
     1
102
RTVSPropertyOp9
 70
     1
102
RTVSPropertyOp10
 70
     1
102
RTVSPropertyOp11
 70
     1
102
RTVSPropertyOp12
 70
     1
102
RTVSPropertyOp13
 70
     1
102
RTVSPropertyOp14
 70
     1
102
RTVSPropertyOp15
 70
     1
102
RTVSPropertyOp16
 70
     1
102
RTVSPropertyOp17
 70
     1
102
RTVSPropertyOp18
 70
     1
102
RTVSPropertyOp19
 70
     1
102
RTVSPropertyOp20
 70
     1
102
RTVSPropertyOp21
 70
     1
102
RTVSPropertyOp22
 70
     1
102
RTVSPropertyOp23
 70
     1
102
RTVSPropertyOp24
 70
     1
102
RTVSPropertyOp25
 70
     1
102
RTVSPropertyOp26
 70
     1
102
RTVSPropertyOp27
 70
     1
102
RTVSPropertyOp28
 70
     1
102
RTVSPropertyOp29
 70
     1
102
RTVSPropertyOp30
 70
     1
102
RTVSPropertyOp31
 70
     1
102
RTVSPropertyOp32
 70
     1
102
RTVSPropertyOp33
 70
     1
102
RTVSPropertyOp34
 70
     1
102
RTVSPropertyOp35
 70
     1
102
RTVSPropertyOp36
 70
     1
102
RTVSPropertyOp37
 70
     1
102
RTVSPropertyOp38
 70
     1
102
RTVSPropertyOp39
 70
     1
102
RTVSPropertyOp40
 70
     1
102
RTVSPropertyOp41
 70
     1
102
RTVSPropertyOp42
 70
     1
102
RTVSPropertyOp43
 70
     1
102
RTVSPropertyOp44
 70
     1
102
RTVSPropertyOp45
 70
     1
102
RTVSPropertyOp46
 70
     1
102
RTVSPropertyOp47
 70
     1
102
RTVSPropertyOp48
 70
     1
102
RTVSPropertyOp49
 70
     1
102
RTVSPropertyOp50
 70
     1
102
RTVSPropertyOp51
 70
     0
102
RTVSPropertyOp52
 70
     0
102
RTVSPropertyOp53
 70
     1
102
RTVSPropertyOp54
 70
     1
102
RTVSPropertyOp55
 70
     1
102
RTVSPropertyOp56
 70
     1
102
RTVSPropertyOp57
 70
     1
102
RTVSPost2010Prop28
280
     0
102
RTVSPost2010PropOp28
 70
     1
102
RTVSPost2010Prop29
280
     1
102
RTVSPost2010PropOp29
 70
     1
102
RTVSPost2010Prop30
280
     1
102
RTVSPost2010PropOp30
 70
     1
102
RTVSPost2010Prop31
280
     0
102
RTVSPost2010PropOp31
 70
     1
102
RTVSPost2010Prop32
280
     0
102
RTVSPost2010PropOp32
 70
     1
102
RTVSPost2010Prop33
280
     0
102
RTVSPost2010PropOp33
 70
     1
102
RTVSPost2010Prop34
280
     0
102
RTVSPost2010PropOp34
 70
     1
102
RTVSPost2010Prop35
280
     0
102
RTVSPost2010PropOp35
 70
     1
102
RTVSPost2010Prop36
280
     0
102
RTVSPost2010PropOp36
 70
     1
102
RTVSPost2010Prop37
 90
       50
102
RTVSPost2010PropOp37
 70
     1
102
RTVSPost2010Prop38
140
0.0
102
RTVSPost2010PropOp38
 70
     1
102
RTVSPost2010Prop39
140
1.0
102
RTVSPost2010PropOp39
 70
     1
102
RTVSPost2010Prop40
 90
        0
102
RTVSPost2010PropOp40
 70
     1
102
RTVSPost2010Prop41ColorIndex
 90
       18
102
RTVSPost2010Prop41ColorRGB
 90
        0
102
RTVSPost2010PropOp41
 70
     1
102
RTVSPost2010Prop42
 90
       50
102
RTVSPost2010PropOp42
 70
     1
102
RTVSPost2010Prop43
 90
        3
102
RTVSPost2010PropOp43
 70
     1
102
RTVSPost2010Prop44ColorIndex
 90
        5
102
RTVSPost2010Prop44ColorRGB
 90
      255
102
RTVSPost2010PropOp44
 70
     1
102
RTVSPost2010Prop45
280
     0
102
RTVSPost2010PropOp45
 70
     1
102
RTVSPost2010Prop46
 90
       50
102
RTVSPost2010PropOp46
 70
     1
102
RTVSPost2010Prop47
 90
       50
102
RTVSPost2010PropOp47
 70
     1
102
RTVSPost2010Prop48
 90
       50
102
RTVSPost2010PropOp48
 70
     1
102
RTVSPost2010Prop49
280
     0
102
RTVSPost2010PropOp49
 70
     1
102
RTVSPost2010Prop50
 90
       50
102
RTVSPost2010PropOp50
 70
     1
102
RTVSPost2010Prop51ColorIndex
 90
      256
102
RTVSPost2010Prop51ColorRGB
 90
-16777216
102
RTVSPost2010PropOp51
 70
     0
102
RTVSPost2010Prop52
140
1.0
102
RTVSPost2010PropOp52
 70
     0
102
RTVSPost2010Prop53
 90
        2
102
RTVSPost2010PropOp53
 70
     1
102
RTVSPost2010Prop54
  1
strokes_ogs.tif
102
RTVSPost2010PropOp54
 70
     1
102
RTVSPost2010Prop55
280
     0
102
RTVSPost2010PropOp55
 70
     1
102
RTVSPost2010Prop56
140
1.0
102
RTVSPost2010PropOp56
 70
     1
102
RTVSPost2010Prop57
140
1.0
102
RTVSPost2010PropOp57
 70
     1
  0
XRECORD
  5
1F7
102
{ACAD_REACTORS
330
1F6
102
}
330
1F6
100
AcDbXrecord
280
     1
102
RTVSPropertyOp0
 70
     1
102
RTVSPropertyOp1
 70
     1
102
RTVSPropertyOp2
 70
     1
102
RTVSPropertyOp3
 70
     1
102
RTVSPropertyOp4
 70
     1
102
RTVSPropertyOp5
 70
     1
102
RTVSPropertyOp6
 70
     1
102
RTVSPropertyOp7
 70
     1
102
RTVSPropertyOp8
 70
     1
102
RTVSPropertyOp9
 70
     1
102
RTVSPropertyOp10
 70
     1
102
RTVSPropertyOp11
 70
     1
102
RTVSPropertyOp12
 70
     1
102
RTVSPropertyOp13
 70
     1
102
RTVSPropertyOp14
 70
     1
102
RTVSPropertyOp15
 70
     1
102
RTVSPropertyOp16
 70
     1
102
RTVSPropertyOp17
 70
     1
102
RTVSPropertyOp18
 70
     1
102
RTVSPropertyOp19
 70
     1
102
RTVSPropertyOp20
 70
     1
102
RTVSPropertyOp21
 70
     1
102
RTVSPropertyOp22
 70
     1
102
RTVSPropertyOp23
 70
     1
102
RTVSPropertyOp24
 70
     1
102
RTVSPropertyOp25
 70
     1
102
RTVSPropertyOp26
 70
     1
102
RTVSPropertyOp27
 70
     1
102
RTVSPropertyOp28
 70
     1
102
RTVSPropertyOp29
 70
     1
102
RTVSPropertyOp30
 70
     1
102
RTVSPropertyOp31
 70
     1
102
RTVSPropertyOp32
 70
     1
102
RTVSPropertyOp33
 70
     1
102
RTVSPropertyOp34
 70
     1
102
RTVSPropertyOp35
 70
     1
102
RTVSPropertyOp36
 70
     1
102
RTVSPropertyOp37
 70
     1
102
RTVSPropertyOp38
 70
     1
102
RTVSPropertyOp39
 70
     1
102
RTVSPropertyOp40
 70
     1
102
RTVSPropertyOp41
 70
     1
102
RTVSPropertyOp42
 70
     1
102
RTVSPropertyOp43
 70
     1
102
RTVSPropertyOp44
 70
     1
102
RTVSPropertyOp45
 70
     1
102
RTVSPropertyOp46
 70
     1
102
RTVSPropertyOp47
 70
     1
102
RTVSPropertyOp48
 70
     1
102
RTVSPropertyOp49
 70
     1
102
RTVSPropertyOp50
 70
     1
102
RTVSPropertyOp51
 70
     0
102
RTVSPropertyOp52
 70
     0
102
RTVSPropertyOp53
 70
     1
102
RTVSPropertyOp54
 70
     1
102
RTVSPropertyOp55
 70
     1
102
RTVSPropertyOp56
 70
     1
102
RTVSPropertyOp57
 70
     1
102
RTVSPost2010Prop28
280
     0
102
RTVSPost2010PropOp28
 70
     1
102
RTVSPost2010Prop29
280
     1
102
RTVSPost2010PropOp29
 70
     1
102
RTVSPost2010Prop30
280
     1
102
RTVSPost2010PropOp30
 70
     1
102
RTVSPost2010Prop31
280
     0
102
RTVSPost2010PropOp31
 70
     1
102
RTVSPost2010Prop32
280
     0
102
RTVSPost2010PropOp32
 70
     1
102
RTVSPost2010Prop33
280
     0
102
RTVSPost2010PropOp33
 70
     1
102
RTVSPost2010Prop34
280
     0
102
RTVSPost2010PropOp34
 70
     1
102
RTVSPost2010Prop35
280
     0
102
RTVSPost2010PropOp35
 70
     1
102
RTVSPost2010Prop36
280
     0
102
RTVSPost2010PropOp36
 70
     1
102
RTVSPost2010Prop37
 90
       50
102
RTVSPost2010PropOp37
 70
     1
102
RTVSPost2010Prop38
140
0.0
102
RTVSPost2010PropOp38
 70
     1
102
RTVSPost2010Prop39
140
1.0
102
RTVSPost2010PropOp39
 70
     1
102
RTVSPost2010Prop40
 90
        0
102
RTVSPost2010PropOp40
 70
     1
102
RTVSPost2010Prop41ColorIndex
 90
       18
102
RTVSPost2010Prop41ColorRGB
 90
        0
102
RTVSPost2010PropOp41
 70
     1
102
RTVSPost2010Prop42
 90
       50
102
RTVSPost2010PropOp42
 70
     1
102
RTVSPost2010Prop43
 90
        3
102
RTVSPost2010PropOp43
 70
     1
102
RTVSPost2010Prop44ColorIndex
 90
        5
102
RTVSPost2010Prop44ColorRGB
 90
      255
102
RTVSPost2010PropOp44
 70
     1
102
RTVSPost2010Prop45
280
     0
102
RTVSPost2010PropOp45
 70
     1
102
RTVSPost2010Prop46
 90
       50
102
RTVSPost2010PropOp46
 70
     1
102
RTVSPost2010Prop47
 90
       50
102
RTVSPost2010PropOp47
 70
     1
102
RTVSPost2010Prop48
 90
       50
102
RTVSPost2010PropOp48
 70
     1
102
RTVSPost2010Prop49
280
     0
102
RTVSPost2010PropOp49
 70
     1
102
RTVSPost2010Prop50
 90
       50
102
RTVSPost2010PropOp50
 70
     1
102
RTVSPost2010Prop51ColorIndex
 90
      256
102
RTVSPost2010Prop51ColorRGB
 90
-16777216
102
RTVSPost2010PropOp51
 70
     0
102
RTVSPost2010Prop52
140
1.0
102
RTVSPost2010PropOp52
 70
     0
102
RTVSPost2010Prop53
 90
        2
102
RTVSPost2010PropOp53
 70
     1
102
RTVSPost2010Prop54
  1
strokes_ogs.tif
102
RTVSPost2010PropOp54
 70
     1
102
RTVSPost2010Prop55
280
     0
102
RTVSPost2010PropOp55
 70
     1
102
RTVSPost2010Prop56
140
1.0
102
RTVSPost2010PropOp56
 70
     1
102
RTVSPost2010Prop57
140
1.0
102
RTVSPost2010PropOp57
 70
     1
  0
XRECORD
  5
1EB
102
{ACAD_REACTORS
330
1EA
102
}
330
1EA
100
AcDbXrecord
280
     1
102
RTVSPropertyOp0
 70
     1
102
RTVSPropertyOp1
 70
     1
102
RTVSPropertyOp2
 70
     1
102
RTVSPropertyOp3
 70
     1
102
RTVSPropertyOp4
 70
     1
102
RTVSPropertyOp5
 70
     1
102
RTVSPropertyOp6
 70
     1
102
RTVSPropertyOp7
 70
     1
102
RTVSPropertyOp8
 70
     1
102
RTVSPropertyOp9
 70
     1
102
RTVSPropertyOp10
 70
     1
102
RTVSPropertyOp11
 70
     1
102
RTVSPropertyOp12
 70
     1
102
RTVSPropertyOp13
 70
     1
102
RTVSPropertyOp14
 70
     1
102
RTVSPropertyOp15
 70
     1
102
RTVSPropertyOp16
 70
     1
102
RTVSPropertyOp17
 70
     1
102
RTVSPropertyOp18
 70
     1
102
RTVSPropertyOp19
 70
     1
102
RTVSPropertyOp20
 70
     1
102
RTVSPropertyOp21
 70
     1
102
RTVSPropertyOp22
 70
     1
102
RTVSPropertyOp23
 70
     1
102
RTVSPropertyOp24
 70
     1
102
RTVSPropertyOp25
 70
     1
102
RTVSPropertyOp26
 70
     1
102
RTVSPropertyOp27
 70
     1
102
RTVSPropertyOp28
 70
     1
102
RTVSPropertyOp29
 70
     1
102
RTVSPropertyOp30
 70
     1
102
RTVSPropertyOp31
 70
     1
102
RTVSPropertyOp32
 70
     1
102
RTVSPropertyOp33
 70
     1
102
RTVSPropertyOp34
 70
     1
102
RTVSPropertyOp35
 70
     1
102
RTVSPropertyOp36
 70
     1
102
RTVSPropertyOp37
 70
     1
102
RTVSPropertyOp38
 70
     1
102
RTVSPropertyOp39
 70
     1
102
RTVSPropertyOp40
 70
     1
102
RTVSPropertyOp41
 70
     1
102
RTVSPropertyOp42
 70
     1
102
RTVSPropertyOp43
 70
     1
102
RTVSPropertyOp44
 70
     1
102
RTVSPropertyOp45
 70
     1
102
RTVSPropertyOp46
 70
     1
102
RTVSPropertyOp47
 70
     1
102
RTVSPropertyOp48
 70
     1
102
RTVSPropertyOp49
 70
     1
102
RTVSPropertyOp50
 70
     1
102
RTVSPropertyOp51
 70
     0
102
RTVSPropertyOp52
 70
     0
102
RTVSPropertyOp53
 70
     1
102
RTVSPropertyOp54
 70
     1
102
RTVSPropertyOp55
 70
     1
102
RTVSPropertyOp56
 70
     1
102
RTVSPropertyOp57
 70
     1
102
RTVSPost2010Prop28
280
     0
102
RTVSPost2010PropOp28
 70
     1
102
RTVSPost2010Prop29
280
     1
102
RTVSPost2010PropOp29
 70
     1
102
RTVSPost2010Prop30
280
     1
102
RTVSPost2010PropOp30
 70
     1
102
RTVSPost2010Prop31
280
     0
102
RTVSPost2010PropOp31
 70
     1
102
RTVSPost2010Prop32
280
     0
102
RTVSPost2010PropOp32
 70
     1
102
RTVSPost2010Prop33
280
     0
102
RTVSPost2010PropOp33
 70
     1
102
RTVSPost2010Prop34
280
     0
102
RTVSPost2010PropOp34
 70
     1
102
RTVSPost2010Prop35
280
     0
102
RTVSPost2010PropOp35
 70
     1
102
RTVSPost2010Prop36
280
     0
102
RTVSPost2010PropOp36
 70
     1
102
RTVSPost2010Prop37
 90
       50
102
RTVSPost2010PropOp37
 70
     1
102
RTVSPost2010Prop38
140
0.0
102
RTVSPost2010PropOp38
 70
     1
102
RTVSPost2010Prop39
140
1.0
102
RTVSPost2010PropOp39
 70
     1
102
RTVSPost2010Prop40
 90
        0
102
RTVSPost2010PropOp40
 70
     1
102
RTVSPost2010Prop41ColorIndex
 90
       18
102
RTVSPost2010Prop41ColorRGB
 90
        0
102
RTVSPost2010PropOp41
 70
     1
102
RTVSPost2010Prop42
 90
       50
102
RTVSPost2010PropOp42
 70
     1
102
RTVSPost2010Prop43
 90
        3
102
RTVSPost2010PropOp43
 70
     1
102
RTVSPost2010Prop44ColorIndex
 90
        5
102
RTVSPost2010Prop44ColorRGB
 90
      255
102
RTVSPost2010PropOp44
 70
     1
102
RTVSPost2010Prop45
280
     0
102
RTVSPost2010PropOp45
 70
     1
102
RTVSPost2010Prop46
 90
       50
102
RTVSPost2010PropOp46
 70
     1
102
RTVSPost2010Prop47
 90
       50
102
RTVSPost2010PropOp47
 70
     1
102
RTVSPost2010Prop48
 90
       50
102
RTVSPost2010PropOp48
 70
     1
102
RTVSPost2010Prop49
280
     0
102
RTVSPost2010PropOp49
 70
     1
102
RTVSPost2010Prop50
 90
       50
102
RTVSPost2010PropOp50
 70
     1
102
RTVSPost2010Prop51ColorIndex
 90
      256
102
RTVSPost2010Prop51ColorRGB
 90
-16777216
102
RTVSPost2010PropOp51
 70
     0
102
RTVSPost2010Prop52
140
1.0
102
RTVSPost2010PropOp52
 70
     0
102
RTVSPost2010Prop53
 90
        2
102
RTVSPost2010PropOp53
 70
     1
102
RTVSPost2010Prop54
  1
strokes_ogs.tif
102
RTVSPost2010PropOp54
 70
     1
102
RTVSPost2010Prop55
280
     0
102
RTVSPost2010PropOp55
 70
     1
102
RTVSPost2010Prop56
140
1.0
102
RTVSPost2010PropOp56
 70
     1
102
RTVSPost2010Prop57
140
1.0
102
RTVSPost2010PropOp57
 70
     1
  0
XRECORD
  5
1ED
102
{ACAD_REACTORS
330
1EC
102
}
330
1EC
100
AcDbXrecord
280
     1
102
RTVSPropertyOp0
 70
     1
102
RTVSPropertyOp1
 70
     1
102
RTVSPropertyOp2
 70
     1
102
RTVSPropertyOp3
 70
     1
102
RTVSPropertyOp4
 70
     1
102
RTVSPropertyOp5
 70
     1
102
RTVSPropertyOp6
 70
     1
102
RTVSPropertyOp7
 70
     1
102
RTVSPropertyOp8
 70
     1
102
RTVSPropertyOp9
 70
     1
102
RTVSPropertyOp10
 70
     1
102
RTVSPropertyOp11
 70
     1
102
RTVSPropertyOp12
 70
     1
102
RTVSPropertyOp13
 70
     1
102
RTVSPropertyOp14
 70
     1
102
RTVSPropertyOp15
 70
     1
102
RTVSPropertyOp16
 70
     1
102
RTVSPropertyOp17
 70
     1
102
RTVSPropertyOp18
 70
     1
102
RTVSPropertyOp19
 70
     1
102
RTVSPropertyOp20
 70
     1
102
RTVSPropertyOp21
 70
     1
102
RTVSPropertyOp22
 70
     1
102
RTVSPropertyOp23
 70
     1
102
RTVSPropertyOp24
 70
     1
102
RTVSPropertyOp25
 70
     1
102
RTVSPropertyOp26
 70
     1
102
RTVSPropertyOp27
 70
     1
102
RTVSPropertyOp28
 70
     1
102
RTVSPropertyOp29
 70
     1
102
RTVSPropertyOp30
 70
     1
102
RTVSPropertyOp31
 70
     1
102
RTVSPropertyOp32
 70
     1
102
RTVSPropertyOp33
 70
     1
102
RTVSPropertyOp34
 70
     1
102
RTVSPropertyOp35
 70
     1
102
RTVSPropertyOp36
 70
     1
102
RTVSPropertyOp37
 70
     1
102
RTVSPropertyOp38
 70
     1
102
RTVSPropertyOp39
 70
     1
102
RTVSPropertyOp40
 70
     1
102
RTVSPropertyOp41
 70
     1
102
RTVSPropertyOp42
 70
     1
102
RTVSPropertyOp43
 70
     1
102
RTVSPropertyOp44
 70
     1
102
RTVSPropertyOp45
 70
     1
102
RTVSPropertyOp46
 70
     1
102
RTVSPropertyOp47
 70
     1
102
RTVSPropertyOp48
 70
     1
102
RTVSPropertyOp49
 70
     1
102
RTVSPropertyOp50
 70
     1
102
RTVSPropertyOp51
 70
     0
102
RTVSPropertyOp52
 70
     0
102
RTVSPropertyOp53
 70
     1
102
RTVSPropertyOp54
 70
     1
102
RTVSPropertyOp55
 70
     1
102
RTVSPropertyOp56
 70
     1
102
RTVSPropertyOp57
 70
     1
102
RTVSPost2010Prop28
280
     0
102
RTVSPost2010PropOp28
 70
     1
102
RTVSPost2010Prop29
280
     1
102
RTVSPost2010PropOp29
 70
     1
102
RTVSPost2010Prop30
280
     1
102
RTVSPost2010PropOp30
 70
     1
102
RTVSPost2010Prop31
280
     0
102
RTVSPost2010PropOp31
 70
     1
102
RTVSPost2010Prop32
280
     0
102
RTVSPost2010PropOp32
 70
     1
102
RTVSPost2010Prop33
280
     0
102
RTVSPost2010PropOp33
 70
     1
102
RTVSPost2010Prop34
280
     0
102
RTVSPost2010PropOp34
 70
     1
102
RTVSPost2010Prop35
280
     0
102
RTVSPost2010PropOp35
 70
     1
102
RTVSPost2010Prop36
280
     0
102
RTVSPost2010PropOp36
 70
     1
102
RTVSPost2010Prop37
 90
       50
102
RTVSPost2010PropOp37
 70
     1
102
RTVSPost2010Prop38
140
0.0
102
RTVSPost2010PropOp38
 70
     1
102
RTVSPost2010Prop39
140
1.0
102
RTVSPost2010PropOp39
 70
     1
102
RTVSPost2010Prop40
 90
        0
102
RTVSPost2010PropOp40
 70
     1
102
RTVSPost2010Prop41ColorIndex
 90
       18
102
RTVSPost2010Prop41ColorRGB
 90
        0
102
RTVSPost2010PropOp41
 70
     1
102
RTVSPost2010Prop42
 90
       50
102
RTVSPost2010PropOp42
 70
     1
102
RTVSPost2010Prop43
 90
        3
102
RTVSPost2010PropOp43
 70
     1
102
RTVSPost2010Prop44ColorIndex
 90
        5
102
RTVSPost2010Prop44ColorRGB
 90
      255
102
RTVSPost2010PropOp44
 70
     1
102
RTVSPost2010Prop45
280
     0
102
RTVSPost2010PropOp45
 70
     1
102
RTVSPost2010Prop46
 90
       50
102
RTVSPost2010PropOp46
 70
     1
102
RTVSPost2010Prop47
 90
       50
102
RTVSPost2010PropOp47
 70
     1
102
RTVSPost2010Prop48
 90
       50
102
RTVSPost2010PropOp48
 70
     1
102
RTVSPost2010Prop49
280
     0
102
RTVSPost2010PropOp49
 70
     1
102
RTVSPost2010Prop50
 90
       50
102
RTVSPost2010PropOp50
 70
     1
102
RTVSPost2010Prop51ColorIndex
 90
      256
102
RTVSPost2010Prop51ColorRGB
 90
-16777216
102
RTVSPost2010PropOp51
 70
     0
102
RTVSPost2010Prop52
140
1.0
102
RTVSPost2010PropOp52
 70
     0
102
RTVSPost2010Prop53
 90
        2
102
RTVSPost2010PropOp53
 70
     1
102
RTVSPost2010Prop54
  1
strokes_ogs.tif
102
RTVSPost2010PropOp54
 70
     1
102
RTVSPost2010Prop55
280
     0
102
RTVSPost2010PropOp55
 70
     1
102
RTVSPost2010Prop56
140
1.0
102
RTVSPost2010PropOp56
 70
     1
102
RTVSPost2010Prop57
140
1.0
102
RTVSPost2010PropOp57
 70
     1
  0
XRECORD
  5
1FD
102
{ACAD_REACTORS
330
1FC
102
}
330
1FC
100
AcDbXrecord
280
     1
102
RTVSPropertyOp0
 70
     0
102
RTVSPropertyOp1
 70
     0
102
RTVSPropertyOp2
 70
     0
102
RTVSPropertyOp3
 70
     0
102
RTVSPropertyOp4
 70
     0
102
RTVSPropertyOp5
 70
     0
102
RTVSPropertyOp6
 70
     0
102
RTVSPropertyOp7
 70
     0
102
RTVSPropertyOp8
 70
     0
102
RTVSPropertyOp9
 70
     0
102
RTVSPropertyOp10
 70
     0
102
RTVSPropertyOp11
 70
     0
102
RTVSPropertyOp12
 70
     0
102
RTVSPropertyOp13
 70
     0
102
RTVSPropertyOp14
 70
     2
102
RTVSPropertyOp15
 70
     0
102
RTVSPropertyOp16
 70
     0
102
RTVSPropertyOp17
 70
     0
102
RTVSPropertyOp18
 70
     0
102
RTVSPropertyOp19
 70
     0
102
RTVSPropertyOp20
 70
     0
102
RTVSPropertyOp21
 70
     0
102
RTVSPropertyOp22
 70
     0
102
RTVSPropertyOp23
 70
     0
102
RTVSPropertyOp24
 70
     0
102
RTVSPropertyOp25
 70
     0
102
RTVSPropertyOp26
 70
     0
102
RTVSPropertyOp27
 70
     0
102
RTVSPropertyOp28
 70
     0
102
RTVSPropertyOp29
 70
     0
102
RTVSPropertyOp30
 70
     0
102
RTVSPropertyOp31
 70
     0
102
RTVSPropertyOp32
 70
     0
102
RTVSPropertyOp33
 70
     0
102
RTVSPropertyOp34
 70
     0
102
RTVSPropertyOp35
 70
     0
102
RTVSPropertyOp36
 70
     0
102
RTVSPropertyOp37
 70
     0
102
RTVSPropertyOp38
 70
     0
102
RTVSPropertyOp39
 70
     0
102
RTVSPropertyOp40
 70
     0
102
RTVSPropertyOp41
 70
     0
102
RTVSPropertyOp42
 70
     0
102
RTVSPropertyOp43
 70
     0
102
RTVSPropertyOp44
 70
     0
102
RTVSPropertyOp45
 70
     0
102
RTVSPropertyOp46
 70
     0
102
RTVSPropertyOp47
 70
     0
102
RTVSPropertyOp48
 70
     0
102
RTVSPropertyOp49
 70
     0
102
RTVSPropertyOp50
 70
     0
102
RTVSPropertyOp51
 70
     0
102
RTVSPropertyOp52
 70
     0
102
RTVSPropertyOp53
 70
     0
102
RTVSPropertyOp54
 70
     0
102
RTVSPropertyOp55
 70
     0
102
RTVSPropertyOp56
 70
     0
102
RTVSPropertyOp57
 70
     0
102
RTVSPost2010Prop28
280
     0
102
RTVSPost2010PropOp28
 70
     0
102
RTVSPost2010Prop29
280
     1
102
RTVSPost2010PropOp29
 70
     0
102
RTVSPost2010Prop30
280
     1
102
RTVSPost2010PropOp30
 70
     0
102
RTVSPost2010Prop31
280
     0
102
RTVSPost2010PropOp31
 70
     0
102
RTVSPost2010Prop32
280
     0
102
RTVSPost2010PropOp32
 70
     0
102
RTVSPost2010Prop33
280
     0
102
RTVSPost2010PropOp33
 70
     0
102
RTVSPost2010Prop34
280
     0
102
RTVSPost2010PropOp34
 70
     0
102
RTVSPost2010Prop35
280
     0
102
RTVSPost2010PropOp35
 70
     0
102
RTVSPost2010Prop36
280
     0
102
RTVSPost2010PropOp36
 70
     0
102
RTVSPost2010Prop37
 90
       50
102
RTVSPost2010PropOp37
 70
     0
102
RTVSPost2010Prop38
140
0.0
102
RTVSPost2010PropOp38
 70
     0
102
RTVSPost2010Prop39
140
1.0
102
RTVSPost2010PropOp39
 70
     0
102
RTVSPost2010Prop40
 90
        0
102
RTVSPost2010PropOp40
 70
     0
102
RTVSPost2010Prop41ColorIndex
 90
       18
102
RTVSPost2010Prop41ColorRGB
 90
        0
102
RTVSPost2010PropOp41
 70
     0
102
RTVSPost2010Prop42
 90
       50
102
RTVSPost2010PropOp42
 70
     0
102
RTVSPost2010Prop43
 90
        3
102
RTVSPost2010PropOp43
 70
     0
102
RTVSPost2010Prop44ColorIndex
 90
        5
102
RTVSPost2010Prop44ColorRGB
 90
      255
102
RTVSPost2010PropOp44
 70
     0
102
RTVSPost2010Prop45
280
     0
102
RTVSPost2010PropOp45
 70
     0
102
RTVSPost2010Prop46
 90
       50
102
RTVSPost2010PropOp46
 70
     0
102
RTVSPost2010Prop47
 90
       50
102
RTVSPost2010PropOp47
 70
     0
102
RTVSPost2010Prop48
 90
       50
102
RTVSPost2010PropOp48
 70
     0
102
RTVSPost2010Prop49
280
     0
102
RTVSPost2010PropOp49
 70
     0
102
RTVSPost2010Prop50
 90
       50
102
RTVSPost2010PropOp50
 70
     0
102
RTVSPost2010Prop51ColorIndex
 90
      256
102
RTVSPost2010Prop51ColorRGB
 90
-16777216
102
RTVSPost2010PropOp51
 70
     0
102
RTVSPost2010Prop52
140
1.0
102
RTVSPost2010PropOp52
 70
     0
102
RTVSPost2010Prop53
 90
        2
102
RTVSPost2010PropOp53
 70
     0
102
RTVSPost2010Prop54
  1
strokes_ogs.tif
102
RTVSPost2010PropOp54
 70
     0
102
RTVSPost2010Prop55
280
     0
102
RTVSPost2010PropOp55
 70
     0
102
RTVSPost2010Prop56
140
1.0
102
RTVSPost2010PropOp56
 70
     0
102
RTVSPost2010Prop57
140
1.0
102
RTVSPost2010PropOp57
 70
     0
  0
XRECORD
  5
1F5
102
{ACAD_REACTORS
330
1F4
102
}
330
1F4
100
AcDbXrecord
280
     1
102
RTVSPropertyOp0
 70
     1
102
RTVSPropertyOp1
 70
     1
102
RTVSPropertyOp2
 70
     1
102
RTVSPropertyOp3
 70
     1
102
RTVSPropertyOp4
 70
     1
102
RTVSPropertyOp5
 70
     1
102
RTVSPropertyOp6
 70
     1
102
RTVSPropertyOp7
 70
     1
102
RTVSPropertyOp8
 70
     1
102
RTVSPropertyOp9
 70
     1
102
RTVSPropertyOp10
 70
     1
102
RTVSPropertyOp11
 70
     1
102
RTVSPropertyOp12
 70
     1
102
RTVSPropertyOp13
 70
     1
102
RTVSPropertyOp14
 70
     1
102
RTVSPropertyOp15
 70
     1
102
RTVSPropertyOp16
 70
     1
102
RTVSPropertyOp17
 70
     1
102
RTVSPropertyOp18
 70
     1
102
RTVSPropertyOp19
 70
     1
102
RTVSPropertyOp20
 70
     1
102
RTVSPropertyOp21
 70
     1
102
RTVSPropertyOp22
 70
     1
102
RTVSPropertyOp23
 70
     1
102
RTVSPropertyOp24
 70
     1
102
RTVSPropertyOp25
 70
     1
102
RTVSPropertyOp26
 70
     1
102
RTVSPropertyOp27
 70
     1
102
RTVSPropertyOp28
 70
     1
102
RTVSPropertyOp29
 70
     1
102
RTVSPropertyOp30
 70
     1
102
RTVSPropertyOp31
 70
     1
102
RTVSPropertyOp32
 70
     1
102
RTVSPropertyOp33
 70
     1
102
RTVSPropertyOp34
 70
     1
102
RTVSPropertyOp35
 70
     1
102
RTVSPropertyOp36
 70
     1
102
RTVSPropertyOp37
 70
     1
102
RTVSPropertyOp38
 70
     1
102
RTVSPropertyOp39
 70
     1
102
RTVSPropertyOp40
 70
     1
102
RTVSPropertyOp41
 70
     1
102
RTVSPropertyOp42
 70
     1
102
RTVSPropertyOp43
 70
     1
102
RTVSPropertyOp44
 70
     1
102
RTVSPropertyOp45
 70
     1
102
RTVSPropertyOp46
 70
     1
102
RTVSPropertyOp47
 70
     1
102
RTVSPropertyOp48
 70
     1
102
RTVSPropertyOp49
 70
     1
102
RTVSPropertyOp50
 70
     1
102
RTVSPropertyOp51
 70
     0
102
RTVSPropertyOp52
 70
     0
102
RTVSPropertyOp53
 70
     1
102
RTVSPropertyOp54
 70
     1
102
RTVSPropertyOp55
 70
     1
102
RTVSPropertyOp56
 70
     1
102
RTVSPropertyOp57
 70
     1
102
RTVSPost2010Prop28
280
     0
102
RTVSPost2010PropOp28
 70
     1
102
RTVSPost2010Prop29
280
     1
102
RTVSPost2010PropOp29
 70
     1
102
RTVSPost2010Prop30
280
     1
102
RTVSPost2010PropOp30
 70
     1
102
RTVSPost2010Prop31
280
     0
102
RTVSPost2010PropOp31
 70
     1
102
RTVSPost2010Prop32
280
     0
102
RTVSPost2010PropOp32
 70
     1
102
RTVSPost2010Prop33
280
     0
102
RTVSPost2010PropOp33
 70
     1
102
RTVSPost2010Prop34
280
     0
102
RTVSPost2010PropOp34
 70
     1
102
RTVSPost2010Prop35
280
     0
102
RTVSPost2010PropOp35
 70
     1
102
RTVSPost2010Prop36
280
     0
102
RTVSPost2010PropOp36
 70
     1
102
RTVSPost2010Prop37
 90
       50
102
RTVSPost2010PropOp37
 70
     1
102
RTVSPost2010Prop38
140
0.0
102
RTVSPost2010PropOp38
 70
     1
102
RTVSPost2010Prop39
140
1.0
102
RTVSPost2010PropOp39
 70
     1
102
RTVSPost2010Prop40
 90
        0
102
RTVSPost2010PropOp40
 70
     1
102
RTVSPost2010Prop41ColorIndex
 90
       18
102
RTVSPost2010Prop41ColorRGB
 90
        0
102
RTVSPost2010PropOp41
 70
     1
102
RTVSPost2010Prop42
 90
       50
102
RTVSPost2010PropOp42
 70
     1
102
RTVSPost2010Prop43
 90
        3
102
RTVSPost2010PropOp43
 70
     1
102
RTVSPost2010Prop44ColorIndex
 90
        5
102
RTVSPost2010Prop44ColorRGB
 90
      255
102
RTVSPost2010PropOp44
 70
     1
102
RTVSPost2010Prop45
280
     0
102
RTVSPost2010PropOp45
 70
     1
102
RTVSPost2010Prop46
 90
       50
102
RTVSPost2010PropOp46
 70
     1
102
RTVSPost2010Prop47
 90
       50
102
RTVSPost2010PropOp47
 70
     1
102
RTVSPost2010Prop48
 90
       50
102
RTVSPost2010PropOp48
 70
     1
102
RTVSPost2010Prop49
280
     0
102
RTVSPost2010PropOp49
 70
     1
102
RTVSPost2010Prop50
 90
       50
102
RTVSPost2010PropOp50
 70
     1
102
RTVSPost2010Prop51ColorIndex
 90
      256
102
RTVSPost2010Prop51ColorRGB
 90
-16777216
102
RTVSPost2010PropOp51
 70
     0
102
RTVSPost2010Prop52
140
1.0
102
RTVSPost2010PropOp52
 70
     0
102
RTVSPost2010Prop53
 90
        2
102
RTVSPost2010PropOp53
 70
     1
102
RTVSPost2010Prop54
  1
strokes_ogs.tif
102
RTVSPost2010PropOp54
 70
     1
102
RTVSPost2010Prop55
280
     0
102
RTVSPost2010PropOp55
 70
     1
102
RTVSPost2010Prop56
140
1.0
102
RTVSPost2010PropOp56
 70
     1
102
RTVSPost2010Prop57
140
1.0
102
RTVSPost2010PropOp57
 70
     1
  0
XRECORD
  5
1D9
102
{ACAD_REACTORS
330
1D8
102
}
330
1D8
100
AcDbXrecord
280
     1
102
RTVSPropertyOp0
 70
     1
102
RTVSPropertyOp1
 70
     1
102
RTVSPropertyOp2
 70
     1
102
RTVSPropertyOp3
 70
     1
102
RTVSPropertyOp4
 70
     1
102
RTVSPropertyOp5
 70
     1
102
RTVSPropertyOp6
 70
     1
102
RTVSPropertyOp7
 70
     1
102
RTVSPropertyOp8
 70
     1
102
RTVSPropertyOp9
 70
     1
102
RTVSPropertyOp10
 70
     1
102
RTVSPropertyOp11
 70
     1
102
RTVSPropertyOp12
 70
     1
102
RTVSPropertyOp13
 70
     1
102
RTVSPropertyOp14
 70
     1
102
RTVSPropertyOp15
 70
     1
102
RTVSPropertyOp16
 70
     1
102
RTVSPropertyOp17
 70
     1
102
RTVSPropertyOp18
 70
     1
102
RTVSPropertyOp19
 70
     1
102
RTVSPropertyOp20
 70
     1
102
RTVSPropertyOp21
 70
     1
102
RTVSPropertyOp22
 70
     1
102
RTVSPropertyOp23
 70
     1
102
RTVSPropertyOp24
 70
     1
102
RTVSPropertyOp25
 70
     1
102
RTVSPropertyOp26
 70
     1
102
RTVSPropertyOp27
 70
     1
102
RTVSPropertyOp28
 70
     1
102
RTVSPropertyOp29
 70
     1
102
RTVSPropertyOp30
 70
     1
102
RTVSPropertyOp31
 70
     1
102
RTVSPropertyOp32
 70
     1
102
RTVSPropertyOp33
 70
     1
102
RTVSPropertyOp34
 70
     1
102
RTVSPropertyOp35
 70
     1
102
RTVSPropertyOp36
 70
     1
102
RTVSPropertyOp37
 70
     1
102
RTVSPropertyOp38
 70
     1
102
RTVSPropertyOp39
 70
     1
102
RTVSPropertyOp40
 70
     1
102
RTVSPropertyOp41
 70
     1
102
RTVSPropertyOp42
 70
     1
102
RTVSPropertyOp43
 70
     1
102
RTVSPropertyOp44
 70
     1
102
RTVSPropertyOp45
 70
     1
102
RTVSPropertyOp46
 70
     1
102
RTVSPropertyOp47
 70
     1
102
RTVSPropertyOp48
 70
     1
102
RTVSPropertyOp49
 70
     1
102
RTVSPropertyOp50
 70
     1
102
RTVSPropertyOp51
 70
     0
102
RTVSPropertyOp52
 70
     0
102
RTVSPropertyOp53
 70
     1
102
RTVSPropertyOp54
 70
     1
102
RTVSPropertyOp55
 70
     1
102
RTVSPropertyOp56
 70
     1
102
RTVSPropertyOp57
 70
     1
102
RTVSPost2010Prop28
280
     0
102
RTVSPost2010PropOp28
 70
     1
102
RTVSPost2010Prop29
280
     1
102
RTVSPost2010PropOp29
 70
     1
102
RTVSPost2010Prop30
280
     1
102
RTVSPost2010PropOp30
 70
     1
102
RTVSPost2010Prop31
280
     0
102
RTVSPost2010PropOp31
 70
     1
102
RTVSPost2010Prop32
280
     0
102
RTVSPost2010PropOp32
 70
     1
102
RTVSPost2010Prop33
280
     0
102
RTVSPost2010PropOp33
 70
     1
102
RTVSPost2010Prop34
280
     0
102
RTVSPost2010PropOp34
 70
     1
102
RTVSPost2010Prop35
280
     0
102
RTVSPost2010PropOp35
 70
     1
102
RTVSPost2010Prop36
280
     0
102
RTVSPost2010PropOp36
 70
     1
102
RTVSPost2010Prop37
 90
       50
102
RTVSPost2010PropOp37
 70
     1
102
RTVSPost2010Prop38
140
0.0
102
RTVSPost2010PropOp38
 70
     1
102
RTVSPost2010Prop39
140
1.0
102
RTVSPost2010PropOp39
 70
     1
102
RTVSPost2010Prop40
 90
        0
102
RTVSPost2010PropOp40
 70
     1
102
RTVSPost2010Prop41ColorIndex
 90
       18
102
RTVSPost2010Prop41ColorRGB
 90
        0
102
RTVSPost2010PropOp41
 70
     1
102
RTVSPost2010Prop42
 90
       50
102
RTVSPost2010PropOp42
 70
     1
102
RTVSPost2010Prop43
 90
        3
102
RTVSPost2010PropOp43
 70
     1
102
RTVSPost2010Prop44ColorIndex
 90
        5
102
RTVSPost2010Prop44ColorRGB
 90
      255
102
RTVSPost2010PropOp44
 70
     1
102
RTVSPost2010Prop45
280
     0
102
RTVSPost2010PropOp45
 70
     1
102
RTVSPost2010Prop46
 90
       50
102
RTVSPost2010PropOp46
 70
     1
102
RTVSPost2010Prop47
 90
       50
102
RTVSPost2010PropOp47
 70
     1
102
RTVSPost2010Prop48
 90
       50
102
RTVSPost2010PropOp48
 70
     1
102
RTVSPost2010Prop49
280
     0
102
RTVSPost2010PropOp49
 70
     1
102
RTVSPost2010Prop50
 90
       50
102
RTVSPost2010PropOp50
 70
     1
102
RTVSPost2010Prop51ColorIndex
 90
      256
102
RTVSPost2010Prop51ColorRGB
 90
-16777216
102
RTVSPost2010PropOp51
 70
     0
102
RTVSPost2010Prop52
140
1.0
102
RTVSPost2010PropOp52
 70
     0
102
RTVSPost2010Prop53
 90
        2
102
RTVSPost2010PropOp53
 70
     1
102
RTVSPost2010Prop54
  1
strokes_ogs.tif
102
RTVSPost2010PropOp54
 70
     1
102
RTVSPost2010Prop55
280
     0
102
RTVSPost2010PropOp55
 70
     1
102
RTVSPost2010Prop56
140
1.0
102
RTVSPost2010PropOp56
 70
     1
102
RTVSPost2010Prop57
140
1.0
102
RTVSPost2010PropOp57
 70
     1
  0
XRECORD
  5
1DB
102
{ACAD_REACTORS
330
1DA
102
}
330
1DA
100
AcDbXrecord
280
     1
102
RTVSPropertyOp0
 70
     1
102
RTVSPropertyOp1
 70
     1
102
RTVSPropertyOp2
 70
     1
102
RTVSPropertyOp3
 70
     1
102
RTVSPropertyOp4
 70
     1
102
RTVSPropertyOp5
 70
     1
102
RTVSPropertyOp6
 70
     1
102
RTVSPropertyOp7
 70
     1
102
RTVSPropertyOp8
 70
     1
102
RTVSPropertyOp9
 70
     1
102
RTVSPropertyOp10
 70
     1
102
RTVSPropertyOp11
 70
     1
102
RTVSPropertyOp12
 70
     1
102
RTVSPropertyOp13
 70
     1
102
RTVSPropertyOp14
 70
     1
102
RTVSPropertyOp15
 70
     1
102
RTVSPropertyOp16
 70
     1
102
RTVSPropertyOp17
 70
     1
102
RTVSPropertyOp18
 70
     1
102
RTVSPropertyOp19
 70
     1
102
RTVSPropertyOp20
 70
     1
102
RTVSPropertyOp21
 70
     1
102
RTVSPropertyOp22
 70
     1
102
RTVSPropertyOp23
 70
     1
102
RTVSPropertyOp24
 70
     1
102
RTVSPropertyOp25
 70
     1
102
RTVSPropertyOp26
 70
     1
102
RTVSPropertyOp27
 70
     1
102
RTVSPropertyOp28
 70
     1
102
RTVSPropertyOp29
 70
     1
102
RTVSPropertyOp30
 70
     1
102
RTVSPropertyOp31
 70
     1
102
RTVSPropertyOp32
 70
     1
102
RTVSPropertyOp33
 70
     1
102
RTVSPropertyOp34
 70
     1
102
RTVSPropertyOp35
 70
     1
102
RTVSPropertyOp36
 70
     1
102
RTVSPropertyOp37
 70
     1
102
RTVSPropertyOp38
 70
     1
102
RTVSPropertyOp39
 70
     1
102
RTVSPropertyOp40
 70
     1
102
RTVSPropertyOp41
 70
     1
102
RTVSPropertyOp42
 70
     1
102
RTVSPropertyOp43
 70
     1
102
RTVSPropertyOp44
 70
     1
102
RTVSPropertyOp45
 70
     1
102
RTVSPropertyOp46
 70
     1
102
RTVSPropertyOp47
 70
     1
102
RTVSPropertyOp48
 70
     1
102
RTVSPropertyOp49
 70
     1
102
RTVSPropertyOp50
 70
     1
102
RTVSPropertyOp51
 70
     0
102
RTVSPropertyOp52
 70
     0
102
RTVSPropertyOp53
 70
     1
102
RTVSPropertyOp54
 70
     1
102
RTVSPropertyOp55
 70
     1
102
RTVSPropertyOp56
 70
     1
102
RTVSPropertyOp57
 70
     1
102
RTVSPost2010Prop28
280
     0
102
RTVSPost2010PropOp28
 70
     1
102
RTVSPost2010Prop29
280
     1
102
RTVSPost2010PropOp29
 70
     1
102
RTVSPost2010Prop30
280
     1
102
RTVSPost2010PropOp30
 70
     1
102
RTVSPost2010Prop31
280
     0
102
RTVSPost2010PropOp31
 70
     1
102
RTVSPost2010Prop32
280
     0
102
RTVSPost2010PropOp32
 70
     1
102
RTVSPost2010Prop33
280
     0
102
RTVSPost2010PropOp33
 70
     1
102
RTVSPost2010Prop34
280
     0
102
RTVSPost2010PropOp34
 70
     1
102
RTVSPost2010Prop35
280
     0
102
RTVSPost2010PropOp35
 70
     1
102
RTVSPost2010Prop36
280
     0
102
RTVSPost2010PropOp36
 70
     1
102
RTVSPost2010Prop37
 90
       50
102
RTVSPost2010PropOp37
 70
     1
102
RTVSPost2010Prop38
140
0.0
102
RTVSPost2010PropOp38
 70
     1
102
RTVSPost2010Prop39
140
1.0
102
RTVSPost2010PropOp39
 70
     1
102
RTVSPost2010Prop40
 90
        0
102
RTVSPost2010PropOp40
 70
     1
102
RTVSPost2010Prop41ColorIndex
 90
       18
102
RTVSPost2010Prop41ColorRGB
 90
        0
102
RTVSPost2010PropOp41
 70
     1
102
RTVSPost2010Prop42
 90
       50
102
RTVSPost2010PropOp42
 70
     1
102
RTVSPost2010Prop43
 90
        3
102
RTVSPost2010PropOp43
 70
     1
102
RTVSPost2010Prop44ColorIndex
 90
        5
102
RTVSPost2010Prop44ColorRGB
 90
      255
102
RTVSPost2010PropOp44
 70
     1
102
RTVSPost2010Prop45
280
     0
102
RTVSPost2010PropOp45
 70
     1
102
RTVSPost2010Prop46
 90
       50
102
RTVSPost2010PropOp46
 70
     1
102
RTVSPost2010Prop47
 90
       50
102
RTVSPost2010PropOp47
 70
     1
102
RTVSPost2010Prop48
 90
       50
102
RTVSPost2010PropOp48
 70
     1
102
RTVSPost2010Prop49
280
     0
102
RTVSPost2010PropOp49
 70
     1
102
RTVSPost2010Prop50
 90
       50
102
RTVSPost2010PropOp50
 70
     1
102
RTVSPost2010Prop51ColorIndex
 90
      256
102
RTVSPost2010Prop51ColorRGB
 90
-16777216
102
RTVSPost2010PropOp51
 70
     0
102
RTVSPost2010Prop52
140
1.0
102
RTVSPost2010PropOp52
 70
     0
102
RTVSPost2010Prop53
 90
        2
102
RTVSPost2010PropOp53
 70
     1
102
RTVSPost2010Prop54
  1
strokes_ogs.tif
102
RTVSPost2010PropOp54
 70
     1
102
RTVSPost2010Prop55
280
     0
102
RTVSPost2010PropOp55
 70
     1
102
RTVSPost2010Prop56
140
1.0
102
RTVSPost2010PropOp56
 70
     1
102
RTVSPost2010Prop57
140
1.0
102
RTVSPost2010PropOp57
 70
     1
  0
XRECORD
  5
1DD
102
{ACAD_REACTORS
330
1DC
102
}
330
1DC
100
AcDbXrecord
280
     1
102
RTVSPropertyOp0
 70
     1
102
RTVSPropertyOp1
 70
     1
102
RTVSPropertyOp2
 70
     1
102
RTVSPropertyOp3
 70
     1
102
RTVSPropertyOp4
 70
     1
102
RTVSPropertyOp5
 70
     1
102
RTVSPropertyOp6
 70
     1
102
RTVSPropertyOp7
 70
     1
102
RTVSPropertyOp8
 70
     1
102
RTVSPropertyOp9
 70
     1
102
RTVSPropertyOp10
 70
     1
102
RTVSPropertyOp11
 70
     1
102
RTVSPropertyOp12
 70
     1
102
RTVSPropertyOp13
 70
     1
102
RTVSPropertyOp14
 70
     1
102
RTVSPropertyOp15
 70
     1
102
RTVSPropertyOp16
 70
     1
102
RTVSPropertyOp17
 70
     1
102
RTVSPropertyOp18
 70
     1
102
RTVSPropertyOp19
 70
     1
102
RTVSPropertyOp20
 70
     1
102
RTVSPropertyOp21
 70
     1
102
RTVSPropertyOp22
 70
     1
102
RTVSPropertyOp23
 70
     1
102
RTVSPropertyOp24
 70
     1
102
RTVSPropertyOp25
 70
     1
102
RTVSPropertyOp26
 70
     1
102
RTVSPropertyOp27
 70
     1
102
RTVSPropertyOp28
 70
     1
102
RTVSPropertyOp29
 70
     1
102
RTVSPropertyOp30
 70
     1
102
RTVSPropertyOp31
 70
     1
102
RTVSPropertyOp32
 70
     1
102
RTVSPropertyOp33
 70
     1
102
RTVSPropertyOp34
 70
     1
102
RTVSPropertyOp35
 70
     1
102
RTVSPropertyOp36
 70
     1
102
RTVSPropertyOp37
 70
     1
102
RTVSPropertyOp38
 70
     1
102
RTVSPropertyOp39
 70
     1
102
RTVSPropertyOp40
 70
     1
102
RTVSPropertyOp41
 70
     1
102
RTVSPropertyOp42
 70
     1
102
RTVSPropertyOp43
 70
     1
102
RTVSPropertyOp44
 70
     1
102
RTVSPropertyOp45
 70
     1
102
RTVSPropertyOp46
 70
     1
102
RTVSPropertyOp47
 70
     1
102
RTVSPropertyOp48
 70
     1
102
RTVSPropertyOp49
 70
     1
102
RTVSPropertyOp50
 70
     1
102
RTVSPropertyOp51
 70
     0
102
RTVSPropertyOp52
 70
     0
102
RTVSPropertyOp53
 70
     1
102
RTVSPropertyOp54
 70
     1
102
RTVSPropertyOp55
 70
     1
102
RTVSPropertyOp56
 70
     1
102
RTVSPropertyOp57
 70
     1
102
RTVSPost2010Prop28
280
     0
102
RTVSPost2010PropOp28
 70
     1
102
RTVSPost2010Prop29
280
     1
102
RTVSPost2010PropOp29
 70
     1
102
RTVSPost2010Prop30
280
     1
102
RTVSPost2010PropOp30
 70
     1
102
RTVSPost2010Prop31
280
     0
102
RTVSPost2010PropOp31
 70
     1
102
RTVSPost2010Prop32
280
     0
102
RTVSPost2010PropOp32
 70
     1
102
RTVSPost2010Prop33
280
     0
102
RTVSPost2010PropOp33
 70
     1
102
RTVSPost2010Prop34
280
     0
102
RTVSPost2010PropOp34
 70
     1
102
RTVSPost2010Prop35
280
     0
102
RTVSPost2010PropOp35
 70
     1
102
RTVSPost2010Prop36
280
     0
102
RTVSPost2010PropOp36
 70
     1
102
RTVSPost2010Prop37
 90
       50
102
RTVSPost2010PropOp37
 70
     1
102
RTVSPost2010Prop38
140
0.0
102
RTVSPost2010PropOp38
 70
     1
102
RTVSPost2010Prop39
140
1.0
102
RTVSPost2010PropOp39
 70
     1
102
RTVSPost2010Prop40
 90
        0
102
RTVSPost2010PropOp40
 70
     1
102
RTVSPost2010Prop41ColorIndex
 90
       18
102
RTVSPost2010Prop41ColorRGB
 90
        0
102
RTVSPost2010PropOp41
 70
     1
102
RTVSPost2010Prop42
 90
       50
102
RTVSPost2010PropOp42
 70
     1
102
RTVSPost2010Prop43
 90
        3
102
RTVSPost2010PropOp43
 70
     1
102
RTVSPost2010Prop44ColorIndex
 90
        5
102
RTVSPost2010Prop44ColorRGB
 90
      255
102
RTVSPost2010PropOp44
 70
     1
102
RTVSPost2010Prop45
280
     0
102
RTVSPost2010PropOp45
 70
     1
102
RTVSPost2010Prop46
 90
       50
102
RTVSPost2010PropOp46
 70
     1
102
RTVSPost2010Prop47
 90
       50
102
RTVSPost2010PropOp47
 70
     1
102
RTVSPost2010Prop48
 90
       50
102
RTVSPost2010PropOp48
 70
     1
102
RTVSPost2010Prop49
280
     0
102
RTVSPost2010PropOp49
 70
     1
102
RTVSPost2010Prop50
 90
       50
102
RTVSPost2010PropOp50
 70
     1
102
RTVSPost2010Prop51ColorIndex
 90
      256
102
RTVSPost2010Prop51ColorRGB
 90
-16777216
102
RTVSPost2010PropOp51
 70
     0
102
RTVSPost2010Prop52
140
1.0
102
RTVSPost2010PropOp52
 70
     0
102
RTVSPost2010Prop53
 90
        2
102
RTVSPost2010PropOp53
 70
     1
102
RTVSPost2010Prop54
  1
strokes_ogs.tif
102
RTVSPost2010PropOp54
 70
     1
102
RTVSPost2010Prop55
280
     0
102
RTVSPost2010PropOp55
 70
     1
102
RTVSPost2010Prop56
140
1.0
102
RTVSPost2010PropOp56
 70
     1
102
RTVSPost2010Prop57
140
1.0
102
RTVSPost2010PropOp57
 70
     1
  0
XRECORD
  5
1DF
102
{ACAD_REACTORS
330
1DE
102
}
330
1DE
100
AcDbXrecord
280
     1
102
RTVSPropertyOp0
 70
     1
102
RTVSPropertyOp1
 70
     1
102
RTVSPropertyOp2
 70
     1
102
RTVSPropertyOp3
 70
     1
102
RTVSPropertyOp4
 70
     1
102
RTVSPropertyOp5
 70
     1
102
RTVSPropertyOp6
 70
     1
102
RTVSPropertyOp7
 70
     1
102
RTVSPropertyOp8
 70
     1
102
RTVSPropertyOp9
 70
     1
102
RTVSPropertyOp10
 70
     1
102
RTVSPropertyOp11
 70
     1
102
RTVSPropertyOp12
 70
     1
102
RTVSPropertyOp13
 70
     1
102
RTVSPropertyOp14
 70
     1
102
RTVSPropertyOp15
 70
     1
102
RTVSPropertyOp16
 70
     1
102
RTVSPropertyOp17
 70
     1
102
RTVSPropertyOp18
 70
     1
102
RTVSPropertyOp19
 70
     1
102
RTVSPropertyOp20
 70
     1
102
RTVSPropertyOp21
 70
     1
102
RTVSPropertyOp22
 70
     1
102
RTVSPropertyOp23
 70
     1
102
RTVSPropertyOp24
 70
     1
102
RTVSPropertyOp25
 70
     1
102
RTVSPropertyOp26
 70
     1
102
RTVSPropertyOp27
 70
     1
102
RTVSPropertyOp28
 70
     1
102
RTVSPropertyOp29
 70
     1
102
RTVSPropertyOp30
 70
     1
102
RTVSPropertyOp31
 70
     1
102
RTVSPropertyOp32
 70
     1
102
RTVSPropertyOp33
 70
     1
102
RTVSPropertyOp34
 70
     1
102
RTVSPropertyOp35
 70
     1
102
RTVSPropertyOp36
 70
     1
102
RTVSPropertyOp37
 70
     1
102
RTVSPropertyOp38
 70
     1
102
RTVSPropertyOp39
 70
     1
102
RTVSPropertyOp40
 70
     1
102
RTVSPropertyOp41
 70
     1
102
RTVSPropertyOp42
 70
     1
102
RTVSPropertyOp43
 70
     1
102
RTVSPropertyOp44
 70
     1
102
RTVSPropertyOp45
 70
     1
102
RTVSPropertyOp46
 70
     1
102
RTVSPropertyOp47
 70
     1
102
RTVSPropertyOp48
 70
     1
102
RTVSPropertyOp49
 70
     1
102
RTVSPropertyOp50
 70
     1
102
RTVSPropertyOp51
 70
     0
102
RTVSPropertyOp52
 70
     0
102
RTVSPropertyOp53
 70
     1
102
RTVSPropertyOp54
 70
     1
102
RTVSPropertyOp55
 70
     1
102
RTVSPropertyOp56
 70
     1
102
RTVSPropertyOp57
 70
     1
102
RTVSPost2010Prop28
280
     0
102
RTVSPost2010PropOp28
 70
     1
102
RTVSPost2010Prop29
280
     1
102
RTVSPost2010PropOp29
 70
     1
102
RTVSPost2010Prop30
280
     1
102
RTVSPost2010PropOp30
 70
     1
102
RTVSPost2010Prop31
280
     0
102
RTVSPost2010PropOp31
 70
     1
102
RTVSPost2010Prop32
280
     0
102
RTVSPost2010PropOp32
 70
     1
102
RTVSPost2010Prop33
280
     0
102
RTVSPost2010PropOp33
 70
     1
102
RTVSPost2010Prop34
280
     0
102
RTVSPost2010PropOp34
 70
     1
102
RTVSPost2010Prop35
280
     0
102
RTVSPost2010PropOp35
 70
     1
102
RTVSPost2010Prop36
280
     0
102
RTVSPost2010PropOp36
 70
     1
102
RTVSPost2010Prop37
 90
       50
102
RTVSPost2010PropOp37
 70
     1
102
RTVSPost2010Prop38
140
0.0
102
RTVSPost2010PropOp38
 70
     1
102
RTVSPost2010Prop39
140
1.0
102
RTVSPost2010PropOp39
 70
     1
102
RTVSPost2010Prop40
 90
        0
102
RTVSPost2010PropOp40
 70
     1
102
RTVSPost2010Prop41ColorIndex
 90
       18
102
RTVSPost2010Prop41ColorRGB
 90
        0
102
RTVSPost2010PropOp41
 70
     1
102
RTVSPost2010Prop42
 90
       50
102
RTVSPost2010PropOp42
 70
     1
102
RTVSPost2010Prop43
 90
        3
102
RTVSPost2010PropOp43
 70
     1
102
RTVSPost2010Prop44ColorIndex
 90
        5
102
RTVSPost2010Prop44ColorRGB
 90
      255
102
RTVSPost2010PropOp44
 70
     1
102
RTVSPost2010Prop45
280
     0
102
RTVSPost2010PropOp45
 70
     1
102
RTVSPost2010Prop46
 90
       50
102
RTVSPost2010PropOp46
 70
     1
102
RTVSPost2010Prop47
 90
       50
102
RTVSPost2010PropOp47
 70
     1
102
RTVSPost2010Prop48
 90
       50
102
RTVSPost2010PropOp48
 70
     1
102
RTVSPost2010Prop49
280
     0
102
RTVSPost2010PropOp49
 70
     1
102
RTVSPost2010Prop50
 90
       50
102
RTVSPost2010PropOp50
 70
     1
102
RTVSPost2010Prop51ColorIndex
 90
      256
102
RTVSPost2010Prop51ColorRGB
 90
-16777216
102
RTVSPost2010PropOp51
 70
     0
102
RTVSPost2010Prop52
140
1.0
102
RTVSPost2010PropOp52
 70
     0
102
RTVSPost2010Prop53
 90
        2
102
RTVSPost2010PropOp53
 70
     1
102
RTVSPost2010Prop54
  1
strokes_ogs.tif
102
RTVSPost2010PropOp54
 70
     1
102
RTVSPost2010Prop55
280
     0
102
RTVSPost2010PropOp55
 70
     1
102
RTVSPost2010Prop56
140
1.0
102
RTVSPost2010PropOp56
 70
     1
102
RTVSPost2010Prop57
140
1.0
102
RTVSPost2010PropOp57
 70
     1
  0
XRECORD
  5
1E5
102
{ACAD_REACTORS
330
1E4
102
}
330
1E4
100
AcDbXrecord
280
     1
102
RTVSPropertyOp0
 70
     1
102
RTVSPropertyOp1
 70
     1
102
RTVSPropertyOp2
 70
     1
102
RTVSPropertyOp3
 70
     1
102
RTVSPropertyOp4
 70
     1
102
RTVSPropertyOp5
 70
     1
102
RTVSPropertyOp6
 70
     1
102
RTVSPropertyOp7
 70
     1
102
RTVSPropertyOp8
 70
     1
102
RTVSPropertyOp9
 70
     1
102
RTVSPropertyOp10
 70
     1
102
RTVSPropertyOp11
 70
     1
102
RTVSPropertyOp12
 70
     1
102
RTVSPropertyOp13
 70
     1
102
RTVSPropertyOp14
 70
     1
102
RTVSPropertyOp15
 70
     1
102
RTVSPropertyOp16
 70
     1
102
RTVSPropertyOp17
 70
     1
102
RTVSPropertyOp18
 70
     1
102
RTVSPropertyOp19
 70
     1
102
RTVSPropertyOp20
 70
     1
102
RTVSPropertyOp21
 70
     1
102
RTVSPropertyOp22
 70
     1
102
RTVSPropertyOp23
 70
     1
102
RTVSPropertyOp24
 70
     1
102
RTVSPropertyOp25
 70
     1
102
RTVSPropertyOp26
 70
     1
102
RTVSPropertyOp27
 70
     1
102
RTVSPropertyOp28
 70
     1
102
RTVSPropertyOp29
 70
     1
102
RTVSPropertyOp30
 70
     1
102
RTVSPropertyOp31
 70
     1
102
RTVSPropertyOp32
 70
     1
102
RTVSPropertyOp33
 70
     1
102
RTVSPropertyOp34
 70
     1
102
RTVSPropertyOp35
 70
     1
102
RTVSPropertyOp36
 70
     1
102
RTVSPropertyOp37
 70
     1
102
RTVSPropertyOp38
 70
     1
102
RTVSPropertyOp39
 70
     1
102
RTVSPropertyOp40
 70
     1
102
RTVSPropertyOp41
 70
     1
102
RTVSPropertyOp42
 70
     1
102
RTVSPropertyOp43
 70
     1
102
RTVSPropertyOp44
 70
     1
102
RTVSPropertyOp45
 70
     1
102
RTVSPropertyOp46
 70
     1
102
RTVSPropertyOp47
 70
     1
102
RTVSPropertyOp48
 70
     1
102
RTVSPropertyOp49
 70
     1
102
RTVSPropertyOp50
 70
     1
102
RTVSPropertyOp51
 70
     0
102
RTVSPropertyOp52
 70
     0
102
RTVSPropertyOp53
 70
     1
102
RTVSPropertyOp54
 70
     1
102
RTVSPropertyOp55
 70
     1
102
RTVSPropertyOp56
 70
     1
102
RTVSPropertyOp57
 70
     1
102
RTVSPost2010Prop28
280
     0
102
RTVSPost2010PropOp28
 70
     1
102
RTVSPost2010Prop29
280
     1
102
RTVSPost2010PropOp29
 70
     1
102
RTVSPost2010Prop30
280
     1
102
RTVSPost2010PropOp30
 70
     1
102
RTVSPost2010Prop31
280
     0
102
RTVSPost2010PropOp31
 70
     1
102
RTVSPost2010Prop32
280
     0
102
RTVSPost2010PropOp32
 70
     1
102
RTVSPost2010Prop33
280
     0
102
RTVSPost2010PropOp33
 70
     1
102
RTVSPost2010Prop34
280
     0
102
RTVSPost2010PropOp34
 70
     1
102
RTVSPost2010Prop35
280
     0
102
RTVSPost2010PropOp35
 70
     1
102
RTVSPost2010Prop36
280
     0
102
RTVSPost2010PropOp36
 70
     1
102
RTVSPost2010Prop37
 90
       50
102
RTVSPost2010PropOp37
 70
     1
102
RTVSPost2010Prop38
140
0.0
102
RTVSPost2010PropOp38
 70
     1
102
RTVSPost2010Prop39
140
1.0
102
RTVSPost2010PropOp39
 70
     1
102
RTVSPost2010Prop40
 90
        0
102
RTVSPost2010PropOp40
 70
     1
102
RTVSPost2010Prop41ColorIndex
 90
       18
102
RTVSPost2010Prop41ColorRGB
 90
        0
102
RTVSPost2010PropOp41
 70
     1
102
RTVSPost2010Prop42
 90
       50
102
RTVSPost2010PropOp42
 70
     1
102
RTVSPost2010Prop43
 90
        3
102
RTVSPost2010PropOp43
 70
     1
102
RTVSPost2010Prop44ColorIndex
 90
        5
102
RTVSPost2010Prop44ColorRGB
 90
      255
102
RTVSPost2010PropOp44
 70
     1
102
RTVSPost2010Prop45
280
     0
102
RTVSPost2010PropOp45
 70
     1
102
RTVSPost2010Prop46
 90
       50
102
RTVSPost2010PropOp46
 70
     1
102
RTVSPost2010Prop47
 90
       50
102
RTVSPost2010PropOp47
 70
     1
102
RTVSPost2010Prop48
 90
       50
102
RTVSPost2010PropOp48
 70
     1
102
RTVSPost2010Prop49
280
     0
102
RTVSPost2010PropOp49
 70
     1
102
RTVSPost2010Prop50
 90
       50
102
RTVSPost2010PropOp50
 70
     1
102
RTVSPost2010Prop51ColorIndex
 90
      256
102
RTVSPost2010Prop51ColorRGB
 90
-16777216
102
RTVSPost2010PropOp51
 70
     0
102
RTVSPost2010Prop52
140
1.0
102
RTVSPost2010PropOp52
 70
     0
102
RTVSPost2010Prop53
 90
        2
102
RTVSPost2010PropOp53
 70
     1
102
RTVSPost2010Prop54
  1
strokes_ogs.tif
102
RTVSPost2010PropOp54
 70
     1
102
RTVSPost2010Prop55
280
     0
102
RTVSPost2010PropOp55
 70
     1
102
RTVSPost2010Prop56
140
1.0
102
RTVSPost2010PropOp56
 70
     1
102
RTVSPost2010Prop57
140
1.0
102
RTVSPost2010PropOp57
 70
     1
  0
XRECORD
  5
1F9
102
{ACAD_REACTORS
330
1F8
102
}
330
1F8
100
AcDbXrecord
280
     1
102
RTVSPropertyOp0
 70
     0
102
RTVSPropertyOp1
 70
     0
102
RTVSPropertyOp2
 70
     0
102
RTVSPropertyOp3
 70
     0
102
RTVSPropertyOp4
 70
     0
102
RTVSPropertyOp5
 70
     0
102
RTVSPropertyOp6
 70
     0
102
RTVSPropertyOp7
 70
     0
102
RTVSPropertyOp8
 70
     0
102
RTVSPropertyOp9
 70
     0
102
RTVSPropertyOp10
 70
     0
102
RTVSPropertyOp11
 70
     0
102
RTVSPropertyOp12
 70
     0
102
RTVSPropertyOp13
 70
     0
102
RTVSPropertyOp14
 70
     2
102
RTVSPropertyOp15
 70
     0
102
RTVSPropertyOp16
 70
     0
102
RTVSPropertyOp17
 70
     0
102
RTVSPropertyOp18
 70
     0
102
RTVSPropertyOp19
 70
     0
102
RTVSPropertyOp20
 70
     0
102
RTVSPropertyOp21
 70
     0
102
RTVSPropertyOp22
 70
     0
102
RTVSPropertyOp23
 70
     0
102
RTVSPropertyOp24
 70
     0
102
RTVSPropertyOp25
 70
     0
102
RTVSPropertyOp26
 70
     0
102
RTVSPropertyOp27
 70
     0
102
RTVSPropertyOp28
 70
     0
102
RTVSPropertyOp29
 70
     0
102
RTVSPropertyOp30
 70
     0
102
RTVSPropertyOp31
 70
     0
102
RTVSPropertyOp32
 70
     0
102
RTVSPropertyOp33
 70
     0
102
RTVSPropertyOp34
 70
     0
102
RTVSPropertyOp35
 70
     0
102
RTVSPropertyOp36
 70
     0
102
RTVSPropertyOp37
 70
     0
102
RTVSPropertyOp38
 70
     0
102
RTVSPropertyOp39
 70
     0
102
RTVSPropertyOp40
 70
     0
102
RTVSPropertyOp41
 70
     0
102
RTVSPropertyOp42
 70
     0
102
RTVSPropertyOp43
 70
     0
102
RTVSPropertyOp44
 70
     0
102
RTVSPropertyOp45
 70
     0
102
RTVSPropertyOp46
 70
     0
102
RTVSPropertyOp47
 70
     0
102
RTVSPropertyOp48
 70
     0
102
RTVSPropertyOp49
 70
     0
102
RTVSPropertyOp50
 70
     0
102
RTVSPropertyOp51
 70
     0
102
RTVSPropertyOp52
 70
     0
102
RTVSPropertyOp53
 70
     0
102
RTVSPropertyOp54
 70
     0
102
RTVSPropertyOp55
 70
     0
102
RTVSPropertyOp56
 70
     0
102
RTVSPropertyOp57
 70
     0
102
RTVSPost2010Prop28
280
     0
102
RTVSPost2010PropOp28
 70
     0
102
RTVSPost2010Prop29
280
     1
102
RTVSPost2010PropOp29
 70
     0
102
RTVSPost2010Prop30
280
     1
102
RTVSPost2010PropOp30
 70
     0
102
RTVSPost2010Prop31
280
     0
102
RTVSPost2010PropOp31
 70
     0
102
RTVSPost2010Prop32
280
     0
102
RTVSPost2010PropOp32
 70
     0
102
RTVSPost2010Prop33
280
     0
102
RTVSPost2010PropOp33
 70
     0
102
RTVSPost2010Prop34
280
     0
102
RTVSPost2010PropOp34
 70
     0
102
RTVSPost2010Prop35
280
     0
102
RTVSPost2010PropOp35
 70
     0
102
RTVSPost2010Prop36
280
     0
102
RTVSPost2010PropOp36
 70
     0
102
RTVSPost2010Prop37
 90
       50
102
RTVSPost2010PropOp37
 70
     0
102
RTVSPost2010Prop38
140
0.0
102
RTVSPost2010PropOp38
 70
     0
102
RTVSPost2010Prop39
140
1.0
102
RTVSPost2010PropOp39
 70
     0
102
RTVSPost2010Prop40
 90
        0
102
RTVSPost2010PropOp40
 70
     0
102
RTVSPost2010Prop41ColorIndex
 90
       18
102
RTVSPost2010Prop41ColorRGB
 90
        0
102
RTVSPost2010PropOp41
 70
     0
102
RTVSPost2010Prop42
 90
       50
102
RTVSPost2010PropOp42
 70
     0
102
RTVSPost2010Prop43
 90
        3
102
RTVSPost2010PropOp43
 70
     0
102
RTVSPost2010Prop44ColorIndex
 90
        5
102
RTVSPost2010Prop44ColorRGB
 90
      255
102
RTVSPost2010PropOp44
 70
     0
102
RTVSPost2010Prop45
280
     0
102
RTVSPost2010PropOp45
 70
     0
102
RTVSPost2010Prop46
 90
       50
102
RTVSPost2010PropOp46
 70
     0
102
RTVSPost2010Prop47
 90
       50
102
RTVSPost2010PropOp47
 70
     0
102
RTVSPost2010Prop48
 90
       50
102
RTVSPost2010PropOp48
 70
     0
102
RTVSPost2010Prop49
280
     0
102
RTVSPost2010PropOp49
 70
     0
102
RTVSPost2010Prop50
 90
       50
102
RTVSPost2010PropOp50
 70
     0
102
RTVSPost2010Prop51ColorIndex
 90
      256
102
RTVSPost2010Prop51ColorRGB
 90
-16777216
102
RTVSPost2010PropOp51
 70
     0
102
RTVSPost2010Prop52
140
1.0
102
RTVSPost2010PropOp52
 70
     0
102
RTVSPost2010Prop53
 90
        2
102
RTVSPost2010PropOp53
 70
     0
102
RTVSPost2010Prop54
  1
strokes_ogs.tif
102
RTVSPost2010PropOp54
 70
     0
102
RTVSPost2010Prop55
280
     0
102
RTVSPost2010PropOp55
 70
     0
102
RTVSPost2010Prop56
140
1.0
102
RTVSPost2010PropOp56
 70
     0
102
RTVSPost2010Prop57
140
1.0
102
RTVSPost2010PropOp57
 70
     0
  0
XRECORD
  5
1F3
102
{ACAD_REACTORS
330
1F2
102
}
330
1F2
100
AcDbXrecord
280
     1
102
RTVSPropertyOp0
 70
     1
102
RTVSPropertyOp1
 70
     1
102
RTVSPropertyOp2
 70
     1
102
RTVSPropertyOp3
 70
     1
102
RTVSPropertyOp4
 70
     1
102
RTVSPropertyOp5
 70
     1
102
RTVSPropertyOp6
 70
     1
102
RTVSPropertyOp7
 70
     1
102
RTVSPropertyOp8
 70
     1
102
RTVSPropertyOp9
 70
     1
102
RTVSPropertyOp10
 70
     1
102
RTVSPropertyOp11
 70
     1
102
RTVSPropertyOp12
 70
     1
102
RTVSPropertyOp13
 70
     1
102
RTVSPropertyOp14
 70
     1
102
RTVSPropertyOp15
 70
     1
102
RTVSPropertyOp16
 70
     1
102
RTVSPropertyOp17
 70
     1
102
RTVSPropertyOp18
 70
     1
102
RTVSPropertyOp19
 70
     1
102
RTVSPropertyOp20
 70
     1
102
RTVSPropertyOp21
 70
     1
102
RTVSPropertyOp22
 70
     1
102
RTVSPropertyOp23
 70
     1
102
RTVSPropertyOp24
 70
     1
102
RTVSPropertyOp25
 70
     1
102
RTVSPropertyOp26
 70
     1
102
RTVSPropertyOp27
 70
     1
102
RTVSPropertyOp28
 70
     1
102
RTVSPropertyOp29
 70
     1
102
RTVSPropertyOp30
 70
     1
102
RTVSPropertyOp31
 70
     1
102
RTVSPropertyOp32
 70
     1
102
RTVSPropertyOp33
 70
     1
102
RTVSPropertyOp34
 70
     1
102
RTVSPropertyOp35
 70
     1
102
RTVSPropertyOp36
 70
     1
102
RTVSPropertyOp37
 70
     1
102
RTVSPropertyOp38
 70
     1
102
RTVSPropertyOp39
 70
     1
102
RTVSPropertyOp40
 70
     1
102
RTVSPropertyOp41
 70
     1
102
RTVSPropertyOp42
 70
     1
102
RTVSPropertyOp43
 70
     1
102
RTVSPropertyOp44
 70
     1
102
RTVSPropertyOp45
 70
     1
102
RTVSPropertyOp46
 70
     1
102
RTVSPropertyOp47
 70
     1
102
RTVSPropertyOp48
 70
     1
102
RTVSPropertyOp49
 70
     1
102
RTVSPropertyOp50
 70
     1
102
RTVSPropertyOp51
 70
     0
102
RTVSPropertyOp52
 70
     0
102
RTVSPropertyOp53
 70
     1
102
RTVSPropertyOp54
 70
     1
102
RTVSPropertyOp55
 70
     1
102
RTVSPropertyOp56
 70
     1
102
RTVSPropertyOp57
 70
     1
102
RTVSPost2010Prop28
280
     0
102
RTVSPost2010PropOp28
 70
     1
102
RTVSPost2010Prop29
280
     1
102
RTVSPost2010PropOp29
 70
     1
102
RTVSPost2010Prop30
280
     1
102
RTVSPost2010PropOp30
 70
     1
102
RTVSPost2010Prop31
280
     0
102
RTVSPost2010PropOp31
 70
     1
102
RTVSPost2010Prop32
280
     0
102
RTVSPost2010PropOp32
 70
     1
102
RTVSPost2010Prop33
280
     0
102
RTVSPost2010PropOp33
 70
     1
102
RTVSPost2010Prop34
280
     0
102
RTVSPost2010PropOp34
 70
     1
102
RTVSPost2010Prop35
280
     0
102
RTVSPost2010PropOp35
 70
     1
102
RTVSPost2010Prop36
280
     0
102
RTVSPost2010PropOp36
 70
     1
102
RTVSPost2010Prop37
 90
       50
102
RTVSPost2010PropOp37
 70
     1
102
RTVSPost2010Prop38
140
0.0
102
RTVSPost2010PropOp38
 70
     1
102
RTVSPost2010Prop39
140
1.0
102
RTVSPost2010PropOp39
 70
     1
102
RTVSPost2010Prop40
 90
        0
102
RTVSPost2010PropOp40
 70
     1
102
RTVSPost2010Prop41ColorIndex
 90
       18
102
RTVSPost2010Prop41ColorRGB
 90
        0
102
RTVSPost2010PropOp41
 70
     1
102
RTVSPost2010Prop42
 90
       50
102
RTVSPost2010PropOp42
 70
     1
102
RTVSPost2010Prop43
 90
        3
102
RTVSPost2010PropOp43
 70
     1
102
RTVSPost2010Prop44ColorIndex
 90
        5
102
RTVSPost2010Prop44ColorRGB
 90
      255
102
RTVSPost2010PropOp44
 70
     1
102
RTVSPost2010Prop45
280
     0
102
RTVSPost2010PropOp45
 70
     1
102
RTVSPost2010Prop46
 90
       50
102
RTVSPost2010PropOp46
 70
     1
102
RTVSPost2010Prop47
 90
       50
102
RTVSPost2010PropOp47
 70
     1
102
RTVSPost2010Prop48
 90
       50
102
RTVSPost2010PropOp48
 70
     1
102
RTVSPost2010Prop49
280
     0
102
RTVSPost2010PropOp49
 70
     1
102
RTVSPost2010Prop50
 90
       50
102
RTVSPost2010PropOp50
 70
     1
102
RTVSPost2010Prop51ColorIndex
 90
      256
102
RTVSPost2010Prop51ColorRGB
 90
-16777216
102
RTVSPost2010PropOp51
 70
     0
102
RTVSPost2010Prop52
140
1.0
102
RTVSPost2010PropOp52
 70
     0
102
RTVSPost2010Prop53
 90
        2
102
RTVSPost2010PropOp53
 70
     1
102
RTVSPost2010Prop54
  1
strokes_ogs.tif
102
RTVSPost2010PropOp54
 70
     1
102
RTVSPost2010Prop55
280
     0
102
RTVSPost2010PropOp55
 70
     1
102
RTVSPost2010Prop56
140
1.0
102
RTVSPost2010PropOp56
 70
     1
102
RTVSPost2010Prop57
140
1.0
102
RTVSPost2010PropOp57
 70
     1
  0
XRECORD
  5
1FB
102
{ACAD_REACTORS
330
1FA
102
}
330
1FA
100
AcDbXrecord
280
     1
102
RTVSPropertyOp0
 70
     0
102
RTVSPropertyOp1
 70
     0
102
RTVSPropertyOp2
 70
     0
102
RTVSPropertyOp3
 70
     0
102
RTVSPropertyOp4
 70
     0
102
RTVSPropertyOp5
 70
     0
102
RTVSPropertyOp6
 70
     0
102
RTVSPropertyOp7
 70
     0
102
RTVSPropertyOp8
 70
     0
102
RTVSPropertyOp9
 70
     0
102
RTVSPropertyOp10
 70
     0
102
RTVSPropertyOp11
 70
     0
102
RTVSPropertyOp12
 70
     0
102
RTVSPropertyOp13
 70
     0
102
RTVSPropertyOp14
 70
     2
102
RTVSPropertyOp15
 70
     0
102
RTVSPropertyOp16
 70
     0
102
RTVSPropertyOp17
 70
     0
102
RTVSPropertyOp18
 70
     0
102
RTVSPropertyOp19
 70
     0
102
RTVSPropertyOp20
 70
     0
102
RTVSPropertyOp21
 70
     0
102
RTVSPropertyOp22
 70
     0
102
RTVSPropertyOp23
 70
     0
102
RTVSPropertyOp24
 70
     0
102
RTVSPropertyOp25
 70
     0
102
RTVSPropertyOp26
 70
     0
102
RTVSPropertyOp27
 70
     0
102
RTVSPropertyOp28
 70
     0
102
RTVSPropertyOp29
 70
     0
102
RTVSPropertyOp30
 70
     0
102
RTVSPropertyOp31
 70
     0
102
RTVSPropertyOp32
 70
     0
102
RTVSPropertyOp33
 70
     0
102
RTVSPropertyOp34
 70
     0
102
RTVSPropertyOp35
 70
     0
102
RTVSPropertyOp36
 70
     0
102
RTVSPropertyOp37
 70
     0
102
RTVSPropertyOp38
 70
     0
102
RTVSPropertyOp39
 70
     0
102
RTVSPropertyOp40
 70
     0
102
RTVSPropertyOp41
 70
     0
102
RTVSPropertyOp42
 70
     0
102
RTVSPropertyOp43
 70
     0
102
RTVSPropertyOp44
 70
     0
102
RTVSPropertyOp45
 70
     0
102
RTVSPropertyOp46
 70
     0
102
RTVSPropertyOp47
 70
     0
102
RTVSPropertyOp48
 70
     0
102
RTVSPropertyOp49
 70
     0
102
RTVSPropertyOp50
 70
     0
102
RTVSPropertyOp51
 70
     0
102
RTVSPropertyOp52
 70
     0
102
RTVSPropertyOp53
 70
     0
102
RTVSPropertyOp54
 70
     0
102
RTVSPropertyOp55
 70
     0
102
RTVSPropertyOp56
 70
     0
102
RTVSPropertyOp57
 70
     0
102
RTVSPost2010Prop28
280
     0
102
RTVSPost2010PropOp28
 70
     0
102
RTVSPost2010Prop29
280
     1
102
RTVSPost2010PropOp29
 70
     0
102
RTVSPost2010Prop30
280
     1
102
RTVSPost2010PropOp30
 70
     0
102
RTVSPost2010Prop31
280
     0
102
RTVSPost2010PropOp31
 70
     0
102
RTVSPost2010Prop32
280
     0
102
RTVSPost2010PropOp32
 70
     0
102
RTVSPost2010Prop33
280
     0
102
RTVSPost2010PropOp33
 70
     0
102
RTVSPost2010Prop34
280
     0
102
RTVSPost2010PropOp34
 70
     0
102
RTVSPost2010Prop35
280
     0
102
RTVSPost2010PropOp35
 70
     0
102
RTVSPost2010Prop36
280
     0
102
RTVSPost2010PropOp36
 70
     0
102
RTVSPost2010Prop37
 90
       50
102
RTVSPost2010PropOp37
 70
     0
102
RTVSPost2010Prop38
140
0.0
102
RTVSPost2010PropOp38
 70
     0
102
RTVSPost2010Prop39
140
1.0
102
RTVSPost2010PropOp39
 70
     0
102
RTVSPost2010Prop40
 90
        0
102
RTVSPost2010PropOp40
 70
     0
102
RTVSPost2010Prop41ColorIndex
 90
       18
102
RTVSPost2010Prop41ColorRGB
 90
        0
102
RTVSPost2010PropOp41
 70
     0
102
RTVSPost2010Prop42
 90
       50
102
RTVSPost2010PropOp42
 70
     0
102
RTVSPost2010Prop43
 90
        3
102
RTVSPost2010PropOp43
 70
     0
102
RTVSPost2010Prop44ColorIndex
 90
        5
102
RTVSPost2010Prop44ColorRGB
 90
      255
102
RTVSPost2010PropOp44
 70
     0
102
RTVSPost2010Prop45
280
     0
102
RTVSPost2010PropOp45
 70
     0
102
RTVSPost2010Prop46
 90
       50
102
RTVSPost2010PropOp46
 70
     0
102
RTVSPost2010Prop47
 90
       50
102
RTVSPost2010PropOp47
 70
     0
102
RTVSPost2010Prop48
 90
       50
102
RTVSPost2010PropOp48
 70
     0
102
RTVSPost2010Prop49
280
     0
102
RTVSPost2010PropOp49
 70
     0
102
RTVSPost2010Prop50
 90
       50
102
RTVSPost2010PropOp50
 70
     0
102
RTVSPost2010Prop51ColorIndex
 90
      256
102
RTVSPost2010Prop51ColorRGB
 90
-16777216
102
RTVSPost2010PropOp51
 70
     0
102
RTVSPost2010Prop52
140
1.0
102
RTVSPost2010PropOp52
 70
     0
102
RTVSPost2010Prop53
 90
        2
102
RTVSPost2010PropOp53
 70
     0
102
RTVSPost2010Prop54
  1
strokes_ogs.tif
102
RTVSPost2010PropOp54
 70
     0
102
RTVSPost2010Prop55
280
     0
102
RTVSPost2010PropOp55
 70
     0
102
RTVSPost2010Prop56
140
1.0
102
RTVSPost2010PropOp56
 70
     0
102
RTVSPost2010Prop57
140
1.0
102
RTVSPost2010PropOp57
 70
     0
  0
XRECORD
  5
1E9
102
{ACAD_REACTORS
330
1E8
102
}
330
1E8
100
AcDbXrecord
280
     1
102
RTVSPropertyOp0
 70
     1
102
RTVSPropertyOp1
 70
     1
102
RTVSPropertyOp2
 70
     1
102
RTVSPropertyOp3
 70
     1
102
RTVSPropertyOp4
 70
     1
102
RTVSPropertyOp5
 70
     1
102
RTVSPropertyOp6
 70
     1
102
RTVSPropertyOp7
 70
     1
102
RTVSPropertyOp8
 70
     1
102
RTVSPropertyOp9
 70
     1
102
RTVSPropertyOp10
 70
     1
102
RTVSPropertyOp11
 70
     1
102
RTVSPropertyOp12
 70
     1
102
RTVSPropertyOp13
 70
     1
102
RTVSPropertyOp14
 70
     1
102
RTVSPropertyOp15
 70
     1
102
RTVSPropertyOp16
 70
     1
102
RTVSPropertyOp17
 70
     1
102
RTVSPropertyOp18
 70
     1
102
RTVSPropertyOp19
 70
     1
102
RTVSPropertyOp20
 70
     1
102
RTVSPropertyOp21
 70
     1
102
RTVSPropertyOp22
 70
     1
102
RTVSPropertyOp23
 70
     1
102
RTVSPropertyOp24
 70
     1
102
RTVSPropertyOp25
 70
     1
102
RTVSPropertyOp26
 70
     1
102
RTVSPropertyOp27
 70
     1
102
RTVSPropertyOp28
 70
     1
102
RTVSPropertyOp29
 70
     1
102
RTVSPropertyOp30
 70
     1
102
RTVSPropertyOp31
 70
     1
102
RTVSPropertyOp32
 70
     1
102
RTVSPropertyOp33
 70
     1
102
RTVSPropertyOp34
 70
     1
102
RTVSPropertyOp35
 70
     1
102
RTVSPropertyOp36
 70
     1
102
RTVSPropertyOp37
 70
     1
102
RTVSPropertyOp38
 70
     1
102
RTVSPropertyOp39
 70
     1
102
RTVSPropertyOp40
 70
     1
102
RTVSPropertyOp41
 70
     1
102
RTVSPropertyOp42
 70
     1
102
RTVSPropertyOp43
 70
     1
102
RTVSPropertyOp44
 70
     1
102
RTVSPropertyOp45
 70
     1
102
RTVSPropertyOp46
 70
     1
102
RTVSPropertyOp47
 70
     1
102
RTVSPropertyOp48
 70
     1
102
RTVSPropertyOp49
 70
     1
102
RTVSPropertyOp50
 70
     1
102
RTVSPropertyOp51
 70
     0
102
RTVSPropertyOp52
 70
     0
102
RTVSPropertyOp53
 70
     1
102
RTVSPropertyOp54
 70
     1
102
RTVSPropertyOp55
 70
     1
102
RTVSPropertyOp56
 70
     1
102
RTVSPropertyOp57
 70
     1
102
RTVSPost2010Prop28
280
     0
102
RTVSPost2010PropOp28
 70
     1
102
RTVSPost2010Prop29
280
     1
102
RTVSPost2010PropOp29
 70
     1
102
RTVSPost2010Prop30
280
     1
102
RTVSPost2010PropOp30
 70
     1
102
RTVSPost2010Prop31
280
     0
102
RTVSPost2010PropOp31
 70
     1
102
RTVSPost2010Prop32
280
     0
102
RTVSPost2010PropOp32
 70
     1
102
RTVSPost2010Prop33
280
     0
102
RTVSPost2010PropOp33
 70
     1
102
RTVSPost2010Prop34
280
     0
102
RTVSPost2010PropOp34
 70
     1
102
RTVSPost2010Prop35
280
     0
102
RTVSPost2010PropOp35
 70
     1
102
RTVSPost2010Prop36
280
     0
102
RTVSPost2010PropOp36
 70
     1
102
RTVSPost2010Prop37
 90
       50
102
RTVSPost2010PropOp37
 70
     1
102
RTVSPost2010Prop38
140
0.0
102
RTVSPost2010PropOp38
 70
     1
102
RTVSPost2010Prop39
140
1.0
102
RTVSPost2010PropOp39
 70
     1
102
RTVSPost2010Prop40
 90
        0
102
RTVSPost2010PropOp40
 70
     1
102
RTVSPost2010Prop41ColorIndex
 90
       18
102
RTVSPost2010Prop41ColorRGB
 90
        0
102
RTVSPost2010PropOp41
 70
     1
102
RTVSPost2010Prop42
 90
       50
102
RTVSPost2010PropOp42
 70
     1
102
RTVSPost2010Prop43
 90
        3
102
RTVSPost2010PropOp43
 70
     1
102
RTVSPost2010Prop44ColorIndex
 90
        5
102
RTVSPost2010Prop44ColorRGB
 90
      255
102
RTVSPost2010PropOp44
 70
     1
102
RTVSPost2010Prop45
280
     0
102
RTVSPost2010PropOp45
 70
     1
102
RTVSPost2010Prop46
 90
       50
102
RTVSPost2010PropOp46
 70
     1
102
RTVSPost2010Prop47
 90
       50
102
RTVSPost2010PropOp47
 70
     1
102
RTVSPost2010Prop48
 90
       50
102
RTVSPost2010PropOp48
 70
     1
102
RTVSPost2010Prop49
280
     0
102
RTVSPost2010PropOp49
 70
     1
102
RTVSPost2010Prop50
 90
       50
102
RTVSPost2010PropOp50
 70
     1
102
RTVSPost2010Prop51ColorIndex
 90
      256
102
RTVSPost2010Prop51ColorRGB
 90
-16777216
102
RTVSPost2010PropOp51
 70
     0
102
RTVSPost2010Prop52
140
1.0
102
RTVSPost2010PropOp52
 70
     0
102
RTVSPost2010Prop53
 90
        2
102
RTVSPost2010PropOp53
 70
     1
102
RTVSPost2010Prop54
  1
strokes_ogs.tif
102
RTVSPost2010PropOp54
 70
     1
102
RTVSPost2010Prop55
280
     0
102
RTVSPost2010PropOp55
 70
     1
102
RTVSPost2010Prop56
140
1.0
102
RTVSPost2010PropOp56
 70
     1
102
RTVSPost2010Prop57
140
1.0
102
RTVSPost2010PropOp57
 70
     1
  0
XRECORD
  5
207
102
{ACAD_REACTORS
330
206
102
}
330
206
100
AcDbXrecord
280
     1
102
RTVSPropertyOp0
 70
     1
102
RTVSPropertyOp1
 70
     1
102
RTVSPropertyOp2
 70
     1
102
RTVSPropertyOp3
 70
     1
102
RTVSPropertyOp4
 70
     1
102
RTVSPropertyOp5
 70
     1
102
RTVSPropertyOp6
 70
     1
102
RTVSPropertyOp7
 70
     1
102
RTVSPropertyOp8
 70
     1
102
RTVSPropertyOp9
 70
     1
102
RTVSPropertyOp10
 70
     1
102
RTVSPropertyOp11
 70
     1
102
RTVSPropertyOp12
 70
     1
102
RTVSPropertyOp13
 70
     1
102
RTVSPropertyOp14
 70
     1
102
RTVSPropertyOp15
 70
     1
102
RTVSPropertyOp16
 70
     1
102
RTVSPropertyOp17
 70
     1
102
RTVSPropertyOp18
 70
     1
102
RTVSPropertyOp19
 70
     1
102
RTVSPropertyOp20
 70
     1
102
RTVSPropertyOp21
 70
     1
102
RTVSPropertyOp22
 70
     1
102
RTVSPropertyOp23
 70
     1
102
RTVSPropertyOp24
 70
     1
102
RTVSPropertyOp25
 70
     1
102
RTVSPropertyOp26
 70
     1
102
RTVSPropertyOp27
 70
     1
102
RTVSPropertyOp28
 70
     1
102
RTVSPropertyOp29
 70
     1
102
RTVSPropertyOp30
 70
     1
102
RTVSPropertyOp31
 70
     1
102
RTVSPropertyOp32
 70
     1
102
RTVSPropertyOp33
 70
     1
102
RTVSPropertyOp34
 70
     1
102
RTVSPropertyOp35
 70
     1
102
RTVSPropertyOp36
 70
     1
102
RTVSPropertyOp37
 70
     1
102
RTVSPropertyOp38
 70
     1
102
RTVSPropertyOp39
 70
     1
102
RTVSPropertyOp40
 70
     1
102
RTVSPropertyOp41
 70
     1
102
RTVSPropertyOp42
 70
     1
102
RTVSPropertyOp43
 70
     1
102
RTVSPropertyOp44
 70
     1
102
RTVSPropertyOp45
 70
     1
102
RTVSPropertyOp46
 70
     1
102
RTVSPropertyOp47
 70
     1
102
RTVSPropertyOp48
 70
     1
102
RTVSPropertyOp49
 70
     1
102
RTVSPropertyOp50
 70
     1
102
RTVSPropertyOp51
 70
     0
102
RTVSPropertyOp52
 70
     0
102
RTVSPropertyOp53
 70
     1
102
RTVSPropertyOp54
 70
     1
102
RTVSPropertyOp55
 70
     1
102
RTVSPropertyOp56
 70
     1
102
RTVSPropertyOp57
 70
     1
102
RTVSPost2010Prop28
280
     0
102
RTVSPost2010PropOp28
 70
     1
102
RTVSPost2010Prop29
280
     1
102
RTVSPost2010PropOp29
 70
     1
102
RTVSPost2010Prop30
280
     1
102
RTVSPost2010PropOp30
 70
     1
102
RTVSPost2010Prop31
280
     0
102
RTVSPost2010PropOp31
 70
     1
102
RTVSPost2010Prop32
280
     0
102
RTVSPost2010PropOp32
 70
     1
102
RTVSPost2010Prop33
280
     0
102
RTVSPost2010PropOp33
 70
     1
102
RTVSPost2010Prop34
280
     0
102
RTVSPost2010PropOp34
 70
     1
102
RTVSPost2010Prop35
280
     0
102
RTVSPost2010PropOp35
 70
     1
102
RTVSPost2010Prop36
280
     0
102
RTVSPost2010PropOp36
 70
     1
102
RTVSPost2010Prop37
 90
       50
102
RTVSPost2010PropOp37
 70
     1
102
RTVSPost2010Prop38
140
0.0
102
RTVSPost2010PropOp38
 70
     1
102
RTVSPost2010Prop39
140
1.0
102
RTVSPost2010PropOp39
 70
     1
102
RTVSPost2010Prop40
 90
        0
102
RTVSPost2010PropOp40
 70
     1
102
RTVSPost2010Prop41ColorIndex
 90
       18
102
RTVSPost2010Prop41ColorRGB
 90
        0
102
RTVSPost2010PropOp41
 70
     1
102
RTVSPost2010Prop42
 90
       50
102
RTVSPost2010PropOp42
 70
     1
102
RTVSPost2010Prop43
 90
        3
102
RTVSPost2010PropOp43
 70
     1
102
RTVSPost2010Prop44ColorIndex
 90
        5
102
RTVSPost2010Prop44ColorRGB
 90
      255
102
RTVSPost2010PropOp44
 70
     1
102
RTVSPost2010Prop45
280
     0
102
RTVSPost2010PropOp45
 70
     1
102
RTVSPost2010Prop46
 90
       50
102
RTVSPost2010PropOp46
 70
     1
102
RTVSPost2010Prop47
 90
       50
102
RTVSPost2010PropOp47
 70
     1
102
RTVSPost2010Prop48
 90
       50
102
RTVSPost2010PropOp48
 70
     1
102
RTVSPost2010Prop49
280
     0
102
RTVSPost2010PropOp49
 70
     1
102
RTVSPost2010Prop50
 90
       50
102
RTVSPost2010PropOp50
 70
     1
102
RTVSPost2010Prop51ColorIndex
 90
      256
102
RTVSPost2010Prop51ColorRGB
 90
-16777216
102
RTVSPost2010PropOp51
 70
     0
102
RTVSPost2010Prop52
140
1.0
102
RTVSPost2010PropOp52
 70
     0
102
RTVSPost2010Prop53
 90
        2
102
RTVSPost2010PropOp53
 70
     1
102
RTVSPost2010Prop54
  1
strokes_ogs.tif
102
RTVSPost2010PropOp54
 70
     1
102
RTVSPost2010Prop55
280
     0
102
RTVSPost2010PropOp55
 70
     1
102
RTVSPost2010Prop56
140
1.0
102
RTVSPost2010PropOp56
 70
     1
102
RTVSPost2010Prop57
140
1.0
102
RTVSPost2010PropOp57
 70
     1
  0
XRECORD
  5
205
102
{ACAD_REACTORS
330
204
102
}
330
204
100
AcDbXrecord
280
     1
102
RTVSPropertyOp0
 70
     1
102
RTVSPropertyOp1
 70
     1
102
RTVSPropertyOp2
 70
     1
102
RTVSPropertyOp3
 70
     1
102
RTVSPropertyOp4
 70
     1
102
RTVSPropertyOp5
 70
     1
102
RTVSPropertyOp6
 70
     1
102
RTVSPropertyOp7
 70
     1
102
RTVSPropertyOp8
 70
     1
102
RTVSPropertyOp9
 70
     1
102
RTVSPropertyOp10
 70
     1
102
RTVSPropertyOp11
 70
     1
102
RTVSPropertyOp12
 70
     1
102
RTVSPropertyOp13
 70
     1
102
RTVSPropertyOp14
 70
     1
102
RTVSPropertyOp15
 70
     1
102
RTVSPropertyOp16
 70
     1
102
RTVSPropertyOp17
 70
     1
102
RTVSPropertyOp18
 70
     1
102
RTVSPropertyOp19
 70
     1
102
RTVSPropertyOp20
 70
     1
102
RTVSPropertyOp21
 70
     1
102
RTVSPropertyOp22
 70
     1
102
RTVSPropertyOp23
 70
     1
102
RTVSPropertyOp24
 70
     1
102
RTVSPropertyOp25
 70
     1
102
RTVSPropertyOp26
 70
     1
102
RTVSPropertyOp27
 70
     1
102
RTVSPropertyOp28
 70
     1
102
RTVSPropertyOp29
 70
     1
102
RTVSPropertyOp30
 70
     1
102
RTVSPropertyOp31
 70
     1
102
RTVSPropertyOp32
 70
     1
102
RTVSPropertyOp33
 70
     1
102
RTVSPropertyOp34
 70
     1
102
RTVSPropertyOp35
 70
     1
102
RTVSPropertyOp36
 70
     1
102
RTVSPropertyOp37
 70
     1
102
RTVSPropertyOp38
 70
     1
102
RTVSPropertyOp39
 70
     1
102
RTVSPropertyOp40
 70
     1
102
RTVSPropertyOp41
 70
     1
102
RTVSPropertyOp42
 70
     1
102
RTVSPropertyOp43
 70
     1
102
RTVSPropertyOp44
 70
     1
102
RTVSPropertyOp45
 70
     1
102
RTVSPropertyOp46
 70
     1
102
RTVSPropertyOp47
 70
     1
102
RTVSPropertyOp48
 70
     1
102
RTVSPropertyOp49
 70
     1
102
RTVSPropertyOp50
 70
     1
102
RTVSPropertyOp51
 70
     0
102
RTVSPropertyOp52
 70
     0
102
RTVSPropertyOp53
 70
     1
102
RTVSPropertyOp54
 70
     1
102
RTVSPropertyOp55
 70
     1
102
RTVSPropertyOp56
 70
     1
102
RTVSPropertyOp57
 70
     1
102
RTVSPost2010Prop28
280
     0
102
RTVSPost2010PropOp28
 70
     1
102
RTVSPost2010Prop29
280
     1
102
RTVSPost2010PropOp29
 70
     1
102
RTVSPost2010Prop30
280
     1
102
RTVSPost2010PropOp30
 70
     1
102
RTVSPost2010Prop31
280
     0
102
RTVSPost2010PropOp31
 70
     1
102
RTVSPost2010Prop32
280
     0
102
RTVSPost2010PropOp32
 70
     1
102
RTVSPost2010Prop33
280
     0
102
RTVSPost2010PropOp33
 70
     1
102
RTVSPost2010Prop34
280
     0
102
RTVSPost2010PropOp34
 70
     1
102
RTVSPost2010Prop35
280
     0
102
RTVSPost2010PropOp35
 70
     1
102
RTVSPost2010Prop36
280
     0
102
RTVSPost2010PropOp36
 70
     1
102
RTVSPost2010Prop37
 90
       50
102
RTVSPost2010PropOp37
 70
     1
102
RTVSPost2010Prop38
140
0.0
102
RTVSPost2010PropOp38
 70
     1
102
RTVSPost2010Prop39
140
1.0
102
RTVSPost2010PropOp39
 70
     1
102
RTVSPost2010Prop40
 90
        0
102
RTVSPost2010PropOp40
 70
     1
102
RTVSPost2010Prop41ColorIndex
 90
       18
102
RTVSPost2010Prop41ColorRGB
 90
        0
102
RTVSPost2010PropOp41
 70
     1
102
RTVSPost2010Prop42
 90
       50
102
RTVSPost2010PropOp42
 70
     1
102
RTVSPost2010Prop43
 90
        3
102
RTVSPost2010PropOp43
 70
     1
102
RTVSPost2010Prop44ColorIndex
 90
        5
102
RTVSPost2010Prop44ColorRGB
 90
      255
102
RTVSPost2010PropOp44
 70
     1
102
RTVSPost2010Prop45
280
     0
102
RTVSPost2010PropOp45
 70
     1
102
RTVSPost2010Prop46
 90
       50
102
RTVSPost2010PropOp46
 70
     1
102
RTVSPost2010Prop47
 90
       50
102
RTVSPost2010PropOp47
 70
     1
102
RTVSPost2010Prop48
 90
       50
102
RTVSPost2010PropOp48
 70
     1
102
RTVSPost2010Prop49
280
     0
102
RTVSPost2010PropOp49
 70
     1
102
RTVSPost2010Prop50
 90
       50
102
RTVSPost2010PropOp50
 70
     1
102
RTVSPost2010Prop51ColorIndex
 90
      256
102
RTVSPost2010Prop51ColorRGB
 90
-16777216
102
RTVSPost2010PropOp51
 70
     0
102
RTVSPost2010Prop52
140
1.0
102
RTVSPost2010PropOp52
 70
     0
102
RTVSPost2010Prop53
 90
        2
102
RTVSPost2010PropOp53
 70
     1
102
RTVSPost2010Prop54
  1
strokes_ogs.tif
102
RTVSPost2010PropOp54
 70
     1
102
RTVSPost2010Prop55
280
     0
102
RTVSPost2010PropOp55
 70
     1
102
RTVSPost2010Prop56
140
1.0
102
RTVSPost2010PropOp56
 70
     1
102
RTVSPost2010Prop57
140
1.0
102
RTVSPost2010PropOp57
 70
     1
  0
XRECORD
  5
1FF
102
{ACAD_REACTORS
330
1FE
102
}
330
1FE
100
AcDbXrecord
280
     1
102
RTVSPropertyOp0
 70
     1
102
RTVSPropertyOp1
 70
     1
102
RTVSPropertyOp2
 70
     1
102
RTVSPropertyOp3
 70
     1
102
RTVSPropertyOp4
 70
     1
102
RTVSPropertyOp5
 70
     1
102
RTVSPropertyOp6
 70
     1
102
RTVSPropertyOp7
 70
     1
102
RTVSPropertyOp8
 70
     1
102
RTVSPropertyOp9
 70
     1
102
RTVSPropertyOp10
 70
     1
102
RTVSPropertyOp11
 70
     1
102
RTVSPropertyOp12
 70
     1
102
RTVSPropertyOp13
 70
     1
102
RTVSPropertyOp14
 70
     1
102
RTVSPropertyOp15
 70
     1
102
RTVSPropertyOp16
 70
     1
102
RTVSPropertyOp17
 70
     1
102
RTVSPropertyOp18
 70
     1
102
RTVSPropertyOp19
 70
     1
102
RTVSPropertyOp20
 70
     1
102
RTVSPropertyOp21
 70
     1
102
RTVSPropertyOp22
 70
     1
102
RTVSPropertyOp23
 70
     1
102
RTVSPropertyOp24
 70
     1
102
RTVSPropertyOp25
 70
     1
102
RTVSPropertyOp26
 70
     1
102
RTVSPropertyOp27
 70
     1
102
RTVSPropertyOp28
 70
     1
102
RTVSPropertyOp29
 70
     1
102
RTVSPropertyOp30
 70
     1
102
RTVSPropertyOp31
 70
     1
102
RTVSPropertyOp32
 70
     1
102
RTVSPropertyOp33
 70
     1
102
RTVSPropertyOp34
 70
     1
102
RTVSPropertyOp35
 70
     1
102
RTVSPropertyOp36
 70
     1
102
RTVSPropertyOp37
 70
     1
102
RTVSPropertyOp38
 70
     1
102
RTVSPropertyOp39
 70
     1
102
RTVSPropertyOp40
 70
     1
102
RTVSPropertyOp41
 70
     1
102
RTVSPropertyOp42
 70
     1
102
RTVSPropertyOp43
 70
     1
102
RTVSPropertyOp44
 70
     1
102
RTVSPropertyOp45
 70
     1
102
RTVSPropertyOp46
 70
     1
102
RTVSPropertyOp47
 70
     1
102
RTVSPropertyOp48
 70
     1
102
RTVSPropertyOp49
 70
     1
102
RTVSPropertyOp50
 70
     1
102
RTVSPropertyOp51
 70
     0
102
RTVSPropertyOp52
 70
     0
102
RTVSPropertyOp53
 70
     1
102
RTVSPropertyOp54
 70
     1
102
RTVSPropertyOp55
 70
     1
102
RTVSPropertyOp56
 70
     1
102
RTVSPropertyOp57
 70
     1
102
RTVSPost2010Prop28
280
     0
102
RTVSPost2010PropOp28
 70
     1
102
RTVSPost2010Prop29
280
     1
102
RTVSPost2010PropOp29
 70
     1
102
RTVSPost2010Prop30
280
     1
102
RTVSPost2010PropOp30
 70
     1
102
RTVSPost2010Prop31
280
     0
102
RTVSPost2010PropOp31
 70
     1
102
RTVSPost2010Prop32
280
     0
102
RTVSPost2010PropOp32
 70
     1
102
RTVSPost2010Prop33
280
     0
102
RTVSPost2010PropOp33
 70
     1
102
RTVSPost2010Prop34
280
     0
102
RTVSPost2010PropOp34
 70
     1
102
RTVSPost2010Prop35
280
     0
102
RTVSPost2010PropOp35
 70
     1
102
RTVSPost2010Prop36
280
     0
102
RTVSPost2010PropOp36
 70
     1
102
RTVSPost2010Prop37
 90
       50
102
RTVSPost2010PropOp37
 70
     1
102
RTVSPost2010Prop38
140
0.0
102
RTVSPost2010PropOp38
 70
     1
102
RTVSPost2010Prop39
140
1.0
102
RTVSPost2010PropOp39
 70
     1
102
RTVSPost2010Prop40
 90
        0
102
RTVSPost2010PropOp40
 70
     1
102
RTVSPost2010Prop41ColorIndex
 90
       18
102
RTVSPost2010Prop41ColorRGB
 90
        0
102
RTVSPost2010PropOp41
 70
     1
102
RTVSPost2010Prop42
 90
       50
102
RTVSPost2010PropOp42
 70
     1
102
RTVSPost2010Prop43
 90
        3
102
RTVSPost2010PropOp43
 70
     1
102
RTVSPost2010Prop44ColorIndex
 90
        5
102
RTVSPost2010Prop44ColorRGB
 90
      255
102
RTVSPost2010PropOp44
 70
     1
102
RTVSPost2010Prop45
280
     0
102
RTVSPost2010PropOp45
 70
     1
102
RTVSPost2010Prop46
 90
       50
102
RTVSPost2010PropOp46
 70
     1
102
RTVSPost2010Prop47
 90
       50
102
RTVSPost2010PropOp47
 70
     1
102
RTVSPost2010Prop48
 90
       50
102
RTVSPost2010PropOp48
 70
     1
102
RTVSPost2010Prop49
280
     0
102
RTVSPost2010PropOp49
 70
     1
102
RTVSPost2010Prop50
 90
       50
102
RTVSPost2010PropOp50
 70
     1
102
RTVSPost2010Prop51ColorIndex
 90
      256
102
RTVSPost2010Prop51ColorRGB
 90
-16777216
102
RTVSPost2010PropOp51
 70
     0
102
RTVSPost2010Prop52
140
1.0
102
RTVSPost2010PropOp52
 70
     0
102
RTVSPost2010Prop53
 90
        2
102
RTVSPost2010PropOp53
 70
     1
102
RTVSPost2010Prop54
  1
strokes_ogs.tif
102
RTVSPost2010PropOp54
 70
     1
102
RTVSPost2010Prop55
280
     0
102
RTVSPost2010PropOp55
 70
     1
102
RTVSPost2010Prop56
140
1.0
102
RTVSPost2010PropOp56
 70
     1
102
RTVSPost2010Prop57
140
1.0
102
RTVSPost2010PropOp57
 70
     1
  0
XRECORD
  5
201
102
{ACAD_REACTORS
330
200
102
}
330
200
100
AcDbXrecord
280
     1
102
RTVSPropertyOp0
 70
     1
102
RTVSPropertyOp1
 70
     1
102
RTVSPropertyOp2
 70
     1
102
RTVSPropertyOp3
 70
     1
102
RTVSPropertyOp4
 70
     1
102
RTVSPropertyOp5
 70
     1
102
RTVSPropertyOp6
 70
     1
102
RTVSPropertyOp7
 70
     1
102
RTVSPropertyOp8
 70
     1
102
RTVSPropertyOp9
 70
     1
102
RTVSPropertyOp10
 70
     1
102
RTVSPropertyOp11
 70
     1
102
RTVSPropertyOp12
 70
     1
102
RTVSPropertyOp13
 70
     1
102
RTVSPropertyOp14
 70
     1
102
RTVSPropertyOp15
 70
     1
102
RTVSPropertyOp16
 70
     1
102
RTVSPropertyOp17
 70
     1
102
RTVSPropertyOp18
 70
     1
102
RTVSPropertyOp19
 70
     1
102
RTVSPropertyOp20
 70
     1
102
RTVSPropertyOp21
 70
     1
102
RTVSPropertyOp22
 70
     1
102
RTVSPropertyOp23
 70
     1
102
RTVSPropertyOp24
 70
     1
102
RTVSPropertyOp25
 70
     1
102
RTVSPropertyOp26
 70
     1
102
RTVSPropertyOp27
 70
     1
102
RTVSPropertyOp28
 70
     1
102
RTVSPropertyOp29
 70
     1
102
RTVSPropertyOp30
 70
     1
102
RTVSPropertyOp31
 70
     1
102
RTVSPropertyOp32
 70
     1
102
RTVSPropertyOp33
 70
     1
102
RTVSPropertyOp34
 70
     1
102
RTVSPropertyOp35
 70
     1
102
RTVSPropertyOp36
 70
     1
102
RTVSPropertyOp37
 70
     1
102
RTVSPropertyOp38
 70
     1
102
RTVSPropertyOp39
 70
     1
102
RTVSPropertyOp40
 70
     1
102
RTVSPropertyOp41
 70
     1
102
RTVSPropertyOp42
 70
     1
102
RTVSPropertyOp43
 70
     1
102
RTVSPropertyOp44
 70
     1
102
RTVSPropertyOp45
 70
     1
102
RTVSPropertyOp46
 70
     1
102
RTVSPropertyOp47
 70
     1
102
RTVSPropertyOp48
 70
     1
102
RTVSPropertyOp49
 70
     1
102
RTVSPropertyOp50
 70
     1
102
RTVSPropertyOp51
 70
     0
102
RTVSPropertyOp52
 70
     0
102
RTVSPropertyOp53
 70
     1
102
RTVSPropertyOp54
 70
     1
102
RTVSPropertyOp55
 70
     1
102
RTVSPropertyOp56
 70
     1
102
RTVSPropertyOp57
 70
     1
102
RTVSPost2010Prop28
280
     0
102
RTVSPost2010PropOp28
 70
     1
102
RTVSPost2010Prop29
280
     1
102
RTVSPost2010PropOp29
 70
     1
102
RTVSPost2010Prop30
280
     1
102
RTVSPost2010PropOp30
 70
     1
102
RTVSPost2010Prop31
280
     0
102
RTVSPost2010PropOp31
 70
     1
102
RTVSPost2010Prop32
280
     0
102
RTVSPost2010PropOp32
 70
     1
102
RTVSPost2010Prop33
280
     0
102
RTVSPost2010PropOp33
 70
     1
102
RTVSPost2010Prop34
280
     0
102
RTVSPost2010PropOp34
 70
     1
102
RTVSPost2010Prop35
280
     0
102
RTVSPost2010PropOp35
 70
     1
102
RTVSPost2010Prop36
280
     0
102
RTVSPost2010PropOp36
 70
     1
102
RTVSPost2010Prop37
 90
       50
102
RTVSPost2010PropOp37
 70
     1
102
RTVSPost2010Prop38
140
0.0
102
RTVSPost2010PropOp38
 70
     1
102
RTVSPost2010Prop39
140
1.0
102
RTVSPost2010PropOp39
 70
     1
102
RTVSPost2010Prop40
 90
        0
102
RTVSPost2010PropOp40
 70
     1
102
RTVSPost2010Prop41ColorIndex
 90
       18
102
RTVSPost2010Prop41ColorRGB
 90
        0
102
RTVSPost2010PropOp41
 70
     1
102
RTVSPost2010Prop42
 90
       50
102
RTVSPost2010PropOp42
 70
     1
102
RTVSPost2010Prop43
 90
        3
102
RTVSPost2010PropOp43
 70
     1
102
RTVSPost2010Prop44ColorIndex
 90
        5
102
RTVSPost2010Prop44ColorRGB
 90
      255
102
RTVSPost2010PropOp44
 70
     1
102
RTVSPost2010Prop45
280
     0
102
RTVSPost2010PropOp45
 70
     1
102
RTVSPost2010Prop46
 90
       50
102
RTVSPost2010PropOp46
 70
     1
102
RTVSPost2010Prop47
 90
       50
102
RTVSPost2010PropOp47
 70
     1
102
RTVSPost2010Prop48
 90
       50
102
RTVSPost2010PropOp48
 70
     1
102
RTVSPost2010Prop49
280
     0
102
RTVSPost2010PropOp49
 70
     1
102
RTVSPost2010Prop50
 90
       50
102
RTVSPost2010PropOp50
 70
     1
102
RTVSPost2010Prop51ColorIndex
 90
      256
102
RTVSPost2010Prop51ColorRGB
 90
-16777216
102
RTVSPost2010PropOp51
 70
     0
102
RTVSPost2010Prop52
140
1.0
102
RTVSPost2010PropOp52
 70
     0
102
RTVSPost2010Prop53
 90
        2
102
RTVSPost2010PropOp53
 70
     1
102
RTVSPost2010Prop54
  1
strokes_ogs.tif
102
RTVSPost2010PropOp54
 70
     1
102
RTVSPost2010Prop55
280
     0
102
RTVSPost2010PropOp55
 70
     1
102
RTVSPost2010Prop56
140
1.0
102
RTVSPost2010PropOp56
 70
     1
102
RTVSPost2010Prop57
140
1.0
102
RTVSPost2010PropOp57
 70
     1
  0
XRECORD
  5
1F1
102
{ACAD_REACTORS
330
1F0
102
}
330
1F0
100
AcDbXrecord
280
     1
102
RTVSPropertyOp0
 70
     1
102
RTVSPropertyOp1
 70
     1
102
RTVSPropertyOp2
 70
     1
102
RTVSPropertyOp3
 70
     1
102
RTVSPropertyOp4
 70
     1
102
RTVSPropertyOp5
 70
     1
102
RTVSPropertyOp6
 70
     1
102
RTVSPropertyOp7
 70
     1
102
RTVSPropertyOp8
 70
     1
102
RTVSPropertyOp9
 70
     1
102
RTVSPropertyOp10
 70
     1
102
RTVSPropertyOp11
 70
     1
102
RTVSPropertyOp12
 70
     1
102
RTVSPropertyOp13
 70
     1
102
RTVSPropertyOp14
 70
     1
102
RTVSPropertyOp15
 70
     1
102
RTVSPropertyOp16
 70
     1
102
RTVSPropertyOp17
 70
     1
102
RTVSPropertyOp18
 70
     1
102
RTVSPropertyOp19
 70
     1
102
RTVSPropertyOp20
 70
     1
102
RTVSPropertyOp21
 70
     1
102
RTVSPropertyOp22
 70
     1
102
RTVSPropertyOp23
 70
     1
102
RTVSPropertyOp24
 70
     1
102
RTVSPropertyOp25
 70
     1
102
RTVSPropertyOp26
 70
     1
102
RTVSPropertyOp27
 70
     1
102
RTVSPropertyOp28
 70
     1
102
RTVSPropertyOp29
 70
     1
102
RTVSPropertyOp30
 70
     1
102
RTVSPropertyOp31
 70
     1
102
RTVSPropertyOp32
 70
     1
102
RTVSPropertyOp33
 70
     1
102
RTVSPropertyOp34
 70
     1
102
RTVSPropertyOp35
 70
     1
102
RTVSPropertyOp36
 70
     1
102
RTVSPropertyOp37
 70
     1
102
RTVSPropertyOp38
 70
     1
102
RTVSPropertyOp39
 70
     1
102
RTVSPropertyOp40
 70
     1
102
RTVSPropertyOp41
 70
     1
102
RTVSPropertyOp42
 70
     1
102
RTVSPropertyOp43
 70
     1
102
RTVSPropertyOp44
 70
     1
102
RTVSPropertyOp45
 70
     1
102
RTVSPropertyOp46
 70
     1
102
RTVSPropertyOp47
 70
     1
102
RTVSPropertyOp48
 70
     1
102
RTVSPropertyOp49
 70
     1
102
RTVSPropertyOp50
 70
     1
102
RTVSPropertyOp51
 70
     0
102
RTVSPropertyOp52
 70
     0
102
RTVSPropertyOp53
 70
     1
102
RTVSPropertyOp54
 70
     1
102
RTVSPropertyOp55
 70
     1
102
RTVSPropertyOp56
 70
     1
102
RTVSPropertyOp57
 70
     1
102
RTVSPost2010Prop28
280
     0
102
RTVSPost2010PropOp28
 70
     1
102
RTVSPost2010Prop29
280
     1
102
RTVSPost2010PropOp29
 70
     1
102
RTVSPost2010Prop30
280
     1
102
RTVSPost2010PropOp30
 70
     1
102
RTVSPost2010Prop31
280
     0
102
RTVSPost2010PropOp31
 70
     1
102
RTVSPost2010Prop32
280
     0
102
RTVSPost2010PropOp32
 70
     1
102
RTVSPost2010Prop33
280
     0
102
RTVSPost2010PropOp33
 70
     1
102
RTVSPost2010Prop34
280
     0
102
RTVSPost2010PropOp34
 70
     1
102
RTVSPost2010Prop35
280
     0
102
RTVSPost2010PropOp35
 70
     1
102
RTVSPost2010Prop36
280
     0
102
RTVSPost2010PropOp36
 70
     1
102
RTVSPost2010Prop37
 90
       50
102
RTVSPost2010PropOp37
 70
     1
102
RTVSPost2010Prop38
140
0.0
102
RTVSPost2010PropOp38
 70
     1
102
RTVSPost2010Prop39
140
1.0
102
RTVSPost2010PropOp39
 70
     1
102
RTVSPost2010Prop40
 90
        0
102
RTVSPost2010PropOp40
 70
     1
102
RTVSPost2010Prop41ColorIndex
 90
       18
102
RTVSPost2010Prop41ColorRGB
 90
        0
102
RTVSPost2010PropOp41
 70
     1
102
RTVSPost2010Prop42
 90
       50
102
RTVSPost2010PropOp42
 70
     1
102
RTVSPost2010Prop43
 90
        3
102
RTVSPost2010PropOp43
 70
     1
102
RTVSPost2010Prop44ColorIndex
 90
        5
102
RTVSPost2010Prop44ColorRGB
 90
      255
102
RTVSPost2010PropOp44
 70
     1
102
RTVSPost2010Prop45
280
     0
102
RTVSPost2010PropOp45
 70
     1
102
RTVSPost2010Prop46
 90
       50
102
RTVSPost2010PropOp46
 70
     1
102
RTVSPost2010Prop47
 90
       50
102
RTVSPost2010PropOp47
 70
     1
102
RTVSPost2010Prop48
 90
       50
102
RTVSPost2010PropOp48
 70
     1
102
RTVSPost2010Prop49
280
     0
102
RTVSPost2010PropOp49
 70
     1
102
RTVSPost2010Prop50
 90
       50
102
RTVSPost2010PropOp50
 70
     1
102
RTVSPost2010Prop51ColorIndex
 90
      256
102
RTVSPost2010Prop51ColorRGB
 90
-16777216
102
RTVSPost2010PropOp51
 70
     0
102
RTVSPost2010Prop52
140
1.0
102
RTVSPost2010PropOp52
 70
     0
102
RTVSPost2010Prop53
 90
        2
102
RTVSPost2010PropOp53
 70
     1
102
RTVSPost2010Prop54
  1
strokes_ogs.tif
102
RTVSPost2010PropOp54
 70
     1
102
RTVSPost2010Prop55
280
     0
102
RTVSPost2010PropOp55
 70
     1
102
RTVSPost2010Prop56
140
1.0
102
RTVSPost2010PropOp56
 70
     1
102
RTVSPost2010Prop57
140
1.0
102
RTVSPost2010PropOp57
 70
     1
  0
XRECORD
  5
1E3
102
{ACAD_REACTORS
330
1E2
102
}
330
1E2
100
AcDbXrecord
280
     1
102
RTVSPropertyOp0
 70
     1
102
RTVSPropertyOp1
 70
     1
102
RTVSPropertyOp2
 70
     1
102
RTVSPropertyOp3
 70
     1
102
RTVSPropertyOp4
 70
     1
102
RTVSPropertyOp5
 70
     1
102
RTVSPropertyOp6
 70
     1
102
RTVSPropertyOp7
 70
     1
102
RTVSPropertyOp8
 70
     1
102
RTVSPropertyOp9
 70
     1
102
RTVSPropertyOp10
 70
     1
102
RTVSPropertyOp11
 70
     1
102
RTVSPropertyOp12
 70
     1
102
RTVSPropertyOp13
 70
     1
102
RTVSPropertyOp14
 70
     1
102
RTVSPropertyOp15
 70
     1
102
RTVSPropertyOp16
 70
     1
102
RTVSPropertyOp17
 70
     1
102
RTVSPropertyOp18
 70
     1
102
RTVSPropertyOp19
 70
     1
102
RTVSPropertyOp20
 70
     1
102
RTVSPropertyOp21
 70
     1
102
RTVSPropertyOp22
 70
     1
102
RTVSPropertyOp23
 70
     1
102
RTVSPropertyOp24
 70
     1
102
RTVSPropertyOp25
 70
     1
102
RTVSPropertyOp26
 70
     1
102
RTVSPropertyOp27
 70
     1
102
RTVSPropertyOp28
 70
     1
102
RTVSPropertyOp29
 70
     1
102
RTVSPropertyOp30
 70
     1
102
RTVSPropertyOp31
 70
     1
102
RTVSPropertyOp32
 70
     1
102
RTVSPropertyOp33
 70
     1
102
RTVSPropertyOp34
 70
     1
102
RTVSPropertyOp35
 70
     1
102
RTVSPropertyOp36
 70
     1
102
RTVSPropertyOp37
 70
     1
102
RTVSPropertyOp38
 70
     1
102
RTVSPropertyOp39
 70
     1
102
RTVSPropertyOp40
 70
     1
102
RTVSPropertyOp41
 70
     1
102
RTVSPropertyOp42
 70
     1
102
RTVSPropertyOp43
 70
     1
102
RTVSPropertyOp44
 70
     1
102
RTVSPropertyOp45
 70
     1
102
RTVSPropertyOp46
 70
     1
102
RTVSPropertyOp47
 70
     1
102
RTVSPropertyOp48
 70
     1
102
RTVSPropertyOp49
 70
     1
102
RTVSPropertyOp50
 70
     1
102
RTVSPropertyOp51
 70
     0
102
RTVSPropertyOp52
 70
     0
102
RTVSPropertyOp53
 70
     1
102
RTVSPropertyOp54
 70
     1
102
RTVSPropertyOp55
 70
     1
102
RTVSPropertyOp56
 70
     1
102
RTVSPropertyOp57
 70
     1
102
RTVSPost2010Prop28
280
     0
102
RTVSPost2010PropOp28
 70
     1
102
RTVSPost2010Prop29
280
     1
102
RTVSPost2010PropOp29
 70
     1
102
RTVSPost2010Prop30
280
     1
102
RTVSPost2010PropOp30
 70
     1
102
RTVSPost2010Prop31
280
     0
102
RTVSPost2010PropOp31
 70
     1
102
RTVSPost2010Prop32
280
     0
102
RTVSPost2010PropOp32
 70
     1
102
RTVSPost2010Prop33
280
     0
102
RTVSPost2010PropOp33
 70
     1
102
RTVSPost2010Prop34
280
     0
102
RTVSPost2010PropOp34
 70
     1
102
RTVSPost2010Prop35
280
     0
102
RTVSPost2010PropOp35
 70
     1
102
RTVSPost2010Prop36
280
     0
102
RTVSPost2010PropOp36
 70
     1
102
RTVSPost2010Prop37
 90
       50
102
RTVSPost2010PropOp37
 70
     1
102
RTVSPost2010Prop38
140
0.0
102
RTVSPost2010PropOp38
 70
     1
102
RTVSPost2010Prop39
140
1.0
102
RTVSPost2010PropOp39
 70
     1
102
RTVSPost2010Prop40
 90
        0
102
RTVSPost2010PropOp40
 70
     1
102
RTVSPost2010Prop41ColorIndex
 90
       18
102
RTVSPost2010Prop41ColorRGB
 90
        0
102
RTVSPost2010PropOp41
 70
     1
102
RTVSPost2010Prop42
 90
       50
102
RTVSPost2010PropOp42
 70
     1
102
RTVSPost2010Prop43
 90
        3
102
RTVSPost2010PropOp43
 70
     1
102
RTVSPost2010Prop44ColorIndex
 90
        5
102
RTVSPost2010Prop44ColorRGB
 90
      255
102
RTVSPost2010PropOp44
 70
     1
102
RTVSPost2010Prop45
280
     0
102
RTVSPost2010PropOp45
 70
     1
102
RTVSPost2010Prop46
 90
       50
102
RTVSPost2010PropOp46
 70
     1
102
RTVSPost2010Prop47
 90
       50
102
RTVSPost2010PropOp47
 70
     1
102
RTVSPost2010Prop48
 90
       50
102
RTVSPost2010PropOp48
 70
     1
102
RTVSPost2010Prop49
280
     0
102
RTVSPost2010PropOp49
 70
     1
102
RTVSPost2010Prop50
 90
       50
102
RTVSPost2010PropOp50
 70
     1
102
RTVSPost2010Prop51ColorIndex
 90
      256
102
RTVSPost2010Prop51ColorRGB
 90
-16777216
102
RTVSPost2010PropOp51
 70
     0
102
RTVSPost2010Prop52
140
1.0
102
RTVSPost2010PropOp52
 70
     0
102
RTVSPost2010Prop53
 90
        2
102
RTVSPost2010PropOp53
 70
     1
102
RTVSPost2010Prop54
  1
strokes_ogs.tif
102
RTVSPost2010PropOp54
 70
     1
102
RTVSPost2010Prop55
280
     0
102
RTVSPost2010PropOp55
 70
     1
102
RTVSPost2010Prop56
140
1.0
102
RTVSPost2010PropOp56
 70
     1
102
RTVSPost2010Prop57
140
1.0
102
RTVSPost2010PropOp57
 70
     1
  0
XRECORD
  5
203
102
{ACAD_REACTORS
330
202
102
}
330
202
100
AcDbXrecord
280
     1
102
RTVSPropertyOp0
 70
     1
102
RTVSPropertyOp1
 70
     1
102
RTVSPropertyOp2
 70
     1
102
RTVSPropertyOp3
 70
     1
102
RTVSPropertyOp4
 70
     1
102
RTVSPropertyOp5
 70
     1
102
RTVSPropertyOp6
 70
     1
102
RTVSPropertyOp7
 70
     1
102
RTVSPropertyOp8
 70
     1
102
RTVSPropertyOp9
 70
     1
102
RTVSPropertyOp10
 70
     1
102
RTVSPropertyOp11
 70
     1
102
RTVSPropertyOp12
 70
     1
102
RTVSPropertyOp13
 70
     1
102
RTVSPropertyOp14
 70
     1
102
RTVSPropertyOp15
 70
     1
102
RTVSPropertyOp16
 70
     1
102
RTVSPropertyOp17
 70
     1
102
RTVSPropertyOp18
 70
     1
102
RTVSPropertyOp19
 70
     1
102
RTVSPropertyOp20
 70
     1
102
RTVSPropertyOp21
 70
     1
102
RTVSPropertyOp22
 70
     1
102
RTVSPropertyOp23
 70
     1
102
RTVSPropertyOp24
 70
     1
102
RTVSPropertyOp25
 70
     1
102
RTVSPropertyOp26
 70
     1
102
RTVSPropertyOp27
 70
     1
102
RTVSPropertyOp28
 70
     1
102
RTVSPropertyOp29
 70
     1
102
RTVSPropertyOp30
 70
     1
102
RTVSPropertyOp31
 70
     1
102
RTVSPropertyOp32
 70
     1
102
RTVSPropertyOp33
 70
     1
102
RTVSPropertyOp34
 70
     1
102
RTVSPropertyOp35
 70
     1
102
RTVSPropertyOp36
 70
     1
102
RTVSPropertyOp37
 70
     1
102
RTVSPropertyOp38
 70
     1
102
RTVSPropertyOp39
 70
     1
102
RTVSPropertyOp40
 70
     1
102
RTVSPropertyOp41
 70
     1
102
RTVSPropertyOp42
 70
     1
102
RTVSPropertyOp43
 70
     1
102
RTVSPropertyOp44
 70
     1
102
RTVSPropertyOp45
 70
     1
102
RTVSPropertyOp46
 70
     1
102
RTVSPropertyOp47
 70
     1
102
RTVSPropertyOp48
 70
     1
102
RTVSPropertyOp49
 70
     1
102
RTVSPropertyOp50
 70
     1
102
RTVSPropertyOp51
 70
     0
102
RTVSPropertyOp52
 70
     0
102
RTVSPropertyOp53
 70
     1
102
RTVSPropertyOp54
 70
     1
102
RTVSPropertyOp55
 70
     1
102
RTVSPropertyOp56
 70
     1
102
RTVSPropertyOp57
 70
     1
102
RTVSPost2010Prop28
280
     0
102
RTVSPost2010PropOp28
 70
     1
102
RTVSPost2010Prop29
280
     1
102
RTVSPost2010PropOp29
 70
     1
102
RTVSPost2010Prop30
280
     1
102
RTVSPost2010PropOp30
 70
     1
102
RTVSPost2010Prop31
280
     0
102
RTVSPost2010PropOp31
 70
     1
102
RTVSPost2010Prop32
280
     0
102
RTVSPost2010PropOp32
 70
     1
102
RTVSPost2010Prop33
280
     0
102
RTVSPost2010PropOp33
 70
     1
102
RTVSPost2010Prop34
280
     0
102
RTVSPost2010PropOp34
 70
     1
102
RTVSPost2010Prop35
280
     0
102
RTVSPost2010PropOp35
 70
     1
102
RTVSPost2010Prop36
280
     0
102
RTVSPost2010PropOp36
 70
     1
102
RTVSPost2010Prop37
 90
       50
102
RTVSPost2010PropOp37
 70
     1
102
RTVSPost2010Prop38
140
0.0
102
RTVSPost2010PropOp38
 70
     1
102
RTVSPost2010Prop39
140
1.0
102
RTVSPost2010PropOp39
 70
     1
102
RTVSPost2010Prop40
 90
        0
102
RTVSPost2010PropOp40
 70
     1
102
RTVSPost2010Prop41ColorIndex
 90
       18
102
RTVSPost2010Prop41ColorRGB
 90
        0
102
RTVSPost2010PropOp41
 70
     1
102
RTVSPost2010Prop42
 90
       50
102
RTVSPost2010PropOp42
 70
     1
102
RTVSPost2010Prop43
 90
        3
102
RTVSPost2010PropOp43
 70
     1
102
RTVSPost2010Prop44ColorIndex
 90
        5
102
RTVSPost2010Prop44ColorRGB
 90
      255
102
RTVSPost2010PropOp44
 70
     1
102
RTVSPost2010Prop45
280
     0
102
RTVSPost2010PropOp45
 70
     1
102
RTVSPost2010Prop46
 90
       50
102
RTVSPost2010PropOp46
 70
     1
102
RTVSPost2010Prop47
 90
       50
102
RTVSPost2010PropOp47
 70
     1
102
RTVSPost2010Prop48
 90
       50
102
RTVSPost2010PropOp48
 70
     1
102
RTVSPost2010Prop49
280
     0
102
RTVSPost2010PropOp49
 70
     1
102
RTVSPost2010Prop50
 90
       50
102
RTVSPost2010PropOp50
 70
     1
102
RTVSPost2010Prop51ColorIndex
 90
      256
102
RTVSPost2010Prop51ColorRGB
 90
-16777216
102
RTVSPost2010PropOp51
 70
     0
102
RTVSPost2010Prop52
140
1.0
102
RTVSPost2010PropOp52
 70
     0
102
RTVSPost2010Prop53
 90
        2
102
RTVSPost2010PropOp53
 70
     1
102
RTVSPost2010Prop54
  1
strokes_ogs.tif
102
RTVSPost2010PropOp54
 70
     1
102
RTVSPost2010Prop55
280
     0
102
RTVSPost2010PropOp55
 70
     1
102
RTVSPost2010Prop56
140
1.0
102
RTVSPost2010PropOp56
 70
     1
102
RTVSPost2010Prop57
140
1.0
102
RTVSPost2010PropOp57
 70
     1
  0
ENDSEC
  0
EOF
