  0
SECTION
  2
HEADER
  9
$ACADVER
  1
AC1024
  9
$ACADMAINTVER
 70
     6
  9
$DWGCODEPAGE
  3
ANSI_1252
  9
$INSBASE
 10
0.0
 20
0.0
 30
0.0
  9
$EXTMIN
 10
1.000000000000000E+20
 20
1.000000000000000E+20
 30
1.000000000000000E+20
  9
$EXTMAX
 10
-1.000000000000000E+20
 20
-1.000000000000000E+20
 30
-1.000000000000000E+20
  9
$LIMMIN
 10
0.0
 20
0.0
  9
$LIMMAX
 10
12.0
 20
9.0
  9
$ORTHOMODE
 70
     0
  9
$REGENMODE
 70
     1
  9
$FILLMODE
 70
     1
  9
$QTEXTMODE
 70
     0
  9
$MIRRTEXT
 70
     1
  9
$LTSCALE
 40
1.0
  9
$ATTMODE
 70
     1
  9
$TEXTSIZE
 40
0.2
  9
$TRACEWID
 40
0.05
  9
$TEXTSTYLE
  7
Standard
  9
$CLAYER
  8
0
  9
$CELTYPE
  6
ByLayer
  9
$CECOLOR
 62
   256
  9
$CELTSCALE
 40
1.0
  9
$DISPSILH
 70
     0
  9
$DIMSCALE
 40
1.0
  9
$DIMASZ
 40
0.18
  9
$DIMEXO
 40
0.0625
  9
$DIMDLI
 40
0.38
  9
$DIMRND
 40
0.0
  9
$DIMDLE
 40
0.0
  9
$DIMEXE
 40
0.18
  9
$DIMTP
 40
0.0
  9
$DIMTM
 40
0.0
  9
$DIMTXT
 40
0.18
  9
$DIMCEN
 40
0.09
  9
$DIMTSZ
 40
0.0
  9
$DIMTOL
 70
     0
  9
$DIMLIM
 70
     0
  9
$DIMTIH
 70
     1
  9
$DIMTOH
 70
     1
  9
$DIMSE1
 70
     0
  9
$DIMSE2
 70
     0
  9
$DIMTAD
 70
     0
  9
$DIMZIN
 70
     0
  9
$DIMBLK
  1

  9
$DIMASO
 70
     1
  9
$DIMSHO
 70
     1
  9
$DIMPOST
  1

  9
$DIMAPOST
  1

  9
$DIMALT
 70
     0
  9
$DIMALTD
 70
     2
  9
$DIMALTF
 40
25.4
  9
$DIMLFAC
 40
1.0
  9
$DIMTOFL
 70
     0
  9
$DIMTVP
 40
0.0
  9
$DIMTIX
 70
     0
  9
$DIMSOXD
 70
     0
  9
$DIMSAH
 70
     0
  9
$DIMBLK1
  1

  9
$DIMBLK2
  1

  9
$DIMSTYLE
  2
Standard
  9
$DIMCLRD
 70
     0
  9
$DIMCLRE
 70
     0
  9
$DIMCLRT
 70
     0
  9
$DIMTFAC
 40
1.0
  9
$DIMGAP
 40
0.09
  9
$DIMJUST
 70
     0
  9
$DIMSD1
 70
     0
  9
$DIMSD2
 70
     0
  9
$DIMTOLJ
 70
     1
  9
$DIMTZIN
 70
     0
  9
$DIMALTZ
 70
     0
  9
$DIMALTTZ
 70
     0
  9
$DIMUPT
 70
     0
  9
$DIMDEC
 70
     4
  9
$DIMTDEC
 70
     4
  9
$DIMALTU
 70
     2
  9
$DIMALTTD
 70
     2
  9
$DIMTXSTY
  7
Standard
  9
$DIMAUNIT
 70
     0
  9
$DIMADEC
 70
     0
  9
$DIMALTRND
 40
0.0
  9
$DIMAZIN
 70
     0
  9
$DIMDSEP
 70
    46
  9
$DIMATFIT
 70
     3
  9
$DIMFRAC
 70
     0
  9
$DIMLDRBLK
  1

  9
$DIMLUNIT
 70
     2
  9
$DIMLWD
 70
    -2
  9
$DIMLWE
 70
    -2
  9
$DIMTMOVE
 70
     0
  9
$DIMFXL
 40
1.0
  9
$DIMFXLON
 70
     0
  9
$DIMJOGANG
 40
0.7853981633974483
  9
$DIMTFILL
 70
     0
  9
$DIMTFILLCLR
 70
     0
  9
$DIMARCSYM
 70
     0
  9
$DIMLTYPE
  6

  9
$DIMLTEX1
  6

  9
$DIMLTEX2
  6

  9
$DIMTXTDIRECTION
 70
     0
  9
$LUNITS
 70
     2
  9
$LUPREC
 70
     4
  9
$SKETCHINC
 40
0.1
  9
$FILLETRAD
 40
0.5
  9
$AUNITS
 70
     0
  9
$AUPREC
 70
     0
  9
$MENU
  1
.
  9
$ELEVATION
 40
0.0
  9
$PELEVATION
 40
0.0
  9
$THICKNESS
 40
0.0
  9
$LIMCHECK
 70
     0
  9
$CHAMFERA
 40
0.5
  9
$CHAMFERB
 40
0.5
  9
$CHAMFERC
 40
1.0
  9
$CHAMFERD
 40
0.0
  9
$SKPOLY
 70
     0
  9
$TDCREATE
 40
2459286.638532153
  9
$TDUCREATE
 40
2459286.846865486
  9
$TDUPDATE
 40
2459286.638534896
  9
$TDUUPDATE
 40
2459286.846868229
  9
$TDINDWG
 40
0.0000000116
  9
$TDUSRTIMER
 40
0.0000000116
  9
$USRTIMER
 70
     1
  9
$ANGBASE
 50
0.0
  9
$ANGDIR
 70
     0
  9
$PDMODE
 70
     0
  9
$PDSIZE
 40
0.0
  9
$PLINEWID
 40
0.0
  9
$SPLFRAME
 70
     0
  9
$SPLINETYPE
 70
     6
  9
$SPLINESEGS
 70
     8
  9
$HANDSEED
  5
228
  9
$SURFTAB1
 70
     6
  9
$SURFTAB2
 70
     6
  9
$SURFTYPE
 70
     6
  9
$SURFU
 70
     6
  9
$SURFV
 70
     6
  9
$UCSBASE
  2

  9
$UCSNAME
  2

  9
$UCSORG
 10
0.0
 20
0.0
 30
0.0
  9
$UCSXDIR
 10
1.0
 20
0.0
 30
0.0
  9
$UCSYDIR
 10
0.0
 20
1.0
 30
0.0
  9
$UCSORTHOREF
  2

  9
$UCSORTHOVIEW
 70
     0
  9
$UCSORGTOP
 10
0.0
 20
0.0
 30
0.0
  9
$UCSORGBOTTOM
 10
0.0
 20
0.0
 30
0.0
  9
$UCSORGLEFT
 10
0.0
 20
0.0
 30
0.0
  9
$UCSORGRIGHT
 10
0.0
 20
0.0
 30
0.0
  9
$UCSORGFRONT
 10
0.0
 20
0.0
 30
0.0
  9
$UCSORGBACK
 10
0.0
 20
0.0
 30
0.0
  9
$PUCSBASE
  2

  9
$PUCSNAME
  2

  9
$PUCSORG
 10
0.0
 20
0.0
 30
0.0
  9
$PUCSXDIR
 10
1.0
 20
0.0
 30
0.0
  9
$PUCSYDIR
 10
0.0
 20
1.0
 30
0.0
  9
$PUCSORTHOREF
  2

  9
$PUCSORTHOVIEW
 70
     0
  9
$PUCSORGTOP
 10
0.0
 20
0.0
 30
0.0
  9
$PUCSORGBOTTOM
 10
0.0
 20
0.0
 30
0.0
  9
$PUCSORGLEFT
 10
0.0
 20
0.0
 30
0.0
  9
$PUCSORGRIGHT
 10
0.0
 20
0.0
 30
0.0
  9
$PUCSORGFRONT
 10
0.0
 20
0.0
 30
0.0
  9
$PUCSORGBACK
 10
0.0
 20
0.0
 30
0.0
  9
$USERI1
 70
     0
  9
$USERI2
 70
     0
  9
$USERI3
 70
     0
  9
$USERI4
 70
     0
  9
$USERI5
 70
     0
  9
$USERR1
 40
0.0
  9
$USERR2
 40
0.0
  9
$USERR3
 40
0.0
  9
$USERR4
 40
0.0
  9
$USERR5
 40
0.0
  9
$WORLDVIEW
 70
     1
  9
$SHADEDGE
 70
     3
  9
$SHADEDIF
 70
    70
  9
$TILEMODE
 70
     1
  9
$MAXACTVP
 70
    64
  9
$PINSBASE
 10
0.0
 20
0.0
 30
0.0
  9
$PLIMCHECK
 70
     0
  9
$PEXTMIN
 10
1.000000000000000E+20
 20
1.000000000000000E+20
 30
1.000000000000000E+20
  9
$PEXTMAX
 10
-1.000000000000000E+20
 20
-1.000000000000000E+20
 30
-1.000000000000000E+20
  9
$PLIMMIN
 10
0.0
 20
0.0
  9
$PLIMMAX
 10
12.0
 20
9.0
  9
$UNITMODE
 70
     0
  9
$VISRETAIN
 70
     1
  9
$PLINEGEN
 70
     0
  9
$PSLTSCALE
 70
     1
  9
$TREEDEPTH
 70
  3020
  9
$CMLSTYLE
  2
Standard
  9
$CMLJUST
 70
     0
  9
$CMLSCALE
 40
1.0
  9
$PROXYGRAPHICS
 70
     1
  9
$MEASUREMENT
 70
     0
  9
$CELWEIGHT
370
    -1
  9
$ENDCAPS
280
     0
  9
$JOINSTYLE
280
     0
  9
$LWDISPLAY
290
     1
  9
$INSUNITS
 70
     1
  9
$HYPERLINKBASE
  1

  9
$STYLESHEET
  1

  9
$XEDIT
290
     1
  9
$CEPSNTYPE
380
     0
  9
$PSTYLEMODE
290
     1
  9
$FINGERPRINTGUID
  2
{0BCE95E4-3E0E-45B6-BAD9-05F99AB228F2}
  9
$VERSIONGUID
  2
{FAEB1C32-E019-11D5-929B-00C0DF256EC4}
  9
$EXTNAMES
290
     1
  9
$PSVPSCALE
 40
0.0
  9
$OLESTARTUP
290
     0
  9
$SORTENTS
280
   127
  9
$INDEXCTL
280
     0
  9
$HIDETEXT
280
     1
  9
$XCLIPFRAME
280
     2
  9
$HALOGAP
280
     0
  9
$OBSCOLOR
 70
   257
  9
$OBSLTYPE
280
     0
  9
$INTERSECTIONDISPLAY
280
     0
  9
$INTERSECTIONCOLOR
 70
   257
  9
$DIMASSOC
280
     2
  9
$PROJECTNAME
  1

  9
$CAMERADISPLAY
290
     0
  9
$LENSLENGTH
 40
50.0
  9
$CAMERAHEIGHT
 40
0.0
  9
$STEPSPERSEC
 40
2.0
  9
$STEPSIZE
 40
6.0
  9
$3DDWFPREC
 40
2.0
  9
$PSOLWIDTH
 40
0.25
  9
$PSOLHEIGHT
 40
4.0
  9
$LOFTANG1
 40
1.570796326794897
  9
$LOFTANG2
 40
1.570796326794897
  9
$LOFTMAG1
 40
0.0
  9
$LOFTMAG2
 40
0.0
  9
$LOFTPARAM
 70
     7
  9
$LOFTNORMALS
280
     1
  9
$LATITUDE
 40
37.795
  9
$LONGITUDE
 40
-122.394
  9
$NORTHDIRECTION
 40
0.0
  9
$TIMEZONE
 70
 -8000
  9
$LIGHTGLYPHDISPLAY
280
     1
  9
$TILEMODELIGHTSYNCH
280
     1
  9
$CMATERIAL
347
3C
  9
$SOLIDHIST
280
     1
  9
$SHOWHIST
280
     1
  9
$DWFFRAME
280
     2
  9
$DGNFRAME
280
     2
  9
$REALWORLDSCALE
290
     1
  9
$INTERFERECOLOR
 62
   256
  9
$CSHADOW
280
     0
  9
$SHADOWPLANELOCATION
 40
0.0
  0
ENDSEC
  0
SECTION
  2
CLASSES
  0
CLASS
  1
ACDBDICTIONARYWDFLT
  2
AcDbDictionaryWithDefault
  3
ObjectDBX Classes
 90
        0
 91
        4
280
     0
281
     0
  0
CLASS
  1
VISUALSTYLE
  2
AcDbVisualStyle
  3
ObjectDBX Classes
 90
     4095
 91
        4
280
     0
281
     0
  0
CLASS
  1
MATERIAL
  2
AcDbMaterial
  3
ObjectDBX Classes
 90
     1153
 91
        4
280
     0
281
     0
  0
CLASS
  1
SUN
  2
AcDbSun
  3
SCENEOE
 90
     1024
 91
        4
280
     0
281
     0
  0
ENDSEC
  0
SECTION
  2
TABLES
  0
TABLE
  2
VPORT
  5
8
330
0
100
AcDbSymbolTable
 70
     1
  0
VPORT
  5
29
330
8
100
AcDbSymbolTableRecord
100
AcDbViewportTableRecord
  2
*Active
 70
     0
 10
0.0
 20
0.0
 11
1.0
 21
1.0
 12
0.0
 22
0.0
 13
0.0
 23
0.0
 14
0.5
 24
0.5
 15
0.5
 25
0.5
 16
0.0
 26
0.0
 36
1.0
 17
500.0007637638886
 27
-500.0007637638886
 37
0.0
 40
1000.001527527777
 41
1.0
 42
50.0
 43
0.0
 44
0.0
 50
0.0
 51
0.0
 71
     0
 72
   100
 73
     1
 74
     3
 75
     0
 76
     0
 77
     0
 78
     0
281
     0
 65
     1
110
0.0
120
0.0
130
0.0
111
1.0
121
0.0
131
0.0
112
0.0
122
1.0
132
0.0
 79
     0
146
0.0
 60
     3
 61
     5
292
     1
282
     1
141
0.0
142
0.0
 63
   250
361
3F
  0
ENDTAB
  0
TABLE
  2
LTYPE
  5
5
330
0
100
AcDbSymbolTable
 70
     1
  0
LTYPE
  5
14
330
5
100
AcDbSymbolTableRecord
100
AcDbLinetypeTableRecord
  2
ByBlock
 70
     0
  3

 72
    65
 73
     0
 40
0.0
  0
LTYPE
  5
15
330
5
100
AcDbSymbolTableRecord
100
AcDbLinetypeTableRecord
  2
ByLayer
 70
     0
  3

 72
    65
 73
     0
 40
0.0
  0
LTYPE
  5
16
330
5
100
AcDbSymbolTableRecord
100
AcDbLinetypeTableRecord
  2
Continuous
 70
     0
  3
Solid line
 72
    65
 73
     0
 40
0.0
  0
ENDTAB
  0
TABLE
  2
LAYER
  5
2
330
0
100
AcDbSymbolTable
 70
     2
  0
LAYER
  5
10
330
2
100
AcDbSymbolTableRecord
100
AcDbLayerTableRecord
  2
0
 70
     0
 62
     7
  6
Continuous
370
    -3
390
F
347
3E
  0
LAYER
  5
40
330
2
100
AcDbSymbolTableRecord
100
AcDbLayerTableRecord
  2
Capa 1
 70
     0
 62
     7
  6
Continuous
370
    -3
390
F
347
3E
  0
ENDTAB
  0
TABLE
  2
STYLE
  5
3
330
0
100
AcDbSymbolTable
 70
     1
  0
STYLE
  5
11
330
3
100
AcDbSymbolTableRecord
100
AcDbTextStyleTableRecord
  2
Standard
 70
     0
 40
0.0
 41
1.0
 50
0.0
 71
     0
 42
0.2
  3
txt
  4

  0
ENDTAB
  0
TABLE
  2
VIEW
  5
6
330
0
100
AcDbSymbolTable
 70
     0
  0
ENDTAB
  0
TABLE
  2
UCS
  5
7
330
0
100
AcDbSymbolTable
 70
     0
  0
ENDTAB
  0
TABLE
  2
APPID
  5
9
330
0
100
AcDbSymbolTable
 70
     1
  0
APPID
  5
12
330
9
100
AcDbSymbolTableRecord
100
AcDbRegAppTableRecord
  2
ACAD
 70
     0
  0
ENDTAB
  0
TABLE
  2
DIMSTYLE
  5
A
330
0
100
AcDbSymbolTable
 70
     1
100
AcDbDimStyleTable
  0
DIMSTYLE
105
27
330
A
100
AcDbSymbolTableRecord
100
AcDbDimStyleTableRecord
  2
Standard
 70
     0
178
     0
340
11
  0
ENDTAB
  0
TABLE
  2
BLOCK_RECORD
  5
1
330
0
100
AcDbSymbolTable
 70
    74
  0
BLOCK_RECORD
  5
1F
330
1
100
AcDbSymbolTableRecord
100
AcDbBlockTableRecord
  2
*Model_Space
340
22
 70
     0
280
     1
281
     0
  0
BLOCK_RECORD
  5
1B
330
1
100
AcDbSymbolTableRecord
100
AcDbBlockTableRecord
  2
*Paper_Space
340
1E
 70
     0
280
     1
281
     0
  0
BLOCK_RECORD
  5
23
330
1
100
AcDbSymbolTableRecord
100
AcDbBlockTableRecord
  2
*Paper_Space0
340
26
 70
     0
280
     1
281
     0
  0
BLOCK_RECORD
  5
41
330
1
100
AcDbSymbolTableRecord
100
AcDbBlockTableRecord
  2
block 2
340
0
102
{BLKREFS
331
42
102
}
 70
     0
280
     1
281
     0
  0
BLOCK_RECORD
  5
46
330
1
100
AcDbSymbolTableRecord
100
AcDbBlockTableRecord
  2
block 3
340
0
102
{BLKREFS
331
47
102
}
 70
     0
280
     1
281
     0
  0
BLOCK_RECORD
  5
4E
330
1
100
AcDbSymbolTableRecord
100
AcDbBlockTableRecord
  2
block 4
340
0
102
{BLKREFS
331
4F
102
}
 70
     0
280
     1
281
     0
  0
BLOCK_RECORD
  5
53
330
1
100
AcDbSymbolTableRecord
100
AcDbBlockTableRecord
  2
block 5
340
0
102
{BLKREFS
331
54
102
}
 70
     0
280
     1
281
     0
  0
BLOCK_RECORD
  5
5B
330
1
100
AcDbSymbolTableRecord
100
AcDbBlockTableRecord
  2
block 6
340
0
102
{BLKREFS
331
5C
102
}
 70
     0
280
     1
281
     0
  0
BLOCK_RECORD
  5
63
330
1
100
AcDbSymbolTableRecord
100
AcDbBlockTableRecord
  2
block 7
340
0
102
{BLKREFS
331
64
102
}
 70
     0
280
     1
281
     0
  0
BLOCK_RECORD
  5
68
330
1
100
AcDbSymbolTableRecord
100
AcDbBlockTableRecord
  2
block 8
340
0
102
{BLKREFS
331
69
102
}
 70
     0
280
     1
281
     0
  0
BLOCK_RECORD
  5
70
330
1
100
AcDbSymbolTableRecord
100
AcDbBlockTableRecord
  2
block 9
340
0
102
{BLKREFS
331
71
102
}
 70
     0
280
     1
281
     0
  0
BLOCK_RECORD
  5
78
330
1
100
AcDbSymbolTableRecord
100
AcDbBlockTableRecord
  2
block 10
340
0
102
{BLKREFS
331
79
102
}
 70
     0
280
     1
281
     0
  0
BLOCK_RECORD
  5
7D
330
1
100
AcDbSymbolTableRecord
100
AcDbBlockTableRecord
  2
block 11
340
0
102
{BLKREFS
331
7E
102
}
 70
     0
280
     1
281
     0
  0
BLOCK_RECORD
  5
85
330
1
100
AcDbSymbolTableRecord
100
AcDbBlockTableRecord
  2
block 12
340
0
102
{BLKREFS
331
86
102
}
 70
     0
280
     1
281
     0
  0
BLOCK_RECORD
  5
8A
330
1
100
AcDbSymbolTableRecord
100
AcDbBlockTableRecord
  2
block 13
340
0
102
{BLKREFS
331
8B
102
}
 70
     0
280
     1
281
     0
  0
BLOCK_RECORD
  5
92
330
1
100
AcDbSymbolTableRecord
100
AcDbBlockTableRecord
  2
block 14
340
0
102
{BLKREFS
331
93
102
}
 70
     0
280
     1
281
     0
  0
BLOCK_RECORD
  5
9A
330
1
100
AcDbSymbolTableRecord
100
AcDbBlockTableRecord
  2
block 15
340
0
102
{BLKREFS
331
9B
102
}
 70
     0
280
     1
281
     0
  0
BLOCK_RECORD
  5
A2
330
1
100
AcDbSymbolTableRecord
100
AcDbBlockTableRecord
  2
block 16
340
0
102
{BLKREFS
331
A3
102
}
 70
     0
280
     1
281
     0
  0
BLOCK_RECORD
  5
A7
330
1
100
AcDbSymbolTableRecord
100
AcDbBlockTableRecord
  2
block 17
340
0
102
{BLKREFS
331
A8
102
}
 70
     0
280
     1
281
     0
  0
BLOCK_RECORD
  5
AC
330
1
100
AcDbSymbolTableRecord
100
AcDbBlockTableRecord
  2
block 18
340
0
102
{BLKREFS
331
AD
102
}
 70
     0
280
     1
281
     0
  0
BLOCK_RECORD
  5
B4
330
1
100
AcDbSymbolTableRecord
100
AcDbBlockTableRecord
  2
block 19
340
0
102
{BLKREFS
331
B5
102
}
 70
     0
280
     1
281
     0
  0
BLOCK_RECORD
  5
BC
330
1
100
AcDbSymbolTableRecord
100
AcDbBlockTableRecord
  2
block 20
340
0
102
{BLKREFS
331
BD
102
}
 70
     0
280
     1
281
     0
  0
BLOCK_RECORD
  5
C4
330
1
100
AcDbSymbolTableRecord
100
AcDbBlockTableRecord
  2
block 21
340
0
102
{BLKREFS
331
C5
102
}
 70
     0
280
     1
281
     0
  0
BLOCK_RECORD
  5
C9
330
1
100
AcDbSymbolTableRecord
100
AcDbBlockTableRecord
  2
block 22
340
0
102
{BLKREFS
331
CA
102
}
 70
     0
280
     1
281
     0
  0
BLOCK_RECORD
  5
D1
330
1
100
AcDbSymbolTableRecord
100
AcDbBlockTableRecord
  2
block 23
340
0
102
{BLKREFS
331
D2
102
}
 70
     0
280
     1
281
     0
  0
BLOCK_RECORD
  5
D9
330
1
100
AcDbSymbolTableRecord
100
AcDbBlockTableRecord
  2
block 24
340
0
102
{BLKREFS
331
DA
102
}
 70
     0
280
     1
281
     0
  0
BLOCK_RECORD
  5
E1
330
1
100
AcDbSymbolTableRecord
100
AcDbBlockTableRecord
  2
block 25
340
0
102
{BLKREFS
331
E2
102
}
 70
     0
280
     1
281
     0
  0
BLOCK_RECORD
  5
E6
330
1
100
AcDbSymbolTableRecord
100
AcDbBlockTableRecord
  2
block 26
340
0
102
{BLKREFS
331
E7
102
}
 70
     0
280
     1
281
     0
  0
BLOCK_RECORD
  5
EB
330
1
100
AcDbSymbolTableRecord
100
AcDbBlockTableRecord
  2
block 27
340
0
102
{BLKREFS
331
EC
102
}
 70
     0
280
     1
281
     0
  0
BLOCK_RECORD
  5
F3
330
1
100
AcDbSymbolTableRecord
100
AcDbBlockTableRecord
  2
block 28
340
0
102
{BLKREFS
331
F4
102
}
 70
     0
280
     1
281
     0
  0
BLOCK_RECORD
  5
FB
330
1
100
AcDbSymbolTableRecord
100
AcDbBlockTableRecord
  2
block 29
340
0
102
{BLKREFS
331
FC
102
}
 70
     0
280
     1
281
     0
  0
BLOCK_RECORD
  5
103
330
1
100
AcDbSymbolTableRecord
100
AcDbBlockTableRecord
  2
block 30
340
0
102
{BLKREFS
331
104
102
}
 70
     0
280
     1
281
     0
  0
BLOCK_RECORD
  5
108
330
1
100
AcDbSymbolTableRecord
100
AcDbBlockTableRecord
  2
block 31
340
0
102
{BLKREFS
331
109
102
}
 70
     0
280
     1
281
     0
  0
BLOCK_RECORD
  5
10D
330
1
100
AcDbSymbolTableRecord
100
AcDbBlockTableRecord
  2
block 32
340
0
102
{BLKREFS
331
10E
102
}
 70
     0
280
     1
281
     0
  0
BLOCK_RECORD
  5
115
330
1
100
AcDbSymbolTableRecord
100
AcDbBlockTableRecord
  2
block 33
340
0
102
{BLKREFS
331
116
102
}
 70
     0
280
     1
281
     0
  0
BLOCK_RECORD
  5
11D
330
1
100
AcDbSymbolTableRecord
100
AcDbBlockTableRecord
  2
block 34
340
0
102
{BLKREFS
331
11E
102
}
 70
     0
280
     1
281
     0
  0
BLOCK_RECORD
  5
122
330
1
100
AcDbSymbolTableRecord
100
AcDbBlockTableRecord
  2
block 35
340
0
102
{BLKREFS
331
123
102
}
 70
     0
280
     1
281
     0
  0
BLOCK_RECORD
  5
12A
330
1
100
AcDbSymbolTableRecord
100
AcDbBlockTableRecord
  2
block 36
340
0
102
{BLKREFS
331
12B
102
}
 70
     0
280
     1
281
     0
  0
BLOCK_RECORD
  5
12F
330
1
100
AcDbSymbolTableRecord
100
AcDbBlockTableRecord
  2
block 37
340
0
102
{BLKREFS
331
130
102
}
 70
     0
280
     1
281
     0
  0
BLOCK_RECORD
  5
137
330
1
100
AcDbSymbolTableRecord
100
AcDbBlockTableRecord
  2
block 38
340
0
102
{BLKREFS
331
138
102
}
 70
     0
280
     1
281
     0
  0
BLOCK_RECORD
  5
13F
330
1
100
AcDbSymbolTableRecord
100
AcDbBlockTableRecord
  2
block 39
340
0
102
{BLKREFS
331
140
102
}
 70
     0
280
     1
281
     0
  0
BLOCK_RECORD
  5
144
330
1
100
AcDbSymbolTableRecord
100
AcDbBlockTableRecord
  2
block 40
340
0
102
{BLKREFS
331
145
102
}
 70
     0
280
     1
281
     0
  0
BLOCK_RECORD
  5
14C
330
1
100
AcDbSymbolTableRecord
100
AcDbBlockTableRecord
  2
block 41
340
0
102
{BLKREFS
331
14D
102
}
 70
     0
280
     1
281
     0
  0
BLOCK_RECORD
  5
154
330
1
100
AcDbSymbolTableRecord
100
AcDbBlockTableRecord
  2
block 42
340
0
102
{BLKREFS
331
155
102
}
 70
     0
280
     1
281
     0
  0
BLOCK_RECORD
  5
159
330
1
100
AcDbSymbolTableRecord
100
AcDbBlockTableRecord
  2
block 43
340
0
102
{BLKREFS
331
15A
102
}
 70
     0
280
     1
281
     0
  0
BLOCK_RECORD
  5
161
330
1
100
AcDbSymbolTableRecord
100
AcDbBlockTableRecord
  2
block 44
340
0
102
{BLKREFS
331
162
102
}
 70
     0
280
     1
281
     0
  0
BLOCK_RECORD
  5
166
330
1
100
AcDbSymbolTableRecord
100
AcDbBlockTableRecord
  2
block 45
340
0
102
{BLKREFS
331
167
102
}
 70
     0
280
     1
281
     0
  0
BLOCK_RECORD
  5
16E
330
1
100
AcDbSymbolTableRecord
100
AcDbBlockTableRecord
  2
block 46
340
0
102
{BLKREFS
331
16F
102
}
 70
     0
280
     1
281
     0
  0
BLOCK_RECORD
  5
176
330
1
100
AcDbSymbolTableRecord
100
AcDbBlockTableRecord
  2
block 47
340
0
102
{BLKREFS
331
177
102
}
 70
     0
280
     1
281
     0
  0
BLOCK_RECORD
  5
17E
330
1
100
AcDbSymbolTableRecord
100
AcDbBlockTableRecord
  2
block 48
340
0
102
{BLKREFS
331
17F
102
}
 70
     0
280
     1
281
     0
  0
BLOCK_RECORD
  5
183
330
1
100
AcDbSymbolTableRecord
100
AcDbBlockTableRecord
  2
block 49
340
0
102
{BLKREFS
331
184
102
}
 70
     0
280
     1
281
     0
  0
BLOCK_RECORD
  5
188
330
1
100
AcDbSymbolTableRecord
100
AcDbBlockTableRecord
  2
block 50
340
0
102
{BLKREFS
331
189
102
}
 70
     0
280
     1
281
     0
  0
BLOCK_RECORD
  5
190
330
1
100
AcDbSymbolTableRecord
100
AcDbBlockTableRecord
  2
block 51
340
0
102
{BLKREFS
331
191
102
}
 70
     0
280
     1
281
     0
  0
BLOCK_RECORD
  5
198
330
1
100
AcDbSymbolTableRecord
100
AcDbBlockTableRecord
  2
block 52
340
0
102
{BLKREFS
331
199
102
}
 70
     0
280
     1
281
     0
  0
BLOCK_RECORD
  5
1A0
330
1
100
AcDbSymbolTableRecord
100
AcDbBlockTableRecord
  2
block 53
340
0
102
{BLKREFS
331
1A1
102
}
 70
     0
280
     1
281
     0
  0
BLOCK_RECORD
  5
1A5
330
1
100
AcDbSymbolTableRecord
100
AcDbBlockTableRecord
  2
block 54
340
0
102
{BLKREFS
331
1A6
102
}
 70
     0
280
     1
281
     0
  0
BLOCK_RECORD
  5
1AD
330
1
100
AcDbSymbolTableRecord
100
AcDbBlockTableRecord
  2
block 55
340
0
102
{BLKREFS
331
1AE
102
}
 70
     0
280
     1
281
     0
  0
BLOCK_RECORD
  5
1B5
330
1
100
AcDbSymbolTableRecord
100
AcDbBlockTableRecord
  2
block 56
340
0
102
{BLKREFS
331
1B6
102
}
 70
     0
280
     1
281
     0
  0
BLOCK_RECORD
  5
1BD
330
1
100
AcDbSymbolTableRecord
100
AcDbBlockTableRecord
  2
block 57
340
0
102
{BLKREFS
331
1BE
102
}
 70
     0
280
     1
281
     0
  0
BLOCK_RECORD
  5
1C2
330
1
100
AcDbSymbolTableRecord
100
AcDbBlockTableRecord
  2
block 58
340
0
102
{BLKREFS
331
1C3
102
}
 70
     0
280
     1
281
     0
  0
BLOCK_RECORD
  5
1C7
330
1
100
AcDbSymbolTableRecord
100
AcDbBlockTableRecord
  2
block 59
340
0
102
{BLKREFS
331
1C8
102
}
 70
     0
280
     1
281
     0
  0
BLOCK_RECORD
  5
1CF
330
1
100
AcDbSymbolTableRecord
100
AcDbBlockTableRecord
  2
block 60
340
0
102
{BLKREFS
331
1D0
102
}
 70
     0
280
     1
281
     0
  0
BLOCK_RECORD
  5
1D7
330
1
100
AcDbSymbolTableRecord
100
AcDbBlockTableRecord
  2
block 61
340
0
102
{BLKREFS
331
1D8
102
}
 70
     0
280
     1
281
     0
  0
BLOCK_RECORD
  5
1DF
330
1
100
AcDbSymbolTableRecord
100
AcDbBlockTableRecord
  2
block 62
340
0
102
{BLKREFS
331
1E0
102
}
 70
     0
280
     1
281
     0
  0
BLOCK_RECORD
  5
1E4
330
1
100
AcDbSymbolTableRecord
100
AcDbBlockTableRecord
  2
block 63
340
0
102
{BLKREFS
331
1E5
102
}
 70
     0
280
     1
281
     0
  0
BLOCK_RECORD
  5
1E9
330
1
100
AcDbSymbolTableRecord
100
AcDbBlockTableRecord
  2
block 64
340
0
102
{BLKREFS
331
1EA
102
}
 70
     0
280
     1
281
     0
  0
BLOCK_RECORD
  5
1F1
330
1
100
AcDbSymbolTableRecord
100
AcDbBlockTableRecord
  2
block 65
340
0
102
{BLKREFS
331
1F2
102
}
 70
     0
280
     1
281
     0
  0
BLOCK_RECORD
  5
1F9
330
1
100
AcDbSymbolTableRecord
100
AcDbBlockTableRecord
  2
block 66
340
0
102
{BLKREFS
331
1FA
102
}
 70
     0
280
     1
281
     0
  0
BLOCK_RECORD
  5
1FE
330
1
100
AcDbSymbolTableRecord
100
AcDbBlockTableRecord
  2
block 67
340
0
102
{BLKREFS
331
1FF
102
}
 70
     0
280
     1
281
     0
  0
BLOCK_RECORD
  5
203
330
1
100
AcDbSymbolTableRecord
100
AcDbBlockTableRecord
  2
block 68
340
0
102
{BLKREFS
331
204
102
}
 70
     0
280
     1
281
     0
  0
BLOCK_RECORD
  5
208
330
1
100
AcDbSymbolTableRecord
100
AcDbBlockTableRecord
  2
block 69
340
0
102
{BLKREFS
331
209
102
}
 70
     0
280
     1
281
     0
  0
BLOCK_RECORD
  5
20D
330
1
100
AcDbSymbolTableRecord
100
AcDbBlockTableRecord
  2
block 70
340
0
102
{BLKREFS
331
20E
102
}
 70
     0
280
     1
281
     0
  0
BLOCK_RECORD
  5
212
330
1
100
AcDbSymbolTableRecord
100
AcDbBlockTableRecord
  2
block 71
340
0
102
{BLKREFS
331
213
102
}
 70
     0
280
     1
281
     0
  0
BLOCK_RECORD
  5
217
330
1
100
AcDbSymbolTableRecord
100
AcDbBlockTableRecord
  2
block 72
340
0
102
{BLKREFS
331
218
102
}
 70
     0
280
     1
281
     0
  0
BLOCK_RECORD
  5
21C
330
1
100
AcDbSymbolTableRecord
100
AcDbBlockTableRecord
  2
block 73
340
0
102
{BLKREFS
331
21D
102
}
 70
     0
280
     1
281
     0
  0
BLOCK_RECORD
  5
221
330
1
100
AcDbSymbolTableRecord
100
AcDbBlockTableRecord
  2
block 74
340
0
102
{BLKREFS
331
222
102
}
 70
     0
280
     1
281
     0
  0
ENDTAB
  0
ENDSEC
  0
SECTION
  2
BLOCKS
  0
BLOCK
  5
20
330
1F
100
AcDbEntity
  8
0
100
AcDbBlockBegin
  2
*Model_Space
 70
     0
 10
0.0
 20
0.0
 30
0.0
  3
*Model_Space
  1

  0
ENDBLK
  5
21
330
1F
100
AcDbEntity
  8
0
100
AcDbBlockEnd
  0
BLOCK
  5
1C
330
1B
100
AcDbEntity
 67
     1
  8
0
100
AcDbBlockBegin
  2
*Paper_Space
 70
     0
 10
0.0
 20
0.0
 30
0.0
  3
*Paper_Space
  1

  0
ENDBLK
  5
1D
330
1B
100
AcDbEntity
 67
     1
  8
0
100
AcDbBlockEnd
  0
BLOCK
  5
24
330
23
100
AcDbEntity
  8
0
100
AcDbBlockBegin
  2
*Paper_Space0
 70
     0
 10
0.0
 20
0.0
 30
0.0
  3
*Paper_Space0
  1

  0
ENDBLK
  5
25
330
23
100
AcDbEntity
  8
0
100
AcDbBlockEnd
  0
BLOCK
  5
43
330
41
100
AcDbEntity
  8
0
100
AcDbBlockBegin
  2
block 2
 70
     0
 10
0.0
 20
0.0
 30
0.0
  3
block 2
  1

  0
SPLINE
  5
45
330
41
100
AcDbEntity
  8
Capa 1
 62
     7
420
 16777215
370
    25
100
AcDbSpline
210
0.0
220
0.0
230
1.0
 70
     8
 71
     3
 72
    11
 73
     7
 74
     0
 42
0.0000000001
 43
0.0000000001
 12
1.0
 22
0.0
 32
0.0
 13
1.0
 23
0.0
 33
0.0
 40
0.0
 40
0.0
 40
0.0
 40
0.0
 40
1.0
 40
1.0
 40
1.0
 40
2.0
 40
2.0
 40
2.0
 40
2.0
 10
176.9896196289664
 20
-34.71402774089837
 30
0.0
 10
177.7706657958668
 20
-35.49507874099639
 30
0.0
 10
179.036995753601
 20
-35.49508265907597
 30
0.0
 10
179.818046753699
 20
-34.71403649217683
 30
0.0
 10
180.5990977537958
 20
-33.93299032527641
 30
0.0
 10
180.5991016718766
 20
-32.66666036754086
 30
0.0
 10
179.8180555049762
 20
-31.88560936744413
 30
0.0
  0
ENDBLK
  5
44
330
41
100
AcDbEntity
  8
0
100
AcDbBlockEnd
  0
BLOCK
  5
48
330
46
100
AcDbEntity
  8
0
100
AcDbBlockBegin
  2
block 3
 70
     0
 10
0.0
 20
0.0
 30
0.0
  3
block 3
  1

  0
POLYLINE
  5
4A
330
46
100
AcDbEntity
  8
Capa 1
 62
     7
420
 16777215
370
    25
100
AcDb2dPolyline
 66
     1
 10
0.0
 20
0.0
 30
0.0
  0
VERTEX
  5
4B
330
4A
100
AcDbEntity
  8
Capa 1
 62
     7
420
 16777215
370
    25
100
AcDbVertex
100
AcDb2dVertex
 10
176.9896196289664
 20
-34.71402774089837
 30
0.0
  0
VERTEX
  5
4C
330
4A
100
AcDbEntity
  8
Capa 1
 62
     7
420
 16777215
370
    25
100
AcDbVertex
100
AcDb2dVertex
 10
152.6464826297233
 20
-34.71402774089837
 30
0.0
  0
SEQEND
  5
4D
330
4A
100
AcDbEntity
  8
Capa 1
 62
     7
420
 16777215
370
    25
  0
ENDBLK
  5
49
330
46
100
AcDbEntity
  8
0
100
AcDbBlockEnd
  0
BLOCK
  5
50
330
4E
100
AcDbEntity
  8
0
100
AcDbBlockBegin
  2
block 4
 70
     0
 10
0.0
 20
0.0
 30
0.0
  3
block 4
  1

  0
SPLINE
  5
52
330
4E
100
AcDbEntity
  8
Capa 1
 62
     7
420
 16777215
370
    25
100
AcDbSpline
210
0.0
220
0.0
230
1.0
 70
     8
 71
     3
 72
    11
 73
     7
 74
     0
 42
0.0000000001
 43
0.0000000001
 12
1.0
 22
0.0
 32
0.0
 13
1.0
 23
0.0
 33
0.0
 40
0.0
 40
0.0
 40
0.0
 40
0.0
 40
1.0
 40
1.0
 40
1.0
 40
2.0
 40
2.0
 40
2.0
 40
2.0
 10
149.8180555049765
 20
-31.88560061615284
 30
0.0
 10
149.0370069214747
 20
-32.66664919965462
 30
0.0
 10
149.0370069214747
 20
-33.93297915739659
 30
0.0
 10
149.8180555049765
 20
-34.71402774089837
 30
0.0
 10
150.5991040884795
 20
-35.49507632440145
 30
0.0
 10
151.8654340462202
 20
-35.49507632440145
 30
0.0
 10
152.6464826297233
 20
-34.71402774089837
 30
0.0
  0
ENDBLK
  5
51
330
4E
100
AcDbEntity
  8
0
100
AcDbBlockEnd
  0
BLOCK
  5
55
330
53
100
AcDbEntity
  8
0
100
AcDbBlockBegin
  2
block 5
 70
     0
 10
0.0
 20
0.0
 30
0.0
  3
block 5
  1

  0
POLYLINE
  5
57
330
53
100
AcDbEntity
  8
Capa 1
 62
     7
420
 16777215
370
    25
100
AcDb2dPolyline
 66
     1
 10
0.0
 20
0.0
 30
0.0
  0
VERTEX
  5
58
330
57
100
AcDbEntity
  8
Capa 1
 62
     7
420
 16777215
370
    25
100
AcDbVertex
100
AcDb2dVertex
 10
149.8180555049765
 20
-31.88560061615284
 30
0.0
  0
VERTEX
  5
59
330
57
100
AcDbEntity
  8
Capa 1
 62
     7
420
 16777215
370
    25
100
AcDbVertex
100
AcDb2dVertex
 10
149.8180555049765
 20
-22.51402774089859
 30
0.0
  0
SEQEND
  5
5A
330
57
100
AcDbEntity
  8
Capa 1
 62
     7
420
 16777215
370
    25
  0
ENDBLK
  5
56
330
53
100
AcDbEntity
  8
0
100
AcDbBlockEnd
  0
BLOCK
  5
5D
330
5B
100
AcDbEntity
  8
0
100
AcDbBlockBegin
  2
block 6
 70
     0
 10
0.0
 20
0.0
 30
0.0
  3
block 6
  1

  0
POLYLINE
  5
5F
330
5B
100
AcDbEntity
  8
Capa 1
 62
     7
420
 16777215
370
    25
100
AcDb2dPolyline
 66
     1
 10
0.0
 20
0.0
 30
0.0
  0
VERTEX
  5
60
330
5F
100
AcDbEntity
  8
Capa 1
 62
     7
420
 16777215
370
    25
100
AcDbVertex
100
AcDb2dVertex
 10
149.8180555049765
 20
-22.51402774089859
 30
0.0
  0
VERTEX
  5
61
330
5F
100
AcDbEntity
  8
Capa 1
 62
     7
420
 16777215
370
    25
100
AcDbVertex
100
AcDb2dVertex
 10
112.3180555049767
 20
-22.51402774089859
 30
0.0
  0
SEQEND
  5
62
330
5F
100
AcDbEntity
  8
Capa 1
 62
     7
420
 16777215
370
    25
  0
ENDBLK
  5
5E
330
5B
100
AcDbEntity
  8
0
100
AcDbBlockEnd
  0
BLOCK
  5
65
330
63
100
AcDbEntity
  8
0
100
AcDbBlockBegin
  2
block 7
 70
     0
 10
0.0
 20
0.0
 30
0.0
  3
block 7
  1

  0
SPLINE
  5
67
330
63
100
AcDbEntity
  8
Capa 1
 62
     7
420
 16777215
370
    25
100
AcDbSpline
210
0.0
220
0.0
230
1.0
 70
     8
 71
     3
 72
     8
 73
     4
 74
     0
 42
0.0000000001
 43
0.0000000001
 12
1.0
 22
0.0
 32
0.0
 13
1.0
 23
0.0
 33
0.0
 40
0.0
 40
0.0
 40
0.0
 40
0.0
 40
1.0
 40
1.0
 40
1.0
 40
1.0
 10
112.3180555049767
 20
-22.51402774089859
 30
0.0
 10
72.3180555049766
 20
-101.0473610742321
 30
0.0
 10
72.3180555049766
 20
-193.9806944075649
 30
0.0
 10
112.3180555049767
 20
-272.5140277408984
 30
0.0
  0
ENDBLK
  5
66
330
63
100
AcDbEntity
  8
0
100
AcDbBlockEnd
  0
BLOCK
  5
6A
330
68
100
AcDbEntity
  8
0
100
AcDbBlockBegin
  2
block 8
 70
     0
 10
0.0
 20
0.0
 30
0.0
  3
block 8
  1

  0
POLYLINE
  5
6C
330
68
100
AcDbEntity
  8
Capa 1
 62
     7
420
 16777215
370
    25
100
AcDb2dPolyline
 66
     1
 10
0.0
 20
0.0
 30
0.0
  0
VERTEX
  5
6D
330
6C
100
AcDbEntity
  8
Capa 1
 62
     7
420
 16777215
370
    25
100
AcDbVertex
100
AcDb2dVertex
 10
112.3180555049767
 20
-272.5140277408984
 30
0.0
  0
VERTEX
  5
6E
330
6C
100
AcDbEntity
  8
Capa 1
 62
     7
420
 16777215
370
    25
100
AcDbVertex
100
AcDb2dVertex
 10
149.8180555049765
 20
-272.5140277408984
 30
0.0
  0
SEQEND
  5
6F
330
6C
100
AcDbEntity
  8
Capa 1
 62
     7
420
 16777215
370
    25
  0
ENDBLK
  5
6B
330
68
100
AcDbEntity
  8
0
100
AcDbBlockEnd
  0
BLOCK
  5
72
330
70
100
AcDbEntity
  8
0
100
AcDbBlockBegin
  2
block 9
 70
     0
 10
0.0
 20
0.0
 30
0.0
  3
block 9
  1

  0
POLYLINE
  5
74
330
70
100
AcDbEntity
  8
Capa 1
 62
     7
420
 16777215
370
    25
100
AcDb2dPolyline
 66
     1
 10
0.0
 20
0.0
 30
0.0
  0
VERTEX
  5
75
330
74
100
AcDbEntity
  8
Capa 1
 62
     7
420
 16777215
370
    25
100
AcDbVertex
100
AcDb2dVertex
 10
149.8180555049765
 20
-272.5140277408984
 30
0.0
  0
VERTEX
  5
76
330
74
100
AcDbEntity
  8
Capa 1
 62
     7
420
 16777215
370
    25
100
AcDbVertex
100
AcDb2dVertex
 10
149.8180555049765
 20
-263.1424548656454
 30
0.0
  0
SEQEND
  5
77
330
74
100
AcDbEntity
  8
Capa 1
 62
     7
420
 16777215
370
    25
  0
ENDBLK
  5
73
330
70
100
AcDbEntity
  8
0
100
AcDbBlockEnd
  0
BLOCK
  5
7A
330
78
100
AcDbEntity
  8
0
100
AcDbBlockBegin
  2
block 10
 70
     0
 10
0.0
 20
0.0
 30
0.0
  3
block 10
  1

  0
SPLINE
  5
7C
330
78
100
AcDbEntity
  8
Capa 1
 62
     7
420
 16777215
370
    25
100
AcDbSpline
210
0.0
220
0.0
230
1.0
 70
     8
 71
     3
 72
    11
 73
     7
 74
     0
 42
0.0000000001
 43
0.0000000001
 12
1.0
 22
0.0
 32
0.0
 13
1.0
 23
0.0
 33
0.0
 40
0.0
 40
0.0
 40
0.0
 40
0.0
 40
1.0
 40
1.0
 40
1.0
 40
2.0
 40
2.0
 40
2.0
 40
2.0
 10
152.6464826297233
 20
-260.3140277408987
 30
0.0
 10
151.8654340462202
 20
-259.5329791573962
 30
0.0
 10
150.5991040884795
 20
-259.5329791573962
 30
0.0
 10
149.8180555049765
 20
-260.3140277408987
 30
0.0
 10
149.0370069214747
 20
-261.0950763244017
 30
0.0
 10
149.0370069214734
 20
-262.3614062821424
 30
0.0
 10
149.8180555049765
 20
-263.1424548656454
 30
0.0
  0
ENDBLK
  5
7B
330
78
100
AcDbEntity
  8
0
100
AcDbBlockEnd
  0
BLOCK
  5
7F
330
7D
100
AcDbEntity
  8
0
100
AcDbBlockBegin
  2
block 11
 70
     0
 10
0.0
 20
0.0
 30
0.0
  3
block 11
  1

  0
POLYLINE
  5
81
330
7D
100
AcDbEntity
  8
Capa 1
 62
     7
420
 16777215
370
    25
100
AcDb2dPolyline
 66
     1
 10
0.0
 20
0.0
 30
0.0
  0
VERTEX
  5
82
330
81
100
AcDbEntity
  8
Capa 1
 62
     7
420
 16777215
370
    25
100
AcDbVertex
100
AcDb2dVertex
 10
152.6464826297233
 20
-260.3140277408987
 30
0.0
  0
VERTEX
  5
83
330
81
100
AcDbEntity
  8
Capa 1
 62
     7
420
 16777215
370
    25
100
AcDbVertex
100
AcDb2dVertex
 10
176.9896196289664
 20
-260.3140277408987
 30
0.0
  0
SEQEND
  5
84
330
81
100
AcDbEntity
  8
Capa 1
 62
     7
420
 16777215
370
    25
  0
ENDBLK
  5
80
330
7D
100
AcDbEntity
  8
0
100
AcDbBlockEnd
  0
BLOCK
  5
87
330
85
100
AcDbEntity
  8
0
100
AcDbBlockBegin
  2
block 12
 70
     0
 10
0.0
 20
0.0
 30
0.0
  3
block 12
  1

  0
SPLINE
  5
89
330
85
100
AcDbEntity
  8
Capa 1
 62
     7
420
 16777215
370
    25
100
AcDbSpline
210
0.0
220
0.0
230
1.0
 70
     8
 71
     3
 72
    11
 73
     7
 74
     0
 42
0.0000000001
 43
0.0000000001
 12
1.0
 22
0.0
 32
0.0
 13
1.0
 23
0.0
 33
0.0
 40
0.0
 40
0.0
 40
0.0
 40
0.0
 40
1.0
 40
1.0
 40
1.0
 40
2.0
 40
2.0
 40
2.0
 40
2.0
 10
179.8180555049762
 20
-263.1424461143535
 30
0.0
 10
180.5991016718766
 20
-262.3613951142561
 30
0.0
 10
180.5990977537958
 20
-261.0950651565212
 30
0.0
 10
179.818046753699
 20
-260.3140189896214
 30
0.0
 10
179.036995753601
 20
-259.532972822721
 30
0.0
 10
177.7706657958668
 20
-259.5329767408019
 30
0.0
 10
176.9896196289664
 20
-260.3140277408987
 30
0.0
  0
ENDBLK
  5
88
330
85
100
AcDbEntity
  8
0
100
AcDbBlockEnd
  0
BLOCK
  5
8C
330
8A
100
AcDbEntity
  8
0
100
AcDbBlockBegin
  2
block 13
 70
     0
 10
0.0
 20
0.0
 30
0.0
  3
block 13
  1

  0
POLYLINE
  5
8E
330
8A
100
AcDbEntity
  8
Capa 1
 62
     7
420
 16777215
370
    25
100
AcDb2dPolyline
 66
     1
 10
0.0
 20
0.0
 30
0.0
  0
VERTEX
  5
8F
330
8E
100
AcDbEntity
  8
Capa 1
 62
     7
420
 16777215
370
    25
100
AcDbVertex
100
AcDb2dVertex
 10
179.8180555049762
 20
-263.1424461143542
 30
0.0
  0
VERTEX
  5
90
330
8E
100
AcDbEntity
  8
Capa 1
 62
     7
420
 16777215
370
    25
100
AcDbVertex
100
AcDb2dVertex
 10
179.8180555049762
 20
-272.5140277408984
 30
0.0
  0
SEQEND
  5
91
330
8E
100
AcDbEntity
  8
Capa 1
 62
     7
420
 16777215
370
    25
  0
ENDBLK
  5
8D
330
8A
100
AcDbEntity
  8
0
100
AcDbBlockEnd
  0
BLOCK
  5
94
330
92
100
AcDbEntity
  8
0
100
AcDbBlockBegin
  2
block 14
 70
     0
 10
0.0
 20
0.0
 30
0.0
  3
block 14
  1

  0
POLYLINE
  5
96
330
92
100
AcDbEntity
  8
Capa 1
 62
     7
420
 16777215
370
    25
100
AcDb2dPolyline
 66
     1
 10
0.0
 20
0.0
 30
0.0
  0
VERTEX
  5
97
330
96
100
AcDbEntity
  8
Capa 1
 62
     7
420
 16777215
370
    25
100
AcDbVertex
100
AcDb2dVertex
 10
179.8180555049762
 20
-272.5140277408984
 30
0.0
  0
VERTEX
  5
98
330
96
100
AcDbEntity
  8
Capa 1
 62
     7
420
 16777215
370
    25
100
AcDbVertex
100
AcDb2dVertex
 10
254.8180555049769
 20
-272.5140277408984
 30
0.0
  0
SEQEND
  5
99
330
96
100
AcDbEntity
  8
Capa 1
 62
     7
420
 16777215
370
    25
  0
ENDBLK
  5
95
330
92
100
AcDbEntity
  8
0
100
AcDbBlockEnd
  0
BLOCK
  5
9C
330
9A
100
AcDbEntity
  8
0
100
AcDbBlockBegin
  2
block 15
 70
     0
 10
0.0
 20
0.0
 30
0.0
  3
block 15
  1

  0
POLYLINE
  5
9E
330
9A
100
AcDbEntity
  8
Capa 1
 62
     7
420
 16777215
370
    25
100
AcDb2dPolyline
 66
     1
 10
0.0
 20
0.0
 30
0.0
  0
VERTEX
  5
9F
330
9E
100
AcDbEntity
  8
Capa 1
 62
     7
420
 16777215
370
    25
100
AcDbVertex
100
AcDb2dVertex
 10
254.8180555049769
 20
-272.5140277408984
 30
0.0
  0
VERTEX
  5
A0
330
9E
100
AcDbEntity
  8
Capa 1
 62
     7
420
 16777215
370
    25
100
AcDbVertex
100
AcDb2dVertex
 10
254.8180555049769
 20
-263.1424461143542
 30
0.0
  0
SEQEND
  5
A1
330
9E
100
AcDbEntity
  8
Capa 1
 62
     7
420
 16777215
370
    25
  0
ENDBLK
  5
9D
330
9A
100
AcDbEntity
  8
0
100
AcDbBlockEnd
  0
BLOCK
  5
A4
330
A2
100
AcDbEntity
  8
0
100
AcDbBlockBegin
  2
block 16
 70
     0
 10
0.0
 20
0.0
 30
0.0
  3
block 16
  1

  0
SPLINE
  5
A6
330
A2
100
AcDbEntity
  8
Capa 1
 62
     7
420
 16777215
370
    25
100
AcDbSpline
210
0.0
220
0.0
230
1.0
 70
     8
 71
     3
 72
    11
 73
     7
 74
     0
 42
0.0000000001
 43
0.0000000001
 12
1.0
 22
0.0
 32
0.0
 13
1.0
 23
0.0
 33
0.0
 40
0.0
 40
0.0
 40
0.0
 40
0.0
 40
1.0
 40
1.0
 40
1.0
 40
2.0
 40
2.0
 40
2.0
 40
2.0
 10
257.6464913809868
 20
-260.3140277408987
 30
0.0
 10
256.8654452140864
 20
-259.5329767408019
 30
0.0
 10
255.5991152563521
 20
-259.532972822721
 30
0.0
 10
254.8180642562541
 20
-260.3140189896214
 30
0.0
 10
254.0370132561574
 20
-261.0950651565219
 30
0.0
 10
254.0370093380765
 20
-262.3613951142561
 30
0.0
 10
254.8180555049769
 20
-263.1424461143542
 30
0.0
  0
ENDBLK
  5
A5
330
A2
100
AcDbEntity
  8
0
100
AcDbBlockEnd
  0
BLOCK
  5
A9
330
A7
100
AcDbEntity
  8
0
100
AcDbBlockBegin
  2
block 17
 70
     0
 10
0.0
 20
0.0
 30
0.0
  3
block 17
  1

  0
SPLINE
  5
AB
330
A7
100
AcDbEntity
  8
Capa 1
 62
     7
420
 16777215
370
    25
100
AcDbSpline
210
0.0
220
0.0
230
1.0
 70
     8
 71
     3
 72
    11
 73
     7
 74
     0
 42
0.0000000001
 43
0.0000000001
 12
1.0
 22
0.0
 32
0.0
 13
1.0
 23
0.0
 33
0.0
 40
0.0
 40
0.0
 40
0.0
 40
0.0
 40
1.0
 40
1.0
 40
1.0
 40
2.0
 40
2.0
 40
2.0
 40
2.0
 10
284.8180555049767
 20
-263.1424548656454
 30
0.0
 10
285.5991040884785
 20
-262.3614062821424
 30
0.0
 10
285.5991040884785
 20
-261.0950763244017
 30
0.0
 10
284.8180555049767
 20
-260.3140277408987
 30
0.0
 10
284.0370069214737
 20
-259.5329791573969
 30
0.0
 10
282.770676963733
 20
-259.5329791573969
 30
0.0
 10
281.9896283802299
 20
-260.3140277408987
 30
0.0
  0
ENDBLK
  5
AA
330
A7
100
AcDbEntity
  8
0
100
AcDbBlockEnd
  0
BLOCK
  5
AE
330
AC
100
AcDbEntity
  8
0
100
AcDbBlockBegin
  2
block 18
 70
     0
 10
0.0
 20
0.0
 30
0.0
  3
block 18
  1

  0
POLYLINE
  5
B0
330
AC
100
AcDbEntity
  8
Capa 1
 62
     7
420
 16777215
370
    25
100
AcDb2dPolyline
 66
     1
 10
0.0
 20
0.0
 30
0.0
  0
VERTEX
  5
B1
330
B0
100
AcDbEntity
  8
Capa 1
 62
     7
420
 16777215
370
    25
100
AcDbVertex
100
AcDb2dVertex
 10
284.8180555049767
 20
-263.1424548656454
 30
0.0
  0
VERTEX
  5
B2
330
B0
100
AcDbEntity
  8
Capa 1
 62
     7
420
 16777215
370
    25
100
AcDbVertex
100
AcDb2dVertex
 10
284.8180555049767
 20
-272.5140277408984
 30
0.0
  0
SEQEND
  5
B3
330
B0
100
AcDbEntity
  8
Capa 1
 62
     7
420
 16777215
370
    25
  0
ENDBLK
  5
AF
330
AC
100
AcDbEntity
  8
0
100
AcDbBlockEnd
  0
BLOCK
  5
B6
330
B4
100
AcDbEntity
  8
0
100
AcDbBlockBegin
  2
block 19
 70
     0
 10
0.0
 20
0.0
 30
0.0
  3
block 19
  1

  0
POLYLINE
  5
B8
330
B4
100
AcDbEntity
  8
Capa 1
 62
     7
420
 16777215
370
    25
100
AcDb2dPolyline
 66
     1
 10
0.0
 20
0.0
 30
0.0
  0
VERTEX
  5
B9
330
B8
100
AcDbEntity
  8
Capa 1
 62
     7
420
 16777215
370
    25
100
AcDbVertex
100
AcDb2dVertex
 10
284.8180555049767
 20
-272.5140277408984
 30
0.0
  0
VERTEX
  5
BA
330
B8
100
AcDbEntity
  8
Capa 1
 62
     7
420
 16777215
370
    25
100
AcDbVertex
100
AcDb2dVertex
 10
322.3180555049764
 20
-272.5140277408984
 30
0.0
  0
SEQEND
  5
BB
330
B8
100
AcDbEntity
  8
Capa 1
 62
     7
420
 16777215
370
    25
  0
ENDBLK
  5
B7
330
B4
100
AcDbEntity
  8
0
100
AcDbBlockEnd
  0
BLOCK
  5
BE
330
BC
100
AcDbEntity
  8
0
100
AcDbBlockBegin
  2
block 20
 70
     0
 10
0.0
 20
0.0
 30
0.0
  3
block 20
  1

  0
POLYLINE
  5
C0
330
BC
100
AcDbEntity
  8
Capa 1
 62
     7
420
 16777215
370
    25
100
AcDb2dPolyline
 66
     1
 10
0.0
 20
0.0
 30
0.0
  0
VERTEX
  5
C1
330
C0
100
AcDbEntity
  8
Capa 1
 62
     7
420
 16777215
370
    25
100
AcDbVertex
100
AcDb2dVertex
 10
322.3180555049764
 20
-272.5140277408984
 30
0.0
  0
VERTEX
  5
C2
330
C0
100
AcDbEntity
  8
Capa 1
 62
     7
420
 16777215
370
    25
100
AcDbVertex
100
AcDb2dVertex
 10
322.3180555049764
 20
-262.5140277408987
 30
0.0
  0
SEQEND
  5
C3
330
C0
100
AcDbEntity
  8
Capa 1
 62
     7
420
 16777215
370
    25
  0
ENDBLK
  5
BF
330
BC
100
AcDbEntity
  8
0
100
AcDbBlockEnd
  0
BLOCK
  5
C6
330
C4
100
AcDbEntity
  8
0
100
AcDbBlockBegin
  2
block 21
 70
     0
 10
0.0
 20
0.0
 30
0.0
  3
block 21
  1

  0
SPLINE
  5
C8
330
C4
100
AcDbEntity
  8
Capa 1
 62
     7
420
 16777215
370
    25
100
AcDbSpline
210
0.0
220
0.0
230
1.0
 70
     8
 71
     3
 72
     8
 73
     4
 74
     0
 42
0.0000000001
 43
0.0000000001
 12
1.0
 22
0.0
 32
0.0
 13
1.0
 23
0.0
 33
0.0
 40
0.0
 40
0.0
 40
0.0
 40
0.0
 40
1.0
 40
1.0
 40
1.0
 40
1.0
 10
322.3180555049764
 20
-32.51402774089894
 30
0.0
 10
288.7738957651803
 20
-105.5115292358848
 30
0.0
 10
288.7738957651803
 20
-189.5165262459135
 30
0.0
 10
322.3180555049764
 20
-262.5140277408993
 30
0.0
  0
ENDBLK
  5
C7
330
C4
100
AcDbEntity
  8
0
100
AcDbBlockEnd
  0
BLOCK
  5
CB
330
C9
100
AcDbEntity
  8
0
100
AcDbBlockBegin
  2
block 22
 70
     0
 10
0.0
 20
0.0
 30
0.0
  3
block 22
  1

  0
POLYLINE
  5
CD
330
C9
100
AcDbEntity
  8
Capa 1
 62
     7
420
 16777215
370
    25
100
AcDb2dPolyline
 66
     1
 10
0.0
 20
0.0
 30
0.0
  0
VERTEX
  5
CE
330
CD
100
AcDbEntity
  8
Capa 1
 62
     7
420
 16777215
370
    25
100
AcDbVertex
100
AcDb2dVertex
 10
322.3180555049764
 20
-32.51402774089894
 30
0.0
  0
VERTEX
  5
CF
330
CD
100
AcDbEntity
  8
Capa 1
 62
     7
420
 16777215
370
    25
100
AcDbVertex
100
AcDb2dVertex
 10
322.3180555049764
 20
-22.51402774089859
 30
0.0
  0
SEQEND
  5
D0
330
CD
100
AcDbEntity
  8
Capa 1
 62
     7
420
 16777215
370
    25
  0
ENDBLK
  5
CC
330
C9
100
AcDbEntity
  8
0
100
AcDbBlockEnd
  0
BLOCK
  5
D3
330
D1
100
AcDbEntity
  8
0
100
AcDbBlockBegin
  2
block 23
 70
     0
 10
0.0
 20
0.0
 30
0.0
  3
block 23
  1

  0
POLYLINE
  5
D5
330
D1
100
AcDbEntity
  8
Capa 1
 62
     7
420
 16777215
370
    25
100
AcDb2dPolyline
 66
     1
 10
0.0
 20
0.0
 30
0.0
  0
VERTEX
  5
D6
330
D5
100
AcDbEntity
  8
Capa 1
 62
     7
420
 16777215
370
    25
100
AcDbVertex
100
AcDb2dVertex
 10
322.3180555049764
 20
-22.51402774089859
 30
0.0
  0
VERTEX
  5
D7
330
D5
100
AcDbEntity
  8
Capa 1
 62
     7
420
 16777215
370
    25
100
AcDbVertex
100
AcDb2dVertex
 10
284.8180555049767
 20
-22.51402774089859
 30
0.0
  0
SEQEND
  5
D8
330
D5
100
AcDbEntity
  8
Capa 1
 62
     7
420
 16777215
370
    25
  0
ENDBLK
  5
D4
330
D1
100
AcDbEntity
  8
0
100
AcDbBlockEnd
  0
BLOCK
  5
DB
330
D9
100
AcDbEntity
  8
0
100
AcDbBlockBegin
  2
block 24
 70
     0
 10
0.0
 20
0.0
 30
0.0
  3
block 24
  1

  0
POLYLINE
  5
DD
330
D9
100
AcDbEntity
  8
Capa 1
 62
     7
420
 16777215
370
    25
100
AcDb2dPolyline
 66
     1
 10
0.0
 20
0.0
 30
0.0
  0
VERTEX
  5
DE
330
DD
100
AcDbEntity
  8
Capa 1
 62
     7
420
 16777215
370
    25
100
AcDbVertex
100
AcDb2dVertex
 10
284.8180555049767
 20
-22.51402774089859
 30
0.0
  0
VERTEX
  5
DF
330
DD
100
AcDbEntity
  8
Capa 1
 62
     7
420
 16777215
370
    25
100
AcDbVertex
100
AcDb2dVertex
 10
284.8180555049767
 20
-31.88560061615284
 30
0.0
  0
SEQEND
  5
E0
330
DD
100
AcDbEntity
  8
Capa 1
 62
     7
420
 16777215
370
    25
  0
ENDBLK
  5
DC
330
D9
100
AcDbEntity
  8
0
100
AcDbBlockEnd
  0
BLOCK
  5
E3
330
E1
100
AcDbEntity
  8
0
100
AcDbBlockBegin
  2
block 25
 70
     0
 10
0.0
 20
0.0
 30
0.0
  3
block 25
  1

  0
SPLINE
  5
E5
330
E1
100
AcDbEntity
  8
Capa 1
 62
     7
420
 16777215
370
    25
100
AcDbSpline
210
0.0
220
0.0
230
1.0
 70
     8
 71
     3
 72
    11
 73
     7
 74
     0
 42
0.0000000001
 43
0.0000000001
 12
1.0
 22
0.0
 32
0.0
 13
1.0
 23
0.0
 33
0.0
 40
0.0
 40
0.0
 40
0.0
 40
0.0
 40
1.0
 40
1.0
 40
1.0
 40
2.0
 40
2.0
 40
2.0
 40
2.0
 10
281.9896283802299
 20
-34.71402774089837
 30
0.0
 10
282.770676963733
 20
-35.49507632440145
 30
0.0
 10
284.0370069214737
 20
-35.49507632440145
 30
0.0
 10
284.8180555049767
 20
-34.71402774089837
 30
0.0
 10
285.5991040884785
 20
-33.93297915739531
 30
0.0
 10
285.5991040884785
 20
-32.66664919965462
 30
0.0
 10
284.8180555049767
 20
-31.88560061615284
 30
0.0
  0
ENDBLK
  5
E4
330
E1
100
AcDbEntity
  8
0
100
AcDbBlockEnd
  0
BLOCK
  5
E8
330
E6
100
AcDbEntity
  8
0
100
AcDbBlockBegin
  2
block 26
 70
     0
 10
0.0
 20
0.0
 30
0.0
  3
block 26
  1

  0
SPLINE
  5
EA
330
E6
100
AcDbEntity
  8
Capa 1
 62
     7
420
 16777215
370
    25
100
AcDbSpline
210
0.0
220
0.0
230
1.0
 70
     8
 71
     3
 72
    11
 73
     7
 74
     0
 42
0.0000000001
 43
0.0000000001
 12
1.0
 22
0.0
 32
0.0
 13
1.0
 23
0.0
 33
0.0
 40
0.0
 40
0.0
 40
0.0
 40
0.0
 40
1.0
 40
1.0
 40
1.0
 40
2.0
 40
2.0
 40
2.0
 40
2.0
 10
254.8180555049769
 20
-31.88560936744413
 30
0.0
 10
254.0370093380765
 20
-32.66666036754086
 30
0.0
 10
254.0370132561574
 20
-33.93299032527641
 30
0.0
 10
254.8180642562541
 20
-34.71403649217683
 30
0.0
 10
255.5991152563521
 20
-35.49508265907597
 30
0.0
 10
256.8654452140864
 20
-35.49507874099639
 30
0.0
 10
257.6464913809868
 20
-34.71402774089837
 30
0.0
  0
ENDBLK
  5
E9
330
E6
100
AcDbEntity
  8
0
100
AcDbBlockEnd
  0
BLOCK
  5
ED
330
EB
100
AcDbEntity
  8
0
100
AcDbBlockBegin
  2
block 27
 70
     0
 10
0.0
 20
0.0
 30
0.0
  3
block 27
  1

  0
POLYLINE
  5
EF
330
EB
100
AcDbEntity
  8
Capa 1
 62
     7
420
 16777215
370
    25
100
AcDb2dPolyline
 66
     1
 10
0.0
 20
0.0
 30
0.0
  0
VERTEX
  5
F0
330
EF
100
AcDbEntity
  8
Capa 1
 62
     7
420
 16777215
370
    25
100
AcDbVertex
100
AcDb2dVertex
 10
254.8180555049769
 20
-31.88560936744413
 30
0.0
  0
VERTEX
  5
F1
330
EF
100
AcDbEntity
  8
Capa 1
 62
     7
420
 16777215
370
    25
100
AcDbVertex
100
AcDb2dVertex
 10
254.8180555049769
 20
-22.51402774089859
 30
0.0
  0
SEQEND
  5
F2
330
EF
100
AcDbEntity
  8
Capa 1
 62
     7
420
 16777215
370
    25
  0
ENDBLK
  5
EE
330
EB
100
AcDbEntity
  8
0
100
AcDbBlockEnd
  0
BLOCK
  5
F5
330
F3
100
AcDbEntity
  8
0
100
AcDbBlockBegin
  2
block 28
 70
     0
 10
0.0
 20
0.0
 30
0.0
  3
block 28
  1

  0
POLYLINE
  5
F7
330
F3
100
AcDbEntity
  8
Capa 1
 62
     7
420
 16777215
370
    25
100
AcDb2dPolyline
 66
     1
 10
0.0
 20
0.0
 30
0.0
  0
VERTEX
  5
F8
330
F7
100
AcDbEntity
  8
Capa 1
 62
     7
420
 16777215
370
    25
100
AcDbVertex
100
AcDb2dVertex
 10
254.8180555049769
 20
-22.51402774089859
 30
0.0
  0
VERTEX
  5
F9
330
F7
100
AcDbEntity
  8
Capa 1
 62
     7
420
 16777215
370
    25
100
AcDbVertex
100
AcDb2dVertex
 10
179.8180555049762
 20
-22.51402774089859
 30
0.0
  0
SEQEND
  5
FA
330
F7
100
AcDbEntity
  8
Capa 1
 62
     7
420
 16777215
370
    25
  0
ENDBLK
  5
F6
330
F3
100
AcDbEntity
  8
0
100
AcDbBlockEnd
  0
BLOCK
  5
FD
330
FB
100
AcDbEntity
  8
0
100
AcDbBlockBegin
  2
block 29
 70
     0
 10
0.0
 20
0.0
 30
0.0
  3
block 29
  1

  0
POLYLINE
  5
FF
330
FB
100
AcDbEntity
  8
Capa 1
 62
     7
420
 16777215
370
    25
100
AcDb2dPolyline
 66
     1
 10
0.0
 20
0.0
 30
0.0
  0
VERTEX
  5
100
330
FF
100
AcDbEntity
  8
Capa 1
 62
     7
420
 16777215
370
    25
100
AcDbVertex
100
AcDb2dVertex
 10
179.8180555049762
 20
-22.51402774089859
 30
0.0
  0
VERTEX
  5
101
330
FF
100
AcDbEntity
  8
Capa 1
 62
     7
420
 16777215
370
    25
100
AcDbVertex
100
AcDb2dVertex
 10
179.8180555049762
 20
-31.88560936744413
 30
0.0
  0
SEQEND
  5
102
330
FF
100
AcDbEntity
  8
Capa 1
 62
     7
420
 16777215
370
    25
  0
ENDBLK
  5
FE
330
FB
100
AcDbEntity
  8
0
100
AcDbBlockEnd
  0
BLOCK
  5
105
330
103
100
AcDbEntity
  8
0
100
AcDbBlockBegin
  2
block 30
 70
     0
 10
0.0
 20
0.0
 30
0.0
  3
block 30
  1

  0
SPLINE
  5
107
330
103
100
AcDbEntity
  8
Capa 1
 62
     7
420
 16777215
370
    25
100
AcDbSpline
210
0.0
220
0.0
230
1.0
 70
    11
 71
     3
 72
    41
 73
    37
 74
     0
 42
0.0000000001
 43
0.0000000001
 12
1.0
 22
0.0
 32
0.0
 13
1.0
 23
0.0
 33
0.0
 40
0.0
 40
0.0
 40
0.0
 40
0.0
 40
1.0
 40
1.0
 40
1.0
 40
2.0
 40
2.0
 40
2.0
 40
3.0
 40
3.0
 40
3.0
 40
4.0
 40
4.0
 40
4.0
 40
5.0
 40
5.0
 40
5.0
 40
6.0
 40
6.0
 40
6.0
 40
7.0
 40
7.0
 40
7.0
 40
8.0
 40
8.0
 40
8.0
 40
9.0
 40
9.0
 40
9.0
 40
10.0
 40
10.0
 40
10.0
 40
11.0
 40
11.0
 40
11.0
 40
12.0
 40
12.0
 40
12.0
 40
12.0
 10
172.3180555049763
 20
-77.5140277408986
 30
0.0
 10
172.3180555049763
 20
-76.40945824123669
 30
0.0
 10
173.2134860053144
 20
-75.51402774089853
 30
0.0
 10
174.3180555049763
 20
-75.51402774089853
 30
0.0
 10
175.4226250046383
 20
-75.51402774089853
 30
0.0
 10
176.3180555049764
 20
-76.40945824123669
 30
0.0
 10
176.3180555049764
 20
-77.5140277408986
 30
0.0
 10
176.3180555049764
 20
-77.5140277408986
 30
0.0
 10
180.3180555049766
 20
-77.5140277408986
 30
0.0
 10
180.3180555049766
 20
-77.5140277408986
 30
0.0
 10
180.3180555049766
 20
-76.40945824123669
 30
0.0
 10
181.2134860053147
 20
-75.51402774089853
 30
0.0
 10
182.3180555049766
 20
-75.51402774089853
 30
0.0
 10
183.4226250046385
 20
-75.51402774089853
 30
0.0
 10
184.3180555049767
 20
-76.40945824123669
 30
0.0
 10
184.3180555049767
 20
-77.5140277408986
 30
0.0
 10
184.3180555049767
 20
-77.5140277408986
 30
0.0
 10
184.3180555049767
 20
-107.5140277408984
 30
0.0
 10
184.3180555049767
 20
-107.5140277408984
 30
0.0
 10
184.3180555049767
 20
-108.6185972405603
 30
0.0
 10
183.4226250046385
 20
-109.5140277408985
 30
0.0
 10
182.3180555049766
 20
-109.5140277408985
 30
0.0
 10
181.2134860053147
 20
-109.5140277408985
 30
0.0
 10
180.3180555049766
 20
-108.6185972405603
 30
0.0
 10
180.3180555049766
 20
-107.5140277408984
 30
0.0
 10
180.3180555049766
 20
-107.5140277408984
 30
0.0
 10
176.3180555049764
 20
-107.5140277408984
 30
0.0
 10
176.3180555049764
 20
-107.5140277408984
 30
0.0
 10
176.3180555049764
 20
-108.6185972405603
 30
0.0
 10
175.4226250046383
 20
-109.5140277408985
 30
0.0
 10
174.3180555049763
 20
-109.5140277408985
 30
0.0
 10
173.2134860053144
 20
-109.5140277408985
 30
0.0
 10
172.3180555049763
 20
-108.6185972405603
 30
0.0
 10
172.3180555049763
 20
-107.5140277408984
 30
0.0
 10
172.3180555049763
 20
-107.5140277408984
 30
0.0
 10
172.3180555049763
 20
-77.5140277408986
 30
0.0
 10
172.3180555049763
 20
-77.5140277408986
 30
0.0
  0
ENDBLK
  5
106
330
103
100
AcDbEntity
  8
0
100
AcDbBlockEnd
  0
BLOCK
  5
10A
330
108
100
AcDbEntity
  8
0
100
AcDbBlockBegin
  2
block 31
 70
     0
 10
0.0
 20
0.0
 30
0.0
  3
block 31
  1

  0
SPLINE
  5
10C
330
108
100
AcDbEntity
  8
Capa 1
 62
     7
420
 16777215
370
    25
100
AcDbSpline
210
0.0
220
0.0
230
1.0
 70
    11
 71
     3
 72
    41
 73
    37
 74
     0
 42
0.0000000001
 43
0.0000000001
 12
1.0
 22
0.0
 32
0.0
 13
1.0
 23
0.0
 33
0.0
 40
0.0
 40
0.0
 40
0.0
 40
0.0
 40
1.0
 40
1.0
 40
1.0
 40
2.0
 40
2.0
 40
2.0
 40
3.0
 40
3.0
 40
3.0
 40
4.0
 40
4.0
 40
4.0
 40
5.0
 40
5.0
 40
5.0
 40
6.0
 40
6.0
 40
6.0
 40
7.0
 40
7.0
 40
7.0
 40
8.0
 40
8.0
 40
8.0
 40
9.0
 40
9.0
 40
9.0
 40
10.0
 40
10.0
 40
10.0
 40
11.0
 40
11.0
 40
11.0
 40
12.0
 40
12.0
 40
12.0
 40
12.0
 10
176.3180555049764
 20
-217.5140277408984
 30
0.0
 10
176.3180555049764
 20
-218.6185972405603
 30
0.0
 10
175.4226250046383
 20
-219.5140277408985
 30
0.0
 10
174.3180555049763
 20
-219.5140277408985
 30
0.0
 10
173.2134860053144
 20
-219.5140277408985
 30
0.0
 10
172.3180555049763
 20
-218.6185972405603
 30
0.0
 10
172.3180555049763
 20
-217.5140277408984
 30
0.0
 10
172.3180555049763
 20
-217.5140277408984
 30
0.0
 10
172.3180555049763
 20
-187.5140277408986
 30
0.0
 10
172.3180555049763
 20
-187.5140277408986
 30
0.0
 10
172.3180555049763
 20
-186.4094582412367
 30
0.0
 10
173.2134860053144
 20
-185.5140277408986
 30
0.0
 10
174.3180555049763
 20
-185.5140277408986
 30
0.0
 10
175.4226250046383
 20
-185.5140277408986
 30
0.0
 10
176.3180555049764
 20
-186.4094582412367
 30
0.0
 10
176.3180555049764
 20
-187.5140277408986
 30
0.0
 10
176.3180555049764
 20
-187.5140277408986
 30
0.0
 10
180.3180555049766
 20
-187.5140277408986
 30
0.0
 10
180.3180555049766
 20
-187.5140277408986
 30
0.0
 10
180.3180555049766
 20
-186.4094582412367
 30
0.0
 10
181.2134860053147
 20
-185.5140277408986
 30
0.0
 10
182.3180555049766
 20
-185.5140277408986
 30
0.0
 10
183.4226250046385
 20
-185.5140277408986
 30
0.0
 10
184.3180555049767
 20
-186.4094582412367
 30
0.0
 10
184.3180555049767
 20
-187.5140277408986
 30
0.0
 10
184.3180555049767
 20
-187.5140277408986
 30
0.0
 10
184.3180555049767
 20
-217.5140277408984
 30
0.0
 10
184.3180555049767
 20
-217.5140277408984
 30
0.0
 10
184.3180555049767
 20
-218.6185972405603
 30
0.0
 10
183.4226250046385
 20
-219.5140277408985
 30
0.0
 10
182.3180555049766
 20
-219.5140277408985
 30
0.0
 10
181.2134860053147
 20
-219.5140277408985
 30
0.0
 10
180.3180555049766
 20
-218.6185972405603
 30
0.0
 10
180.3180555049766
 20
-217.5140277408984
 30
0.0
 10
180.3180555049766
 20
-217.5140277408984
 30
0.0
 10
176.3180555049764
 20
-217.5140277408984
 30
0.0
 10
176.3180555049764
 20
-217.5140277408984
 30
0.0
  0
ENDBLK
  5
10B
330
108
100
AcDbEntity
  8
0
100
AcDbBlockEnd
  0
BLOCK
  5
10F
330
10D
100
AcDbEntity
  8
0
100
AcDbBlockBegin
  2
block 32
 70
     0
 10
0.0
 20
0.0
 30
0.0
  3
block 32
  1

  0
POLYLINE
  5
111
330
10D
100
AcDbEntity
  8
Capa 1
 62
     7
420
 16777215
370
    25
100
AcDb2dPolyline
 66
     1
 10
0.0
 20
0.0
 30
0.0
  0
VERTEX
  5
112
330
111
100
AcDbEntity
  8
Capa 1
 62
     7
420
 16777215
370
    25
100
AcDbVertex
100
AcDb2dVertex
 10
257.6464913809868
 20
-260.3140277408987
 30
0.0
  0
VERTEX
  5
113
330
111
100
AcDbEntity
  8
Capa 1
 62
     7
420
 16777215
370
    25
100
AcDbVertex
100
AcDb2dVertex
 10
281.9896283802299
 20
-260.3140277408987
 30
0.0
  0
SEQEND
  5
114
330
111
100
AcDbEntity
  8
Capa 1
 62
     7
420
 16777215
370
    25
  0
ENDBLK
  5
110
330
10D
100
AcDbEntity
  8
0
100
AcDbBlockEnd
  0
BLOCK
  5
117
330
115
100
AcDbEntity
  8
0
100
AcDbBlockBegin
  2
block 33
 70
     0
 10
0.0
 20
0.0
 30
0.0
  3
block 33
  1

  0
POLYLINE
  5
119
330
115
100
AcDbEntity
  8
Capa 1
 62
     7
420
 16777215
370
    25
100
AcDb2dPolyline
 66
     1
 10
0.0
 20
0.0
 30
0.0
  0
VERTEX
  5
11A
330
119
100
AcDbEntity
  8
Capa 1
 62
     7
420
 16777215
370
    25
100
AcDbVertex
100
AcDb2dVertex
 10
281.9896283802299
 20
-34.71402774089837
 30
0.0
  0
VERTEX
  5
11B
330
119
100
AcDbEntity
  8
Capa 1
 62
     7
420
 16777215
370
    25
100
AcDbVertex
100
AcDb2dVertex
 10
257.6464913809868
 20
-34.71402774089837
 30
0.0
  0
SEQEND
  5
11C
330
119
100
AcDbEntity
  8
Capa 1
 62
     7
420
 16777215
370
    25
  0
ENDBLK
  5
118
330
115
100
AcDbEntity
  8
0
100
AcDbBlockEnd
  0
BLOCK
  5
11F
330
11D
100
AcDbEntity
  8
0
100
AcDbBlockBegin
  2
block 34
 70
     0
 10
0.0
 20
0.0
 30
0.0
  3
block 34
  1

  0
SPLINE
  5
121
330
11D
100
AcDbEntity
  8
Capa 1
 62
     7
420
 16777215
370
    25
100
AcDbSpline
210
0.0
220
0.0
230
1.0
 70
     8
 71
     3
 72
    11
 73
     7
 74
     0
 42
0.0000000001
 43
0.0000000001
 12
1.0
 22
0.0
 32
0.0
 13
1.0
 23
0.0
 33
0.0
 40
0.0
 40
0.0
 40
0.0
 40
0.0
 40
1.0
 40
1.0
 40
1.0
 40
2.0
 40
2.0
 40
2.0
 40
2.0
 10
408.7646195710226
 20
-34.71402774089837
 30
0.0
 10
409.545665737923
 20
-35.49507874099639
 30
0.0
 10
410.8119956956573
 20
-35.49508265907597
 30
0.0
 10
411.5930466957553
 20
-34.71403649217683
 30
0.0
 10
412.374097695852
 20
-33.93299032527641
 30
0.0
 10
412.3741016139329
 20
-32.66666036754086
 30
0.0
 10
411.5930554470325
 20
-31.88560936744413
 30
0.0
  0
ENDBLK
  5
120
330
11D
100
AcDbEntity
  8
0
100
AcDbBlockEnd
  0
BLOCK
  5
124
330
122
100
AcDbEntity
  8
0
100
AcDbBlockBegin
  2
block 35
 70
     0
 10
0.0
 20
0.0
 30
0.0
  3
block 35
  1

  0
POLYLINE
  5
126
330
122
100
AcDbEntity
  8
Capa 1
 62
     7
420
 16777215
370
    25
100
AcDb2dPolyline
 66
     1
 10
0.0
 20
0.0
 30
0.0
  0
VERTEX
  5
127
330
126
100
AcDbEntity
  8
Capa 1
 62
     7
420
 16777215
370
    25
100
AcDbVertex
100
AcDb2dVertex
 10
408.7646195710226
 20
-34.71402774089837
 30
0.0
  0
VERTEX
  5
128
330
126
100
AcDbEntity
  8
Capa 1
 62
     7
420
 16777215
370
    25
100
AcDbVertex
100
AcDb2dVertex
 10
384.4214825717795
 20
-34.71402774089837
 30
0.0
  0
SEQEND
  5
129
330
126
100
AcDbEntity
  8
Capa 1
 62
     7
420
 16777215
370
    25
  0
ENDBLK
  5
125
330
122
100
AcDbEntity
  8
0
100
AcDbBlockEnd
  0
BLOCK
  5
12C
330
12A
100
AcDbEntity
  8
0
100
AcDbBlockBegin
  2
block 36
 70
     0
 10
0.0
 20
0.0
 30
0.0
  3
block 36
  1

  0
SPLINE
  5
12E
330
12A
100
AcDbEntity
  8
Capa 1
 62
     7
420
 16777215
370
    25
100
AcDbSpline
210
0.0
220
0.0
230
1.0
 70
     8
 71
     3
 72
    11
 73
     7
 74
     0
 42
0.0000000001
 43
0.0000000001
 12
1.0
 22
0.0
 32
0.0
 13
1.0
 23
0.0
 33
0.0
 40
0.0
 40
0.0
 40
0.0
 40
0.0
 40
1.0
 40
1.0
 40
1.0
 40
2.0
 40
2.0
 40
2.0
 40
2.0
 10
381.5930554470327
 20
-31.88560061615284
 30
0.0
 10
380.8120068635309
 20
-32.66664919965462
 30
0.0
 10
380.8120068635309
 20
-33.93297915739659
 30
0.0
 10
381.5930554470327
 20
-34.71402774089837
 30
0.0
 10
382.3741040305358
 20
-35.49507632440145
 30
0.0
 10
383.6404339882765
 20
-35.49507632440145
 30
0.0
 10
384.4214825717795
 20
-34.71402774089837
 30
0.0
  0
ENDBLK
  5
12D
330
12A
100
AcDbEntity
  8
0
100
AcDbBlockEnd
  0
BLOCK
  5
131
330
12F
100
AcDbEntity
  8
0
100
AcDbBlockBegin
  2
block 37
 70
     0
 10
0.0
 20
0.0
 30
0.0
  3
block 37
  1

  0
POLYLINE
  5
133
330
12F
100
AcDbEntity
  8
Capa 1
 62
     7
420
 16777215
370
    25
100
AcDb2dPolyline
 66
     1
 10
0.0
 20
0.0
 30
0.0
  0
VERTEX
  5
134
330
133
100
AcDbEntity
  8
Capa 1
 62
     7
420
 16777215
370
    25
100
AcDbVertex
100
AcDb2dVertex
 10
381.5930554470327
 20
-31.88560061615284
 30
0.0
  0
VERTEX
  5
135
330
133
100
AcDbEntity
  8
Capa 1
 62
     7
420
 16777215
370
    25
100
AcDbVertex
100
AcDb2dVertex
 10
381.5930554470327
 20
-22.51402774089859
 30
0.0
  0
SEQEND
  5
136
330
133
100
AcDbEntity
  8
Capa 1
 62
     7
420
 16777215
370
    25
  0
ENDBLK
  5
132
330
12F
100
AcDbEntity
  8
0
100
AcDbBlockEnd
  0
BLOCK
  5
139
330
137
100
AcDbEntity
  8
0
100
AcDbBlockBegin
  2
block 38
 70
     0
 10
0.0
 20
0.0
 30
0.0
  3
block 38
  1

  0
POLYLINE
  5
13B
330
137
100
AcDbEntity
  8
Capa 1
 62
     7
420
 16777215
370
    25
100
AcDb2dPolyline
 66
     1
 10
0.0
 20
0.0
 30
0.0
  0
VERTEX
  5
13C
330
13B
100
AcDbEntity
  8
Capa 1
 62
     7
420
 16777215
370
    25
100
AcDbVertex
100
AcDb2dVertex
 10
381.5930554470327
 20
-22.51402774089859
 30
0.0
  0
VERTEX
  5
13D
330
13B
100
AcDbEntity
  8
Capa 1
 62
     7
420
 16777215
370
    25
100
AcDbVertex
100
AcDb2dVertex
 10
344.093055447033
 20
-22.51402774089859
 30
0.0
  0
SEQEND
  5
13E
330
13B
100
AcDbEntity
  8
Capa 1
 62
     7
420
 16777215
370
    25
  0
ENDBLK
  5
13A
330
137
100
AcDbEntity
  8
0
100
AcDbBlockEnd
  0
BLOCK
  5
141
330
13F
100
AcDbEntity
  8
0
100
AcDbBlockBegin
  2
block 39
 70
     0
 10
0.0
 20
0.0
 30
0.0
  3
block 39
  1

  0
SPLINE
  5
143
330
13F
100
AcDbEntity
  8
Capa 1
 62
     7
420
 16777215
370
    25
100
AcDbSpline
210
0.0
220
0.0
230
1.0
 70
     8
 71
     3
 72
     8
 73
     4
 74
     0
 42
0.0000000001
 43
0.0000000001
 12
1.0
 22
0.0
 32
0.0
 13
1.0
 23
0.0
 33
0.0
 40
0.0
 40
0.0
 40
0.0
 40
0.0
 40
1.0
 40
1.0
 40
1.0
 40
1.0
 10
344.093055447033
 20
-22.51402774089859
 30
0.0
 10
304.0930554470328
 20
-101.0473610742321
 30
0.0
 10
304.0930554470328
 20
-193.9806944075649
 30
0.0
 10
344.093055447033
 20
-272.5140277408984
 30
0.0
  0
ENDBLK
  5
142
330
13F
100
AcDbEntity
  8
0
100
AcDbBlockEnd
  0
BLOCK
  5
146
330
144
100
AcDbEntity
  8
0
100
AcDbBlockBegin
  2
block 40
 70
     0
 10
0.0
 20
0.0
 30
0.0
  3
block 40
  1

  0
POLYLINE
  5
148
330
144
100
AcDbEntity
  8
Capa 1
 62
     7
420
 16777215
370
    25
100
AcDb2dPolyline
 66
     1
 10
0.0
 20
0.0
 30
0.0
  0
VERTEX
  5
149
330
148
100
AcDbEntity
  8
Capa 1
 62
     7
420
 16777215
370
    25
100
AcDbVertex
100
AcDb2dVertex
 10
344.093055447033
 20
-272.5140277408984
 30
0.0
  0
VERTEX
  5
14A
330
148
100
AcDbEntity
  8
Capa 1
 62
     7
420
 16777215
370
    25
100
AcDbVertex
100
AcDb2dVertex
 10
381.5930554470327
 20
-272.5140277408984
 30
0.0
  0
SEQEND
  5
14B
330
148
100
AcDbEntity
  8
Capa 1
 62
     7
420
 16777215
370
    25
  0
ENDBLK
  5
147
330
144
100
AcDbEntity
  8
0
100
AcDbBlockEnd
  0
BLOCK
  5
14E
330
14C
100
AcDbEntity
  8
0
100
AcDbBlockBegin
  2
block 41
 70
     0
 10
0.0
 20
0.0
 30
0.0
  3
block 41
  1

  0
POLYLINE
  5
150
330
14C
100
AcDbEntity
  8
Capa 1
 62
     7
420
 16777215
370
    25
100
AcDb2dPolyline
 66
     1
 10
0.0
 20
0.0
 30
0.0
  0
VERTEX
  5
151
330
150
100
AcDbEntity
  8
Capa 1
 62
     7
420
 16777215
370
    25
100
AcDbVertex
100
AcDb2dVertex
 10
381.5930554470327
 20
-272.5140277408984
 30
0.0
  0
VERTEX
  5
152
330
150
100
AcDbEntity
  8
Capa 1
 62
     7
420
 16777215
370
    25
100
AcDbVertex
100
AcDb2dVertex
 10
381.5930554470327
 20
-263.1424548656454
 30
0.0
  0
SEQEND
  5
153
330
150
100
AcDbEntity
  8
Capa 1
 62
     7
420
 16777215
370
    25
  0
ENDBLK
  5
14F
330
14C
100
AcDbEntity
  8
0
100
AcDbBlockEnd
  0
BLOCK
  5
156
330
154
100
AcDbEntity
  8
0
100
AcDbBlockBegin
  2
block 42
 70
     0
 10
0.0
 20
0.0
 30
0.0
  3
block 42
  1

  0
SPLINE
  5
158
330
154
100
AcDbEntity
  8
Capa 1
 62
     7
420
 16777215
370
    25
100
AcDbSpline
210
0.0
220
0.0
230
1.0
 70
     8
 71
     3
 72
    11
 73
     7
 74
     0
 42
0.0000000001
 43
0.0000000001
 12
1.0
 22
0.0
 32
0.0
 13
1.0
 23
0.0
 33
0.0
 40
0.0
 40
0.0
 40
0.0
 40
0.0
 40
1.0
 40
1.0
 40
1.0
 40
2.0
 40
2.0
 40
2.0
 40
2.0
 10
384.4214825717795
 20
-260.3140277408987
 30
0.0
 10
383.6404339882765
 20
-259.5329791573956
 30
0.0
 10
382.3741040305358
 20
-259.5329791573956
 30
0.0
 10
381.5930554470327
 20
-260.3140277408987
 30
0.0
 10
380.8120068635309
 20
-261.0950763244017
 30
0.0
 10
380.8120068635296
 20
-262.3614062821424
 30
0.0
 10
381.5930554470327
 20
-263.1424548656454
 30
0.0
  0
ENDBLK
  5
157
330
154
100
AcDbEntity
  8
0
100
AcDbBlockEnd
  0
BLOCK
  5
15B
330
159
100
AcDbEntity
  8
0
100
AcDbBlockBegin
  2
block 43
 70
     0
 10
0.0
 20
0.0
 30
0.0
  3
block 43
  1

  0
POLYLINE
  5
15D
330
159
100
AcDbEntity
  8
Capa 1
 62
     7
420
 16777215
370
    25
100
AcDb2dPolyline
 66
     1
 10
0.0
 20
0.0
 30
0.0
  0
VERTEX
  5
15E
330
15D
100
AcDbEntity
  8
Capa 1
 62
     7
420
 16777215
370
    25
100
AcDbVertex
100
AcDb2dVertex
 10
384.4214825717795
 20
-260.3140277408987
 30
0.0
  0
VERTEX
  5
15F
330
15D
100
AcDbEntity
  8
Capa 1
 62
     7
420
 16777215
370
    25
100
AcDbVertex
100
AcDb2dVertex
 10
408.7646195710226
 20
-260.3140277408987
 30
0.0
  0
SEQEND
  5
160
330
15D
100
AcDbEntity
  8
Capa 1
 62
     7
420
 16777215
370
    25
  0
ENDBLK
  5
15C
330
159
100
AcDbEntity
  8
0
100
AcDbBlockEnd
  0
BLOCK
  5
163
330
161
100
AcDbEntity
  8
0
100
AcDbBlockBegin
  2
block 44
 70
     0
 10
0.0
 20
0.0
 30
0.0
  3
block 44
  1

  0
SPLINE
  5
165
330
161
100
AcDbEntity
  8
Capa 1
 62
     7
420
 16777215
370
    25
100
AcDbSpline
210
0.0
220
0.0
230
1.0
 70
     8
 71
     3
 72
    11
 73
     7
 74
     0
 42
0.0000000001
 43
0.0000000001
 12
1.0
 22
0.0
 32
0.0
 13
1.0
 23
0.0
 33
0.0
 40
0.0
 40
0.0
 40
0.0
 40
0.0
 40
1.0
 40
1.0
 40
1.0
 40
2.0
 40
2.0
 40
2.0
 40
2.0
 10
411.5930554470325
 20
-263.1424461143529
 30
0.0
 10
412.3741016139329
 20
-262.3613951142561
 30
0.0
 10
412.374097695852
 20
-261.0950651565206
 30
0.0
 10
411.5930466957553
 20
-260.3140189896214
 30
0.0
 10
410.8119956956573
 20
-259.532972822721
 30
0.0
 10
409.545665737923
 20
-259.5329767408019
 30
0.0
 10
408.7646195710226
 20
-260.3140277408987
 30
0.0
  0
ENDBLK
  5
164
330
161
100
AcDbEntity
  8
0
100
AcDbBlockEnd
  0
BLOCK
  5
168
330
166
100
AcDbEntity
  8
0
100
AcDbBlockBegin
  2
block 45
 70
     0
 10
0.0
 20
0.0
 30
0.0
  3
block 45
  1

  0
POLYLINE
  5
16A
330
166
100
AcDbEntity
  8
Capa 1
 62
     7
420
 16777215
370
    25
100
AcDb2dPolyline
 66
     1
 10
0.0
 20
0.0
 30
0.0
  0
VERTEX
  5
16B
330
16A
100
AcDbEntity
  8
Capa 1
 62
     7
420
 16777215
370
    25
100
AcDbVertex
100
AcDb2dVertex
 10
411.5930554470325
 20
-263.1424461143542
 30
0.0
  0
VERTEX
  5
16C
330
16A
100
AcDbEntity
  8
Capa 1
 62
     7
420
 16777215
370
    25
100
AcDbVertex
100
AcDb2dVertex
 10
411.5930554470325
 20
-272.5140277408984
 30
0.0
  0
SEQEND
  5
16D
330
16A
100
AcDbEntity
  8
Capa 1
 62
     7
420
 16777215
370
    25
  0
ENDBLK
  5
169
330
166
100
AcDbEntity
  8
0
100
AcDbBlockEnd
  0
BLOCK
  5
170
330
16E
100
AcDbEntity
  8
0
100
AcDbBlockBegin
  2
block 46
 70
     0
 10
0.0
 20
0.0
 30
0.0
  3
block 46
  1

  0
POLYLINE
  5
172
330
16E
100
AcDbEntity
  8
Capa 1
 62
     7
420
 16777215
370
    25
100
AcDb2dPolyline
 66
     1
 10
0.0
 20
0.0
 30
0.0
  0
VERTEX
  5
173
330
172
100
AcDbEntity
  8
Capa 1
 62
     7
420
 16777215
370
    25
100
AcDbVertex
100
AcDb2dVertex
 10
411.5930554470325
 20
-272.5140277408984
 30
0.0
  0
VERTEX
  5
174
330
172
100
AcDbEntity
  8
Capa 1
 62
     7
420
 16777215
370
    25
100
AcDbVertex
100
AcDb2dVertex
 10
486.5930554470332
 20
-272.5140277408984
 30
0.0
  0
SEQEND
  5
175
330
172
100
AcDbEntity
  8
Capa 1
 62
     7
420
 16777215
370
    25
  0
ENDBLK
  5
171
330
16E
100
AcDbEntity
  8
0
100
AcDbBlockEnd
  0
BLOCK
  5
178
330
176
100
AcDbEntity
  8
0
100
AcDbBlockBegin
  2
block 47
 70
     0
 10
0.0
 20
0.0
 30
0.0
  3
block 47
  1

  0
POLYLINE
  5
17A
330
176
100
AcDbEntity
  8
Capa 1
 62
     7
420
 16777215
370
    25
100
AcDb2dPolyline
 66
     1
 10
0.0
 20
0.0
 30
0.0
  0
VERTEX
  5
17B
330
17A
100
AcDbEntity
  8
Capa 1
 62
     7
420
 16777215
370
    25
100
AcDbVertex
100
AcDb2dVertex
 10
486.5930554470332
 20
-272.5140277408984
 30
0.0
  0
VERTEX
  5
17C
330
17A
100
AcDbEntity
  8
Capa 1
 62
     7
420
 16777215
370
    25
100
AcDbVertex
100
AcDb2dVertex
 10
486.5930554470332
 20
-263.1424461143542
 30
0.0
  0
SEQEND
  5
17D
330
17A
100
AcDbEntity
  8
Capa 1
 62
     7
420
 16777215
370
    25
  0
ENDBLK
  5
179
330
176
100
AcDbEntity
  8
0
100
AcDbBlockEnd
  0
BLOCK
  5
180
330
17E
100
AcDbEntity
  8
0
100
AcDbBlockBegin
  2
block 48
 70
     0
 10
0.0
 20
0.0
 30
0.0
  3
block 48
  1

  0
SPLINE
  5
182
330
17E
100
AcDbEntity
  8
Capa 1
 62
     7
420
 16777215
370
    25
100
AcDbSpline
210
0.0
220
0.0
230
1.0
 70
     8
 71
     3
 72
    11
 73
     7
 74
     0
 42
0.0000000001
 43
0.0000000001
 12
1.0
 22
0.0
 32
0.0
 13
1.0
 23
0.0
 33
0.0
 40
0.0
 40
0.0
 40
0.0
 40
0.0
 40
1.0
 40
1.0
 40
1.0
 40
2.0
 40
2.0
 40
2.0
 40
2.0
 10
489.4214913230431
 20
-260.3140277408987
 30
0.0
 10
488.6404451561427
 20
-259.5329767408019
 30
0.0
 10
487.3741151984084
 20
-259.532972822721
 30
0.0
 10
486.5930641983104
 20
-260.3140189896214
 30
0.0
 10
485.8120131982137
 20
-261.0950651565219
 30
0.0
 10
485.8120092801328
 20
-262.3613951142561
 30
0.0
 10
486.5930554470332
 20
-263.1424461143542
 30
0.0
  0
ENDBLK
  5
181
330
17E
100
AcDbEntity
  8
0
100
AcDbBlockEnd
  0
BLOCK
  5
185
330
183
100
AcDbEntity
  8
0
100
AcDbBlockBegin
  2
block 49
 70
     0
 10
0.0
 20
0.0
 30
0.0
  3
block 49
  1

  0
SPLINE
  5
187
330
183
100
AcDbEntity
  8
Capa 1
 62
     7
420
 16777215
370
    25
100
AcDbSpline
210
0.0
220
0.0
230
1.0
 70
     8
 71
     3
 72
    11
 73
     7
 74
     0
 42
0.0000000001
 43
0.0000000001
 12
1.0
 22
0.0
 32
0.0
 13
1.0
 23
0.0
 33
0.0
 40
0.0
 40
0.0
 40
0.0
 40
0.0
 40
1.0
 40
1.0
 40
1.0
 40
2.0
 40
2.0
 40
2.0
 40
2.0
 10
516.593055447033
 20
-263.1424548656454
 30
0.0
 10
517.3741040305348
 20
-262.3614062821424
 30
0.0
 10
517.3741040305348
 20
-261.0950763244017
 30
0.0
 10
516.593055447033
 20
-260.3140277408987
 30
0.0
 10
515.8120068635299
 20
-259.5329791573969
 30
0.0
 10
514.5456769057893
 20
-259.5329791573969
 30
0.0
 10
513.7646283222862
 20
-260.3140277408987
 30
0.0
  0
ENDBLK
  5
186
330
183
100
AcDbEntity
  8
0
100
AcDbBlockEnd
  0
BLOCK
  5
18A
330
188
100
AcDbEntity
  8
0
100
AcDbBlockBegin
  2
block 50
 70
     0
 10
0.0
 20
0.0
 30
0.0
  3
block 50
  1

  0
POLYLINE
  5
18C
330
188
100
AcDbEntity
  8
Capa 1
 62
     7
420
 16777215
370
    25
100
AcDb2dPolyline
 66
     1
 10
0.0
 20
0.0
 30
0.0
  0
VERTEX
  5
18D
330
18C
100
AcDbEntity
  8
Capa 1
 62
     7
420
 16777215
370
    25
100
AcDbVertex
100
AcDb2dVertex
 10
516.593055447033
 20
-263.1424548656454
 30
0.0
  0
VERTEX
  5
18E
330
18C
100
AcDbEntity
  8
Capa 1
 62
     7
420
 16777215
370
    25
100
AcDbVertex
100
AcDb2dVertex
 10
516.593055447033
 20
-272.5140277408984
 30
0.0
  0
SEQEND
  5
18F
330
18C
100
AcDbEntity
  8
Capa 1
 62
     7
420
 16777215
370
    25
  0
ENDBLK
  5
18B
330
188
100
AcDbEntity
  8
0
100
AcDbBlockEnd
  0
BLOCK
  5
192
330
190
100
AcDbEntity
  8
0
100
AcDbBlockBegin
  2
block 51
 70
     0
 10
0.0
 20
0.0
 30
0.0
  3
block 51
  1

  0
POLYLINE
  5
194
330
190
100
AcDbEntity
  8
Capa 1
 62
     7
420
 16777215
370
    25
100
AcDb2dPolyline
 66
     1
 10
0.0
 20
0.0
 30
0.0
  0
VERTEX
  5
195
330
194
100
AcDbEntity
  8
Capa 1
 62
     7
420
 16777215
370
    25
100
AcDbVertex
100
AcDb2dVertex
 10
516.593055447033
 20
-272.5140277408984
 30
0.0
  0
VERTEX
  5
196
330
194
100
AcDbEntity
  8
Capa 1
 62
     7
420
 16777215
370
    25
100
AcDbVertex
100
AcDb2dVertex
 10
554.0930554470327
 20
-272.5140277408984
 30
0.0
  0
SEQEND
  5
197
330
194
100
AcDbEntity
  8
Capa 1
 62
     7
420
 16777215
370
    25
  0
ENDBLK
  5
193
330
190
100
AcDbEntity
  8
0
100
AcDbBlockEnd
  0
BLOCK
  5
19A
330
198
100
AcDbEntity
  8
0
100
AcDbBlockBegin
  2
block 52
 70
     0
 10
0.0
 20
0.0
 30
0.0
  3
block 52
  1

  0
POLYLINE
  5
19C
330
198
100
AcDbEntity
  8
Capa 1
 62
     7
420
 16777215
370
    25
100
AcDb2dPolyline
 66
     1
 10
0.0
 20
0.0
 30
0.0
  0
VERTEX
  5
19D
330
19C
100
AcDbEntity
  8
Capa 1
 62
     7
420
 16777215
370
    25
100
AcDbVertex
100
AcDb2dVertex
 10
554.0930554470327
 20
-272.5140277408984
 30
0.0
  0
VERTEX
  5
19E
330
19C
100
AcDbEntity
  8
Capa 1
 62
     7
420
 16777215
370
    25
100
AcDbVertex
100
AcDb2dVertex
 10
554.0930554470327
 20
-262.5140277408981
 30
0.0
  0
SEQEND
  5
19F
330
19C
100
AcDbEntity
  8
Capa 1
 62
     7
420
 16777215
370
    25
  0
ENDBLK
  5
19B
330
198
100
AcDbEntity
  8
0
100
AcDbBlockEnd
  0
BLOCK
  5
1A2
330
1A0
100
AcDbEntity
  8
0
100
AcDbBlockBegin
  2
block 53
 70
     0
 10
0.0
 20
0.0
 30
0.0
  3
block 53
  1

  0
SPLINE
  5
1A4
330
1A0
100
AcDbEntity
  8
Capa 1
 62
     7
420
 16777215
370
    25
100
AcDbSpline
210
0.0
220
0.0
230
1.0
 70
     8
 71
     3
 72
     8
 73
     4
 74
     0
 42
0.0000000001
 43
0.0000000001
 12
1.0
 22
0.0
 32
0.0
 13
1.0
 23
0.0
 33
0.0
 40
0.0
 40
0.0
 40
0.0
 40
0.0
 40
1.0
 40
1.0
 40
1.0
 40
1.0
 10
554.0930554470327
 20
-32.51402774089894
 30
0.0
 10
520.5488957072365
 20
-105.5115292358848
 30
0.0
 10
520.5488957072365
 20
-189.5165262459135
 30
0.0
 10
554.0930554470327
 20
-262.5140277408993
 30
0.0
  0
ENDBLK
  5
1A3
330
1A0
100
AcDbEntity
  8
0
100
AcDbBlockEnd
  0
BLOCK
  5
1A7
330
1A5
100
AcDbEntity
  8
0
100
AcDbBlockBegin
  2
block 54
 70
     0
 10
0.0
 20
0.0
 30
0.0
  3
block 54
  1

  0
POLYLINE
  5
1A9
330
1A5
100
AcDbEntity
  8
Capa 1
 62
     7
420
 16777215
370
    25
100
AcDb2dPolyline
 66
     1
 10
0.0
 20
0.0
 30
0.0
  0
VERTEX
  5
1AA
330
1A9
100
AcDbEntity
  8
Capa 1
 62
     7
420
 16777215
370
    25
100
AcDbVertex
100
AcDb2dVertex
 10
554.0930554470327
 20
-32.51402774089894
 30
0.0
  0
VERTEX
  5
1AB
330
1A9
100
AcDbEntity
  8
Capa 1
 62
     7
420
 16777215
370
    25
100
AcDbVertex
100
AcDb2dVertex
 10
554.0930554470327
 20
-22.51402774089859
 30
0.0
  0
SEQEND
  5
1AC
330
1A9
100
AcDbEntity
  8
Capa 1
 62
     7
420
 16777215
370
    25
  0
ENDBLK
  5
1A8
330
1A5
100
AcDbEntity
  8
0
100
AcDbBlockEnd
  0
BLOCK
  5
1AF
330
1AD
100
AcDbEntity
  8
0
100
AcDbBlockBegin
  2
block 55
 70
     0
 10
0.0
 20
0.0
 30
0.0
  3
block 55
  1

  0
POLYLINE
  5
1B1
330
1AD
100
AcDbEntity
  8
Capa 1
 62
     7
420
 16777215
370
    25
100
AcDb2dPolyline
 66
     1
 10
0.0
 20
0.0
 30
0.0
  0
VERTEX
  5
1B2
330
1B1
100
AcDbEntity
  8
Capa 1
 62
     7
420
 16777215
370
    25
100
AcDbVertex
100
AcDb2dVertex
 10
554.0930554470327
 20
-22.51402774089859
 30
0.0
  0
VERTEX
  5
1B3
330
1B1
100
AcDbEntity
  8
Capa 1
 62
     7
420
 16777215
370
    25
100
AcDbVertex
100
AcDb2dVertex
 10
516.593055447033
 20
-22.51402774089859
 30
0.0
  0
SEQEND
  5
1B4
330
1B1
100
AcDbEntity
  8
Capa 1
 62
     7
420
 16777215
370
    25
  0
ENDBLK
  5
1B0
330
1AD
100
AcDbEntity
  8
0
100
AcDbBlockEnd
  0
BLOCK
  5
1B7
330
1B5
100
AcDbEntity
  8
0
100
AcDbBlockBegin
  2
block 56
 70
     0
 10
0.0
 20
0.0
 30
0.0
  3
block 56
  1

  0
POLYLINE
  5
1B9
330
1B5
100
AcDbEntity
  8
Capa 1
 62
     7
420
 16777215
370
    25
100
AcDb2dPolyline
 66
     1
 10
0.0
 20
0.0
 30
0.0
  0
VERTEX
  5
1BA
330
1B9
100
AcDbEntity
  8
Capa 1
 62
     7
420
 16777215
370
    25
100
AcDbVertex
100
AcDb2dVertex
 10
516.593055447033
 20
-22.51402774089859
 30
0.0
  0
VERTEX
  5
1BB
330
1B9
100
AcDbEntity
  8
Capa 1
 62
     7
420
 16777215
370
    25
100
AcDbVertex
100
AcDb2dVertex
 10
516.593055447033
 20
-31.88560061615284
 30
0.0
  0
SEQEND
  5
1BC
330
1B9
100
AcDbEntity
  8
Capa 1
 62
     7
420
 16777215
370
    25
  0
ENDBLK
  5
1B8
330
1B5
100
AcDbEntity
  8
0
100
AcDbBlockEnd
  0
BLOCK
  5
1BF
330
1BD
100
AcDbEntity
  8
0
100
AcDbBlockBegin
  2
block 57
 70
     0
 10
0.0
 20
0.0
 30
0.0
  3
block 57
  1

  0
SPLINE
  5
1C1
330
1BD
100
AcDbEntity
  8
Capa 1
 62
     7
420
 16777215
370
    25
100
AcDbSpline
210
0.0
220
0.0
230
1.0
 70
     8
 71
     3
 72
    11
 73
     7
 74
     0
 42
0.0000000001
 43
0.0000000001
 12
1.0
 22
0.0
 32
0.0
 13
1.0
 23
0.0
 33
0.0
 40
0.0
 40
0.0
 40
0.0
 40
0.0
 40
1.0
 40
1.0
 40
1.0
 40
2.0
 40
2.0
 40
2.0
 40
2.0
 10
513.7646283222862
 20
-34.71402774089837
 30
0.0
 10
514.5456769057893
 20
-35.49507632440145
 30
0.0
 10
515.8120068635299
 20
-35.49507632440145
 30
0.0
 10
516.593055447033
 20
-34.71402774089837
 30
0.0
 10
517.3741040305348
 20
-33.93297915739531
 30
0.0
 10
517.3741040305348
 20
-32.66664919965462
 30
0.0
 10
516.593055447033
 20
-31.88560061615284
 30
0.0
  0
ENDBLK
  5
1C0
330
1BD
100
AcDbEntity
  8
0
100
AcDbBlockEnd
  0
BLOCK
  5
1C4
330
1C2
100
AcDbEntity
  8
0
100
AcDbBlockBegin
  2
block 58
 70
     0
 10
0.0
 20
0.0
 30
0.0
  3
block 58
  1

  0
SPLINE
  5
1C6
330
1C2
100
AcDbEntity
  8
Capa 1
 62
     7
420
 16777215
370
    25
100
AcDbSpline
210
0.0
220
0.0
230
1.0
 70
     8
 71
     3
 72
    11
 73
     7
 74
     0
 42
0.0000000001
 43
0.0000000001
 12
1.0
 22
0.0
 32
0.0
 13
1.0
 23
0.0
 33
0.0
 40
0.0
 40
0.0
 40
0.0
 40
0.0
 40
1.0
 40
1.0
 40
1.0
 40
2.0
 40
2.0
 40
2.0
 40
2.0
 10
486.5930554470332
 20
-31.88560936744413
 30
0.0
 10
485.8120092801328
 20
-32.66666036754086
 30
0.0
 10
485.8120131982137
 20
-33.93299032527641
 30
0.0
 10
486.5930641983104
 20
-34.71403649217683
 30
0.0
 10
487.3741151984084
 20
-35.49508265907597
 30
0.0
 10
488.6404451561427
 20
-35.49507874099639
 30
0.0
 10
489.4214913230431
 20
-34.71402774089837
 30
0.0
  0
ENDBLK
  5
1C5
330
1C2
100
AcDbEntity
  8
0
100
AcDbBlockEnd
  0
BLOCK
  5
1C9
330
1C7
100
AcDbEntity
  8
0
100
AcDbBlockBegin
  2
block 59
 70
     0
 10
0.0
 20
0.0
 30
0.0
  3
block 59
  1

  0
POLYLINE
  5
1CB
330
1C7
100
AcDbEntity
  8
Capa 1
 62
     7
420
 16777215
370
    25
100
AcDb2dPolyline
 66
     1
 10
0.0
 20
0.0
 30
0.0
  0
VERTEX
  5
1CC
330
1CB
100
AcDbEntity
  8
Capa 1
 62
     7
420
 16777215
370
    25
100
AcDbVertex
100
AcDb2dVertex
 10
486.5930554470332
 20
-31.88560936744413
 30
0.0
  0
VERTEX
  5
1CD
330
1CB
100
AcDbEntity
  8
Capa 1
 62
     7
420
 16777215
370
    25
100
AcDbVertex
100
AcDb2dVertex
 10
486.5930554470332
 20
-22.51402774089859
 30
0.0
  0
SEQEND
  5
1CE
330
1CB
100
AcDbEntity
  8
Capa 1
 62
     7
420
 16777215
370
    25
  0
ENDBLK
  5
1CA
330
1C7
100
AcDbEntity
  8
0
100
AcDbBlockEnd
  0
BLOCK
  5
1D1
330
1CF
100
AcDbEntity
  8
0
100
AcDbBlockBegin
  2
block 60
 70
     0
 10
0.0
 20
0.0
 30
0.0
  3
block 60
  1

  0
POLYLINE
  5
1D3
330
1CF
100
AcDbEntity
  8
Capa 1
 62
     7
420
 16777215
370
    25
100
AcDb2dPolyline
 66
     1
 10
0.0
 20
0.0
 30
0.0
  0
VERTEX
  5
1D4
330
1D3
100
AcDbEntity
  8
Capa 1
 62
     7
420
 16777215
370
    25
100
AcDbVertex
100
AcDb2dVertex
 10
486.5930554470332
 20
-22.51402774089859
 30
0.0
  0
VERTEX
  5
1D5
330
1D3
100
AcDbEntity
  8
Capa 1
 62
     7
420
 16777215
370
    25
100
AcDbVertex
100
AcDb2dVertex
 10
411.5930554470325
 20
-22.51402774089859
 30
0.0
  0
SEQEND
  5
1D6
330
1D3
100
AcDbEntity
  8
Capa 1
 62
     7
420
 16777215
370
    25
  0
ENDBLK
  5
1D2
330
1CF
100
AcDbEntity
  8
0
100
AcDbBlockEnd
  0
BLOCK
  5
1D9
330
1D7
100
AcDbEntity
  8
0
100
AcDbBlockBegin
  2
block 61
 70
     0
 10
0.0
 20
0.0
 30
0.0
  3
block 61
  1

  0
POLYLINE
  5
1DB
330
1D7
100
AcDbEntity
  8
Capa 1
 62
     7
420
 16777215
370
    25
100
AcDb2dPolyline
 66
     1
 10
0.0
 20
0.0
 30
0.0
  0
VERTEX
  5
1DC
330
1DB
100
AcDbEntity
  8
Capa 1
 62
     7
420
 16777215
370
    25
100
AcDbVertex
100
AcDb2dVertex
 10
411.5930554470325
 20
-22.51402774089859
 30
0.0
  0
VERTEX
  5
1DD
330
1DB
100
AcDbEntity
  8
Capa 1
 62
     7
420
 16777215
370
    25
100
AcDbVertex
100
AcDb2dVertex
 10
411.5930554470325
 20
-31.88560936744413
 30
0.0
  0
SEQEND
  5
1DE
330
1DB
100
AcDbEntity
  8
Capa 1
 62
     7
420
 16777215
370
    25
  0
ENDBLK
  5
1DA
330
1D7
100
AcDbEntity
  8
0
100
AcDbBlockEnd
  0
BLOCK
  5
1E1
330
1DF
100
AcDbEntity
  8
0
100
AcDbBlockBegin
  2
block 62
 70
     0
 10
0.0
 20
0.0
 30
0.0
  3
block 62
  1

  0
SPLINE
  5
1E3
330
1DF
100
AcDbEntity
  8
Capa 1
 62
     7
420
 16777215
370
    25
100
AcDbSpline
210
0.0
220
0.0
230
1.0
 70
    11
 71
     3
 72
    41
 73
    37
 74
     0
 42
0.0000000001
 43
0.0000000001
 12
1.0
 22
0.0
 32
0.0
 13
1.0
 23
0.0
 33
0.0
 40
0.0
 40
0.0
 40
0.0
 40
0.0
 40
1.0
 40
1.0
 40
1.0
 40
2.0
 40
2.0
 40
2.0
 40
3.0
 40
3.0
 40
3.0
 40
4.0
 40
4.0
 40
4.0
 40
5.0
 40
5.0
 40
5.0
 40
6.0
 40
6.0
 40
6.0
 40
7.0
 40
7.0
 40
7.0
 40
8.0
 40
8.0
 40
8.0
 40
9.0
 40
9.0
 40
9.0
 40
10.0
 40
10.0
 40
10.0
 40
11.0
 40
11.0
 40
11.0
 40
12.0
 40
12.0
 40
12.0
 40
12.0
 10
404.0930554470326
 20
-77.5140277408986
 30
0.0
 10
404.0930554470326
 20
-76.40945824123669
 30
0.0
 10
404.9884859473707
 20
-75.51402774089853
 30
0.0
 10
406.0930554470326
 20
-75.51402774089853
 30
0.0
 10
407.1976249466945
 20
-75.51402774089853
 30
0.0
 10
408.0930554470327
 20
-76.40945824123669
 30
0.0
 10
408.0930554470327
 20
-77.5140277408986
 30
0.0
 10
408.0930554470327
 20
-77.5140277408986
 30
0.0
 10
412.0930554470328
 20
-77.5140277408986
 30
0.0
 10
412.0930554470328
 20
-77.5140277408986
 30
0.0
 10
412.0930554470328
 20
-76.40945824123669
 30
0.0
 10
412.988485947371
 20
-75.51402774089853
 30
0.0
 10
414.0930554470329
 20
-75.51402774089853
 30
0.0
 10
415.1976249466948
 20
-75.51402774089853
 30
0.0
 10
416.093055447033
 20
-76.40945824123669
 30
0.0
 10
416.093055447033
 20
-77.5140277408986
 30
0.0
 10
416.093055447033
 20
-77.5140277408986
 30
0.0
 10
416.093055447033
 20
-107.5140277408984
 30
0.0
 10
416.093055447033
 20
-107.5140277408984
 30
0.0
 10
416.093055447033
 20
-108.6185972405603
 30
0.0
 10
415.1976249466948
 20
-109.5140277408985
 30
0.0
 10
414.0930554470329
 20
-109.5140277408985
 30
0.0
 10
412.988485947371
 20
-109.5140277408985
 30
0.0
 10
412.0930554470328
 20
-108.6185972405603
 30
0.0
 10
412.0930554470328
 20
-107.5140277408984
 30
0.0
 10
412.0930554470328
 20
-107.5140277408984
 30
0.0
 10
408.0930554470327
 20
-107.5140277408984
 30
0.0
 10
408.0930554470327
 20
-107.5140277408984
 30
0.0
 10
408.0930554470327
 20
-108.6185972405603
 30
0.0
 10
407.1976249466945
 20
-109.5140277408985
 30
0.0
 10
406.0930554470326
 20
-109.5140277408985
 30
0.0
 10
404.9884859473707
 20
-109.5140277408985
 30
0.0
 10
404.0930554470326
 20
-108.6185972405603
 30
0.0
 10
404.0930554470326
 20
-107.5140277408984
 30
0.0
 10
404.0930554470326
 20
-107.5140277408984
 30
0.0
 10
404.0930554470326
 20
-77.5140277408986
 30
0.0
 10
404.0930554470326
 20
-77.5140277408986
 30
0.0
  0
ENDBLK
  5
1E2
330
1DF
100
AcDbEntity
  8
0
100
AcDbBlockEnd
  0
BLOCK
  5
1E6
330
1E4
100
AcDbEntity
  8
0
100
AcDbBlockBegin
  2
block 63
 70
     0
 10
0.0
 20
0.0
 30
0.0
  3
block 63
  1

  0
SPLINE
  5
1E8
330
1E4
100
AcDbEntity
  8
Capa 1
 62
     7
420
 16777215
370
    25
100
AcDbSpline
210
0.0
220
0.0
230
1.0
 70
    11
 71
     3
 72
    41
 73
    37
 74
     0
 42
0.0000000001
 43
0.0000000001
 12
1.0
 22
0.0
 32
0.0
 13
1.0
 23
0.0
 33
0.0
 40
0.0
 40
0.0
 40
0.0
 40
0.0
 40
1.0
 40
1.0
 40
1.0
 40
2.0
 40
2.0
 40
2.0
 40
3.0
 40
3.0
 40
3.0
 40
4.0
 40
4.0
 40
4.0
 40
5.0
 40
5.0
 40
5.0
 40
6.0
 40
6.0
 40
6.0
 40
7.0
 40
7.0
 40
7.0
 40
8.0
 40
8.0
 40
8.0
 40
9.0
 40
9.0
 40
9.0
 40
10.0
 40
10.0
 40
10.0
 40
11.0
 40
11.0
 40
11.0
 40
12.0
 40
12.0
 40
12.0
 40
12.0
 10
408.0930554470327
 20
-217.5140277408984
 30
0.0
 10
408.0930554470327
 20
-218.6185972405603
 30
0.0
 10
407.1976249466945
 20
-219.5140277408985
 30
0.0
 10
406.0930554470326
 20
-219.5140277408985
 30
0.0
 10
404.9884859473707
 20
-219.5140277408985
 30
0.0
 10
404.0930554470326
 20
-218.6185972405603
 30
0.0
 10
404.0930554470326
 20
-217.5140277408984
 30
0.0
 10
404.0930554470326
 20
-217.5140277408984
 30
0.0
 10
404.0930554470326
 20
-187.5140277408986
 30
0.0
 10
404.0930554470326
 20
-187.5140277408986
 30
0.0
 10
404.0930554470326
 20
-186.4094582412367
 30
0.0
 10
404.9884859473707
 20
-185.5140277408986
 30
0.0
 10
406.0930554470326
 20
-185.5140277408986
 30
0.0
 10
407.1976249466945
 20
-185.5140277408986
 30
0.0
 10
408.0930554470327
 20
-186.4094582412367
 30
0.0
 10
408.0930554470327
 20
-187.5140277408986
 30
0.0
 10
408.0930554470327
 20
-187.5140277408986
 30
0.0
 10
412.0930554470328
 20
-187.5140277408986
 30
0.0
 10
412.0930554470328
 20
-187.5140277408986
 30
0.0
 10
412.0930554470328
 20
-186.4094582412367
 30
0.0
 10
412.988485947371
 20
-185.5140277408986
 30
0.0
 10
414.0930554470329
 20
-185.5140277408986
 30
0.0
 10
415.1976249466948
 20
-185.5140277408986
 30
0.0
 10
416.093055447033
 20
-186.4094582412367
 30
0.0
 10
416.093055447033
 20
-187.5140277408986
 30
0.0
 10
416.093055447033
 20
-187.5140277408986
 30
0.0
 10
416.093055447033
 20
-217.5140277408984
 30
0.0
 10
416.093055447033
 20
-217.5140277408984
 30
0.0
 10
416.093055447033
 20
-218.6185972405603
 30
0.0
 10
415.1976249466948
 20
-219.5140277408985
 30
0.0
 10
414.0930554470329
 20
-219.5140277408985
 30
0.0
 10
412.988485947371
 20
-219.5140277408985
 30
0.0
 10
412.0930554470328
 20
-218.6185972405603
 30
0.0
 10
412.0930554470328
 20
-217.5140277408984
 30
0.0
 10
412.0930554470328
 20
-217.5140277408984
 30
0.0
 10
408.0930554470327
 20
-217.5140277408984
 30
0.0
 10
408.0930554470327
 20
-217.5140277408984
 30
0.0
  0
ENDBLK
  5
1E7
330
1E4
100
AcDbEntity
  8
0
100
AcDbBlockEnd
  0
BLOCK
  5
1EB
330
1E9
100
AcDbEntity
  8
0
100
AcDbBlockBegin
  2
block 64
 70
     0
 10
0.0
 20
0.0
 30
0.0
  3
block 64
  1

  0
POLYLINE
  5
1ED
330
1E9
100
AcDbEntity
  8
Capa 1
 62
     7
420
 16777215
370
    25
100
AcDb2dPolyline
 66
     1
 10
0.0
 20
0.0
 30
0.0
  0
VERTEX
  5
1EE
330
1ED
100
AcDbEntity
  8
Capa 1
 62
     7
420
 16777215
370
    25
100
AcDbVertex
100
AcDb2dVertex
 10
489.4214913230431
 20
-260.3140277408987
 30
0.0
  0
VERTEX
  5
1EF
330
1ED
100
AcDbEntity
  8
Capa 1
 62
     7
420
 16777215
370
    25
100
AcDbVertex
100
AcDb2dVertex
 10
513.7646283222862
 20
-260.3140277408987
 30
0.0
  0
SEQEND
  5
1F0
330
1ED
100
AcDbEntity
  8
Capa 1
 62
     7
420
 16777215
370
    25
  0
ENDBLK
  5
1EC
330
1E9
100
AcDbEntity
  8
0
100
AcDbBlockEnd
  0
BLOCK
  5
1F3
330
1F1
100
AcDbEntity
  8
0
100
AcDbBlockBegin
  2
block 65
 70
     0
 10
0.0
 20
0.0
 30
0.0
  3
block 65
  1

  0
POLYLINE
  5
1F5
330
1F1
100
AcDbEntity
  8
Capa 1
 62
     7
420
 16777215
370
    25
100
AcDb2dPolyline
 66
     1
 10
0.0
 20
0.0
 30
0.0
  0
VERTEX
  5
1F6
330
1F5
100
AcDbEntity
  8
Capa 1
 62
     7
420
 16777215
370
    25
100
AcDbVertex
100
AcDb2dVertex
 10
513.7646283222862
 20
-34.71402774089837
 30
0.0
  0
VERTEX
  5
1F7
330
1F5
100
AcDbEntity
  8
Capa 1
 62
     7
420
 16777215
370
    25
100
AcDbVertex
100
AcDb2dVertex
 10
489.4214913230431
 20
-34.71402774089837
 30
0.0
  0
SEQEND
  5
1F8
330
1F5
100
AcDbEntity
  8
Capa 1
 62
     7
420
 16777215
370
    25
  0
ENDBLK
  5
1F4
330
1F1
100
AcDbEntity
  8
0
100
AcDbBlockEnd
  0
BLOCK
  5
1FB
330
1F9
100
AcDbEntity
  8
0
100
AcDbBlockBegin
  2
block 66
 70
     0
 10
0.0
 20
0.0
 30
0.0
  3
block 66
  1

  0
SPLINE
  5
1FD
330
1F9
100
AcDbEntity
  8
Capa 1
 62
     7
420
 16777215
370
    25
100
AcDbSpline
210
0.0
220
0.0
230
1.0
 70
    11
 71
     3
 72
   122
 73
   118
 74
     0
 42
0.0000000001
 43
0.0000000001
 12
1.0
 22
0.0
 32
0.0
 13
1.0
 23
0.0
 33
0.0
 40
0.0
 40
0.0
 40
0.0
 40
0.0
 40
1.0
 40
1.0
 40
1.0
 40
2.0
 40
2.0
 40
2.0
 40
3.0
 40
3.0
 40
3.0
 40
4.0
 40
4.0
 40
4.0
 40
5.0
 40
5.0
 40
5.0
 40
6.0
 40
6.0
 40
6.0
 40
7.0
 40
7.0
 40
7.0
 40
8.0
 40
8.0
 40
8.0
 40
9.0
 40
9.0
 40
9.0
 40
10.0
 40
10.0
 40
10.0
 40
11.0
 40
11.0
 40
11.0
 40
12.0
 40
12.0
 40
12.0
 40
13.0
 40
13.0
 40
13.0
 40
14.0
 40
14.0
 40
14.0
 40
15.0
 40
15.0
 40
15.0
 40
16.0
 40
16.0
 40
16.0
 40
17.0
 40
17.0
 40
17.0
 40
18.0
 40
18.0
 40
18.0
 40
19.0
 40
19.0
 40
19.0
 40
20.0
 40
20.0
 40
20.0
 40
21.0
 40
21.0
 40
21.0
 40
22.0
 40
22.0
 40
22.0
 40
23.0
 40
23.0
 40
23.0
 40
24.0
 40
24.0
 40
24.0
 40
25.0
 40
25.0
 40
25.0
 40
26.0
 40
26.0
 40
26.0
 40
27.0
 40
27.0
 40
27.0
 40
28.0
 40
28.0
 40
28.0
 40
29.0
 40
29.0
 40
29.0
 40
30.0
 40
30.0
 40
30.0
 40
31.0
 40
31.0
 40
31.0
 40
32.0
 40
32.0
 40
32.0
 40
33.0
 40
33.0
 40
33.0
 40
34.0
 40
34.0
 40
34.0
 40
35.0
 40
35.0
 40
35.0
 40
36.0
 40
36.0
 40
36.0
 40
37.0
 40
37.0
 40
37.0
 40
38.0
 40
38.0
 40
38.0
 40
39.0
 40
39.0
 40
39.0
 40
39.0
 10
938.6874998122803
 20
-359.4045994985987
 30
0.0
 10
937.906451228776
 20
-358.6235509150982
 30
0.0
 10
937.9064512287728
 20
-357.3572209573575
 30
0.0
 10
938.6874998122732
 20
-356.5761723738531
 30
0.0
 10
939.4685483957737
 20
-355.7951237903482
 30
0.0
 10
940.7348783535151
 20
-355.7951237903449
 30
0.0
 10
941.5159269370195
 20
-356.5761723738455
 30
0.0
 10
941.5159269370195
 20
-356.5761723738455
 30
0.0
 10
950.8874998122782
 20
-356.5761723738455
 30
0.0
 10
950.8874998122782
 20
-356.5761723738455
 30
0.0
 10
950.8874998122782
 20
-356.5761723738455
 30
0.0
 10
950.8874998122782
 20
-326.5761723738457
 30
0.0
 10
950.8874998122782
 20
-326.5761723738457
 30
0.0
 10
950.8874998122782
 20
-326.5761723738457
 30
0.0
 10
941.5159269370195
 20
-326.5761723738495
 30
0.0
 10
941.5159269370195
 20
-326.5761723738495
 30
0.0
 10
940.7348783208032
 20
-327.3572209667855
 30
0.0
 10
939.4685483630618
 20
-327.3572209479132
 30
0.0
 10
938.6874997911998
 20
-326.576172352771
 30
0.0
 10
937.9064512193372
 20
-325.7951237576281
 30
0.0
 10
937.9064512382089
 20
-324.5287937998868
 30
0.0
 10
938.6874998333518
 20
-323.7477452280241
 30
0.0
 10
938.6874998122784
 20
-323.7477452490975
 30
0.0
 10
938.6874998122784
 20
-289.0761723738459
 30
0.0
 10
938.6874998122784
 20
-289.0761723738459
 30
0.0
 10
830.2015765947275
 20
-309.0761723738453
 30
0.0
 10
718.9734230298285
 20
-309.0761723738453
 30
0.0
 10
610.4874998122783
 20
-289.0761723738459
 30
0.0
 10
610.4874998122783
 20
-289.0761723738459
 30
0.0
 10
562.6874998122786
 20
-289.0761723738453
 30
0.0
 10
562.6874998122786
 20
-289.0761723738453
 30
0.0
 10
562.6874998122786
 20
-289.0761723738453
 30
0.0
 10
562.6874998122779
 20
-323.747745249095
 30
0.0
 10
562.6874998122779
 20
-323.747745249095
 30
0.0
 10
563.4685483957817
 20
-324.5287938325955
 30
0.0
 10
563.4685483957836
 20
-325.7951237903375
 30
0.0
 10
562.6874998122825
 20
-326.5761723738405
 30
0.0
 10
561.9064512287813
 20
-327.3572209573449
 30
0.0
 10
560.6401212710399
 20
-327.3572209573468
 30
0.0
 10
559.8590726875362
 20
-326.5761723738457
 30
0.0
 10
559.8590726875362
 20
-326.5761723738457
 30
0.0
 10
550.8874998122782
 20
-326.5761723738457
 30
0.0
 10
550.8874998122782
 20
-326.5761723738457
 30
0.0
 10
550.8874998122782
 20
-326.5761723738457
 30
0.0
 10
550.8874998122782
 20
-356.5761723738455
 30
0.0
 10
550.8874998122782
 20
-356.5761723738455
 30
0.0
 10
550.8874998122782
 20
-356.5761723738455
 30
0.0
 10
559.8590726875318
 20
-356.5761723738455
 30
0.0
 10
559.8590726875318
 20
-356.5761723738455
 30
0.0
 10
560.6401212710348
 20
-355.7951237903437
 30
0.0
 10
561.9064512287755
 20
-355.7951237903437
 30
0.0
 10
562.6874998122786
 20
-356.5761723738455
 30
0.0
 10
563.4685483957803
 20
-357.3572209573485
 30
0.0
 10
563.4685483957803
 20
-358.6235509150892
 30
0.0
 10
562.6874998122786
 20
-359.4045994985922
 30
0.0
 10
562.6874998122786
 20
-359.4045994985922
 30
0.0
 10
562.687499812276
 20
-428.7477452490967
 30
0.0
 10
562.687499812276
 20
-428.7477452490967
 30
0.0
 10
563.4685483957797
 20
-429.5287938325973
 30
0.0
 10
563.468548395781
 20
-430.7951237903392
 30
0.0
 10
562.6874998122798
 20
-431.5761723738423
 30
0.0
 10
561.9064512287781
 20
-432.3572209573454
 30
0.0
 10
560.6401212710367
 20
-432.3572209573467
 30
0.0
 10
559.8590726875331
 20
-431.5761723738461
 30
0.0
 10
559.8590726875331
 20
-431.5761723738461
 30
0.0
 10
550.8874998122782
 20
-431.5761723738461
 30
0.0
 10
550.8874998122782
 20
-431.5761723738461
 30
0.0
 10
550.8874998122782
 20
-431.5761723738461
 30
0.0
 10
550.8874998122782
 20
-461.5761723738459
 30
0.0
 10
550.8874998122782
 20
-461.5761723738459
 30
0.0
 10
550.8874998122782
 20
-461.5761723738459
 30
0.0
 10
559.8590726875304
 20
-461.5761723738447
 30
0.0
 10
559.8590726875304
 20
-461.5761723738447
 30
0.0
 10
560.6401212710323
 20
-460.7951237903416
 30
0.0
 10
561.9064512287736
 20
-460.7951237903403
 30
0.0
 10
562.6874998122767
 20
-461.5761723738421
 30
0.0
 10
563.4685483957797
 20
-462.3572209573439
 30
0.0
 10
563.4685483957803
 20
-463.6235509150858
 30
0.0
 10
562.6874998122786
 20
-464.4045994985889
 30
0.0
 10
562.6874998122786
 20
-464.4045994985889
 30
0.0
 10
562.6874998122786
 20
-498.0768829849224
 30
0.0
 10
562.6874998122786
 20
-498.0768829849224
 30
0.0
 10
562.6874998122786
 20
-498.0768829849224
 30
0.0
 10
576.3692726831143
 20
-498.0768829849224
 30
0.0
 10
576.3692726831143
 20
-498.0768829849224
 30
0.0
 10
690.0557184342199
 20
-463.8121670474018
 30
0.0
 10
811.3192811903364
 20
-463.8121670474018
 30
0.0
 10
925.005726941442
 20
-498.0768829849224
 30
0.0
 10
925.0057269414426
 20
-498.0768829849224
 30
0.0
 10
938.6874998122784
 20
-498.0768829849224
 30
0.0
 10
938.6874998122784
 20
-498.0768829849224
 30
0.0
 10
938.6874998122784
 20
-498.0768829849224
 30
0.0
 10
938.6874998122771
 20
-464.4045994985941
 30
0.0
 10
938.6874998122771
 20
-464.4045994985941
 30
0.0
 10
937.9064512287733
 20
-463.6235509150923
 30
0.0
 10
937.9064512287728
 20
-462.3572209573516
 30
0.0
 10
938.6874998122745
 20
-461.5761723738485
 30
0.0
 10
939.4685483957763
 20
-460.7951237903454
 30
0.0
 10
940.7348783535176
 20
-460.7951237903441
 30
0.0
 10
941.5159269370207
 20
-461.5761723738459
 30
0.0
 10
941.5159269370207
 20
-461.5761723738459
 30
0.0
 10
950.8874998122782
 20
-461.5761723738459
 30
0.0
 10
950.8874998122782
 20
-461.5761723738459
 30
0.0
 10
950.8874998122782
 20
-461.5761723738459
 30
0.0
 10
950.8874998122782
 20
-431.5761723738461
 30
0.0
 10
950.8874998122782
 20
-431.5761723738461
 30
0.0
 10
950.8874998122782
 20
-431.5761723738461
 30
0.0
 10
941.51592693702
 20
-431.57617237385
 30
0.0
 10
941.51592693702
 20
-431.57617237385
 30
0.0
 10
940.7348783535164
 20
-432.3572209573505
 30
0.0
 10
939.468548395775
 20
-432.3572209573492
 30
0.0
 10
938.6874998122739
 20
-431.5761723738449
 30
0.0
 10
937.9064512287721
 20
-430.7951237903418
 30
0.0
 10
937.9064512287747
 20
-429.5287938325998
 30
0.0
 10
938.6874998122784
 20
-428.7477452490994
 30
0.0
 10
938.6874998122784
 20
-428.7477452490994
 30
0.0
 10
938.6874998122803
 20
-359.4045994985987
 30
0.0
 10
938.6874998122803
 20
-359.4045994985987
 30
0.0
  0
ENDBLK
  5
1FC
330
1F9
100
AcDbEntity
  8
0
100
AcDbBlockEnd
  0
BLOCK
  5
200
330
1FE
100
AcDbEntity
  8
0
100
AcDbBlockBegin
  2
block 67
 70
     0
 10
0.0
 20
0.0
 30
0.0
  3
block 67
  1

  0
SPLINE
  5
202
330
1FE
100
AcDbEntity
  8
Capa 1
 62
     7
420
 16777215
370
    25
100
AcDbSpline
210
0.0
220
0.0
230
1.0
 70
    11
 71
     3
 72
    59
 73
    55
 74
     0
 42
0.0000000001
 43
0.0000000001
 12
1.0
 22
0.0
 32
0.0
 13
1.0
 23
0.0
 33
0.0
 40
0.0
 40
0.0
 40
0.0
 40
0.0
 40
1.0
 40
1.0
 40
1.0
 40
2.0
 40
2.0
 40
2.0
 40
3.0
 40
3.0
 40
3.0
 40
4.0
 40
4.0
 40
4.0
 40
5.0
 40
5.0
 40
5.0
 40
6.0
 40
6.0
 40
6.0
 40
7.0
 40
7.0
 40
7.0
 40
8.0
 40
8.0
 40
8.0
 40
9.0
 40
9.0
 40
9.0
 40
10.0
 40
10.0
 40
10.0
 40
11.0
 40
11.0
 40
11.0
 40
12.0
 40
12.0
 40
12.0
 40
13.0
 40
13.0
 40
13.0
 40
14.0
 40
14.0
 40
14.0
 40
15.0
 40
15.0
 40
15.0
 40
16.0
 40
16.0
 40
16.0
 40
17.0
 40
17.0
 40
17.0
 40
18.0
 40
18.0
 40
18.0
 40
18.0
 10
835.6874998122779
 20
-361.0357641680737
 30
0.0
 10
835.4235545174338
 20
-361.0896417757717
 30
0.0
 10
835.1514451071203
 20
-361.0896417757717
 30
0.0
 10
834.887499812276
 20
-361.0357641680737
 30
0.0
 10
833.805247148431
 20
-360.81485026814
 30
0.0
 10
833.1069941181177
 20
-359.7584250376902
 30
0.0
 10
833.3279080180507
 20
-358.6761723738458
 30
0.0
 10
833.5488219179837
 20
-357.5939197100014
 30
0.0
 10
834.6052471484336
 20
-356.8956666796881
 30
0.0
 10
835.6874998122779
 20
-357.1165805796205
 30
0.0
 10
835.6874998122779
 20
-357.1165805796205
 30
0.0
 10
835.6874998122779
 20
-353.0357641680735
 30
0.0
 10
835.6874998122779
 20
-353.0357641680735
 30
0.0
 10
835.4235545174338
 20
-353.0896417757714
 30
0.0
 10
835.1514451071203
 20
-353.0896417757714
 30
0.0
 10
834.887499812276
 20
-353.0357641680735
 30
0.0
 10
833.805247148431
 20
-352.8148502681404
 30
0.0
 10
833.1069941181177
 20
-351.7584250376905
 30
0.0
 10
833.3279080180507
 20
-350.6761723738455
 30
0.0
 10
833.5488219179837
 20
-349.5939197100012
 30
0.0
 10
834.6052471484336
 20
-348.8956666796878
 30
0.0
 10
835.6874998122779
 20
-349.1165805796202
 30
0.0
 10
835.6874998122779
 20
-349.1165805796202
 30
0.0
 10
835.6874998122779
 20
-349.0761723738455
 30
0.0
 10
835.6874998122779
 20
-349.0761723738455
 30
0.0
 10
835.6874998122779
 20
-349.0761723738455
 30
0.0
 10
865.6874998122784
 20
-349.0761723738455
 30
0.0
 10
865.6874998122784
 20
-349.0761723738455
 30
0.0
 10
865.6874998122784
 20
-349.0761723738455
 30
0.0
 10
865.6874998122784
 20
-349.1165805796215
 30
0.0
 10
865.6874998122784
 20
-349.1165805796215
 30
0.0
 10
866.4729411223522
 20
-349.2769081156702
 30
0.0
 10
867.0867640704538
 20
-349.8907310637717
 30
0.0
 10
867.2470916065037
 20
-350.6761723738468
 30
0.0
 10
867.468005506436
 20
-351.7584250376912
 30
0.0
 10
866.7697524761227
 20
-352.8148502681411
 30
0.0
 10
865.6874998122784
 20
-353.0357641680735
 30
0.0
 10
865.6874998122784
 20
-353.0357641680735
 30
0.0
 10
865.6874998122784
 20
-357.1165805796211
 30
0.0
 10
865.6874998122784
 20
-357.1165805796211
 30
0.0
 10
866.4729411223522
 20
-357.2769081156704
 30
0.0
 10
867.0867640704538
 20
-357.890731063772
 30
0.0
 10
867.247091606503
 20
-358.6761723738458
 30
0.0
 10
867.468005506436
 20
-359.7584250376915
 30
0.0
 10
866.7697524761227
 20
-360.8148502681407
 30
0.0
 10
865.6874998122784
 20
-361.0357641680737
 30
0.0
 10
865.6874998122784
 20
-361.0357641680737
 30
0.0
 10
865.6874998122784
 20
-361.0761723738459
 30
0.0
 10
865.6874998122784
 20
-361.0761723738459
 30
0.0
 10
865.6874998122784
 20
-361.0761723738459
 30
0.0
 10
835.6874998122779
 20
-361.0761723738459
 30
0.0
 10
835.6874998122779
 20
-361.0761723738459
 30
0.0
 10
835.6874998122779
 20
-361.0761723738459
 30
0.0
 10
835.6874998122779
 20
-361.0357641680737
 30
0.0
 10
835.6874998122779
 20
-361.0357641680737
 30
0.0
  0
ENDBLK
  5
201
330
1FE
100
AcDbEntity
  8
0
100
AcDbBlockEnd
  0
BLOCK
  5
205
330
203
100
AcDbEntity
  8
0
100
AcDbBlockBegin
  2
block 68
 70
     0
 10
0.0
 20
0.0
 30
0.0
  3
block 68
  1

  0
SPLINE
  5
207
330
203
100
AcDbEntity
  8
Capa 1
 62
     7
420
 16777215
370
    25
100
AcDbSpline
210
0.0
220
0.0
230
1.0
 70
    11
 71
     3
 72
    47
 73
    43
 74
     0
 42
0.0000000001
 43
0.0000000001
 12
1.0
 22
0.0
 32
0.0
 13
1.0
 23
0.0
 33
0.0
 40
0.0
 40
0.0
 40
0.0
 40
0.0
 40
1.0
 40
1.0
 40
1.0
 40
2.0
 40
2.0
 40
2.0
 40
3.0
 40
3.0
 40
3.0
 40
4.0
 40
4.0
 40
4.0
 40
5.0
 40
5.0
 40
5.0
 40
6.0
 40
6.0
 40
6.0
 40
7.0
 40
7.0
 40
7.0
 40
8.0
 40
8.0
 40
8.0
 40
9.0
 40
9.0
 40
9.0
 40
10.0
 40
10.0
 40
10.0
 40
11.0
 40
11.0
 40
11.0
 40
12.0
 40
12.0
 40
12.0
 40
13.0
 40
13.0
 40
13.0
 40
14.0
 40
14.0
 40
14.0
 40
14.0
 10
735.6874998122782
 20
-361.0761723738459
 30
0.0
 10
734.582930312617
 20
-361.0761723738459
 30
0.0
 10
733.6874998122782
 20
-360.1807418735071
 30
0.0
 10
733.6874998122782
 20
-359.0761723738458
 30
0.0
 10
733.6874998122782
 20
-357.9716028741839
 30
0.0
 10
734.582930312617
 20
-357.0761723738458
 30
0.0
 10
735.6874998122782
 20
-357.0761723738458
 30
0.0
 10
735.6874998122782
 20
-357.0761723738458
 30
0.0
 10
735.6874998122782
 20
-353.0761723738456
 30
0.0
 10
735.6874998122782
 20
-353.0761723738456
 30
0.0
 10
734.582930312617
 20
-353.0761723738456
 30
0.0
 10
733.6874998122782
 20
-352.1807418735075
 30
0.0
 10
733.6874998122782
 20
-351.0761723738456
 30
0.0
 10
733.6874998122782
 20
-349.9716028741836
 30
0.0
 10
734.582930312617
 20
-349.0761723738455
 30
0.0
 10
735.6874998122782
 20
-349.0761723738455
 30
0.0
 10
735.6874998122782
 20
-349.0761723738455
 30
0.0
 10
766.0874998122781
 20
-349.0761723738455
 30
0.0
 10
766.0874998122781
 20
-349.0761723738455
 30
0.0
 10
766.0874998122781
 20
-349.0761723738455
 30
0.0
 10
766.0874998122781
 20
-349.1165805796189
 30
0.0
 10
766.0874998122781
 20
-349.1165805796189
 30
0.0
 10
766.8729411223526
 20
-349.2769081156688
 30
0.0
 10
767.4867640704541
 20
-349.8907310637704
 30
0.0
 10
767.6470916065034
 20
-350.6761723738443
 30
0.0
 10
767.8680055064364
 20
-351.7584250376899
 30
0.0
 10
767.1697524761231
 20
-352.8148502681391
 30
0.0
 10
766.0874998122781
 20
-353.0357641680721
 30
0.0
 10
766.0874998122781
 20
-353.0357641680721
 30
0.0
 10
766.0874998122781
 20
-357.1165805796192
 30
0.0
 10
766.0874998122781
 20
-357.1165805796192
 30
0.0
 10
766.8729411223519
 20
-357.2769081156685
 30
0.0
 10
767.4867640704541
 20
-357.8907310637707
 30
0.0
 10
767.6470916065027
 20
-358.6761723738446
 30
0.0
 10
767.8680055064364
 20
-359.7584250376889
 30
0.0
 10
767.1697524761231
 20
-360.8148502681388
 30
0.0
 10
766.0874998122781
 20
-361.0357641680718
 30
0.0
 10
766.0874998122781
 20
-361.0357641680724
 30
0.0
 10
766.0874998122781
 20
-361.0761723738453
 30
0.0
 10
766.0874998122781
 20
-361.0761723738453
 30
0.0
 10
766.0874998122781
 20
-361.0761723738459
 30
0.0
 10
735.6874998122782
 20
-361.0761723738459
 30
0.0
 10
735.6874998122782
 20
-361.0761723738459
 30
0.0
  0
ENDBLK
  5
206
330
203
100
AcDbEntity
  8
0
100
AcDbBlockEnd
  0
BLOCK
  5
20A
330
208
100
AcDbEntity
  8
0
100
AcDbBlockBegin
  2
block 69
 70
     0
 10
0.0
 20
0.0
 30
0.0
  3
block 69
  1

  0
SPLINE
  5
20C
330
208
100
AcDbEntity
  8
Capa 1
 62
     7
420
 16777215
370
    25
100
AcDbSpline
210
0.0
220
0.0
230
1.0
 70
    11
 71
     3
 72
    41
 73
    37
 74
     0
 42
0.0000000001
 43
0.0000000001
 12
1.0
 22
0.0
 32
0.0
 13
1.0
 23
0.0
 33
0.0
 40
0.0
 40
0.0
 40
0.0
 40
0.0
 40
1.0
 40
1.0
 40
1.0
 40
2.0
 40
2.0
 40
2.0
 40
3.0
 40
3.0
 40
3.0
 40
4.0
 40
4.0
 40
4.0
 40
5.0
 40
5.0
 40
5.0
 40
6.0
 40
6.0
 40
6.0
 40
7.0
 40
7.0
 40
7.0
 40
8.0
 40
8.0
 40
8.0
 40
9.0
 40
9.0
 40
9.0
 40
10.0
 40
10.0
 40
10.0
 40
11.0
 40
11.0
 40
11.0
 40
12.0
 40
12.0
 40
12.0
 40
12.0
 10
666.0874998122778
 20
-357.0761723738458
 30
0.0
 10
667.1920693119397
 20
-357.0761723738458
 30
0.0
 10
668.0874998122778
 20
-357.9716028741839
 30
0.0
 10
668.0874998122778
 20
-359.0761723738458
 30
0.0
 10
668.0874998122778
 20
-360.1807418735071
 30
0.0
 10
667.1920693119397
 20
-361.0761723738459
 30
0.0
 10
666.0874998122778
 20
-361.0761723738459
 30
0.0
 10
666.0874998122778
 20
-361.0761723738459
 30
0.0
 10
636.087499812278
 20
-361.0761723738453
 30
0.0
 10
636.087499812278
 20
-361.0761723738453
 30
0.0
 10
634.9829303126166
 20
-361.0761723738459
 30
0.0
 10
634.0874998122779
 20
-360.1807418735071
 30
0.0
 10
634.0874998122779
 20
-359.0761723738458
 30
0.0
 10
634.0874998122779
 20
-357.9716028741839
 30
0.0
 10
634.9829303126166
 20
-357.0761723738458
 30
0.0
 10
636.087499812278
 20
-357.0761723738458
 30
0.0
 10
636.087499812278
 20
-357.0761723738458
 30
0.0
 10
636.087499812278
 20
-353.0761723738456
 30
0.0
 10
636.087499812278
 20
-353.0761723738456
 30
0.0
 10
634.9829303126166
 20
-353.0761723738456
 30
0.0
 10
634.0874998122779
 20
-352.1807418735075
 30
0.0
 10
634.0874998122779
 20
-351.0761723738456
 30
0.0
 10
634.0874998122779
 20
-349.9716028741836
 30
0.0
 10
634.9829303126166
 20
-349.0761723738455
 30
0.0
 10
636.087499812278
 20
-349.0761723738455
 30
0.0
 10
636.087499812278
 20
-349.0761723738455
 30
0.0
 10
666.0874998122778
 20
-349.0761723738455
 30
0.0
 10
666.0874998122778
 20
-349.0761723738455
 30
0.0
 10
667.1920693119397
 20
-349.0761723738455
 30
0.0
 10
668.0874998122778
 20
-349.9716028741836
 30
0.0
 10
668.0874998122778
 20
-351.0761723738456
 30
0.0
 10
668.0874998122778
 20
-352.1807418735075
 30
0.0
 10
667.1920693119397
 20
-353.0761723738456
 30
0.0
 10
666.0874998122778
 20
-353.0761723738456
 30
0.0
 10
666.0874998122778
 20
-353.0761723738456
 30
0.0
 10
666.0874998122778
 20
-357.0761723738458
 30
0.0
 10
666.0874998122778
 20
-357.0761723738458
 30
0.0
  0
ENDBLK
  5
20B
330
208
100
AcDbEntity
  8
0
100
AcDbBlockEnd
  0
BLOCK
  5
20F
330
20D
100
AcDbEntity
  8
0
100
AcDbBlockBegin
  2
block 70
 70
     0
 10
0.0
 20
0.0
 30
0.0
  3
block 70
  1

  0
SPLINE
  5
211
330
20D
100
AcDbEntity
  8
Capa 1
 62
     7
420
 16777215
370
    25
100
AcDbSpline
210
0.0
220
0.0
230
1.0
 70
    11
 71
     3
 72
   122
 73
   118
 74
     0
 42
0.0000000001
 43
0.0000000001
 12
1.0
 22
0.0
 32
0.0
 13
1.0
 23
0.0
 33
0.0
 40
0.0
 40
0.0
 40
0.0
 40
0.0
 40
1.0
 40
1.0
 40
1.0
 40
2.0
 40
2.0
 40
2.0
 40
3.0
 40
3.0
 40
3.0
 40
4.0
 40
4.0
 40
4.0
 40
5.0
 40
5.0
 40
5.0
 40
6.0
 40
6.0
 40
6.0
 40
7.0
 40
7.0
 40
7.0
 40
8.0
 40
8.0
 40
8.0
 40
9.0
 40
9.0
 40
9.0
 40
10.0
 40
10.0
 40
10.0
 40
11.0
 40
11.0
 40
11.0
 40
12.0
 40
12.0
 40
12.0
 40
13.0
 40
13.0
 40
13.0
 40
14.0
 40
14.0
 40
14.0
 40
15.0
 40
15.0
 40
15.0
 40
16.0
 40
16.0
 40
16.0
 40
17.0
 40
17.0
 40
17.0
 40
18.0
 40
18.0
 40
18.0
 40
19.0
 40
19.0
 40
19.0
 40
20.0
 40
20.0
 40
20.0
 40
21.0
 40
21.0
 40
21.0
 40
22.0
 40
22.0
 40
22.0
 40
23.0
 40
23.0
 40
23.0
 40
24.0
 40
24.0
 40
24.0
 40
25.0
 40
25.0
 40
25.0
 40
26.0
 40
26.0
 40
26.0
 40
27.0
 40
27.0
 40
27.0
 40
28.0
 40
28.0
 40
28.0
 40
29.0
 40
29.0
 40
29.0
 40
30.0
 40
30.0
 40
30.0
 40
31.0
 40
31.0
 40
31.0
 40
32.0
 40
32.0
 40
32.0
 40
33.0
 40
33.0
 40
33.0
 40
34.0
 40
34.0
 40
34.0
 40
35.0
 40
35.0
 40
35.0
 40
36.0
 40
36.0
 40
36.0
 40
37.0
 40
37.0
 40
37.0
 40
38.0
 40
38.0
 40
38.0
 40
39.0
 40
39.0
 40
39.0
 40
39.0
 10
146.8097221401026
 20
-359.4045994901667
 30
0.0
 10
147.5907707236416
 20
-358.6235509067009
 30
0.0
 10
147.5907707237019
 20
-357.3572209489602
 30
0.0
 10
146.8097221402361
 20
-356.5761723654212
 30
0.0
 10
146.0286735567709
 20
-355.7951237818809
 30
0.0
 10
144.7623435990295
 20
-355.7951237818206
 30
0.0
 10
143.9812950154906
 20
-356.5761723652864
 30
0.0
 10
143.9812950154906
 20
-356.5761723652864
 30
0.0
 10
134.6097221402312
 20
-356.5761723648655
 30
0.0
 10
134.6097221402312
 20
-356.5761723648655
 30
0.0
 10
134.6097221402312
 20
-356.5761723648655
 30
0.0
 10
134.6097221415787
 20
-326.5761723648657
 30
0.0
 10
134.6097221415787
 20
-326.5761723648657
 30
0.0
 10
134.6097221415787
 20
-326.5761723648657
 30
0.0
 10
143.9812950168368
 20
-326.5761723652905
 30
0.0
 10
143.9812950168368
 20
-326.5761723652905
 30
0.0
 10
144.7623436330178
 20
-327.3572209582612
 30
0.0
 10
146.0286735907598
 20
-327.3572209394466
 30
0.0
 10
146.809722162657
 20
-326.5761723443391
 30
0.0
 10
147.5907707345544
 20
-325.7951237492315
 30
0.0
 10
147.5907707157397
 20
-324.5287937914895
 30
0.0
 10
146.8097221206315
 20
-323.7477452195922
 30
0.0
 10
146.8097221417049
 20
-323.7477452406656
 30
0.0
 10
146.8097221432617
 20
-289.076172365414
 30
0.0
 10
146.8097221432617
 20
-289.076172365414
 30
0.0
 10
255.2956453599142
 20
-309.0761723702839
 30
0.0
 10
366.5237989248131
 20
-309.0761723752776
 30
0.0
 10
475.0097221432617
 20
-289.0761723801487
 30
0.0
 10
475.0097221432617
 20
-289.0761723801487
 30
0.0
 10
522.8097221432615
 20
-289.0761723822945
 30
0.0
 10
522.8097221432615
 20
-289.0761723822945
 30
0.0
 10
522.8097221432615
 20
-289.0761723822945
 30
0.0
 10
522.8097221417054
 20
-323.7477452575442
 30
0.0
 10
522.8097221417054
 20
-323.7477452575442
 30
0.0
 10
522.028673558167
 20
-324.5287938410094
 30
0.0
 10
522.0286735581079
 20
-325.7951237987514
 30
0.0
 10
522.8097221415738
 20
-326.5761723822898
 30
0.0
 10
523.5907707250396
 20
-327.3572209658294
 30
0.0
 10
524.857100682781
 20
-327.3572209658878
 30
0.0
 10
525.6381492663206
 20
-326.576172382422
 30
0.0
 10
525.6381492663206
 20
-326.576172382422
 30
0.0
 10
534.6097221415787
 20
-326.5761723828243
 30
0.0
 10
534.6097221415787
 20
-326.5761723828243
 30
0.0
 10
534.6097221415787
 20
-326.5761723828243
 30
0.0
 10
534.6097221402312
 20
-356.5761723828241
 30
0.0
 10
534.6097221402312
 20
-356.5761723828241
 30
0.0
 10
534.6097221402312
 20
-356.5761723828241
 30
0.0
 10
525.6381492649775
 20
-356.5761723824218
 30
0.0
 10
525.6381492649775
 20
-356.5761723824218
 30
0.0
 10
524.8571006815098
 20
-355.7951237988847
 30
0.0
 10
523.5907707237691
 20
-355.7951237988282
 30
0.0
 10
522.8097221402314
 20
-356.5761723822947
 30
0.0
 10
522.0286735566937
 20
-357.3572209657625
 30
0.0
 10
522.0286735566372
 20
-358.6235509235032
 30
0.0
 10
522.8097221401043
 20
-359.4045995070415
 30
0.0
 10
522.8097221401043
 20
-359.4045995070415
 30
0.0
 10
522.8097221369934
 20
-428.747745257546
 30
0.0
 10
522.8097221369934
 20
-428.747745257546
 30
0.0
 10
522.0286735534544
 20
-429.5287938410112
 30
0.0
 10
522.0286735533966
 20
-430.7951237987532
 30
0.0
 10
522.8097221368624
 20
-431.5761723822915
 30
0.0
 10
523.5907707203296
 20
-432.3572209658299
 30
0.0
 10
524.8571006780703
 20
-432.3572209658877
 30
0.0
 10
525.6381492616093
 20
-431.5761723824224
 30
0.0
 10
525.6381492616093
 20
-431.5761723824224
 30
0.0
 10
534.6097221368642
 20
-431.5761723828248
 30
0.0
 10
534.6097221368642
 20
-431.5761723828248
 30
0.0
 10
534.6097221368642
 20
-431.5761723828248
 30
0.0
 10
534.6097221355172
 20
-461.5761723828246
 30
0.0
 10
534.6097221355172
 20
-461.5761723828246
 30
0.0
 10
534.6097221355172
 20
-461.5761723828246
 30
0.0
 10
525.638149260265
 20
-461.576172382421
 30
0.0
 10
525.638149260265
 20
-461.576172382421
 30
0.0
 10
524.8571006767978
 20
-460.7951237988826
 30
0.0
 10
523.5907707190564
 20
-460.7951237988248
 30
0.0
 10
522.8097221355188
 20
-461.5761723822913
 30
0.0
 10
522.028673551981
 20
-462.3572209657578
 30
0.0
 10
522.0286735519232
 20
-463.6235509234998
 30
0.0
 10
522.8097221353904
 20
-464.4045995070381
 30
0.0
 10
522.8097221353904
 20
-464.4045995070381
 30
0.0
 10
522.8097221338786
 20
-498.0768829933723
 30
0.0
 10
522.8097221338786
 20
-498.0768829933723
 30
0.0
 10
522.8097221338786
 20
-498.0768829933723
 30
0.0
 10
509.1279492630429
 20
-498.0768829927576
 30
0.0
 10
509.1279492630429
 20
-498.0768829927576
 30
0.0
 10
395.4415035134754
 20
-463.8121670501329
 30
0.0
 10
274.1779407573582
 20
-463.8121670446887
 30
0.0
 10
160.4914950047145
 20
-498.0768829771052
 30
0.0
 10
160.4914950047138
 20
-498.0768829771052
 30
0.0
 10
146.8097221338781
 20
-498.0768829764905
 30
0.0
 10
146.8097221338781
 20
-498.0768829764905
 30
0.0
 10
146.8097221338781
 20
-498.0768829764905
 30
0.0
 10
146.8097221353913
 20
-464.4045994901621
 30
0.0
 10
146.8097221353913
 20
-464.4045994901621
 30
0.0
 10
147.5907707189303
 20
-463.623550906695
 30
0.0
 10
147.590770718988
 20
-462.3572209489543
 30
0.0
 10
146.8097221355209
 20
-461.5761723654166
 30
0.0
 10
146.0286735520538
 20
-460.7951237818788
 30
0.0
 10
144.7623435943131
 20
-460.7951237818198
 30
0.0
 10
143.9812950107747
 20
-461.5761723652869
 30
0.0
 10
143.9812950107747
 20
-461.5761723652869
 30
0.0
 10
134.6097221355172
 20
-461.576172364866
 30
0.0
 10
134.6097221355172
 20
-461.576172364866
 30
0.0
 10
134.6097221355172
 20
-461.576172364866
 30
0.0
 10
134.6097221368642
 20
-431.5761723648662
 30
0.0
 10
134.6097221368642
 20
-431.5761723648662
 30
0.0
 10
134.6097221368642
 20
-431.5761723648662
 30
0.0
 10
143.9812950121223
 20
-431.576172365291
 30
0.0
 10
143.9812950121223
 20
-431.576172365291
 30
0.0
 10
144.7623435955913
 20
-432.3572209488262
 30
0.0
 10
146.028673553332
 20
-432.3572209488826
 30
0.0
 10
146.8097221368685
 20
-431.576172365413
 30
0.0
 10
147.5907707204049
 20
-430.7951237819445
 30
0.0
 10
147.5907707204594
 20
-429.5287938242026
 30
0.0
 10
146.809722136991
 20
-428.7477452406674
 30
0.0
 10
146.809722136991
 20
-428.7477452406674
 30
0.0
 10
146.8097221401026
 20
-359.4045994901667
 30
0.0
 10
146.8097221401026
 20
-359.4045994901667
 30
0.0
  0
ENDBLK
  5
210
330
20D
100
AcDbEntity
  8
0
100
AcDbBlockEnd
  0
BLOCK
  5
214
330
212
100
AcDbEntity
  8
0
100
AcDbBlockBegin
  2
block 71
 70
     0
 10
0.0
 20
0.0
 30
0.0
  3
block 71
  1

  0
SPLINE
  5
216
330
212
100
AcDbEntity
  8
Capa 1
 62
     7
420
 16777215
370
    25
100
AcDbSpline
210
0.0
220
0.0
230
1.0
 70
    11
 71
     3
 72
    59
 73
    55
 74
     0
 42
0.0000000001
 43
0.0000000001
 12
1.0
 22
0.0
 32
0.0
 13
1.0
 23
0.0
 33
0.0
 40
0.0
 40
0.0
 40
0.0
 40
0.0
 40
1.0
 40
1.0
 40
1.0
 40
2.0
 40
2.0
 40
2.0
 40
3.0
 40
3.0
 40
3.0
 40
4.0
 40
4.0
 40
4.0
 40
5.0
 40
5.0
 40
5.0
 40
6.0
 40
6.0
 40
6.0
 40
7.0
 40
7.0
 40
7.0
 40
8.0
 40
8.0
 40
8.0
 40
9.0
 40
9.0
 40
9.0
 40
10.0
 40
10.0
 40
10.0
 40
11.0
 40
11.0
 40
11.0
 40
12.0
 40
12.0
 40
12.0
 40
13.0
 40
13.0
 40
13.0
 40
14.0
 40
14.0
 40
14.0
 40
15.0
 40
15.0
 40
15.0
 40
16.0
 40
16.0
 40
16.0
 40
17.0
 40
17.0
 40
17.0
 40
18.0
 40
18.0
 40
18.0
 40
18.0
 10
249.8097221400312
 20
-361.0357641642659
 30
0.0
 10
250.0736674348735
 20
-361.089641771976
 30
0.0
 10
250.3457768451864
 20
-361.0896417719882
 30
0.0
 10
250.6097221400338
 20
-361.0357641643018
 30
0.0
 10
251.6919748038884
 20
-360.8148502644169
 30
0.0
 10
252.3902278342492
 20
-359.7584250339985
 30
0.0
 10
252.1693139343643
 20
-358.6761723701445
 30
0.0
 10
251.94840003448
 20
-357.5939197062899
 30
0.0
 10
250.8919748040616
 20
-356.8956666759291
 30
0.0
 10
249.809722140207
 20
-357.1165805758127
 30
0.0
 10
249.809722140207
 20
-357.1165805758127
 30
0.0
 10
249.8097221403905
 20
-353.0357641642656
 30
0.0
 10
249.8097221403905
 20
-353.0357641642656
 30
0.0
 10
250.0736674352328
 20
-353.0896417719758
 30
0.0
 10
250.3457768455457
 20
-353.0896417719879
 30
0.0
 10
250.6097221403925
 20
-353.0357641643016
 30
0.0
 10
251.6919748042477
 20
-352.8148502644173
 30
0.0
 10
252.3902278346086
 20
-351.7584250339988
 30
0.0
 10
252.1693139347237
 20
-350.6761723701442
 30
0.0
 10
251.9484000348394
 20
-349.5939197062896
 30
0.0
 10
250.891974804421
 20
-348.8956666759288
 30
0.0
 10
249.8097221405664
 20
-349.1165805758124
 30
0.0
 10
249.8097221405664
 20
-349.1165805758124
 30
0.0
 10
249.8097221405683
 20
-349.0761723700376
 30
0.0
 10
249.8097221405683
 20
-349.0761723700376
 30
0.0
 10
249.8097221405683
 20
-349.0761723700376
 30
0.0
 10
219.8097221405679
 20
-349.0761723686913
 30
0.0
 10
219.8097221405679
 20
-349.0761723686913
 30
0.0
 10
219.8097221405679
 20
-349.0761723686913
 30
0.0
 10
219.8097221405659
 20
-349.1165805744674
 30
0.0
 10
219.8097221405659
 20
-349.1165805744674
 30
0.0
 10
219.024280830485
 20
-349.2769081104801
 30
0.0
 10
218.4104578823559
 20
-349.8907310585547
 30
0.0
 10
218.2501303462707
 20
-350.6761723686221
 30
0.0
 10
218.0292164462895
 20
-351.7584250324568
 30
0.0
 10
218.7274694765554
 20
-352.8148502629381
 30
0.0
 10
219.8097221403901
 20
-353.0357641629193
 30
0.0
 10
219.8097221403901
 20
-353.0357641629193
 30
0.0
 10
219.8097221402072
 20
-357.1165805744664
 30
0.0
 10
219.8097221402072
 20
-357.1165805744664
 30
0.0
 10
219.0242808301257
 20
-357.2769081104803
 30
0.0
 10
218.4104578819972
 20
-357.890731058555
 30
0.0
 10
218.2501303459126
 20
-358.6761723686211
 30
0.0
 10
218.0292164459302
 20
-359.7584250324571
 30
0.0
 10
218.7274694761967
 20
-360.8148502629372
 30
0.0
 10
219.8097221400314
 20
-361.0357641629196
 30
0.0
 10
219.8097221400314
 20
-361.0357641629196
 30
0.0
 10
219.8097221400288
 20
-361.0761723686918
 30
0.0
 10
219.8097221400288
 20
-361.0761723686918
 30
0.0
 10
219.8097221400288
 20
-361.0761723686918
 30
0.0
 10
249.8097221400299
 20
-361.0761723700381
 30
0.0
 10
249.8097221400299
 20
-361.0761723700381
 30
0.0
 10
249.8097221400299
 20
-361.0761723700381
 30
0.0
 10
249.8097221400312
 20
-361.0357641642659
 30
0.0
 10
249.8097221400312
 20
-361.0357641642659
 30
0.0
  0
ENDBLK
  5
215
330
212
100
AcDbEntity
  8
0
100
AcDbBlockEnd
  0
BLOCK
  5
219
330
217
100
AcDbEntity
  8
0
100
AcDbBlockBegin
  2
block 72
 70
     0
 10
0.0
 20
0.0
 30
0.0
  3
block 72
  1

  0
SPLINE
  5
21B
330
217
100
AcDbEntity
  8
Capa 1
 62
     7
420
 16777215
370
    25
100
AcDbSpline
210
0.0
220
0.0
230
1.0
 70
    11
 71
     3
 72
    47
 73
    43
 74
     0
 42
0.0000000001
 43
0.0000000001
 12
1.0
 22
0.0
 32
0.0
 13
1.0
 23
0.0
 33
0.0
 40
0.0
 40
0.0
 40
0.0
 40
0.0
 40
1.0
 40
1.0
 40
1.0
 40
2.0
 40
2.0
 40
2.0
 40
3.0
 40
3.0
 40
3.0
 40
4.0
 40
4.0
 40
4.0
 40
5.0
 40
5.0
 40
5.0
 40
6.0
 40
6.0
 40
6.0
 40
7.0
 40
7.0
 40
7.0
 40
8.0
 40
8.0
 40
8.0
 40
9.0
 40
9.0
 40
9.0
 40
10.0
 40
10.0
 40
10.0
 40
11.0
 40
11.0
 40
11.0
 40
12.0
 40
12.0
 40
12.0
 40
13.0
 40
13.0
 40
13.0
 40
14.0
 40
14.0
 40
14.0
 40
14.0
 10
349.8097221400296
 20
-361.076172374528
 30
0.0
 10
350.9142916396908
 20
-361.0761723745774
 30
0.0
 10
351.8097221400694
 20
-360.1807418742791
 30
0.0
 10
351.8097221401194
 20
-359.0761723746178
 30
0.0
 10
351.8097221401682
 20
-357.9716028749559
 30
0.0
 10
350.9142916398705
 20
-357.0761723745773
 30
0.0
 10
349.8097221402093
 20
-357.0761723745279
 30
0.0
 10
349.8097221402093
 20
-357.0761723745279
 30
0.0
 10
349.8097221403883
 20
-353.0761723745277
 30
0.0
 10
349.8097221403883
 20
-353.0761723745277
 30
0.0
 10
350.9142916400496
 20
-353.0761723745771
 30
0.0
 10
351.8097221404288
 20
-352.1807418742794
 30
0.0
 10
351.8097221404782
 20
-351.0761723746175
 30
0.0
 10
351.8097221405276
 20
-349.9716028749556
 30
0.0
 10
350.9142916402292
 20
-349.076172374577
 30
0.0
 10
349.8097221405679
 20
-349.0761723745276
 30
0.0
 10
349.8097221405679
 20
-349.0761723745276
 30
0.0
 10
319.4097221405681
 20
-349.0761723731627
 30
0.0
 10
319.4097221405681
 20
-349.0761723731627
 30
0.0
 10
319.4097221405681
 20
-349.0761723731627
 30
0.0
 10
319.4097221405663
 20
-349.1165805789362
 30
0.0
 10
319.4097221405663
 20
-349.1165805789362
 30
0.0
 10
318.6242808304847
 20
-349.2769081149508
 30
0.0
 10
318.0104578823555
 20
-349.8907310630248
 30
0.0
 10
317.850130346271
 20
-350.6761723730916
 30
0.0
 10
317.6292164462892
 20
-351.7584250369276
 30
0.0
 10
318.3274694765551
 20
-352.8148502674076
 30
0.0
 10
319.4097221403904
 20
-353.0357641673894
 30
0.0
 10
319.4097221403904
 20
-353.0357641673894
 30
0.0
 10
319.4097221402069
 20
-357.1165805789365
 30
0.0
 10
319.4097221402069
 20
-357.1165805789365
 30
0.0
 10
318.6242808301266
 20
-357.2769081149504
 30
0.0
 10
318.0104578819968
 20
-357.890731063025
 30
0.0
 10
317.8501303459123
 20
-358.6761723730918
 30
0.0
 10
317.6292164459298
 20
-359.7584250369266
 30
0.0
 10
318.3274694761963
 20
-360.8148502674072
 30
0.0
 10
319.4097221400311
 20
-361.035764167389
 30
0.0
 10
319.4097221400311
 20
-361.0357641673897
 30
0.0
 10
319.4097221400298
 20
-361.0761723731625
 30
0.0
 10
319.4097221400298
 20
-361.0761723731625
 30
0.0
 10
319.4097221400298
 20
-361.0761723731632
 30
0.0
 10
349.8097221400296
 20
-361.076172374528
 30
0.0
 10
349.8097221400296
 20
-361.076172374528
 30
0.0
  0
ENDBLK
  5
21A
330
217
100
AcDbEntity
  8
0
100
AcDbBlockEnd
  0
BLOCK
  5
21E
330
21C
100
AcDbEntity
  8
0
100
AcDbBlockBegin
  2
block 73
 70
     0
 10
0.0
 20
0.0
 30
0.0
  3
block 73
  1

  0
SPLINE
  5
220
330
21C
100
AcDbEntity
  8
Capa 1
 62
     7
420
 16777215
370
    25
100
AcDbSpline
210
0.0
220
0.0
230
1.0
 70
    11
 71
     3
 72
    41
 73
    37
 74
     0
 42
0.0000000001
 43
0.0000000001
 12
1.0
 22
0.0
 32
0.0
 13
1.0
 23
0.0
 33
0.0
 40
0.0
 40
0.0
 40
0.0
 40
0.0
 40
1.0
 40
1.0
 40
1.0
 40
2.0
 40
2.0
 40
2.0
 40
3.0
 40
3.0
 40
3.0
 40
4.0
 40
4.0
 40
4.0
 40
5.0
 40
5.0
 40
5.0
 40
6.0
 40
6.0
 40
6.0
 40
7.0
 40
7.0
 40
7.0
 40
8.0
 40
8.0
 40
8.0
 40
9.0
 40
9.0
 40
9.0
 40
10.0
 40
10.0
 40
10.0
 40
11.0
 40
11.0
 40
11.0
 40
12.0
 40
12.0
 40
12.0
 40
12.0
 10
419.4097221402091
 20
-357.0761723776523
 30
0.0
 10
418.3051526405472
 20
-357.0761723776029
 30
0.0
 10
417.4097221401686
 20
-357.9716028779006
 30
0.0
 10
417.4097221401192
 20
-359.0761723775626
 30
0.0
 10
417.4097221400692
 20
-360.1807418772245
 30
0.0
 10
418.3051526403676
 20
-361.076172377603
 30
0.0
 10
419.4097221400294
 20
-361.0761723776525
 30
0.0
 10
419.4097221400294
 20
-361.0761723776525
 30
0.0
 10
449.4097221400293
 20
-361.0761723789988
 30
0.0
 10
449.4097221400293
 20
-361.0761723789988
 30
0.0
 10
450.5142916396911
 20
-361.0761723790488
 30
0.0
 10
451.4097221400691
 20
-360.1807418787504
 30
0.0
 10
451.4097221401191
 20
-359.0761723790898
 30
0.0
 10
451.4097221401685
 20
-357.9716028794279
 30
0.0
 10
450.5142916398708
 20
-357.0761723790487
 30
0.0
 10
449.4097221402089
 20
-357.0761723789999
 30
0.0
 10
449.4097221402089
 20
-357.0761723789999
 30
0.0
 10
449.4097221403886
 20
-353.0761723789997
 30
0.0
 10
449.4097221403886
 20
-353.0761723789997
 30
0.0
 10
450.5142916400499
 20
-353.0761723790485
 30
0.0
 10
451.4097221404284
 20
-352.1807418787514
 30
0.0
 10
451.4097221404785
 20
-351.0761723790895
 30
0.0
 10
451.4097221405279
 20
-349.9716028794276
 30
0.0
 10
450.5142916402295
 20
-349.0761723790484
 30
0.0
 10
449.4097221405682
 20
-349.0761723789996
 30
0.0
 10
449.4097221405682
 20
-349.0761723789996
 30
0.0
 10
419.4097221405685
 20
-349.076172377652
 30
0.0
 10
419.4097221405685
 20
-349.076172377652
 30
0.0
 10
418.3051526409066
 20
-349.0761723776026
 30
0.0
 10
417.409722140528
 20
-349.9716028779004
 30
0.0
 10
417.4097221404786
 20
-351.0761723775623
 30
0.0
 10
417.4097221404285
 20
-352.1807418772242
 30
0.0
 10
418.3051526407269
 20
-353.0761723776028
 30
0.0
 10
419.4097221403888
 20
-353.0761723776522
 30
0.0
 10
419.4097221403888
 20
-353.0761723776522
 30
0.0
 10
419.4097221402091
 20
-357.0761723776523
 30
0.0
 10
419.4097221402091
 20
-357.0761723776523
 30
0.0
  0
ENDBLK
  5
21F
330
21C
100
AcDbEntity
  8
0
100
AcDbBlockEnd
  0
BLOCK
  5
223
330
221
100
AcDbEntity
  8
0
100
AcDbBlockBegin
  2
block 74
 70
     0
 10
0.0
 20
0.0
 30
0.0
  3
block 74
  1

  0
SPLINE
  5
225
330
221
100
AcDbEntity
  8
Capa 1
 62
     7
420
 16777215
370
    25
100
AcDbSpline
210
0.0
220
0.0
230
1.0
 70
    11
 71
     3
 72
   221
 73
   217
 74
     0
 42
0.0000000001
 43
0.0000000001
 12
1.0
 22
0.0
 32
0.0
 13
1.0
 23
0.0
 33
0.0
 40
0.0
 40
0.0
 40
0.0
 40
0.0
 40
1.0
 40
1.0
 40
1.0
 40
2.0
 40
2.0
 40
2.0
 40
3.0
 40
3.0
 40
3.0
 40
4.0
 40
4.0
 40
4.0
 40
5.0
 40
5.0
 40
5.0
 40
6.0
 40
6.0
 40
6.0
 40
7.0
 40
7.0
 40
7.0
 40
8.0
 40
8.0
 40
8.0
 40
9.0
 40
9.0
 40
9.0
 40
10.0
 40
10.0
 40
10.0
 40
11.0
 40
11.0
 40
11.0
 40
12.0
 40
12.0
 40
12.0
 40
13.0
 40
13.0
 40
13.0
 40
14.0
 40
14.0
 40
14.0
 40
15.0
 40
15.0
 40
15.0
 40
16.0
 40
16.0
 40
16.0
 40
17.0
 40
17.0
 40
17.0
 40
18.0
 40
18.0
 40
18.0
 40
19.0
 40
19.0
 40
19.0
 40
20.0
 40
20.0
 40
20.0
 40
21.0
 40
21.0
 40
21.0
 40
22.0
 40
22.0
 40
22.0
 40
23.0
 40
23.0
 40
23.0
 40
24.0
 40
24.0
 40
24.0
 40
25.0
 40
25.0
 40
25.0
 40
26.0
 40
26.0
 40
26.0
 40
27.0
 40
27.0
 40
27.0
 40
28.0
 40
28.0
 40
28.0
 40
29.0
 40
29.0
 40
29.0
 40
30.0
 40
30.0
 40
30.0
 40
31.0
 40
31.0
 40
31.0
 40
32.0
 40
32.0
 40
32.0
 40
33.0
 40
33.0
 40
33.0
 40
34.0
 40
34.0
 40
34.0
 40
35.0
 40
35.0
 40
35.0
 40
36.0
 40
36.0
 40
36.0
 40
37.0
 40
37.0
 40
37.0
 40
38.0
 40
38.0
 40
38.0
 40
39.0
 40
39.0
 40
39.0
 40
40.0
 40
40.0
 40
40.0
 40
41.0
 40
41.0
 40
41.0
 40
42.0
 40
42.0
 40
42.0
 40
43.0
 40
43.0
 40
43.0
 40
44.0
 40
44.0
 40
44.0
 40
45.0
 40
45.0
 40
45.0
 40
46.0
 40
46.0
 40
46.0
 40
47.0
 40
47.0
 40
47.0
 40
48.0
 40
48.0
 40
48.0
 40
49.0
 40
49.0
 40
49.0
 40
50.0
 40
50.0
 40
50.0
 40
51.0
 40
51.0
 40
51.0
 40
52.0
 40
52.0
 40
52.0
 40
53.0
 40
53.0
 40
53.0
 40
54.0
 40
54.0
 40
54.0
 40
55.0
 40
55.0
 40
55.0
 40
56.0
 40
56.0
 40
56.0
 40
57.0
 40
57.0
 40
57.0
 40
58.0
 40
58.0
 40
58.0
 40
59.0
 40
59.0
 40
59.0
 40
60.0
 40
60.0
 40
60.0
 40
61.0
 40
61.0
 40
61.0
 40
62.0
 40
62.0
 40
62.0
 40
63.0
 40
63.0
 40
63.0
 40
64.0
 40
64.0
 40
64.0
 40
65.0
 40
65.0
 40
65.0
 40
66.0
 40
66.0
 40
66.0
 40
67.0
 40
67.0
 40
67.0
 40
68.0
 40
68.0
 40
68.0
 40
69.0
 40
69.0
 40
69.0
 40
70.0
 40
70.0
 40
70.0
 40
71.0
 40
71.0
 40
71.0
 40
72.0
 40
72.0
 40
72.0
 40
72.0
 10
561.8055553680546
 20
-76.3140277408992
 30
0.0
 10
562.4112093630911
 20
-77.12156640094824
 30
0.0
 10
562.3677951221357
 20
-78.33651153638183
 30
0.0
 10
561.4079094428622
 20
-79.15670370202308
 30
0.0
 10
561.4031993117811
 20
-79.1607283610996
 30
0.0
 10
561.3978012478294
 20
-79.16460385635656
 30
0.0
 10
561.3924834552125
 20
-79.16778258207002
 30
0.0
 10
559.8234782446841
 20
-80.10565992454791
 30
0.0
 10
558.2055553680544
 20
-78.99878690048365
 30
0.0
 10
558.2055553680544
 20
-77.51402774089925
 30
0.0
 10
558.2055553680544
 20
-77.51402774089925
 30
0.0
 10
552.0055553680543
 20
-77.51402774089925
 30
0.0
 10
552.0055553680543
 20
-77.51402774089925
 30
0.0
 10
552.0055553680543
 20
-77.51402774089925
 30
0.0
 10
552.0055553680543
 20
-107.514027740899
 30
0.0
 10
552.0055553680543
 20
-107.514027740899
 30
0.0
 10
552.0055553680543
 20
-107.514027740899
 30
0.0
 10
558.2055553680544
 20
-107.514027740899
 30
0.0
 10
558.2055553680544
 20
-107.514027740899
 30
0.0
 10
558.2055553680544
 20
-106.5046044158345
 30
0.0
 10
558.9692538420836
 20
-105.5586968520589
 30
0.0
 10
560.2292776848877
 20
-105.4784745271142
 30
0.0
 10
560.2354605851973
 20
-105.4780808785014
 30
0.0
 10
560.2421043335132
 20
-105.4782193206668
 30
0.0
 10
560.2482658030347
 20
-105.478867015666
 30
0.0
 10
562.0661963769412
 20
-105.6699682680047
 30
0.0
 10
562.6964108638043
 20
-107.526220413232
 30
0.0
 10
561.8055553680546
 20
-108.7140277408991
 30
0.0
 10
561.8055553680546
 20
-108.7140277408991
 30
0.0
 10
561.8055553680546
 20
-186.3140277408992
 30
0.0
 10
561.8055553680546
 20
-186.3140277408992
 30
0.0
 10
562.4112093224882
 20
-187.1215663718793
 30
0.0
 10
562.3677950881988
 20
-188.3365112442939
 30
0.0
 10
561.4079097945222
 20
-189.1567034908162
 30
0.0
 10
561.4031996646393
 20
-189.1607281508832
 30
0.0
 10
561.3978016016771
 20
-189.1646036470042
 30
0.0
 10
561.3924838097397
 20
-189.1677823733343
 30
0.0
 10
559.8234784664944
 20
-190.1056600970225
 30
0.0
 10
558.20555534593
 20
-188.9987869901784
 30
0.0
 10
558.2055553680544
 20
-187.5140277110968
 30
0.0
 10
558.2055553680544
 20
-187.5140277110968
 30
0.0
 10
552.0055553680543
 20
-187.5140277408993
 30
0.0
 10
552.0055553680543
 20
-187.5140277408993
 30
0.0
 10
552.0055553680543
 20
-187.5140277408993
 30
0.0
 10
552.0055553680543
 20
-217.5140277408991
 30
0.0
 10
552.0055553680543
 20
-217.5140277408991
 30
0.0
 10
552.0055553680543
 20
-217.5140277408991
 30
0.0
 10
558.2055553680544
 20
-217.5140277408991
 30
0.0
 10
558.2055553680544
 20
-217.5140277408991
 30
0.0
 10
558.2055553680544
 20
-216.5046044158265
 30
0.0
 10
558.9692538420965
 20
-215.5586968520403
 30
0.0
 10
560.2292776849205
 20
-215.4784745271171
 30
0.0
 10
560.2354605852307
 20
-215.4780808785046
 30
0.0
 10
560.242104333546
 20
-215.4782193206697
 30
0.0
 10
560.2482658030674
 20
-215.4788670156692
 30
0.0
 10
562.0661963769483
 20
-215.6699682680269
 30
0.0
 10
562.6964108637992
 20
-217.5262204132387
 30
0.0
 10
561.8055553680546
 20
-218.7140277408991
 30
0.0
 10
561.8055553680546
 20
-218.7140277408991
 30
0.0
 10
561.8055553680546
 20
-260.3140277408993
 30
0.0
 10
561.8055553680546
 20
-260.3140277408993
 30
0.0
 10
561.8055553680546
 20
-260.3140277408993
 30
0.0
 10
636.1669540350645
 20
-260.3140258758986
 30
0.0
 10
636.1669540350645
 20
-260.3140258758986
 30
0.0
 10
638.1743134414914
 20
-262.07792006476
 30
0.0
 10
636.9510698706692
 20
-264.3140277408994
 30
0.0
 10
635.205555368054
 20
-264.3140277408994
 30
0.0
 10
635.205555368054
 20
-264.3140277408994
 30
0.0
 10
635.205555368054
 20
-270.514027740899
 30
0.0
 10
635.205555368054
 20
-270.514027740899
 30
0.0
 10
635.205555368054
 20
-270.514027740899
 30
0.0
 10
665.2055553680538
 20
-270.514027740899
 30
0.0
 10
665.2055553680538
 20
-270.514027740899
 30
0.0
 10
665.2055553680538
 20
-270.514027740899
 30
0.0
 10
665.2055553680538
 20
-264.3140277408994
 30
0.0
 10
665.2055553680538
 20
-264.3140277408994
 30
0.0
 10
663.4600408654392
 20
-264.3140277408994
 30
0.0
 10
662.236797294617
 20
-262.07792006476
 30
0.0
 10
664.2441630745676
 20
-260.3140268083989
 30
0.0
 10
664.2441630745676
 20
-260.3140268083989
 30
0.0
 10
735.7669476615405
 20
-260.3140268083989
 30
0.0
 10
735.7669476615405
 20
-260.3140268083989
 30
0.0
 10
737.7743134414924
 20
-262.07792006476
 30
0.0
 10
736.5510698706689
 20
-264.3140277408994
 30
0.0
 10
734.8055553680543
 20
-264.3140277408994
 30
0.0
 10
734.8055553680543
 20
-264.3140277408994
 30
0.0
 10
734.8055553680543
 20
-270.514027740899
 30
0.0
 10
734.8055553680543
 20
-270.514027740899
 30
0.0
 10
734.8055553680543
 20
-270.514027740899
 30
0.0
 10
765.2055553680541
 20
-270.514027740899
 30
0.0
 10
765.2055553680541
 20
-270.514027740899
 30
0.0
 10
765.2055553680541
 20
-270.514027740899
 30
0.0
 10
765.2055553680541
 20
-264.3140277408994
 30
0.0
 10
765.2055553680541
 20
-264.3140277408994
 30
0.0
 10
763.4600408654401
 20
-264.3140277408994
 30
0.0
 10
762.2367972946154
 20
-262.07792006476
 30
0.0
 10
764.2441630745685
 20
-260.3140268083989
 30
0.0
 10
764.2441630745685
 20
-260.3140268083989
 30
0.0
 10
835.7669476615408
 20
-260.3140268083989
 30
0.0
 10
835.7669476615408
 20
-260.3140268083989
 30
0.0
 10
837.7743134414915
 20
-262.07792006476
 30
0.0
 10
836.5510698706693
 20
-264.3140277408994
 30
0.0
 10
834.805555368054
 20
-264.3140277408994
 30
0.0
 10
834.805555368054
 20
-264.3140277408994
 30
0.0
 10
834.805555368054
 20
-270.514027740899
 30
0.0
 10
834.805555368054
 20
-270.514027740899
 30
0.0
 10
834.805555368054
 20
-270.514027740899
 30
0.0
 10
864.8055553680545
 20
-270.514027740899
 30
0.0
 10
864.8055553680545
 20
-270.514027740899
 30
0.0
 10
864.8055553680545
 20
-270.514027740899
 30
0.0
 10
864.8055553680545
 20
-264.3140277408994
 30
0.0
 10
864.8055553680545
 20
-264.3140277408994
 30
0.0
 10
863.0600408654392
 20
-264.3140277408994
 30
0.0
 10
861.8367972946169
 20
-262.07792006476
 30
0.0
 10
863.844156701044
 20
-260.3140258758986
 30
0.0
 10
863.844156701044
 20
-260.3140258758986
 30
0.0
 10
937.8055553680545
 20
-260.3140277408993
 30
0.0
 10
937.8055553680545
 20
-260.3140277408993
 30
0.0
 10
937.8055553680545
 20
-260.3140277408993
 30
0.0
 10
937.8055535030537
 20
-216.552629073886
 30
0.0
 10
937.8055535030537
 20
-216.552629073886
 30
0.0
 10
939.569447691919
 20
-214.5452696674622
 30
0.0
 10
941.8055553680539
 20
-215.7685132382857
 30
0.0
 10
941.8055553680539
 20
-217.5140277408991
 30
0.0
 10
941.8055553680539
 20
-217.5140277408991
 30
0.0
 10
948.0055553680542
 20
-217.5140277408991
 30
0.0
 10
948.0055553680542
 20
-217.5140277408991
 30
0.0
 10
948.0055553680542
 20
-217.5140277408991
 30
0.0
 10
948.0055553680542
 20
-187.5140277408993
 30
0.0
 10
948.0055553680542
 20
-187.5140277408993
 30
0.0
 10
948.0055553680542
 20
-187.5140277408993
 30
0.0
 10
941.8055553680539
 20
-187.5140277408993
 30
0.0
 10
941.8055553680539
 20
-187.5140277408993
 30
0.0
 10
941.8055553680539
 20
-189.2595422435126
 30
0.0
 10
939.569447691919
 20
-190.4827858143368
 30
0.0
 10
937.8055544355541
 20
-188.4754200343887
 30
0.0
 10
937.8055544355541
 20
-188.4754200343887
 30
0.0
 10
937.8055544355541
 20
-106.5526354474093
 30
0.0
 10
937.8055544355541
 20
-106.5526354474093
 30
0.0
 10
939.569447691919
 20
-104.5452696674625
 30
0.0
 10
941.8055553680539
 20
-105.7685132382854
 30
0.0
 10
941.8055553680539
 20
-107.514027740899
 30
0.0
 10
941.8055553680539
 20
-107.514027740899
 30
0.0
 10
948.0055553680542
 20
-107.514027740899
 30
0.0
 10
948.0055553680542
 20
-107.514027740899
 30
0.0
 10
948.0055553680542
 20
-107.514027740899
 30
0.0
 10
948.0055553680542
 20
-77.51402774089925
 30
0.0
 10
948.0055553680542
 20
-77.51402774089925
 30
0.0
 10
948.0055553680542
 20
-77.51402774089925
 30
0.0
 10
941.8055553680539
 20
-77.51402774089925
 30
0.0
 10
941.8055553680539
 20
-77.51402774089925
 30
0.0
 10
941.8055553680539
 20
-79.25954224351291
 30
0.0
 10
939.569447691919
 20
-80.48278581433577
 30
0.0
 10
937.8055535030537
 20
-78.4754264079126
 30
0.0
 10
937.8055535030537
 20
-78.4754264079126
 30
0.0
 10
937.8055553680545
 20
-34.71402774089902
 30
0.0
 10
937.8055553680545
 20
-34.71402774089902
 30
0.0
 10
937.8055553680545
 20
-34.71402774089902
 30
0.0
 10
863.844156701044
 20
-34.71402960589942
 30
0.0
 10
863.844156701044
 20
-34.71402960589942
 30
0.0
 10
861.8367972946169
 20
-32.95013541703765
 30
0.0
 10
863.0600408654392
 20
-30.7140277408992
 30
0.0
 10
864.8055553680545
 20
-30.7140277408992
 30
0.0
 10
864.8055553680545
 20
-30.7140277408992
 30
0.0
 10
864.8055553680545
 20
-24.51402774089898
 30
0.0
 10
864.8055553680545
 20
-24.51402774089898
 30
0.0
 10
864.8055553680545
 20
-24.51402774089898
 30
0.0
 10
834.805555368054
 20
-24.5140277408993
 30
0.0
 10
834.805555368054
 20
-24.5140277408993
 30
0.0
 10
834.805555368054
 20
-24.5140277408993
 30
0.0
 10
834.805555368054
 20
-30.7140277408992
 30
0.0
 10
834.805555368054
 20
-30.7140277408992
 30
0.0
 10
836.5510698706693
 20
-30.7140277408992
 30
0.0
 10
837.7743134414915
 20
-32.95013541703765
 30
0.0
 10
835.7669476615408
 20
-34.71402867339938
 30
0.0
 10
835.7669476615408
 20
-34.71402867339938
 30
0.0
 10
764.244163074568
 20
-34.71402867339938
 30
0.0
 10
764.244163074568
 20
-34.71402867339938
 30
0.0
 10
762.2367972946159
 20
-32.95013541703765
 30
0.0
 10
763.4600408654401
 20
-30.7140277408992
 30
0.0
 10
765.2055553680541
 20
-30.7140277408992
 30
0.0
 10
765.2055553680541
 20
-30.7140277408992
 30
0.0
 10
765.2055553680541
 20
-24.5140277408993
 30
0.0
 10
765.2055553680541
 20
-24.5140277408993
 30
0.0
 10
765.2055553680541
 20
-24.5140277408993
 30
0.0
 10
734.8055553680543
 20
-24.5140277408993
 30
0.0
 10
734.8055553680543
 20
-24.5140277408993
 30
0.0
 10
734.8055553680543
 20
-24.5140277408993
 30
0.0
 10
734.8055553680543
 20
-30.7140277408992
 30
0.0
 10
734.8055553680543
 20
-30.7140277408992
 30
0.0
 10
736.5510698706689
 20
-30.7140277408992
 30
0.0
 10
737.7743134414918
 20
-32.95013541703765
 30
0.0
 10
735.7669476615412
 20
-34.71402867339938
 30
0.0
 10
735.7669476615412
 20
-34.71402867339938
 30
0.0
 10
664.2441630745676
 20
-34.71402867339938
 30
0.0
 10
664.2441630745676
 20
-34.71402867339938
 30
0.0
 10
662.236797294617
 20
-32.95013541703765
 30
0.0
 10
663.4600408654392
 20
-30.7140277408992
 30
0.0
 10
665.2055553680538
 20
-30.7140277408992
 30
0.0
 10
665.2055553680538
 20
-30.7140277408992
 30
0.0
 10
665.2055553680538
 20
-24.5140277408993
 30
0.0
 10
665.2055553680538
 20
-24.5140277408993
 30
0.0
 10
665.2055553680538
 20
-24.5140277408993
 30
0.0
 10
635.205555368054
 20
-24.5140277408993
 30
0.0
 10
635.205555368054
 20
-24.5140277408993
 30
0.0
 10
635.205555368054
 20
-24.5140277408993
 30
0.0
 10
635.205555368054
 20
-30.7140277408992
 30
0.0
 10
635.205555368054
 20
-30.7140277408992
 30
0.0
 10
636.9510698706692
 20
-30.7140277408992
 30
0.0
 10
638.1743134414909
 20
-32.95013541703765
 30
0.0
 10
636.1669540350645
 20
-34.71402960589942
 30
0.0
 10
636.1669540350645
 20
-34.71402960589942
 30
0.0
 10
561.8055553680546
 20
-34.71402774089902
 30
0.0
 10
561.8055553680546
 20
-34.71402774089902
 30
0.0
 10
561.8055553680546
 20
-34.71402774089902
 30
0.0
 10
561.8055553680546
 20
-76.3140277408992
 30
0.0
 10
561.8055553680546
 20
-76.3140277408992
 30
0.0
  0
ENDBLK
  5
224
330
221
100
AcDbEntity
  8
0
100
AcDbBlockEnd
  0
ENDSEC
  0
SECTION
  2
ENTITIES
  0
INSERT
  5
42
330
1F
100
AcDbEntity
  8
Capa 1
100
AcDbBlockReference
  2
block 2
 10
0.0
 20
0.0
 30
0.0
  0
INSERT
  5
47
330
1F
100
AcDbEntity
  8
Capa 1
100
AcDbBlockReference
  2
block 3
 10
0.0
 20
0.0
 30
0.0
  0
INSERT
  5
4F
330
1F
100
AcDbEntity
  8
Capa 1
100
AcDbBlockReference
  2
block 4
 10
0.0
 20
0.0
 30
0.0
  0
INSERT
  5
54
330
1F
100
AcDbEntity
  8
Capa 1
100
AcDbBlockReference
  2
block 5
 10
0.0
 20
0.0
 30
0.0
  0
INSERT
  5
5C
330
1F
100
AcDbEntity
  8
Capa 1
100
AcDbBlockReference
  2
block 6
 10
0.0
 20
0.0
 30
0.0
  0
INSERT
  5
64
330
1F
100
AcDbEntity
  8
Capa 1
100
AcDbBlockReference
  2
block 7
 10
0.0
 20
0.0
 30
0.0
  0
INSERT
  5
69
330
1F
100
AcDbEntity
  8
Capa 1
100
AcDbBlockReference
  2
block 8
 10
0.0
 20
0.0
 30
0.0
  0
INSERT
  5
71
330
1F
100
AcDbEntity
  8
Capa 1
100
AcDbBlockReference
  2
block 9
 10
0.0
 20
0.0
 30
0.0
  0
INSERT
  5
79
330
1F
100
AcDbEntity
  8
Capa 1
100
AcDbBlockReference
  2
block 10
 10
0.0
 20
0.0
 30
0.0
  0
INSERT
  5
7E
330
1F
100
AcDbEntity
  8
Capa 1
100
AcDbBlockReference
  2
block 11
 10
0.0
 20
0.0
 30
0.0
  0
INSERT
  5
86
330
1F
100
AcDbEntity
  8
Capa 1
100
AcDbBlockReference
  2
block 12
 10
0.0
 20
0.0
 30
0.0
  0
INSERT
  5
8B
330
1F
100
AcDbEntity
  8
Capa 1
100
AcDbBlockReference
  2
block 13
 10
0.0
 20
0.0
 30
0.0
  0
INSERT
  5
93
330
1F
100
AcDbEntity
  8
Capa 1
100
AcDbBlockReference
  2
block 14
 10
0.0
 20
0.0
 30
0.0
  0
INSERT
  5
9B
330
1F
100
AcDbEntity
  8
Capa 1
100
AcDbBlockReference
  2
block 15
 10
0.0
 20
0.0
 30
0.0
  0
INSERT
  5
A3
330
1F
100
AcDbEntity
  8
Capa 1
100
AcDbBlockReference
  2
block 16
 10
0.0
 20
0.0
 30
0.0
  0
INSERT
  5
A8
330
1F
100
AcDbEntity
  8
Capa 1
100
AcDbBlockReference
  2
block 17
 10
0.0
 20
0.0
 30
0.0
  0
INSERT
  5
AD
330
1F
100
AcDbEntity
  8
Capa 1
100
AcDbBlockReference
  2
block 18
 10
0.0
 20
0.0
 30
0.0
  0
INSERT
  5
B5
330
1F
100
AcDbEntity
  8
Capa 1
100
AcDbBlockReference
  2
block 19
 10
0.0
 20
0.0
 30
0.0
  0
INSERT
  5
BD
330
1F
100
AcDbEntity
  8
Capa 1
100
AcDbBlockReference
  2
block 20
 10
0.0
 20
0.0
 30
0.0
  0
INSERT
  5
C5
330
1F
100
AcDbEntity
  8
Capa 1
100
AcDbBlockReference
  2
block 21
 10
0.0
 20
0.0
 30
0.0
  0
INSERT
  5
CA
330
1F
100
AcDbEntity
  8
Capa 1
100
AcDbBlockReference
  2
block 22
 10
0.0
 20
0.0
 30
0.0
  0
INSERT
  5
D2
330
1F
100
AcDbEntity
  8
Capa 1
100
AcDbBlockReference
  2
block 23
 10
0.0
 20
0.0
 30
0.0
  0
INSERT
  5
DA
330
1F
100
AcDbEntity
  8
Capa 1
100
AcDbBlockReference
  2
block 24
 10
0.0
 20
0.0
 30
0.0
  0
INSERT
  5
E2
330
1F
100
AcDbEntity
  8
Capa 1
100
AcDbBlockReference
  2
block 25
 10
0.0
 20
0.0
 30
0.0
  0
INSERT
  5
E7
330
1F
100
AcDbEntity
  8
Capa 1
100
AcDbBlockReference
  2
block 26
 10
0.0
 20
0.0
 30
0.0
  0
INSERT
  5
EC
330
1F
100
AcDbEntity
  8
Capa 1
100
AcDbBlockReference
  2
block 27
 10
0.0
 20
0.0
 30
0.0
  0
INSERT
  5
F4
330
1F
100
AcDbEntity
  8
Capa 1
100
AcDbBlockReference
  2
block 28
 10
0.0
 20
0.0
 30
0.0
  0
INSERT
  5
FC
330
1F
100
AcDbEntity
  8
Capa 1
100
AcDbBlockReference
  2
block 29
 10
0.0
 20
0.0
 30
0.0
  0
INSERT
  5
104
330
1F
100
AcDbEntity
  8
Capa 1
100
AcDbBlockReference
  2
block 30
 10
0.0
 20
0.0
 30
0.0
  0
INSERT
  5
109
330
1F
100
AcDbEntity
  8
Capa 1
100
AcDbBlockReference
  2
block 31
 10
0.0
 20
0.0
 30
0.0
  0
INSERT
  5
10E
330
1F
100
AcDbEntity
  8
Capa 1
100
AcDbBlockReference
  2
block 32
 10
0.0
 20
0.0
 30
0.0
  0
INSERT
  5
116
330
1F
100
AcDbEntity
  8
Capa 1
100
AcDbBlockReference
  2
block 33
 10
0.0
 20
0.0
 30
0.0
  0
INSERT
  5
11E
330
1F
100
AcDbEntity
  8
Capa 1
100
AcDbBlockReference
  2
block 34
 10
0.0
 20
0.0
 30
0.0
  0
INSERT
  5
123
330
1F
100
AcDbEntity
  8
Capa 1
100
AcDbBlockReference
  2
block 35
 10
0.0
 20
0.0
 30
0.0
  0
INSERT
  5
12B
330
1F
100
AcDbEntity
  8
Capa 1
100
AcDbBlockReference
  2
block 36
 10
0.0
 20
0.0
 30
0.0
  0
INSERT
  5
130
330
1F
100
AcDbEntity
  8
Capa 1
100
AcDbBlockReference
  2
block 37
 10
0.0
 20
0.0
 30
0.0
  0
INSERT
  5
138
330
1F
100
AcDbEntity
  8
Capa 1
100
AcDbBlockReference
  2
block 38
 10
0.0
 20
0.0
 30
0.0
  0
INSERT
  5
140
330
1F
100
AcDbEntity
  8
Capa 1
100
AcDbBlockReference
  2
block 39
 10
0.0
 20
0.0
 30
0.0
  0
INSERT
  5
145
330
1F
100
AcDbEntity
  8
Capa 1
100
AcDbBlockReference
  2
block 40
 10
0.0
 20
0.0
 30
0.0
  0
INSERT
  5
14D
330
1F
100
AcDbEntity
  8
Capa 1
100
AcDbBlockReference
  2
block 41
 10
0.0
 20
0.0
 30
0.0
  0
INSERT
  5
155
330
1F
100
AcDbEntity
  8
Capa 1
100
AcDbBlockReference
  2
block 42
 10
0.0
 20
0.0
 30
0.0
  0
INSERT
  5
15A
330
1F
100
AcDbEntity
  8
Capa 1
100
AcDbBlockReference
  2
block 43
 10
0.0
 20
0.0
 30
0.0
  0
INSERT
  5
162
330
1F
100
AcDbEntity
  8
Capa 1
100
AcDbBlockReference
  2
block 44
 10
0.0
 20
0.0
 30
0.0
  0
INSERT
  5
167
330
1F
100
AcDbEntity
  8
Capa 1
100
AcDbBlockReference
  2
block 45
 10
0.0
 20
0.0
 30
0.0
  0
INSERT
  5
16F
330
1F
100
AcDbEntity
  8
Capa 1
100
AcDbBlockReference
  2
block 46
 10
0.0
 20
0.0
 30
0.0
  0
INSERT
  5
177
330
1F
100
AcDbEntity
  8
Capa 1
100
AcDbBlockReference
  2
block 47
 10
0.0
 20
0.0
 30
0.0
  0
INSERT
  5
17F
330
1F
100
AcDbEntity
  8
Capa 1
100
AcDbBlockReference
  2
block 48
 10
0.0
 20
0.0
 30
0.0
  0
INSERT
  5
184
330
1F
100
AcDbEntity
  8
Capa 1
100
AcDbBlockReference
  2
block 49
 10
0.0
 20
0.0
 30
0.0
  0
INSERT
  5
189
330
1F
100
AcDbEntity
  8
Capa 1
100
AcDbBlockReference
  2
block 50
 10
0.0
 20
0.0
 30
0.0
  0
INSERT
  5
191
330
1F
100
AcDbEntity
  8
Capa 1
100
AcDbBlockReference
  2
block 51
 10
0.0
 20
0.0
 30
0.0
  0
INSERT
  5
199
330
1F
100
AcDbEntity
  8
Capa 1
100
AcDbBlockReference
  2
block 52
 10
0.0
 20
0.0
 30
0.0
  0
INSERT
  5
1A1
330
1F
100
AcDbEntity
  8
Capa 1
100
AcDbBlockReference
  2
block 53
 10
0.0
 20
0.0
 30
0.0
  0
INSERT
  5
1A6
330
1F
100
AcDbEntity
  8
Capa 1
100
AcDbBlockReference
  2
block 54
 10
0.0
 20
0.0
 30
0.0
  0
INSERT
  5
1AE
330
1F
100
AcDbEntity
  8
Capa 1
100
AcDbBlockReference
  2
block 55
 10
0.0
 20
0.0
 30
0.0
  0
INSERT
  5
1B6
330
1F
100
AcDbEntity
  8
Capa 1
100
AcDbBlockReference
  2
block 56
 10
0.0
 20
0.0
 30
0.0
  0
INSERT
  5
1BE
330
1F
100
AcDbEntity
  8
Capa 1
100
AcDbBlockReference
  2
block 57
 10
0.0
 20
0.0
 30
0.0
  0
INSERT
  5
1C3
330
1F
100
AcDbEntity
  8
Capa 1
100
AcDbBlockReference
  2
block 58
 10
0.0
 20
0.0
 30
0.0
  0
INSERT
  5
1C8
330
1F
100
AcDbEntity
  8
Capa 1
100
AcDbBlockReference
  2
block 59
 10
0.0
 20
0.0
 30
0.0
  0
INSERT
  5
1D0
330
1F
100
AcDbEntity
  8
Capa 1
100
AcDbBlockReference
  2
block 60
 10
0.0
 20
0.0
 30
0.0
  0
INSERT
  5
1D8
330
1F
100
AcDbEntity
  8
Capa 1
100
AcDbBlockReference
  2
block 61
 10
0.0
 20
0.0
 30
0.0
  0
INSERT
  5
1E0
330
1F
100
AcDbEntity
  8
Capa 1
100
AcDbBlockReference
  2
block 62
 10
0.0
 20
0.0
 30
0.0
  0
INSERT
  5
1E5
330
1F
100
AcDbEntity
  8
Capa 1
100
AcDbBlockReference
  2
block 63
 10
0.0
 20
0.0
 30
0.0
  0
INSERT
  5
1EA
330
1F
100
AcDbEntity
  8
Capa 1
100
AcDbBlockReference
  2
block 64
 10
0.0
 20
0.0
 30
0.0
  0
INSERT
  5
1F2
330
1F
100
AcDbEntity
  8
Capa 1
100
AcDbBlockReference
  2
block 65
 10
0.0
 20
0.0
 30
0.0
  0
INSERT
  5
1FA
330
1F
100
AcDbEntity
  8
Capa 1
100
AcDbBlockReference
  2
block 66
 10
0.0
 20
0.0
 30
0.0
  0
INSERT
  5
1FF
330
1F
100
AcDbEntity
  8
Capa 1
100
AcDbBlockReference
  2
block 67
 10
0.0
 20
0.0
 30
0.0
  0
INSERT
  5
204
330
1F
100
AcDbEntity
  8
Capa 1
100
AcDbBlockReference
  2
block 68
 10
0.0
 20
0.0
 30
0.0
  0
INSERT
  5
209
330
1F
100
AcDbEntity
  8
Capa 1
100
AcDbBlockReference
  2
block 69
 10
0.0
 20
0.0
 30
0.0
  0
INSERT
  5
20E
330
1F
100
AcDbEntity
  8
Capa 1
100
AcDbBlockReference
  2
block 70
 10
0.0
 20
0.0
 30
0.0
  0
INSERT
  5
213
330
1F
100
AcDbEntity
  8
Capa 1
100
AcDbBlockReference
  2
block 71
 10
0.0
 20
0.0
 30
0.0
  0
INSERT
  5
218
330
1F
100
AcDbEntity
  8
Capa 1
100
AcDbBlockReference
  2
block 72
 10
0.0
 20
0.0
 30
0.0
  0
INSERT
  5
21D
330
1F
100
AcDbEntity
  8
Capa 1
100
AcDbBlockReference
  2
block 73
 10
0.0
 20
0.0
 30
0.0
  0
INSERT
  5
222
330
1F
100
AcDbEntity
  8
Capa 1
100
AcDbBlockReference
  2
block 74
 10
0.0
 20
0.0
 30
0.0
  0
ENDSEC
  0
SECTION
  2
OBJECTS
  0
DICTIONARY
  5
C
330
0
100
AcDbDictionary
281
     1
  3
ACAD_GROUP
350
D
  3
ACAD_LAYOUT
350
1A
  3
ACAD_MATERIAL
350
3B
  3
ACAD_MLEADERSTYLE
350
227
  3
ACAD_MLINESTYLE
350
17
  3
ACAD_PLOTSETTINGS
350
19
  3
ACAD_PLOTSTYLENAME
350
E
  3
ACAD_TABLESTYLE
350
226
  3
ACAD_VISUALSTYLE
350
2A
  0
SUN
  5
3F
330
29
100
AcDbSun
 90
        1
290
     0
 63
     7
421
 16777215
 40
1.0
291
     1
 91
  2455826
 92
 54000000
292
     0
 70
     2
 71
   256
280
     1
  0
DICTIONARY
  5
D
102
{ACAD_REACTORS
330
C
102
}
330
C
100
AcDbDictionary
281
     1
  0
DICTIONARY
  5
1A
102
{ACAD_REACTORS
330
C
102
}
330
C
100
AcDbDictionary
281
     1
  3
Layout1
350
1E
  3
Layout2
350
26
  3
Model
350
22
  0
DICTIONARY
  5
3B
102
{ACAD_REACTORS
330
C
102
}
330
C
100
AcDbDictionary
281
     1
  3
ByBlock
350
3D
  3
ByLayer
350
3C
  3
Global
350
3E
  0
DICTIONARY
  5
227
102
{ACAD_REACTORS
330
C
102
}
330
C
100
AcDbDictionary
281
     1
  0
DICTIONARY
  5
17
102
{ACAD_REACTORS
330
C
102
}
330
C
100
AcDbDictionary
281
     1
  3
Standard
350
18
  0
DICTIONARY
  5
19
102
{ACAD_REACTORS
330
C
102
}
330
C
100
AcDbDictionary
281
     1
  0
ACDBDICTIONARYWDFLT
  5
E
102
{ACAD_REACTORS
330
C
102
}
330
C
100
AcDbDictionary
281
     1
  3
Normal
350
F
100
AcDbDictionaryWithDefault
340
F
  0
DICTIONARY
  5
226
102
{ACAD_REACTORS
330
C
102
}
330
C
100
AcDbDictionary
281
     1
  0
DICTIONARY
  5
2A
102
{ACAD_REACTORS
330
C
102
}
330
C
100
AcDbDictionary
281
     1
  3
2dWireframe
350
2F
  3
3D Hidden
350
31
  3
3dWireframe
350
30
  3
Basic
350
32
  3
Brighten
350
36
  3
ColorChange
350
3A
  3
Conceptual
350
34
  3
Dim
350
35
  3
Facepattern
350
39
  3
Flat
350
2B
  3
FlatWithEdges
350
2C
  3
Gouraud
350
2D
  3
GouraudWithEdges
350
2E
  3
Linepattern
350
38
  3
Realistic
350
33
  3
Thicken
350
37
  0
LAYOUT
  5
1E
102
{ACAD_REACTORS
330
1A
102
}
330
1A
100
AcDbPlotSettings
  1

  2
none_device
  4

  6

 40
0.0
 41
0.0
 42
0.0
 43
0.0
 44
0.0
 45
0.0
 46
0.0
 47
0.0
 48
0.0
 49
0.0
140
0.0
141
0.0
142
1.0
143
1.0
 70
   688
 72
     0
 73
     0
 74
     5
  7

 75
    16
 76
     0
 77
     2
 78
   300
147
1.0
148
0.0
149
0.0
100
AcDbLayout
  1
Layout1
 70
     1
 71
     1
 10
0.0
 20
0.0
 11
12.0
 21
9.0
 12
0.0
 22
0.0
 32
0.0
 14
1.000000000000000E+20
 24
1.000000000000000E+20
 34
1.000000000000000E+20
 15
-1.000000000000000E+20
 25
-1.000000000000000E+20
 35
-1.000000000000000E+20
146
0.0
 13
0.0
 23
0.0
 33
0.0
 16
1.0
 26
0.0
 36
0.0
 17
0.0
 27
1.0
 37
0.0
 76
     0
330
1B
  0
LAYOUT
  5
26
102
{ACAD_REACTORS
330
1A
102
}
330
1A
100
AcDbPlotSettings
  1

  2
none_device
  4

  6

 40
0.0
 41
0.0
 42
0.0
 43
0.0
 44
0.0
 45
0.0
 46
0.0
 47
0.0
 48
0.0
 49
0.0
140
0.0
141
0.0
142
1.0
143
1.0
 70
   688
 72
     0
 73
     0
 74
     5
  7

 75
    16
 76
     0
 77
     2
 78
   300
147
1.0
148
0.0
149
0.0
100
AcDbLayout
  1
Layout2
 70
     1
 71
     2
 10
0.0
 20
0.0
 11
0.0
 21
0.0
 12
0.0
 22
0.0
 32
0.0
 14
0.0
 24
0.0
 34
0.0
 15
0.0
 25
0.0
 35
0.0
146
0.0
 13
0.0
 23
0.0
 33
0.0
 16
1.0
 26
0.0
 36
0.0
 17
0.0
 27
1.0
 37
0.0
 76
     0
330
23
  0
LAYOUT
  5
22
102
{ACAD_REACTORS
330
1A
102
}
330
1A
100
AcDbPlotSettings
  1

  2
none_device
  4

  6

 40
0.0
 41
0.0
 42
0.0
 43
0.0
 44
0.0
 45
0.0
 46
0.0
 47
0.0
 48
0.0
 49
0.0
140
0.0
141
0.0
142
1.0
143
1.0
 70
  1712
 72
     0
 73
     0
 74
     0
  7

 75
     0
 76
     0
 77
     2
 78
   300
147
1.0
148
0.0
149
0.0
100
AcDbLayout
  1
Model
 70
     1
 71
     0
 10
0.0
 20
0.0
 11
12.0
 21
9.0
 12
0.0
 22
0.0
 32
0.0
 14
1.000000000000000E+20
 24
1.000000000000000E+20
 34
1.000000000000000E+20
 15
-1.000000000000000E+20
 25
-1.000000000000000E+20
 35
-1.000000000000000E+20
146
0.0
 13
0.0
 23
0.0
 33
0.0
 16
1.0
 26
0.0
 36
0.0
 17
0.0
 27
1.0
 37
0.0
 76
     0
330
1F
331
29
  0
MATERIAL
  5
3D
102
{ACAD_REACTORS
330
3B
102
}
330
3B
100
AcDbMaterial
  1
ByBlock
 72
     1
 94
      127
  0
MATERIAL
  5
3C
102
{ACAD_REACTORS
330
3B
102
}
330
3B
100
AcDbMaterial
  1
ByLayer
 72
     1
 94
      127
  0
MATERIAL
  5
3E
102
{ACAD_REACTORS
330
3B
102
}
330
3B
100
AcDbMaterial
  1
Global
 72
     1
 94
      127
  0
MLINESTYLE
  5
18
102
{ACAD_REACTORS
330
17
102
}
330
17
100
AcDbMlineStyle
  2
Standard
 70
     0
  3

 62
   256
 51
90.0
 52
90.0
 71
     2
 49
0.5
 62
   256
  6
BYLAYER
 49
-0.5
 62
   256
  6
BYLAYER
  0
ACDBPLACEHOLDER
  5
F
102
{ACAD_REACTORS
330
E
102
}
330
E
  0
VISUALSTYLE
  5
2F
102
{ACAD_REACTORS
330
2A
102
}
330
2A
100
AcDbVisualStyle
  2
2dWireframe
 70
     4
177
     2
291
     0
 71
     0
176
     1
 72
     2
176
     1
 73
     0
176
     1
 90
        0
176
     1
 40
-0.6
176
     1
 41
-30.0
176
     1
 62
     5
 63
     7
421
 16777215
176
     1
 74
     1
176
     1
 91
        4
176
     1
 64
     7
176
     1
 65
   257
176
     1
 75
     1
176
     1
175
     1
176
     1
 42
1.0
176
     1
 92
        0
176
     1
 66
   257
176
     1
 43
1.0
176
     1
 76
     1
176
     1
 77
     6
176
     1
 78
     2
176
     1
 67
     7
176
     1
 79
     5
176
     1
170
     0
176
     1
171
     0
176
     1
290
     0
176
     1
 93
        1
176
     1
 44
0.0
176
     1
173
     0
176
     1
  0
VISUALSTYLE
  5
31
102
{ACAD_REACTORS
330
2A
102
}
330
2A
100
AcDbVisualStyle
  2
3D Hidden
 70
     6
177
     2
291
     0
 71
     1
176
     1
 72
     2
176
     1
 73
     2
176
     1
 90
        0
176
     1
 40
-0.6
176
     1
 41
-30.0
176
     1
 62
     5
 63
     7
421
 16777215
176
     1
 74
     2
176
     1
 91
        2
176
     1
 64
     7
176
     1
 65
   257
176
     1
 75
     2
176
     1
175
     1
176
     1
 42
40.0
176
     1
 92
        0
176
     1
 66
   257
176
     1
 43
1.0
176
     1
 76
     1
176
     1
 77
     6
176
     1
 78
     2
176
     1
 67
     7
176
     1
 79
     3
176
     1
170
     0
176
     1
171
     0
176
     1
290
     0
176
     1
 93
        1
176
     1
 44
0.0
176
     1
173
     0
176
     1
  0
VISUALSTYLE
  5
30
102
{ACAD_REACTORS
330
2A
102
}
330
2A
100
AcDbVisualStyle
  2
3dWireframe
 70
     5
177
     2
291
     0
 71
     0
176
     1
 72
     2
176
     1
 73
     0
176
     1
 90
        0
176
     1
 40
-0.6
176
     1
 41
-30.0
176
     1
 62
     5
 63
     7
421
 16777215
176
     1
 74
     1
176
     1
 91
        4
176
     1
 64
     7
176
     1
 65
   257
176
     1
 75
     1
176
     1
175
     1
176
     1
 42
1.0
176
     1
 92
        0
176
     1
 66
   257
176
     1
 43
1.0
176
     1
 76
     1
176
     1
 77
     6
176
     1
 78
     2
176
     1
 67
     7
176
     1
 79
     5
176
     1
170
     0
176
     1
171
     0
176
     1
290
     0
176
     1
 93
        1
176
     1
 44
0.0
176
     1
173
     0
176
     1
  0
VISUALSTYLE
  5
32
102
{ACAD_REACTORS
330
2A
102
}
330
2A
100
AcDbVisualStyle
  2
Basic
 70
     7
177
     2
291
     1
 71
     1
176
     1
 72
     0
176
     1
 73
     1
176
     1
 90
        0
176
     1
 40
-0.6
176
     1
 41
-30.0
176
     1
 62
     5
 63
     7
421
 16777215
176
     1
 74
     0
176
     1
 91
        4
176
     1
 64
     7
176
     1
 65
   257
176
     1
 75
     1
176
     1
175
     1
176
     1
 42
1.0
176
     1
 92
        8
176
     1
 66
     7
176
     1
 43
1.0
176
     1
 76
     1
176
     1
 77
     6
176
     1
 78
     2
176
     1
 67
     7
176
     1
 79
     5
176
     1
170
     0
176
     1
171
     0
176
     1
290
     0
176
     1
 93
        1
176
     1
 44
0.0
176
     1
173
     0
176
     1
  0
VISUALSTYLE
  5
36
102
{ACAD_REACTORS
330
2A
102
}
330
2A
100
AcDbVisualStyle
  2
Brighten
 70
    12
177
     2
291
     1
 71
     2
176
     1
 72
     2
176
     1
 73
     0
176
     1
 90
        0
176
     1
 40
-0.6
176
     1
 41
-30.0
176
     1
 62
     5
 63
     7
421
 16777215
176
     1
 74
     1
176
     1
 91
        4
176
     1
 64
     7
176
     1
 65
   257
176
     1
 75
     1
176
     1
175
     1
176
     1
 42
1.0
176
     1
 92
        8
176
     1
 66
     7
176
     1
 43
1.0
176
     1
 76
     1
176
     1
 77
     6
176
     1
 78
     2
176
     1
 67
     7
176
     1
 79
     5
176
     1
170
     0
176
     1
171
     0
176
     1
290
     0
176
     1
 93
        1
176
     1
 44
50.0
176
     1
173
     0
176
     1
  0
VISUALSTYLE
  5
3A
102
{ACAD_REACTORS
330
2A
102
}
330
2A
100
AcDbVisualStyle
  2
ColorChange
 70
    16
177
     2
291
     1
 71
     2
176
     1
 72
     2
176
     1
 73
     3
176
     1
 90
        0
176
     1
 40
-0.6
176
     1
 41
-30.0
176
     1
 62
     5
 63
     8
421
  8421504
176
     1
 74
     1
176
     1
 91
        4
176
     1
 64
     7
176
     1
 65
   257
176
     1
 75
     1
176
     1
175
     1
176
     1
 42
1.0
176
     1
 92
        8
176
     1
 66
     8
424
  8421504
176
     1
 43
1.0
176
     1
 76
     1
176
     1
 77
     6
176
     1
 78
     2
176
     1
 67
     7
176
     1
 79
     5
176
     1
170
     0
176
     1
171
     0
176
     1
290
     0
176
     1
 93
        1
176
     1
 44
0.0
176
     1
173
     0
176
     1
  0
VISUALSTYLE
  5
34
102
{ACAD_REACTORS
330
2A
102
}
330
2A
100
AcDbVisualStyle
  2
Conceptual
 70
     9
177
     2
291
     0
 71
     3
176
     1
 72
     2
176
     1
 73
     0
176
     1
 90
        0
176
     1
 40
-0.6
176
     1
 41
-30.0
176
     1
 62
     5
 63
     7
421
 16777215
176
     1
 74
     2
176
     1
 91
        2
176
     1
 64
     7
176
     1
 65
   257
176
     1
 75
     1
176
     1
175
     1
176
     1
 42
40.0
176
     1
 92
        8
176
     1
 66
     7
176
     1
 43
1.0
176
     1
 76
     1
176
     1
 77
     6
176
     1
 78
     2
176
     1
 67
     7
176
     1
 79
     3
176
     1
170
     0
176
     1
171
     0
176
     1
290
     0
176
     1
 93
        1
176
     1
 44
0.0
176
     1
173
     0
176
     1
  0
VISUALSTYLE
  5
35
102
{ACAD_REACTORS
330
2A
102
}
330
2A
100
AcDbVisualStyle
  2
Dim
 70
    11
177
     2
291
     1
 71
     2
176
     1
 72
     2
176
     1
 73
     0
176
     1
 90
        0
176
     1
 40
-0.6
176
     1
 41
-30.0
176
     1
 62
     5
 63
     7
421
 16777215
176
     1
 74
     1
176
     1
 91
        4
176
     1
 64
     7
176
     1
 65
   257
176
     1
 75
     1
176
     1
175
     1
176
     1
 42
1.0
176
     1
 92
        8
176
     1
 66
     7
176
     1
 43
1.0
176
     1
 76
     1
176
     1
 77
     6
176
     1
 78
     2
176
     1
 67
     7
176
     1
 79
     5
176
     1
170
     0
176
     1
171
     0
176
     1
290
     0
176
     1
 93
        1
176
     1
 44
-50.0
176
     1
173
     0
176
     1
  0
VISUALSTYLE
  5
39
102
{ACAD_REACTORS
330
2A
102
}
330
2A
100
AcDbVisualStyle
  2
Facepattern
 70
    15
177
     2
291
     1
 71
     2
176
     1
 72
     2
176
     1
 73
     0
176
     1
 90
        0
176
     1
 40
-0.6
176
     1
 41
-30.0
176
     1
 62
     5
 63
     7
421
 16777215
176
     1
 74
     1
176
     1
 91
        4
176
     1
 64
     7
176
     1
 65
   257
176
     1
 75
     1
176
     1
175
     1
176
     1
 42
1.0
176
     1
 92
        8
176
     1
 66
     7
176
     1
 43
1.0
176
     1
 76
     1
176
     1
 77
     6
176
     1
 78
     2
176
     1
 67
     7
176
     1
 79
     5
176
     1
170
     0
176
     1
171
     0
176
     1
290
     0
176
     1
 93
        1
176
     1
 44
0.0
176
     1
173
     0
176
     1
  0
VISUALSTYLE
  5
2B
102
{ACAD_REACTORS
330
2A
102
}
330
2A
100
AcDbVisualStyle
  2
Flat
 70
     0
177
     2
291
     1
 71
     2
176
     1
 72
     1
176
     1
 73
     1
176
     1
 90
        2
176
     1
 40
-0.6
176
     1
 41
30.0
176
     1
 62
     5
 63
     7
421
 16777215
176
     1
 74
     0
176
     1
 91
        4
176
     1
 64
     7
176
     1
 65
   257
176
     1
 75
     1
176
     1
175
     1
176
     1
 42
1.0
176
     1
 92
        8
176
     1
 66
     7
176
     1
 43
1.0
176
     1
 76
     1
176
     1
 77
     6
176
     1
 78
     2
176
     1
 67
     7
176
     1
 79
     5
176
     1
170
     0
176
     1
171
     0
176
     1
290
     0
176
     1
 93
       13
176
     1
 44
0.0
176
     1
173
     0
176
     1
  0
VISUALSTYLE
  5
2C
102
{ACAD_REACTORS
330
2A
102
}
330
2A
100
AcDbVisualStyle
  2
FlatWithEdges
 70
     1
177
     2
291
     1
 71
     2
176
     1
 72
     1
176
     1
 73
     1
176
     1
 90
        2
176
     1
 40
-0.6
176
     1
 41
30.0
176
     1
 62
     5
 63
     7
421
 16777215
176
     1
 74
     1
176
     1
 91
        4
176
     1
 64
     7
176
     1
 65
   257
176
     1
 75
     1
176
     1
175
     1
176
     1
 42
1.0
176
     1
 92
        0
176
     1
 66
   257
176
     1
 43
1.0
176
     1
 76
     1
176
     1
 77
     6
176
     1
 78
     2
176
     1
 67
     7
176
     1
 79
     5
176
     1
170
     0
176
     1
171
     0
176
     1
290
     0
176
     1
 93
       13
176
     1
 44
0.0
176
     1
173
     0
176
     1
  0
VISUALSTYLE
  5
2D
102
{ACAD_REACTORS
330
2A
102
}
330
2A
100
AcDbVisualStyle
  2
Gouraud
 70
     2
177
     2
291
     1
 71
     2
176
     1
 72
     2
176
     1
 73
     1
176
     1
 90
        2
176
     1
 40
-0.6
176
     1
 41
30.0
176
     1
 62
     5
 63
     7
421
 16777215
176
     1
 74
     0
176
     1
 91
        4
176
     1
 64
     7
176
     1
 65
   257
176
     1
 75
     1
176
     1
175
     1
176
     1
 42
1.0
176
     1
 92
        0
176
     1
 66
     7
176
     1
 43
1.0
176
     1
 76
     1
176
     1
 77
     6
176
     1
 78
     2
176
     1
 67
     7
176
     1
 79
     5
176
     1
170
     0
176
     1
171
     0
176
     1
290
     0
176
     1
 93
       13
176
     1
 44
0.0
176
     1
173
     0
176
     1
  0
VISUALSTYLE
  5
2E
102
{ACAD_REACTORS
330
2A
102
}
330
2A
100
AcDbVisualStyle
  2
GouraudWithEdges
 70
     3
177
     2
291
     1
 71
     2
176
     1
 72
     2
176
     1
 73
     1
176
     1
 90
        2
176
     1
 40
-0.6
176
     1
 41
30.0
176
     1
 62
     5
 63
     7
421
 16777215
176
     1
 74
     1
176
     1
 91
        4
176
     1
 64
     7
176
     1
 65
   257
176
     1
 75
     1
176
     1
175
     1
176
     1
 42
1.0
176
     1
 92
        0
176
     1
 66
   257
176
     1
 43
1.0
176
     1
 76
     1
176
     1
 77
     6
176
     1
 78
     2
176
     1
 67
     7
176
     1
 79
     5
176
     1
170
     0
176
     1
171
     0
176
     1
290
     0
176
     1
 93
       13
176
     1
 44
0.0
176
     1
173
     0
176
     1
  0
VISUALSTYLE
  5
38
102
{ACAD_REACTORS
330
2A
102
}
330
2A
100
AcDbVisualStyle
  2
Linepattern
 70
    14
177
     2
291
     1
 71
     2
176
     1
 72
     2
176
     1
 73
     0
176
     1
 90
        0
176
     1
 40
-0.6
176
     1
 41
-30.0
176
     1
 62
     5
 63
     7
421
 16777215
176
     1
 74
     1
176
     1
 91
        4
176
     1
 64
     7
176
     1
 65
   257
176
     1
 75
     7
176
     1
175
     7
176
     1
 42
1.0
176
     1
 92
        8
176
     1
 66
     7
176
     1
 43
1.0
176
     1
 76
     1
176
     1
 77
     6
176
     1
 78
     2
176
     1
 67
     7
176
     1
 79
     5
176
     1
170
     0
176
     1
171
     0
176
     1
290
     0
176
     1
 93
        1
176
     1
 44
0.0
176
     1
173
     0
176
     1
  0
VISUALSTYLE
  5
33
102
{ACAD_REACTORS
330
2A
102
}
330
2A
100
AcDbVisualStyle
  2
Realistic
 70
     8
177
     2
291
     0
 71
     2
176
     1
 72
     2
176
     1
 73
     0
176
     1
 90
        0
176
     1
 40
-0.6
176
     1
 41
-30.0
176
     1
 62
     5
 63
     7
421
 16777215
176
     1
 74
     1
176
     1
 91
        0
176
     1
 64
     7
176
     1
 65
   257
176
     1
 75
     1
176
     1
175
     1
176
     1
 42
1.0
176
     1
 92
        8
176
     1
 66
     8
424
  7895160
176
     1
 43
1.0
176
     1
 76
     1
176
     1
 77
     6
176
     1
 78
     2
176
     1
 67
     7
176
     1
 79
     5
176
     1
170
     0
176
     1
171
     0
176
     1
290
     0
176
     1
 93
       13
176
     1
 44
0.0
176
     1
173
     0
176
     1
  0
VISUALSTYLE
  5
37
102
{ACAD_REACTORS
330
2A
102
}
330
2A
100
AcDbVisualStyle
  2
Thicken
 70
    13
177
     2
291
     1
 71
     2
176
     1
 72
     2
176
     1
 73
     0
176
     1
 90
        0
176
     1
 40
-0.6
176
     1
 41
-30.0
176
     1
 62
     5
 63
     7
421
 16777215
176
     1
 74
     1
176
     1
 91
        4
176
     1
 64
     7
176
     1
 65
   257
176
     1
 75
     1
176
     1
175
     1
176
     1
 42
1.0
176
     1
 92
       12
176
     1
 66
     7
176
     1
 43
1.0
176
     1
 76
     1
176
     1
 77
     6
176
     1
 78
     2
176
     1
 67
     7
176
     1
 79
     5
176
     1
170
     0
176
     1
171
     0
176
     1
290
     0
176
     1
 93
        1
176
     1
 44
0.0
176
     1
173
     0
176
     1
  0
ENDSEC
  0
EOF
