0
SECTION
2
HEADER
9
$INSUNITS
70
4
9
$ACADVER
1
AC1014
9
$HANDSEED
5
FFFF
0
ENDSEC
0
SECTION
2
TABLES
0
TABLE
2
VPORT
5
8
100
AcDbSymbolTable
0
ENDTAB
0
TABLE
2
LTYPE
5
5
100
AcDbSymbolTable
0
LTYPE
5
14
100
AcDbSymbolTableRecord
100
AcDbLinetypeTableRecord
2
BYBLOCK
70
0
0
LTYPE
5
15
100
AcDbSymbolTableRecord
100
AcDbLinetypeTableRecord
2
BYLAYER
70
0
0
ENDTAB
0
TABLE
2
LAYER
5
2
100
AcDbSymbolTable
70
2
0
LAYER
5
50
100
AcDbSymbolTableRecord
100
AcDbLayerTableRecord
2
0
70
0
6
CONTINUOUS
0
ENDTAB
0
TABLE
2
STYLE
5
3
100
AcDbSymbolTable
70
1
0
STYLE
5
11
100
AcDbSymbolTableRecord
100
AcDbTextStyleTableRecord
2
STANDARD
70
0
0
ENDTAB
0
TABLE
2
VIEW
5
6
100
AcDbSymbolTable
70
0
0
ENDTAB
0
TABLE
2
UCS
5
7
100
AcDbSymbolTable
70
0
0
ENDTAB
0
TABLE
2
APPID
5
9
100
AcDbSymbolTable
70
2
0
APPID
5
12
100
AcDbSymbolTableRecord
100
AcDbRegAppTableRecord
2
ACAD
70
0
0
ENDTAB
0
TABLE
2
DIMSTYLE
5
A
100
AcDbSymbolTable
70
1
0
ENDTAB
0
TABLE
2
BLOCK_RECORD
5
1
100
AcDbSymbolTable
70
1
0
BLOCK_RECORD
5
1F
100
AcDbSymbolTableRecord
100
AcDbBlockTableRecord
2
*MODEL_SPACE
0
BLOCK_RECORD
5
1B
100
AcDbSymbolTableRecord
100
AcDbBlockTableRecord
2
*PAPER_SPACE
0
ENDTAB
0
ENDSEC
0
SECTION
2
BLOCKS
0
BLOCK
5
20
100
AcDbEntity
100
AcDbBlockBegin
2
*MODEL_SPACE
0
ENDBLK
5
21
100
AcDbEntity
100
AcDbBlockEnd
0
BLOCK
5
1C
100
AcDbEntity
100
AcDbBlockBegin
2
*PAPER_SPACE
0
ENDBLK
5
1D
100
AcDbEntity
100
AcDbBlockEnd
0
ENDSEC
0
SECTION
2
ENTITIES
0
CIRCLE
5
100
100
AcDbEntity
8
0
100
AcDbCircle
10
0
20
0
30
0
40
190
210
0
220
0
230
1
0
LWPOLYLINE
5
101
100
AcDbEntity
8
0
100
AcDbPolyline
90
6
70
1
43
0.0
10
-121.24355652982153
20
70.000000000000057
10
0
20
140
10
121.24355652982138
20
69.999999999999972
10
121.24355652982129
20
-70.00000000000027
10
-1.7763568394002505e-14
20
-140.00000000000023
10
-121.24355652982157
20
-70.000000000000057
0
LWPOLYLINE
5
102
100
AcDbEntity
8
0
100
AcDbPolyline
90
6
70
1
43
0.0
10
-151.24355652982157
20
-87.320508075688807
10
-151.24355652982155
20
87.320508075688807
10
-8.8817841970012523e-14
20
174.64101615137761
10
151.24355652982129
20
87.320508075688807
10
151.24355652982126
20
-87.320508075689162
10
-1.7763568394002505e-14
20
-174.64101615137781
0
LINE
5
103
100
AcDbEntity
8
0
100
AcDbLine
10
-190
20
7.6549004518596707e-14
30
0
11
190
21
7.8564106090379126e-14
31
0
0
LWPOLYLINE
5
104
100
AcDbEntity
8
0
100
AcDbPolyline
90
4
70
1
43
0.0
10
-4.9999999999999991
20
-141.66666666666669
10
5
20
-141.66666666666669
10
5
20
141.66666666666669
10
-5
20
141.66666666666669
0
LINE
5
105
100
AcDbEntity
8
0
100
AcDbLine
10
0
20
190
30
0
11
0
21
-190
31
0
0
LWPOLYLINE
5
106
100
AcDbEntity
8
0
100
AcDbPolyline
90
4
70
1
43
0.0
10
-19.433756729740647
20
133.33333333333337
10
-9.4337567297406473
20
133.33333333333337
10
-9.4337567297406473
20
-133.33333333333337
10
-19.433756729740647
20
-133.33333333333337
0
LWPOLYLINE
5
107
100
AcDbEntity
8
0
100
AcDbPolyline
90
4
70
1
43
0.0
10
-23.867513459481302
20
125.00000000000001
10
-33.867513459481302
20
125.00000000000001
10
-33.867513459481302
20
-125.00000000000001
10
-23.867513459481302
20
-125.00000000000001
0
LWPOLYLINE
5
108
100
AcDbEntity
8
0
100
AcDbPolyline
90
4
70
1
43
0.0
10
-38.301270189221945
20
116.66666666666669
10
-48.301270189221952
20
116.6666666666665
10
-48.301270189221938
20
-116.66666666666686
10
-38.301270189221945
20
-116.66666666666669
0
LWPOLYLINE
5
109
100
AcDbEntity
8
0
100
AcDbPolyline
90
4
70
1
43
0.0
10
-52.735026918962603
20
108.33333333333336
10
-62.735026918962561
20
108.33333333333336
10
-62.735026918962589
20
-108.33333333333336
10
-52.735026918962589
20
-108.33333333333336
0
LWPOLYLINE
5
110
100
AcDbEntity
8
0
100
AcDbPolyline
90
4
70
1
43
0.0
10
-67.16878364870233
20
100.00000000000001
10
-77.168783648702345
20
99.999999999999559
10
-77.168783648697399
20
-100.00000000000048
10
-67.168783648697399
20
-99.999999999993477
0
LWPOLYLINE
5
111
100
AcDbEntity
8
0
100
AcDbPolyline
90
4
70
1
43
0.0
10
-81.602540378425402
20
91.666666666666686
10
-91.602540378425417
20
91.666666666666686
10
-91.60254037843805
20
-91.666666666666686
10
-81.60254037843805
20
-91.666666666666686
0
LWPOLYLINE
5
112
100
AcDbEntity
8
0
100
AcDbPolyline
90
4
70
1
43
0.0
10
81.602540378425402
20
91.666666666666686
10
91.602540378425417
20
91.666666666666686
10
91.602540378438647
20
-91.666666666666686
10
81.60254037843751
20
-91.666666666666686
0
LWPOLYLINE
5
113
100
AcDbEntity
8
0
100
AcDbPolyline
90
4
70
1
43
0.0
10
67.16878364870233
20
100.00000000000001
10
77.168783648702345
20
99.999999999999559
10
77.168783648703524
20
-100.00000000000048
10
67.168783648703226
20
-99.999999999993449
0
LWPOLYLINE
5
114
100
AcDbEntity
8
0
100
AcDbPolyline
90
4
70
1
43
0.0
10
52.735026918962603
20
108.33333333333336
10
62.735026918962561
20
108.33333333333336
10
62.735026918962589
20
-108.33333333333336
10
52.735026918962589
20
-108.33333333333336
0
LWPOLYLINE
5
115
100
AcDbEntity
8
0
100
AcDbPolyline
90
4
70
1
43
0.0
10
38.301270189221945
20
116.66666666666669
10
48.301270189221938
20
116.6666666666665
10
48.301270189221938
20
-116.66666666666686
10
38.301270189221945
20
-116.66666666666669
0
LWPOLYLINE
5
116
100
AcDbEntity
8
0
100
AcDbPolyline
90
4
70
1
43
0.0
10
23.867513459481302
20
125.00000000000001
10
33.867513459481302
20
125.00000000000001
10
33.867513459481302
20
-125.00000000000001
10
23.867513459481302
20
-125.00000000000001
0
LWPOLYLINE
5
117
100
AcDbEntity
8
0
100
AcDbPolyline
90
4
70
1
43
0.0
10
19.433756729740647
20
133.33333333333337
10
9.4337567297406473
20
133.33333333333337
10
9.4337567297406473
20
-133.33333333333337
10
19.433756729740647
20
-133.33333333333337
0
LWPOLYLINE
5
118
100
AcDbEntity
8
0
100
AcDbPolyline
90
4
70
1
43
0.0
10
-96.036297108178701
20
83.333333333333357
10
-106.0362971081787
20
83.333333333333357
10
-106.0362971081787
20
-83.333333333333357
10
-96.036297108178701
20
-83.333333333333357
0
LWPOLYLINE
5
119
100
AcDbEntity
8
0
100
AcDbPolyline
90
4
70
1
43
0.0
10
-110.47005383792484
20
75.000000000000014
10
-120.47005383792484
20
75.000000000000014
10
-120.47005383791934
20
-75
10
-110.47005383791934
20
-74.999999999999986
0
LWPOLYLINE
5
120
100
AcDbEntity
8
0
100
AcDbPolyline
90
4
70
1
43
0.0
10
96.036297108178701
20
83.333333333333357
10
106.0362971081787
20
83.333333333333357
10
106.0362971081787
20
-83.333333333333357
10
96.036297108178701
20
-83.333333333333357
0
LWPOLYLINE
5
121
100
AcDbEntity
8
0
100
AcDbPolyline
90
4
70
1
43
0.0
10
110.47005383792484
20
75.000000000000014
10
120.47005383792484
20
75.000000000000014
10
120.47005383791904
20
-75
10
110.47005383792484
20
-74.999999999999986
0
LINE
5
122
100
AcDbEntity
8
0
100
AcDbLine
10
0
20
0
30
0
11
-151.24355652982155
21
87.320508075688807
31
0
0
ENDSEC
0
SECTION
2
OBJECTS
0
DICTIONARY
5
C
100
AcDbDictionary
3
ACAD_GROUP
350
D
3
ACAD_MLINESTYLE
350
17
0
DICTIONARY
5
D
100
AcDbDictionary
0
DICTIONARY
5
1A
330
C
100
AcDbDictionary
0
DICTIONARY
5
17
100
AcDbDictionary
0
ENDSEC
0
EOF
