0
SECTION
2
HEADER
9
$INSUNITS
70
4
9
$ACADVER
1
AC1014
9
$HANDSEED
5
FFFF
0
ENDSEC
0
SECTION
2
TABLES
0
TABLE
2
VPORT
5
8
100
AcDbSymbolTable
0
ENDTAB
0
TABLE
2
LTYPE
5
5
100
AcDbSymbolTable
0
LTYPE
5
14
100
AcDbSymbolTableRecord
100
AcDbLinetypeTableRecord
2
BYBLOCK
70
0
0
LTYPE
5
15
100
AcDbSymbolTableRecord
100
AcDbLinetypeTableRecord
2
BYLAYER
70
0
0
ENDTAB
0
TABLE
2
LAYER
5
2
100
AcDbSymbolTable
70
2
0
LAYER
5
50
100
AcDbSymbolTableRecord
100
AcDbLayerTableRecord
2
0
70
0
6
CONTINUOUS
0
ENDTAB
0
TABLE
2
STYLE
5
3
100
AcDbSymbolTable
70
1
0
STYLE
5
11
100
AcDbSymbolTableRecord
100
AcDbTextStyleTableRecord
2
STANDARD
70
0
0
ENDTAB
0
TABLE
2
VIEW
5
6
100
AcDbSymbolTable
70
0
0
ENDTAB
0
TABLE
2
UCS
5
7
100
AcDbSymbolTable
70
0
0
ENDTAB
0
TABLE
2
APPID
5
9
100
AcDbSymbolTable
70
2
0
APPID
5
12
100
AcDbSymbolTableRecord
100
AcDbRegAppTableRecord
2
ACAD
70
0
0
ENDTAB
0
TABLE
2
DIMSTYLE
5
A
100
AcDbSymbolTable
70
1
0
ENDTAB
0
TABLE
2
BLOCK_RECORD
5
1
100
AcDbSymbolTable
70
1
0
BLOCK_RECORD
5
1F
100
AcDbSymbolTableRecord
100
AcDbBlockTableRecord
2
*MODEL_SPACE
0
BLOCK_RECORD
5
1B
100
AcDbSymbolTableRecord
100
AcDbBlockTableRecord
2
*PAPER_SPACE
0
ENDTAB
0
ENDSEC
0
SECTION
2
BLOCKS
0
BLOCK
5
20
100
AcDbEntity
100
AcDbBlockBegin
2
*MODEL_SPACE
0
ENDBLK
5
21
100
AcDbEntity
100
AcDbBlockEnd
0
BLOCK
5
1C
100
AcDbEntity
100
AcDbBlockBegin
2
*PAPER_SPACE
0
ENDBLK
5
1D
100
AcDbEntity
100
AcDbBlockEnd
0
ENDSEC
0
SECTION
2
ENTITIES
0
CIRCLE
5
100
100
AcDbEntity
8
0
100
AcDbCircle
10
-84.56088913245523
20
146.46375631061164
30
0
40
4.0000000000000036
210
0
220
0
230
1
0
CIRCLE
5
101
100
AcDbEntity
8
0
100
AcDbCircle
10
84.560889132455443
20
146.46375631061153
30
0
40
4.0000000000000036
210
0
220
0
230
1
0
CIRCLE
5
102
100
AcDbEntity
8
0
100
AcDbCircle
10
169.12177826491069
20
-2.0711444441823127e-14
30
0
40
3.9999999999999858
210
0
220
0
230
1
0
LINE
5
103
100
AcDbEntity
8
0
100
AcDbLine
10
121.24348882039391
20
70.00004622141519
30
0
11
121.24348882039391
21
58.571100743611652
31
0
0
SPLINE
5
104
100
AcDbEntity
8
0
100
AcDbSpline
70
0
71
3
72
18
73
14
74
0
42
0.000000001
43
0.0000000001
44
0.0000000001
40
-0.42815951801747276
40
-0.42815951801747276
40
-0.42815951801747276
40
-0.42815951801747276
40
-0.29897777561935213
40
-0.29897777561935213
40
-0.25048364204521806
40
-0.25048364204521806
40
-0.21312673804728732
40
-0.21312673804728732
40
-0.17286014232621574
40
-0.17286014232621574
40
-0.11304661936829165
40
-0.11304661936829165
40
0
40
0
40
0
40
0
10
121.24348882039392
20
58.571100743611652
30
0
10
121.26886071064348
20
58.03078385035063
30
0
10
121.23289408392112
20
57.556126884745638
30
0
10
121.06092427663525
20
57.059340426832193
30
0
10
120.99705590897335
20
56.927148401817398
30
0
10
120.84119946176814
20
56.726360993689056
30
0
10
120.76084389011586
20
56.652435440708828
30
0
10
120.56353154483421
20
56.534588636673391
30
0
10
120.45168689495225
20
56.497918543928535
30
0
10
120.15847587563294
20
56.455245379793439
30
0
10
119.97517305108653
20
56.47363167166732
30
0
10
119.47602391679615
20
56.583683375565307
30
0
10
119.12829237099501
20
56.738860455885785
30
0
10
118.79820849100753
20
56.920628166198725
30
0
0
SPLINE
5
105
100
AcDbEntity
8
0
100
AcDbSpline
70
0
71
3
72
14
73
10
74
0
42
0.000000001
43
0.0000000001
44
0.0000000001
40
-0.51198722201499702
40
-0.51198722201499702
40
-0.51198722201499702
40
-0.51198722201499702
40
-0.34668745827562786
40
-0.34668745827562786
40
-0.23634980235134939
40
-0.23634980235134939
40
-0.13203148955430888
40
-0.13203148955430888
40
0
40
0
40
0
40
0
10
118.79820849100753
20
56.920628166198725
30
0
10
118.31683901844977
20
57.185801599325117
30
0
10
117.78040070513447
20
57.395898792998452
30
0
10
116.87694680046882
20
57.558044716012049
30
0
10
116.50823337196576
20
57.573604129091777
30
0
10
115.80083581713717
20
57.469862867765038
30
0
10
115.47619256912611
20
57.360027819005097
30
0
10
114.7905879288016
20
56.972687415413425
30
0
10
114.46896374743538
20
56.673239473764887
30
0
10
114.19842465718591
20
56.326106961568186
30
0
0
SPLINE
5
106
100
AcDbEntity
8
0
100
AcDbSpline
70
0
71
3
72
16
73
12
74
0
42
0.000000001
43
0.0000000001
44
0.0000000001
40
-0.58704709033630298
40
-0.58704709033630298
40
-0.58704709033630298
40
-0.58704709033630298
40
-0.50085170845611438
40
-0.50085170845611438
40
-0.40997948622850688
40
-0.40997948622850688
40
-0.23955875096584345
40
-0.23955875096584345
40
-0.10783245751071589
40
-0.10783245751071589
40
0
40
0
40
0
40
0
10
114.19842465718591
20
56.326106961568186
30
0
10
114.02218065931065
20
56.099985661407558
30
0
10
113.87874683518231
20
55.846908056041229
30
0
10
113.64612141614901
20
55.305102171133186
30
0
10
113.55846315618876
20
55.011037205310764
30
0
10
113.39174052814712
20
54.156140792711909
30
0
10
113.38320403070998
20
53.565755875124658
30
0
10
113.55706583727111
20
52.572755506276053
30
0
10
113.69815986081582
20
52.148325435093376
30
0
10
114.09193844872337
20
51.453715535742631
30
0
10
114.31733509322946
20
51.173913977992378
30
0
10
114.59292577107749
20
50.943158721923822
30
0
0
SPLINE
5
107
100
AcDbEntity
8
0
100
AcDbSpline
70
0
71
3
72
14
73
10
74
0
42
0.000000001
43
0.0000000001
44
0.0000000001
40
-0.54598142789184778
40
-0.54598142789184778
40
-0.54598142789184778
40
-0.54598142789184778
40
-0.45674982575274825
40
-0.45674982575274825
40
-0.36941371568952652
40
-0.36941371568952652
40
-0.21832368091636031
40
-0.21832368091636031
40
0
40
0
40
0
40
0
10
114.59292577107749
20
50.943158721923822
30
0
10
114.78767093123359
20
50.780040761011087
30
0
10
115.00307806178432
20
50.648902426552453
30
0
10
115.46844392061556
20
50.459386184360639
30
0
10
115.70959654128607
20
50.402785150316888
30
0
10
116.38523048278758
20
50.339577249526769
30
0
10
116.81810586670217
20
50.40064825453512
30
0
10
117.82619503125581
20
50.708152861142253
30
0
10
118.43023539749313
20
51.04059678249142
30
0
10
118.99692052205407
20
51.497194671630844
30
0
0
SPLINE
5
108
100
AcDbEntity
8
0
100
AcDbSpline
70
0
71
3
72
20
73
16
74
0
42
0.000000001
43
0.0000000001
44
0.0000000001
40
-0.46358785168366112
40
-0.46358785168366112
40
-0.46358785168366112
40
-0.46358785168366112
40
-0.3435649956214244
40
-0.3435649956214244
40
-0.29565309453342958
40
-0.29565309453342958
40
-0.26559206766510501
40
-0.26559206766510501
40
-0.23748952511913995
40
-0.23748952511913995
40
-0.20321086316818565
40
-0.20321086316818565
40
-0.14593822748085719
40
-0.14593822748085719
40
0
40
0
40
0
40
0
10
118.99692052205407
20
51.497194671630844
30
0
10
119.30572960548787
20
51.746042204103126
30
0
10
119.64298802595687
20
51.979614251979868
30
0
10
120.08710547387658
20
52.164508501765511
30
0
10
120.22551919065323
20
52.207244223037755
30
0
10
120.44833174297
20
52.227274825593867
30
0
10
120.53478567158734
20
52.223143954310977
30
0
10
120.69623984433255
20
52.180797212792093
30
0
10
120.76720239517161
20
52.145982814817032
30
0
10
120.90904478427282
20
52.036765259154365
30
0
10
120.97100713251841
20
51.959542847594584
30
0
10
121.10376564191492
20
51.73293416217728
30
0
10
121.15585614185925
20
51.564118852310216
30
0
10
121.27559809198746
20
50.995050488066205
30
0
10
121.27555013328339
20
50.485588020461307
30
0
10
121.24348882039392
20
50.000184949239085
30
0
0
LINE
5
109
100
AcDbEntity
8
0
100
AcDbLine
10
121.24348882039392
20
50.000184949239099
30
0
11
121.24348882039391
21
1.2914574940999124
31
0
0
SPLINE
5
110
100
AcDbEntity
8
0
100
AcDbSpline
70
0
71
3
72
20
73
16
74
0
42
0.000000001
43
0.0000000001
44
0.0000000001
40
-0.47652223410785877
40
-0.47652223410785877
40
-0.47652223410785877
40
-0.47652223410785877
40
-0.30427357322007342
40
-0.30427357322007342
40
-0.23730829811069876
40
-0.23730829811069876
40
-0.20113348373633938
40
-0.20113348373633938
40
-0.1727653248701049
40
-0.1727653248701049
40
-0.14180512956019106
40
-0.14180512956019106
40
-0.095165989922052149
40
-0.095165989922052149
40
0
40
0
40
0
40
0
10
121.24348882039392
20
1.2914574940999124
30
0
10
121.25010727444536
20
0.70494510302078073
30
0
10
121.29333837579146
20
0.09248819956431148
30
0
10
121.46956274046916
20
-0.5853840675401083
30
0
10
121.53956890998741
20
-0.78703182780267433
30
0
10
121.69592100436012
20
-1.0463775329992835
30
0
10
121.76251703989652
20
-1.1319624021905748
30
0
10
121.90759211901383
20
-1.2540581531421047
30
0
10
121.9785152354292
20
-1.295596029147865
30
0
10
122.14369752360707
20
-1.35123133327241
30
0
10
122.23315059157601
20
-1.3603360199895906
30
0
10
122.46057918602668
20
-1.3447358775474689
30
0
10
122.59664722788274
20
-1.3007612068705765
30
0
10
122.97529249302855
20
-1.1284293225339344
30
0
10
123.23435719902565
20
-0.93595374667204334
30
0
10
123.47261632283534
20
-0.72652333577476469
30
0
0
SPLINE
5
111
100
AcDbEntity
8
0
100
AcDbSpline
70
0
71
3
72
16
73
12
74
0
42
0.000000001
43
0.0000000001
44
0.0000000001
40
-0.5737700699537156
40
-0.5737700699537156
40
-0.5737700699537156
40
-0.5737700699537156
40
-0.47080602915913888
40
-0.47080602915913888
40
-0.37758873069555665
40
-0.37758873069555665
40
-0.26546699524187667
40
-0.26546699524187667
40
-0.14500808429878362
40
-0.14500808429878362
40
0
40
0
40
0
40
0
10
123.47261632283534
20
-0.72652333577476469
30
0
10
123.69193536160937
20
-0.53370099868614007
30
0
10
123.93203969686638
20
-0.36455243326668374
30
0
10
124.42672555734981
20
-0.11121040389204059
30
0
10
124.67543284931877
20
-0.021750711790134304
30
0
10
125.24607561722937
20
0.088400117810426768
30
0
10
125.56185403157015
20
0.089311146632599897
30
0
10
126.20702361180378
20
-0.039300186162167017
30
0
10
126.51913050291306
20
-0.17514632560274826
30
0
10
127.14314745472406
20
-0.59480013596234826
30
0
10
127.45513471911495
20
-0.91162875264595256
30
0
10
127.72313206990563
20
-1.3138905843099202
30
0
0
SPLINE
5
112
100
AcDbEntity
8
0
100
AcDbSpline
70
0
71
3
72
14
73
10
74
0
42
0.000000001
43
0.0000000001
44
0.0000000001
40
-0.628641115662262
40
-0.628641115662262
40
-0.628641115662262
40
-0.628641115662262
40
-0.46369111584510275
40
-0.46369111584510275
40
-0.28113559887381256
40
-0.28113559887381256
40
-0.13479657883795457
40
-0.13479657883795457
40
0
40
0
40
0
40
0
10
127.72313206990563
20
-1.3138905843099202
30
0
10
127.99750019609361
20
-1.7256894841644024
30
0
10
128.21639735457336
20
-2.21702423299091
30
0
10
128.5175837376608
20
-3.3326635946392589
30
0
10
128.58016185947059
20
-3.9566994710668091
30
0
10
128.48372010833967
20
-5.0478143512881459
30
0
10
128.36600818917123
20
-5.5252713491198993
30
0
10
127.97082436832844
20
-6.3741675360226218
30
0
10
127.71281744211208
20
-6.7378435858065489
30
0
10
127.3876551310222
20
-7.0479398091634415
30
0
0
SPLINE
5
113
100
AcDbEntity
8
0
100
AcDbSpline
70
0
71
3
72
14
73
10
74
0
42
0.000000001
43
0.0000000001
44
0.0000000001
40
-0.45185682162916008
40
-0.45185682162916008
40
-0.45185682162916008
40
-0.45185682162916008
40
-0.33572835982842131
40
-0.33572835982842131
40
-0.23948317102626621
40
-0.23948317102626621
40
-0.13501806363745597
40
-0.13501806363745597
40
0
40
0
40
0
40
0
10
127.3876551310222
20
-7.0479398091634415
30
0
10
127.10751208376882
20
-7.3150815400015432
30
0
10
126.79418894228351
20
-7.5536258368027465
30
0
10
126.16154994688335
20
-7.8716169566696923
30
0
10
125.85878724605405
20
-7.9681374554636033
30
0
10
125.19393295519775
20
-8.0433480825212058
30
0
10
124.85227139251504
20
-8.0086230860484218
30
0
10
124.08473904371212
20
-7.7890023134874227
30
0
10
123.68080811927925
20
-7.5681094847762553
30
0
10
123.3159721374512
20
-7.3045778910319292
30
0
0
SPLINE
5
114
100
AcDbEntity
8
0
100
AcDbSpline
70
0
71
3
72
20
73
16
74
0
42
0.000000001
43
0.0000000001
44
0.0000000001
40
-0.41061544668333261
40
-0.41061544668333261
40
-0.41061544668333261
40
-0.41061544668333261
40
-0.32643584514476759
40
-0.32643584514476759
40
-0.27127034707778386
40
-0.27127034707778386
40
-0.23873291797179264
40
-0.23873291797179264
40
-0.21053494377321202
40
-0.21053494377321202
40
-0.17765651250442946
40
-0.17765651250442946
40
-0.12468251775087576
40
-0.12468251775087576
40
0
40
0
40
0
40
0
10
123.3159721374512
20
-7.3045778910319292
30
0
10
123.11944840037393
20
-7.1626570914940748
30
0
10
122.89881730516313
20
-7.0210938346002933
30
0
10
122.53425396026165
20
-6.851249009131549
30
0
10
122.37435129702047
20
-6.7933611329195598
30
0
10
122.12312269468113
20
-6.7584754720183486
30
0
10
122.028069188366
20
-6.7576613370821601
30
0
10
121.8558896286038
20
-6.7927091916771696
30
0
10
121.7817133946793
20
-6.8229445285301011
30
0
10
121.6348326951349
20
-6.9211687290930959
30
0
10
121.57025314318147
20
-6.9906943440665508
30
0
10
121.43166368005234
20
-7.1967498321891661
30
0
10
121.37530171496738
20
-7.3494789586352027
30
0
10
121.24721297832917
20
-7.8460784935168899
30
0
10
121.23001703177188
20
-8.2761348934282069
30
0
10
121.24348882039392
20
-8.6915248870849915
30
0
0
LINE
5
115
100
AcDbEntity
8
0
100
AcDbLine
10
121.24348882039392
20
-8.6915248870849915
30
0
11
121.24348882039391
21
-43.880058542887411
31
0
0
SPLINE
5
116
100
AcDbEntity
8
0
100
AcDbSpline
70
0
71
3
72
16
73
12
74
0
42
0.000000001
43
0.0000000001
44
0.0000000001
40
-0.38641458143217389
40
-0.38641458143217389
40
-0.38641458143217389
40
-0.38641458143217389
40
-0.29151240534401029
40
-0.29151240534401029
40
-0.20929081859015641
40
-0.20929081859015641
40
-0.14947471232100262
40
-0.14947471232100262
40
-0.087584585796440059
40
-0.087584585796440059
40
0
40
0
40
0
40
0
10
121.24348882039392
20
-43.88005854288739
30
0
10
121.23626594566733
20
-44.196062138026697
30
0
10
121.2069543718266
20
-44.523470454122112
30
0
10
121.08025775922445
20
-45.10016772138259
30
0
10
120.98951648880502
20
-45.36774658231203
30
0
10
120.74706580899397
20
-45.774909869627429
30
0
10
120.62038634512291
20
-45.926747224970448
30
0
10
120.30183593313963
20
-46.178585190789406
30
0
10
120.1192120517146
20
-46.267631801857398
30
0
10
119.6390765881617
20
-46.402490678596344
30
0
10
119.33831191495176
20
-46.411277606565456
30
0
10
119.04770876566573
20
-46.383281071980811
30
0
0
SPLINE
5
117
100
AcDbEntity
8
0
100
AcDbSpline
70
0
71
3
72
16
73
12
74
0
42
0.000000001
43
0.0000000001
44
0.0000000001
40
-0.67912373892709055
40
-0.67912373892709055
40
-0.67912373892709055
40
-0.67912373892709055
40
-0.36450925100573606
40
-0.36450925100573606
40
-0.26519728742898813
40
-0.26519728742898813
40
-0.19138730550685989
40
-0.19138730550685989
40
-0.10883670955641814
40
-0.10883670955641814
40
0
40
0
40
0
40
0
10
119.04770876566573
20
-46.383281071980811
30
0
10
118.34268703232118
20
-46.315385002605012
30
0
10
117.61546949055176
20
-45.802212473729412
30
0
10
116.67399039004007
20
-45.425535652974361
30
0
10
116.44817685172765
20
-45.357277561877218
30
0
10
116.05725734999319
20
-45.315763272866782
30
0
10
115.89245661883993
20
-45.322744519651081
30
0
10
115.54768695477121
20
-45.407447842890221
30
0
10
115.38319398317779
20
-45.489863333642774
30
0
10
115.03434084405434
20
-45.74784620405908
30
0
10
114.8366280801951
20
-45.961995181846227
30
0
10
114.64080721537275
20
-46.267396672566754
30
0
0
SPLINE
5
118
100
AcDbEntity
8
0
100
AcDbSpline
70
0
71
3
72
22
73
18
74
0
42
0.000000001
43
0.0000000001
44
0.0000000001
40
-0.93547119371032172
40
-0.93547119371032172
40
-0.93547119371032172
40
-0.93547119371032172
40
-0.79444716339184573
40
-0.79444716339184573
40
-0.65703052669292727
40
-0.65703052669292727
40
-0.48139126973684743
40
-0.48139126973684743
40
-0.35888170689018112
40
-0.35888170689018112
40
-0.27326297168194474
40
-0.27326297168194474
40
-0.2000173959024133
40
-0.2000173959024133
40
-0.11855869098714136
40
-0.11855869098714136
40
0
40
0
40
0
40
0
10
114.64080721537275
20
-46.267396672566754
30
0
10
114.36184096275541
20
-46.702425704689425
30
0
10
114.1628911254714
20
-47.18231005975781
30
0
10
113.9199780058445
20
-48.172707634998531
30
0
10
113.87250158592416
20
-48.681178121816771
30
0
10
113.91969045206599
20
-49.825699223298756
30
0
10
114.05686368381009
20
-50.445524250344775
30
0
10
114.44336904518352
20
-51.363375292009117
30
0
10
114.65629652533714
20
-51.72568384401611
30
0
10
115.11833526075614
20
-52.241392812309087
30
0
10
115.33865315612726
20
-52.426116110815492
30
0
10
115.80258188983191
20
-52.677917517666835
30
0
10
116.03162563531362
20
-52.754481448416676
30
0
10
116.54164335551943
20
-52.818875319120068
30
0
10
116.80901224441996
20
-52.793797739318542
30
0
10
117.45034054610728
20
-52.616373686230929
30
0
10
117.8029576337606
20
-52.415504145468589
30
0
10
118.11716156005865
20
-52.175805409749394
30
0
0
SPLINE
5
119
100
AcDbEntity
8
0
100
AcDbSpline
70
0
71
3
72
20
73
16
74
0
42
0.000000001
43
0.0000000001
44
0.0000000001
40
-0.53655477923277006
40
-0.53655477923277006
40
-0.53655477923277006
40
-0.53655477923277006
40
-0.37058115966341781
40
-0.37058115966341781
40
-0.29196179945730955
40
-0.29196179945730955
40
-0.24910120706940059
40
-0.24910120706940059
40
-0.21515110485226605
40
-0.21515110485226605
40
-0.17784160255745174
40
-0.17784160255745174
40
-0.12120628687375336
40
-0.12120628687375336
40
0
40
0
40
0
40
0
10
118.11716156005865
20
-52.175805409749394
30
0
10
118.49954275746398
20
-51.8840438137414
30
0
10
118.95513389741338
20
-51.570793821033256
30
0
10
119.6002868355081
20
-51.267919840009881
30
0
10
119.83336043684353
20
-51.180668760773756
30
0
10
120.18432063568902
20
-51.127733507688887
30
0
10
120.3119683849433
20
-51.123916712942304
30
0
10
120.53288447555884
20
-51.164117073851699
30
0
10
120.62473415209678
20
-51.197788227703931
30
0
10
120.80166611911008
20
-51.307753290061612
30
0
10
120.87833398871381
20
-51.383682639172157
30
0
10
121.03826782479828
20
-51.606921950199634
30
0
10
121.10213221412506
20
-51.767815026128041
30
0
10
121.23796684308651
20
-52.268857874312815
30
0
10
121.25731950033992
20
-52.681397270083906
30
0
10
121.24348882039392
20
-53.085181427001977
30
0
0
LINE
5
120
100
AcDbEntity
8
0
100
AcDbLine
10
121.24348882039391
20
-53.085181427001977
30
0
11
121.24348882039391
21
-69.999991989135765
31
0
0
LINE
5
121
100
AcDbEntity
8
0
100
AcDbLine
10
121.24348882039391
20
-69.999991989135765
30
0
11
96.896008555094454
21
-84.057047398885118
31
0
0
SPLINE
5
122
100
AcDbEntity
8
0
100
AcDbSpline
70
0
71
3
72
18
73
14
74
0
42
0.000000001
43
0.0000000001
44
0.0000000001
40
-0.39641828815770386
40
-0.39641828815770386
40
-0.39641828815770386
40
-0.39641828815770386
40
-0.19825173804415447
40
-0.19825173804415447
40
-0.13932596555476018
40
-0.13932596555476018
40
-0.10610820484166379
40
-0.10610820484166379
40
-0.078792827663488219
40
-0.078792827663488219
40
-0.048005599921232191
40
-0.048005599921232191
40
0
40
0
40
0
40
0
10
96.896008555094426
20
-84.057047398885132
30
0
10
96.03533557538087
20
-84.627787279231569
30
0
10
95.240931139190579
20
-85.061559976955465
30
0
10
94.417384167977445
20
-85.295189954895733
30
0
10
94.209726480192302
20
-85.335636737056518
30
0
10
93.902227188434452
20
-85.330549810846534
30
0
10
93.790742027357481
20
-85.314798420148904
30
0
10
93.600870345168943
20
-85.245475478952457
30
0
10
93.523327279117893
20
-85.200301231255253
30
0
10
93.378918972477038
20
-85.070729985574346
30
0
10
93.320357384400864
20
-84.987181900254029
30
0
10
93.206447290985196
20
-84.750047396143927
30
0
10
93.1719944780167
20
-84.584869902577424
30
0
10
93.15639508565269
20
-84.425613403320341
30
0
0
SPLINE
5
123
100
AcDbEntity
8
0
100
AcDbSpline
70
0
71
3
72
14
73
10
74
0
42
0.000000001
43
0.0000000001
44
0.0000000001
40
-0.6933094635757886
40
-0.6933094635757886
40
-0.6933094635757886
40
-0.6933094635757886
40
-0.35247060348444031
40
-0.35247060348444031
40
-0.24650726330726996
40
-0.24650726330726996
40
-0.13827803124495994
40
-0.13827803124495994
40
0
40
0
40
0
40
0
10
93.15639508565269
20
-84.425613403320341
30
0
10
93.05050419327317
20
-83.345109426856339
30
0
10
93.253863666886488
20
-82.421269612235747
30
0
10
93.18233650452926
20
-81.391751089623654
30
0
10
93.139831475919564
20
-81.152208871294832
30
0
10
92.956482560141581
20
-80.69102747378507
30
0
10
92.821557738859596
20
-80.490184077967143
30
0
10
92.423503073343795
20
-80.083703249934018
30
0
10
92.116725639943709
20
-79.873357886237983
30
0
10
91.698538335164415
20
-79.679520670572941
30
0
0
SPLINE
5
124
100
AcDbEntity
8
0
100
AcDbSpline
70
0
71
3
72
20
73
16
74
0
42
0.000000001
43
0.0000000001
44
0.0000000001
40
-0.80993157910674873
40
-0.80993157910674873
40
-0.80993157910674873
40
-0.80993157910674873
40
-0.68300507706341729
40
-0.68300507706341729
40
-0.5657503227828512
40
-0.5657503227828512
40
-0.4210902011384719
40
-0.4210902011384719
40
-0.29567932402355213
40
-0.29567932402355213
40
-0.19345468592538012
40
-0.19345468592538012
40
-0.10153093489520094
40
-0.10153093489520094
40
0
40
0
40
0
40
0
10
91.698538335164415
20
-79.679520670572941
30
0
10
91.312277392493954
20
-79.50047383951005
30
0
10
90.903632828891929
20
-79.38787558475633
30
0
10
90.089060462984122
20
-79.317545592543183
30
0
10
89.696731561694378
20
-79.34991495354943
30
0
10
88.847208691711671
20
-79.563128382038911
30
0
10
88.402866277629627
20
-79.775556717416265
30
0
10
87.681215519238137
20
-80.315052768075532
30
0
10
87.388139921189946
20
-80.62415760242618
30
0
10
86.983738459028942
20
-81.264898911469729
30
0
10
86.849513244691082
20
-81.581021968294266
30
0
10
86.718088496368182
20
-82.21311711325599
30
0
10
86.710144446633592
20
-82.518039468041721
30
0
10
86.817909486506153
20
-83.152583142347027
30
0
10
86.943461558764142
20
-83.464139492113787
30
0
10
87.124415079752637
20
-83.750137837727891
30
0
0
SPLINE
5
125
100
AcDbEntity
8
0
100
AcDbSpline
70
0
71
3
72
12
73
8
74
0
42
0.000000001
43
0.0000000001
44
0.0000000001
40
-0.56162578885463676
40
-0.56162578885463676
40
-0.56162578885463676
40
-0.56162578885463676
40
-0.25368233204550994
40
-0.25368233204550994
40
-0.13318082013719906
40
-0.13318082013719906
40
0
40
0
40
0
40
0
10
87.124415079752637
20
-83.750137837727891
30
0
10
87.62407415625843
20
-84.539844637563164
30
0
10
88.201644572606298
20
-84.820424505465184
30
0
10
88.861641126231092
20
-85.365480085103911
30
0
10
89.032284941077009
20
-85.536284153751211
30
0
10
89.335734639305215
20
-86.013852498257748
30
0
10
89.461842898480114
20
-86.331989580884354
30
0
10
89.539803822835324
20
-86.769026565551783
30
0
0
SPLINE
5
126
100
AcDbEntity
8
0
100
AcDbSpline
70
0
71
3
72
14
73
10
74
0
42
0.000000001
43
0.0000000001
44
0.0000000001
40
-0.39940108198450475
40
-0.39940108198450475
40
-0.39940108198450475
40
-0.39940108198450475
40
-0.35800738125307308
40
-0.35800738125307308
40
-0.31605462315431082
40
-0.31605462315431082
40
-0.22312446668623659
40
-0.22312446668623659
40
0
40
0
40
0
40
0
10
89.539803822835324
20
-86.769026565551783
30
0
10
89.558773951921722
20
-86.875260359286813
30
0
10
89.56594785244107
20
-86.982275170148029
30
0
10
89.555866419286772
20
-87.199327162673782
30
0
10
89.538400098248417
20
-87.306794736195002
30
0
10
89.446837570542655
20
-87.646305554350818
30
0
10
89.331720563064252
20
-87.863494569577085
30
0
10
88.854531771174351
20
-88.534707419314444
30
0
10
88.316168038553897
20
-88.97404035359537
30
0
10
87.688511784871466
20
-89.373050435384158
30
0
0
LINE
5
127
100
AcDbEntity
8
0
100
AcDbLine
10
87.688511784871466
20
-89.373050435384158
30
0
11
67.415863545735704
21
-101.07742322285971
31
0
0
SPLINE
5
128
100
AcDbEntity
8
0
100
AcDbSpline
70
0
71
3
72
20
73
16
74
0
42
0.000000001
43
0.0000000001
44
0.0000000001
40
-0.48347538858879668
40
-0.48347538858879668
40
-0.48347538858879668
40
-0.48347538858879668
40
-0.3647851667245644
40
-0.3647851667245644
40
-0.28452689951496063
40
-0.28452689951496063
40
-0.24116776490073277
40
-0.24116776490073277
40
-0.20716276386117272
40
-0.20716276386117272
40
-0.17004847059000636
40
-0.17004847059000636
40
-0.11413495097694719
40
-0.11413495097694719
40
0
40
0
40
0
40
0
10
67.415863545735704
20
-101.07742322285972
30
0
10
67.10540673597815
20
-101.23176180828644
30
0
10
66.777748821348354
20
-101.41505503323108
30
0
10
66.306896448146773
20
-101.75796667383847
30
0
10
66.112778300722624
20
-101.92457270617014
30
0
10
65.892225453861016
20
-102.2128110858558
30
0
10
65.826027106236637
20
-102.32466235321556
30
0
10
65.753572093058949
20
-102.54007650093644
30
0
10
65.738394679300555
20
-102.63741946702035
30
0
10
65.748892928284079
20
-102.84608751012983
30
0
10
65.778028915317606
20
-102.94985925653009
30
0
10
65.895324653412516
20
-103.1966821130658
30
0
10
66.004144747783442
20
-103.32914360438424
30
0
10
66.362778823272379
20
-103.67589734146171
30
0
10
66.691428348149643
20
-103.88040731859149
30
0
10
67.029840596516948
20
-104.05424410502121
30
0
0
SPLINE
5
129
100
AcDbEntity
8
0
100
AcDbSpline
70
0
71
3
72
14
73
10
74
0
42
0.000000001
43
0.0000000001
44
0.0000000001
40
-0.41584346462418931
40
-0.41584346462418931
40
-0.41584346462418931
40
-0.41584346462418931
40
-0.33311034705447096
40
-0.33311034705447096
40
-0.25341082162794892
40
-0.25341082162794892
40
-0.13659006293174272
40
-0.13659006293174272
40
0
40
0
40
0
40
0
10
67.029840596516948
20
-104.05424410502121
30
0
10
67.274545262065246
20
-104.17997064621117
30
0
10
67.491061905753313
20
-104.34585913146654
30
0
10
67.850962621990874
20
-104.74792438172184
30
0
10
67.989790580958015
20
-104.97363031483756
30
0
10
68.242948755519166
20
-105.57540831450007
30
0
10
68.313015543619144
20
-105.96551188109612
30
0
10
68.319139186930926
20
-106.80895137289754
30
0
10
68.230732760825944
20
-107.26892203588434
30
0
10
68.062513351440472
20
-107.69200655619308
30
0
0
SPLINE
5
130
100
AcDbEntity
8
0
100
AcDbSpline
70
0
71
3
72
14
73
10
74
0
42
0.000000001
43
0.0000000001
44
0.0000000001
40
-0.5397983179615421
40
-0.5397983179615421
40
-0.5397983179615421
40
-0.5397983179615421
40
-0.44796808140932109
40
-0.44796808140932109
40
-0.35191634581372611
40
-0.35191634581372611
40
-0.18835237129606461
40
-0.18835237129606461
40
0
40
0
40
0
40
0
10
68.062513351440472
20
-107.69200655619308
30
0
10
67.950551878097386
20
-107.97361705597564
30
0
10
67.79859520945773
20
-108.23854119969039
30
0
10
67.425015745231974
20
-108.73410611608215
30
0
10
67.201006205203782
20
-108.96204640821492
30
0
10
66.530556458261572
20
-109.49812696289756
30
0
10
66.043402966729829
20
-109.74677240069168
30
0
10
64.922603680186043
20
-110.07607422075512
30
0
10
64.296733845737634
20
-110.12079049844944
30
0
10
63.67281036376955
20
-110.05076115926113
30
0
0
SPLINE
5
131
100
AcDbEntity
8
0
100
AcDbSpline
70
0
71
3
72
14
73
10
74
0
42
0.000000001
43
0.0000000001
44
0.0000000001
40
-0.4388468565788769
40
-0.4388468565788769
40
-0.4388468565788769
40
-0.4388468565788769
40
-0.34270571779089198
40
-0.34270571779089198
40
-0.23697229357981178
40
-0.23697229357981178
40
-0.12808588909507507
40
-0.12808588909507507
40
0
40
0
40
0
40
0
10
63.67281036376955
20
-110.05076115926113
30
0
10
63.356513572292542
20
-110.01527082830746
30
0
10
63.048119714025141
20
-109.92450408033145
30
0
10
62.448580644668262
20
-109.62907121346072
30
0
10
62.166383065599724
20
-109.41599286781724
30
0
10
61.690801420106411
20
-108.88695984942908
30
0
10
61.506813260491654
20
-108.57581888186832
30
0
10
61.240578986819244
20
-107.83498146105138
30
0
10
61.187994357228924
20
-107.41196640034411
30
0
10
61.209540176391641
20
-106.98555742899579
30
0
0
SPLINE
5
132
100
AcDbEntity
8
0
100
AcDbSpline
70
0
71
3
72
20
73
16
74
0
42
0.000000001
43
0.0000000001
44
0.0000000001
40
-0.42835717384681393
40
-0.42835717384681393
40
-0.42835717384681393
40
-0.42835717384681393
40
-0.35997649473231669
40
-0.35997649473231669
40
-0.30677266101809342
40
-0.30677266101809342
40
-0.27316883818349696
40
-0.27316883818349696
40
-0.24189514276521518
40
-0.24189514276521518
40
-0.20325947441759976
40
-0.20325947441759976
40
-0.13862390705519048
40
-0.13862390705519048
40
0
40
0
40
0
40
0
10
61.209540176391641
20
-106.98555742899579
30
0
10
61.219585432293748
20
-106.78661433425602
30
0
10
61.217998586578204
20
-106.57615406336285
30
0
10
61.171748118942574
20
-106.22451622893135
30
0
10
61.135007314904414
20
-106.06508667395755
30
0
10
61.027826077330388
20
-105.83524265172785
30
0
10
60.974313878549779
20
-105.75260082703201
30
0
10
60.840540392426732
20
-105.61826832325281
30
0
10
60.766042373946796
20
-105.56848815977155
30
0
10
60.577205776239715
20
-105.49056162852436
30
0
10
60.464852175436022
20
-105.47326602558017
30
0
10
60.163201795339987
20
-105.47117258258342
30
0
10
59.965128763828531
20
-105.51615197662488
30
0
10
59.401971092766019
20
-105.69954425588078
30
0
10
58.984437788010602
20
-105.92507933850995
30
0
10
58.593340047200542
20
-106.17116915384933
30
0
0
LINE
5
133
100
AcDbEntity
8
0
100
AcDbLine
10
58.593340047200542
20
-106.17116915384932
30
0
11
27.985276158650727
21
-123.84268417358405
31
0
0
SPLINE
5
134
100
AcDbEntity
8
0
100
AcDbSpline
70
0
71
3
72
16
73
12
74
0
42
0.000000001
43
0.0000000001
44
0.0000000001
40
-0.41776549549410202
40
-0.41776549549410202
40
-0.41776549549410202
40
-0.41776549549410202
40
-0.22914374774287372
40
-0.22914374774287372
40
-0.14815232794393224
40
-0.14815232794393224
40
-0.098609355205247412
40
-0.098609355205247412
40
-0.053739903490575128
40
-0.053739903490575128
40
0
40
0
40
0
40
0
10
27.985276158650727
20
-123.84268417358402
30
0
10
27.371964369953048
20
-124.21832496634858
30
0
10
26.71595512942875
20
-124.55910469249281
30
0
10
25.854962967297546
20
-124.81129946085738
30
0
10
25.574444352120512
20
-124.86599074631025
30
0
10
25.139388746042009
20
-124.85854985779315
30
0
10
24.975120673673963
20
-124.833525469552
30
0
10
24.680524745886494
20
-124.72256743032852
30
0
10
24.555759365611479
20
-124.64536325108082
30
0
10
24.316354208102332
20
-124.41999697739759
30
0
10
24.218005251468359
20
-124.26966400418206
30
0
10
24.143520991007499
20
-124.10675074259444
30
0
0
SPLINE
5
135
100
AcDbEntity
8
0
100
AcDbSpline
70
0
71
3
72
12
73
8
74
0
42
0.000000001
43
0.0000000001
44
0.0000000001
40
-0.68551983707387709
40
-0.68551983707387709
40
-0.68551983707387709
40
-0.68551983707387709
40
-0.35677434421031345
40
-0.35677434421031345
40
-0.19373088300112815
40
-0.19373088300112815
40
0
40
0
40
0
40
0
10
24.143520991007499
20
-124.10675074259444
30
0
10
23.698054362773743
20
-123.13268021715216
30
0
10
23.545712917642003
20
-122.40590201319154
30
0
10
23.151966692422164
20
-121.50578064796741
30
0
10
22.994130572749206
20
-121.23796084951293
30
0
10
22.479932217077522
20
-120.68625029224067
30
0
10
22.092652214481934
20
-120.4093601738291
30
0
10
21.510913594563839
20
-120.1290058135987
30
0
0
SPLINE
5
136
100
AcDbEntity
8
0
100
AcDbSpline
70
0
71
3
72
16
73
12
74
0
42
0.000000001
43
0.0000000001
44
0.0000000001
40
-0.59740738063821808
40
-0.59740738063821808
40
-0.59740738063821808
40
-0.59740738063821808
40
-0.49709779509971674
40
-0.49709779509971674
40
-0.40004181276319328
40
-0.40004181276319328
40
-0.25476981286902478
40
-0.25476981286902478
40
-0.12161516833880542
40
-0.12161516833880542
40
0
40
0
40
0
40
0
10
21.510913594563839
20
-120.1290058135987
30
0
10
21.209415728944077
20
-119.98367359095242
30
0
10
20.889841885337439
20
-119.88469803454508
30
0
10
20.239406307516859
20
-119.7849478413694
30
0
10
19.914484453665548
20
-119.78191679930931
30
0
10
19.113172001060533
20
-119.8830265794315
30
0
10
18.646281152189307
20
-120.04064311599267
30
0
10
17.840810483711735
20
-120.5005623307506
30
0
10
17.495689398129809
20
-120.78917860856617
30
0
10
16.96151756795269
20
-121.44854137886087
30
0
10
16.765558875191402
20
-121.80505679991212
30
0
10
16.642057037353553
20
-122.19116999308272
30
0
0
SPLINE
5
137
100
AcDbEntity
8
0
100
AcDbSpline
70
0
71
3
72
16
73
12
74
0
42
0.000000001
43
0.0000000001
44
0.0000000001
40
-0.58915286146623402
40
-0.58915286146623402
40
-0.58915286146623402
40
-0.58915286146623402
40
-0.50418362254292126
40
-0.50418362254292126
40
-0.4249398205689896
40
-0.4249398205689896
40
-0.32557519329415441
40
-0.32557519329415441
40
-0.20419413562744787
40
-0.20419413562744787
40
0
40
0
40
0
40
0
10
16.642057037353553
20
-122.19116999308272
30
0
10
16.555907774753276
20
-122.46034522946272
30
0
10
16.495170121230501
20
-122.73871031995947
30
0
10
16.449308558971879
20
-123.28275415869804
30
0
10
16.459570340699475
20
-123.5458031232882
30
0
10
16.573498877017077
20
-124.12845570492424
30
0
10
16.697140241295273
20
-124.42971481778544
30
0
10
17.102373389918569
20
-125.04164363541115
30
0
10
17.398455335381517
20
-125.31803923965867
30
0
10
18.295847344150893
20
-125.92546779405146
30
0
10
18.974654507693714
20
-126.17028028353627
30
0
10
19.636351013183635
20
-126.32977396647138
30
0
0
SPLINE
5
138
100
AcDbEntity
8
0
100
AcDbSpline
70
0
71
3
72
20
73
16
74
0
42
0.000000001
43
0.0000000001
44
0.0000000001
40
-0.41288758135523573
40
-0.41288758135523573
40
-0.41288758135523573
40
-0.41288758135523573
40
-0.31170426722594186
40
-0.31170426722594186
40
-0.27975581793628324
40
-0.27975581793628324
40
-0.25684218417829541
40
-0.25684218417829541
40
-0.23337942791279426
40
-0.23337942791279426
40
-0.20059779713947723
40
-0.20059779713947723
40
-0.14402243082651356
40
-0.14402243082651356
40
0
40
0
40
0
40
0
10
19.636351013183635
20
-126.32977396647138
30
0
10
20.060854114306096
20
-126.43210508586958
30
0
10
20.41903678947395
20
-126.56347444647471
30
0
10
20.729124582077077
20
-126.78780182817043
30
0
10
20.799471613587066
20
-126.85145012720119
30
0
10
20.891859238783788
20
-126.97944568927495
30
0
10
20.921422441515951
20
-127.03777670048545
30
0
10
20.956027090702307
20
-127.1666609413156
30
0
10
20.959254934408161
20
-127.23296677337549
30
0
10
20.937782579580286
20
-127.39337812215966
30
0
10
20.902074466422036
20
-127.48344421730192
30
0
10
20.777834318546379
20
-127.70830490290543
30
0
10
20.661536973326321
20
-127.84275890165151
30
0
10
20.253063465894542
20
-128.24734898656396
30
0
10
19.839226521601489
20
-128.53280456956975
30
0
10
19.429176966349324
20
-128.78246663411463
30
0
0
LINE
5
139
100
AcDbEntity
8
0
100
AcDbLine
10
19.429176966349321
20
-128.78246663411463
30
0
11
3.3442179390164029e-05
21
-139.99999898274743
31
0
0
LINE
5
140
100
AcDbEntity
8
0
100
AcDbLine
10
3.3442179390164029e-05
20
-139.99999898274743
30
0
11
-6.2684792836506809
21
-136.38103383382165
31
0
0
SPLINE
5
141
100
AcDbEntity
8
0
100
AcDbSpline
70
0
71
3
72
20
73
16
74
0
42
0.000000001
43
0.0000000001
44
0.0000000001
40
-0.52911499153808728
40
-0.52911499153808728
40
-0.52911499153808728
40
-0.52911499153808728
40
-0.40100555079387601
40
-0.40100555079387601
40
-0.34861988677047867
40
-0.34861988677047867
40
-0.31455424726968484
40
-0.31455424726968484
40
-0.2821369632239159
40
-0.2821369632239159
40
-0.2408968618684515
40
-0.2408968618684515
40
-0.1711471864745055
40
-0.1711471864745055
40
0
40
0
40
0
40
0
10
-6.2684792836506986
20
-136.38103383382168
30
0
10
-6.6422326865488461
20
-136.18140911945946
30
0
10
-7.0102977657195886
20
-135.94722307331378
30
0
10
-7.3790794261427584
20
-135.58129791384201
30
0
10
-7.4798063156659076
20
-135.4593817206096
30
0
10
-7.5949849686479123
20
-135.2384314343204
30
0
10
-7.627573662192634
20
-135.14580868997254
30
0
10
-7.6524175168835615
20
-134.95577543781937
30
0
10
-7.6458251212819519
20
-134.86437515681791
30
0
10
-7.5899817412710027
20
-134.6595180186527
30
0
10
-7.5316604218023553
20
-134.55441739793577
30
0
10
-7.338579413738394
20
-134.29948110554886
30
0
10
-7.1720137590819473
20
-134.16016309889511
30
0
10
-6.6040141204233809
20
-133.76439579170639
30
0
10
-6.0596368875194617
20
-133.52471004104922
30
0
10
-5.5239349365234247
20
-133.32853927612308
30
0
0
SPLINE
5
142
100
AcDbEntity
8
0
100
AcDbSpline
70
0
71
3
72
16
73
12
74
0
42
0.000000001
43
0.0000000001
44
0.0000000001
40
-0.49977926784962212
40
-0.49977926784962212
40
-0.49977926784962212
40
-0.49977926784962212
40
-0.42052242749704699
40
-0.42052242749704699
40
-0.3479805677035761
40
-0.3479805677035761
40
-0.25482905868171746
40
-0.25482905868171746
40
-0.14177045688062179
40
-0.14177045688062179
40
0
40
0
40
0
40
0
10
-5.5239349365234247
20
-133.32853927612308
30
0
10
-5.3072921532780892
20
-133.24922959652594
30
0
10
-5.1025684070786612
20
-133.14258952722554
30
0
10
-4.7495783762600761
20
-132.87760885164857
30
0
10
-4.6024859531652034
20
-132.72772724058694
30
0
10
-4.3253860072426784
20
-132.33402329747332
30
0
10
-4.2191265295405191
20
-132.08552558067157
30
0
10
-4.089417523708569
20
-131.50041823209475
30
0
10
-4.0907276574921365
20
-131.16755414051806
30
0
10
-4.2196762137615886
20
-130.43604664409645
30
0
10
-4.3827862715372063
20
-130.02031466617251
30
0
10
-4.6370543162027822
20
-129.62198257446292
30
0
0
SPLINE
5
143
100
AcDbEntity
8
0
100
AcDbSpline
70
0
71
3
72
14
73
10
74
0
42
0.000000001
43
0.0000000001
44
0.0000000001
40
-0.5908855292756845
40
-0.5908855292756845
40
-0.5908855292756845
40
-0.5908855292756845
40
-0.43534029218574477
40
-0.43534029218574477
40
-0.27495542584370547
40
-0.27495542584370547
40
-0.10316523220899627
40
-0.10316523220899627
40
0
40
0
40
0
40
0
10
-4.6370543162027822
20
-129.62198257446292
30
0
10
-4.8538612114893906
20
-129.28235810003923
30
0
10
-5.1730478360195757
20
-128.9196924752826
30
0
10
-5.9551775482316778
20
-128.21448488501056
30
0
10
-6.4066429426633107
20
-127.88659311980011
30
0
10
-7.3694796728781835
20
-127.32986370190198
30
0
10
-7.9248896847362227
20
-127.08540733260597
30
0
10
-8.819316241356173
20
-126.8818758972324
30
0
10
-9.1699122959733117
20
-126.84486145615425
30
0
10
-9.5122735341389841
20
-126.87718887329105
30
0
0
SPLINE
5
144
100
AcDbEntity
8
0
100
AcDbSpline
70
0
71
3
72
16
73
12
74
0
42
0.000000001
43
0.0000000001
44
0.0000000001
40
-0.38937322602426983
40
-0.38937322602426983
40
-0.38937322602426983
40
-0.38937322602426983
40
-0.32429783026800946
40
-0.32429783026800946
40
-0.26713716787432151
40
-0.26713716787432151
40
-0.19115769256261578
40
-0.19115769256261578
40
-0.093722525446698859
40
-0.093722525446698859
40
0
40
0
40
0
40
0
10
-9.5122735341389841
20
-126.87718887329105
30
0
10
-9.7781753522975112
20
-126.90230446689196
30
0
10
-10.03900741824401
20
-126.9607016585696
30
0
10
-10.502643303759012
20
-127.15160578600347
30
0
10
-10.701887372491573
20
-127.27148008687784
30
0
10
-11.118137590021675
20
-127.62457604390475
30
0
10
-11.306856061535242
20
-127.87161928011444
30
0
10
-11.633229874569395
20
-128.50270426275725
30
0
10
-11.739026245850216
20
-128.9017782371522
30
0
10
-11.8124630150147
20
-129.6793127155704
30
0
10
-11.784162552374333
20
-130.04684598563932
30
0
10
-11.709103266398095
20
-130.35010350545252
30
0
0
SPLINE
5
145
100
AcDbEntity
8
0
100
AcDbSpline
70
0
71
3
72
20
73
16
74
0
42
0.000000001
43
0.0000000001
44
0.0000000001
40
-0.507135486336874
40
-0.507135486336874
40
-0.507135486336874
40
-0.507135486336874
40
-0.3340006826041988
40
-0.3340006826041988
40
-0.27383474754863502
40
-0.27383474754863502
40
-0.23983133260382933
40
-0.23983133260382933
40
-0.21178879088698555
40
-0.21178879088698555
40
-0.1801211901127775
40
-0.1801211901127775
40
-0.1306459400096007
40
-0.1306459400096007
40
0
40
0
40
0
40
0
10
-11.709103266398095
20
-130.35010350545252
30
0
10
-11.587122431133533
20
-130.84276482067216
30
0
10
-11.49037331542289
20
-131.37205479923924
30
0
10
-11.507606913280528
20
-131.95361788530096
30
0
10
-11.525990508615518
20
-132.11426663754307
30
0
10
-11.600681000618124
20
-132.33750066099358
30
0
10
-11.637982822011988
20
-132.41531613351316
30
0
10
-11.732713681247906
20
-132.53821205713689
30
0
10
-11.783839469510278
20
-132.58453829005819
30
0
10
-11.912494298209184
20
-132.66034666318097
30
0
10
-11.987507687576775
20
-132.6838841558922
30
0
10
-12.188401483170086
20
-132.71237896234351
30
0
10
-12.318043346430587
20
-132.69922448160651
30
0
10
-12.75794460039435
20
-132.60604950417044
30
0
10
-13.128434714985682
20
-132.4281031380516
30
0
10
-13.502178573608372
20
-132.20457687377933
30
0
0
LINE
5
146
100
AcDbEntity
8
0
100
AcDbLine
10
-13.502178573608372
20
-132.20457687377933
30
0
11
-27.13748162587482
21
-124.33215688069664
31
0
0
SPLINE
5
147
100
AcDbEntity
8
0
100
AcDbSpline
70
0
71
3
72
20
73
16
74
0
42
0.000000001
43
0.0000000001
44
0.0000000001
40
-0.38878458270519267
40
-0.38878458270519267
40
-0.38878458270519267
40
-0.38878458270519267
40
-0.23998430397098924
40
-0.23998430397098924
40
-0.16784942658010588
40
-0.16784942658010588
40
-0.13240848518605394
40
-0.13240848518605394
40
-0.10838167458469819
40
-0.10838167458469819
40
-0.084786069797093661
40
-0.084786069797093661
40
-0.05351478970953065
40
-0.05351478970953065
40
0
40
0
40
0
40
0
10
-27.13748162587482
20
-124.33215688069666
30
0
10
-27.642296077670608
20
-124.09888479660763
30
0
10
-28.248181178979554
20
-123.84735605627759
30
0
10
-29.054053335348673
20
-123.64222298285003
30
0
10
-29.324572609104685
20
-123.5959380486577
30
0
10
-29.683862313520866
20
-123.60421628088284
30
0
10
-29.80621485490504
20
-123.61974077944687
30
0
10
-29.99396501139212
20
-123.68537632811837
30
0
10
-30.064821582702702
20
-123.72265361049882
30
0
10
-30.187471203854578
20
-123.82429988647367
30
0
10
-30.235673200788785
20
-123.88492668468331
30
0
10
-30.320876720955177
20
-124.0474767137423
30
0
10
-30.346196097792589
20
-124.15085533311671
30
0
10
-30.375804018876622
20
-124.43273480900936
30
0
10
-30.353599490416126
20
-124.6258235791075
30
0
10
-30.31856975555419
20
-124.80073293050133
30
0
0
SPLINE
5
148
100
AcDbEntity
8
0
100
AcDbSpline
70
0
71
3
72
16
73
12
74
0
42
0.000000001
43
0.0000000001
44
0.0000000001
40
-0.50134410913835947
40
-0.50134410913835947
40
-0.50134410913835947
40
-0.50134410913835947
40
-0.4344537239812562
40
-0.4344537239812562
40
-0.37108887440854965
40
-0.37108887440854965
40
-0.2623955575065301
40
-0.2623955575065301
40
-0.13609529478450816
40
-0.13609529478450816
40
0
40
0
40
0
40
0
10
-30.31856975555419
20
-124.80073293050133
30
0
10
-30.274906784419283
20
-125.01855597798452
30
0
10
-30.256845317326643
20
-125.23950721107779
30
0
10
-30.277178226867321
20
-125.67141094934107
30
0
10
-30.312480162547821
20
-125.87836352508177
30
0
10
-30.476552315224108
20
-126.42524857348351
30
0
10
-30.650736341101087
20
-126.74301486312825
30
0
10
-31.144801913561956
20
-127.34634859857813
30
0
10
-31.47815446776448
20
-127.61192212185432
30
0
10
-32.248146739531258
20
-128.02212430289697
30
0
10
-32.688088067466524
20
-128.15466628644177
30
0
10
-33.139295514424632
20
-128.20168813069665
30
0
0
SPLINE
5
149
100
AcDbEntity
8
0
100
AcDbSpline
70
0
71
3
72
14
73
10
74
0
42
0.000000001
43
0.0000000001
44
0.0000000001
40
-0.58094999197280206
40
-0.58094999197280206
40
-0.58094999197280206
40
-0.58094999197280206
40
-0.45558899055225532
40
-0.45558899055225532
40
-0.33009229245177663
40
-0.33009229245177663
40
-0.14369025669759616
40
-0.14369025669759616
40
0
40
0
40
0
40
0
10
-33.139295514424632
20
-128.20168813069665
30
0
10
-33.556555992476952
20
-128.24517159821607
30
0
10
-33.978054779594288
20
-128.22262034680557
30
0
10
-34.802744056590925
20
-128.06563915007547
30
0
10
-35.205541345795631
20
-127.93116313628451
30
0
10
-36.148658484486958
20
-127.48383078031436
30
0
10
-36.670844727514108
20
-127.11133603040979
30
0
10
-37.429122881567999
20
-126.31125603912244
30
0
10
-37.707999374786205
20
-125.91065921737865
30
0
10
-37.899680010477681
20
-125.47171910603844
30
0
0
SPLINE
5
150
100
AcDbEntity
8
0
100
AcDbSpline
70
0
71
3
72
16
73
12
74
0
42
0.000000001
43
0.0000000001
44
0.0000000001
40
-0.43216627947062625
40
-0.43216627947062625
40
-0.43216627947062625
40
-0.43216627947062625
40
-0.35371334308507812
40
-0.35371334308507812
40
-0.27323322015202145
40
-0.27323322015202145
40
-0.18737066816938405
40
-0.18737066816938405
40
-0.10278472205010195
40
-0.10278472205010195
40
0
40
0
40
0
40
0
10
-37.899680010477681
20
-125.47171910603844
30
0
10
-38.00369599747949
20
-125.23358402100216
30
0
10
-38.071999180328838
20
-124.97770943411976
30
0
10
-38.136809925858081
20
-124.45441195475526
30
0
10
-38.131846119399391
20
-124.18339442159862
30
0
10
-38.036944109220869
20
-123.63947004348103
30
0
10
-37.941576980099001
20
-123.36880914898987
30
0
10
-37.654521876886513
20
-122.88090759905843
30
0
10
-37.469647659964522
20
-122.67177728209435
30
0
10
-36.976185804882554
20
-122.29124295713086
30
0
10
-36.665039127272692
20
-122.14930326985026
30
0
10
-36.334142494201643
20
-122.060460917155
30
0
0
SPLINE
5
151
100
AcDbEntity
8
0
100
AcDbSpline
70
0
71
3
72
20
73
16
74
0
42
0.000000001
43
0.0000000001
44
0.0000000001
40
-0.46838356764588673
40
-0.46838356764588673
40
-0.46838356764588673
40
-0.46838356764588673
40
-0.384406899707746
40
-0.384406899707746
40
-0.31819698080507675
40
-0.31819698080507675
40
-0.27923446769030935
40
-0.27923446769030935
40
-0.24555954846766809
40
-0.24555954846766809
40
-0.20636173154753701
40
-0.20636173154753701
40
-0.14330318032529896
40
-0.14330318032529896
40
0
40
0
40
0
40
0
10
-36.334142494201643
20
-122.060460917155
30
0
10
-36.099535087613091
20
-121.99745548768819
30
0
10
-35.854935893195957
20
-121.91769626884714
30
0
10
-35.459255295159451
20
-121.73680505476462
30
0
10
-35.281112780811569
20
-121.63546725147344
30
0
10
-35.052922457051018
20
-121.4326690553733
30
0
10
-34.977990054317843
20
-121.34638828772866
30
0
10
-34.875811514570401
20
-121.16187081052458
30
0
10
-34.845611166623584
20
-121.07072168385984
30
0
10
-34.820807068088385
20
-120.86057699469335
30
0
10
-34.833845411674716
20
-120.74781334950642
30
0
10
-34.913580239111127
20
-120.4618533536121
30
0
10
-35.008609805245442
20
-120.29224567880496
30
0
10
-35.352200097060866
20
-119.80289108411741
30
0
10
-35.712255678614419
20
-119.46654394012594
30
0
10
-36.084109306335428
20
-119.16670989990237
30
0
0
LINE
5
152
100
AcDbEntity
8
0
100
AcDbLine
10
-36.084109306335428
20
-119.16670989990237
30
0
11
-51.133877054850245
21
-110.47778612772626
31
0
0
SPLINE
5
153
100
AcDbEntity
8
0
100
AcDbSpline
70
0
71
3
72
20
73
16
74
0
42
0.000000001
43
0.0000000001
44
0.0000000001
40
-0.50881545788749605
40
-0.50881545788749605
40
-0.50881545788749605
40
-0.50881545788749605
40
-0.31526851189489519
40
-0.31526851189489519
40
-0.25125134510061675
40
-0.25125134510061675
40
-0.21599640829820815
40
-0.21599640829820815
40
-0.18775634856201118
40
-0.18775634856201118
40
-0.15648340865005261
40
-0.15648340865005261
40
-0.10861526627099685
40
-0.10861526627099685
40
0
40
0
40
0
40
0
10
-51.133877054850245
20
-110.47778612772629
30
0
10
-51.771411000750234
20
-110.051429068218
30
0
10
-52.346994393959662
20
-109.60282005394561
30
0
10
-52.828960370127838
20
-109.03344537861834
30
0
10
-52.945843284254053
20
-108.86997404118334
30
0
10
-53.061302393497229
20
-108.60584147871536
30
0
10
-53.091225817485672
20
-108.50596258879398
30
0
10
-53.106196641794206
20
-108.32209782489662
30
0
10
-53.098777085909454
20
-108.24161377337818
30
0
10
-53.04827964420631
20
-108.07624513107754
30
0
10
-53.003422589213407
20
-107.99825701417495
30
0
10
-52.857244467867986
20
-107.82079650172446
30
0
10
-52.740235759107456
20
-107.73397671731422
30
0
10
-52.347846762243435
20
-107.50576006309484
30
0
10
-51.992179557695877
20
-107.39525739200046
30
0
10
-51.638965733846014
20
-107.31575368245447
30
0
0
SPLINE
5
154
100
AcDbEntity
8
0
100
AcDbSpline
70
0
71
3
72
16
73
12
74
0
42
0.000000001
43
0.0000000001
44
0.0000000001
40
-0.46549042350238745
40
-0.46549042350238745
40
-0.46549042350238745
40
-0.46549042350238745
40
-0.3973651048881916
40
-0.3973651048881916
40
-0.33516117043662519
40
-0.33516117043662519
40
-0.2387180352782976
40
-0.2387180352782976
40
-0.13137739238827822
40
-0.13137739238827822
40
0
40
0
40
0
40
0
10
-51.638965733846014
20
-107.31575368245447
30
0
10
-51.438502075488735
20
-107.2706049479483
30
0
10
-51.242988820277233
20
-107.20600099818584
30
0
10
-50.887646771325556
20
-107.03834534996503
30
0
10
-50.728281291645615
20
-106.9400932670207
30
0
10
-50.356367751678768
20
-106.6397205692073
30
0
10
-50.171856040040758
20
-106.41736206599413
30
0
10
-49.880128899335823
20
-105.8775828096333
30
0
10
-49.790759173871812
20
-105.56500382473831
30
0
10
-49.717517050763078
20
-104.84905803014561
30
0
10
-49.760432531419319
20
-104.43008364558737
30
0
10
-49.886101150512673
20
-104.01057751973475
30
0
0
SPLINE
5
155
100
AcDbEntity
8
0
100
AcDbSpline
70
0
71
3
72
14
73
10
74
0
42
0.000000001
43
0.0000000001
44
0.0000000001
40
-0.49658599083135746
40
-0.49658599083135746
40
-0.49658599083135746
40
-0.49658599083135746
40
-0.3614378331531154
40
-0.3614378331531154
40
-0.22840084698534352
40
-0.22840084698534352
40
-0.10430422583879127
40
-0.10430422583879127
40
0
40
0
40
0
40
0
10
-49.886101150512673
20
-104.01057751973475
30
0
10
-50.01566974031234
20
-103.57775342855454
30
0
10
-50.23439623636655
20
-103.17656208515348
30
0
10
-50.799260762308108
20
-102.4811308968392
30
0
10
-51.143163948383126
20
-102.18568690649235
30
0
10
-51.882480311273994
20
-101.74967014519029
30
0
10
-52.275697963951337
20
-101.59836134308151
30
0
10
-53.025800478679571
20
-101.46757311607557
30
0
10
-53.375218694026572
20
-101.4652012193615
30
0
10
-53.716737810770653
20
-101.53036715189617
30
0
0
SPLINE
5
156
100
AcDbEntity
8
0
100
AcDbSpline
70
0
71
3
72
14
73
10
74
0
42
0.000000001
43
0.0000000001
44
0.0000000001
40
-0.67571323539770622
40
-0.67571323539770622
40
-0.67571323539770622
40
-0.67571323539770622
40
-0.57378409779134698
40
-0.57378409779134698
40
-0.48163547216331626
40
-0.48163547216331626
40
-0.33484288869772666
40
-0.33484288869772666
40
0
40
0
40
0
40
0
10
-53.716737810770653
20
-101.53036715189617
30
0
10
-53.917304490886792
20
-101.56859644955885
30
0
10
-54.111354305273537
20
-101.63202591472731
30
0
10
-54.451533534919676
20
-101.82181707893841
30
0
10
-54.591239524290046
20
-101.93628687873806
30
0
10
-54.906528420253352
20
-102.29797419886489
30
0
10
-55.046342172291773
20
-102.57420142623049
30
0
10
-55.410600684005175
20
-103.61402624019044
30
0
10
-55.520930571154672
20
-104.57280377524341
30
0
10
-55.740532239278139
20
-105.66713015238449
30
0
0
SPLINE
5
157
100
AcDbEntity
8
0
100
AcDbSpline
70
0
71
3
72
18
73
14
74
0
42
0.000000001
43
0.0000000001
44
0.0000000001
40
-0.41183464864577152
40
-0.41183464864577152
40
-0.41183464864577152
40
-0.41183464864577152
40
-0.35860849243573001
40
-0.35860849243573001
40
-0.31362114076467895
40
-0.31362114076467895
40
-0.27184493353218947
40
-0.27184493353218947
40
-0.22451985219245779
40
-0.22451985219245779
40
-0.15034686244490289
40
-0.15034686244490289
40
0
40
0
40
0
40
0
10
-55.740532239278139
20
-105.66713015238449
30
0
10
-55.771290696750306
20
-105.82031397361703
30
0
10
-55.81511832546898
20
-105.97497776705451
30
0
10
-55.931237487569838
20
-106.23904588274961
30
0
10
-55.999072310722781
20
-106.35405174503133
30
0
10
-56.167249003100714
20
-106.54562467336078
30
0
10
-56.261752768031251
20
-106.62074863220263
30
0
10
-56.495386827273151
20
-106.73885316243128
30
0
10
-56.629548282564627
20
-106.77156816214421
30
0
10
-56.985428343578249
20
-106.79890860528191
30
0
10
-57.212009186706261
20
-106.76116189414259
30
0
10
-57.846258234919439
20
-106.58423401922157
30
0
10
-58.301453616289827
20
-106.35290709644833
30
0
10
-58.729529380798326
20
-106.09231414794927
30
0
0
LINE
5
158
100
AcDbEntity
8
0
100
AcDbLine
10
-58.729529380798326
20
-106.09231414794927
30
0
11
-89.055540879567445
21
-88.583773676554415
31
0
0
SPLINE
5
159
100
AcDbEntity
8
0
100
AcDbSpline
70
0
71
3
72
20
73
16
74
0
42
0.000000001
43
0.0000000001
44
0.0000000001
40
-0.42399400365972084
40
-0.42399400365972084
40
-0.42399400365972084
40
-0.42399400365972084
40
-0.2649794371093307
40
-0.2649794371093307
40
-0.20148296641743052
40
-0.20148296641743052
40
-0.16797830519245072
40
-0.16797830519245072
40
-0.14236344613408711
40
-0.14236344613408711
40
-0.11490048506775144
40
-0.11490048506775144
40
-0.074355433088436423
40
-0.074355433088436423
40
0
40
0
40
0
40
0
10
-89.055540879567445
20
-88.583773676554387
30
0
10
-89.529328043219905
20
-88.312291798788834
30
0
10
-90.039730890948732
20
-88.057572283298271
30
0
10
-90.671044681557788
20
-87.870944529804035
30
0
10
-90.872190174129983
20
-87.828088755757946
30
0
10
-91.16004993766353
20
-87.827547058293163
30
0
10
-91.261217296082137
20
-87.839143335900317
30
0
10
-91.427633128459448
20
-87.895059438892119
30
0
10
-91.493921031773368
20
-87.930411933331683
30
0
10
-91.614937906381542
20
-88.031405928522616
30
0
10
-91.663933011485227
20
-88.095247933208043
30
0
10
-91.757415730573712
20
-88.27425938646428
30
0
10
-91.786740572177465
20
-88.395852033541331
30
0
10
-91.827043463679914
20
-88.734249011046273
30
0
10
-91.806890565794461
20
-88.983287279703106
30
0
10
-91.766195837656639
20
-89.227775065104211
30
0
0
SPLINE
5
160
100
AcDbEntity
8
0
100
AcDbSpline
70
0
71
3
72
16
73
12
74
0
42
0.000000001
43
0.0000000001
44
0.0000000001
40
-0.40235889289943566
40
-0.40235889289943566
40
-0.40235889289943566
40
-0.40235889289943566
40
-0.30942607792698523
40
-0.30942607792698523
40
-0.25019873655689195
40
-0.25019873655689195
40
-0.19317007833024238
40
-0.19317007833024238
40
-0.12200520988685776
40
-0.12200520988685776
40
0
40
0
40
0
40
0
10
-91.766195837656639
20
-89.227775065104211
30
0
10
-91.69860059048699
20
-89.634073033919762
30
0
10
-91.678943998438001
20
-90.062567444034741
30
0
10
-91.813111287780686
20
-90.72341893862523
30
0
10
-91.905837991179581
20
-90.966767457555648
30
0
10
-92.187936601782809
20
-91.397536817620278
30
0
10
-92.364868297823946
20
-91.573262537439021
30
0
10
-92.833961278174741
20
-91.89281950929842
30
0
10
-93.132574372957592
20
-92.010276591941235
30
0
10
-93.965037875550905
20
-92.206060414312262
30
0
10
-94.509128357561494
20
-92.195218559763546
30
0
10
-94.91050488154093
20
-92.129729715983117
30
0
0
SPLINE
5
161
100
AcDbEntity
8
0
100
AcDbSpline
70
0
71
3
72
14
73
10
74
0
42
0.000000001
43
0.0000000001
44
0.0000000001
40
-0.3928952145437784
40
-0.3928952145437784
40
-0.3928952145437784
40
-0.3928952145437784
40
-0.29757944895840815
40
-0.29757944895840815
40
-0.20078842966611402
40
-0.20078842966611402
40
-0.068409782072376468
40
-0.068409782072376468
40
0
40
0
40
0
40
0
10
-94.91050488154093
20
-92.129729715983117
30
0
10
-95.228291213111874
20
-92.077941311619256
30
0
10
-95.561970858129115
20
-91.954240116722744
30
0
10
-96.222739827228196
20
-91.604622778417934
30
0
10
-96.543353526533366
20
-91.380549688149671
30
0
10
-97.223038006482852
20
-90.800664755033509
30
0
10
-97.562393993653728
20
-90.419056874273764
30
0
10
-97.918126586198341
20
-89.848758195101794
30
0
10
-98.026912479602672
20
-89.630776242261675
30
0
10
-98.086300214131654
20
-89.410612742106139
30
0
0
SPLINE
5
162
100
AcDbEntity
8
0
100
AcDbSpline
70
0
71
3
72
16
73
12
74
0
42
0.000000001
43
0.0000000001
44
0.0000000001
40
-0.36308525434396766
40
-0.36308525434396766
40
-0.36308525434396766
40
-0.36308525434396766
40
-0.29688739372015777
40
-0.29688739372015777
40
-0.23317306431280693
40
-0.23317306431280693
40
-0.17304703267517638
40
-0.17304703267517638
40
-0.10526641390519013
40
-0.10526641390519013
40
0
40
0
40
0
40
0
10
-98.086300214131654
20
-89.410612742106139
30
0
10
-98.143839569749488
20
-89.197322421906208
30
0
10
-98.190501893135718
20
-88.976624730577413
30
0
10
-98.23675411979066
20
-88.545157650822276
30
0
10
-98.238575857586525
20
-88.32959472221907
30
0
10
-98.174742144510546
20
-87.920628342177721
30
0
10
-98.113732700355314
20
-87.731956000148799
30
0
10
-97.905242982632757
20
-87.358785530290135
30
0
10
-97.756002012038849
20
-87.192731733703141
30
0
10
-97.301302205929389
20
-86.835788167197535
30
0
10
-96.963719602244325
20
-86.689023263710311
30
0
10
-96.627918624877921
20
-86.587238566080771
30
0
0
SPLINE
5
163
100
AcDbEntity
8
0
100
AcDbSpline
70
0
71
3
72
20
73
16
74
0
42
0.000000001
43
0.0000000001
44
0.0000000001
40
-0.41367631705981922
40
-0.41367631705981922
40
-0.41367631705981922
40
-0.41367631705981922
40
-0.34275903109524408
40
-0.34275903109524408
40
-0.30305108625824673
40
-0.30305108625824673
40
-0.27534707621794463
40
-0.27534707621794463
40
-0.24755049158325479
40
-0.24755049158325479
40
-0.20968982718256113
40
-0.20968982718256113
40
-0.14454859809645687
40
-0.14454859809645687
40
0
40
0
40
0
40
0
10
-96.627918624877921
20
-86.587238566080771
30
0
10
-96.43073276331819
20
-86.527494204844118
30
0
10
-96.220338718327
20
-86.447480716385655
30
0
10
-95.944756547843269
20
-86.280311906687629
30
0
10
-95.849347330012165
20
-86.20755753675499
30
0
10
-95.721313657729326
20
-86.058350267418263
30
0
10
-95.678851151817696
20
-85.990179703386815
30
0
10
-95.62336914531285
20
-85.838098834840736
30
0
10
-95.612307451929851
20
-85.759237766282951
30
0
10
-95.621096824819162
20
-85.567930447512566
30
0
10
-95.653335878428521
20
-85.459735975321749
30
0
10
-95.776008827248546
20
-85.185728448032748
30
0
10
-95.898731365102705
20
-85.019085981732047
30
0
10
-96.298114940819417
20
-84.558875901607365
30
0
10
-96.680680406637549
20
-84.241938094152033
30
0
10
-97.069243431091294
20
-83.957021204630564
30
0
0
LINE
5
164
100
AcDbEntity
8
0
100
AcDbLine
10
-97.069243431091294
20
-83.957021204630564
30
0
11
-106.72626864115398
21
-78.381715520223011
31
0
0
SPLINE
5
165
100
AcDbEntity
8
0
100
AcDbSpline
70
0
71
3
72
20
73
16
74
0
42
0.000000001
43
0.0000000001
44
0.0000000001
40
-0.50924225618333774
40
-0.50924225618333774
40
-0.50924225618333774
40
-0.50924225618333774
40
-0.38171157342409029
40
-0.38171157342409029
40
-0.30899508232237205
40
-0.30899508232237205
40
-0.26828652622729543
40
-0.26828652622729543
40
-0.23507309329907711
40
-0.23507309329907711
40
-0.19783355031158695
40
-0.19783355031158695
40
-0.14007969422102229
40
-0.14007969422102229
40
0
40
0
40
0
40
0
10
-106.72626864115398
20
-78.381715520223025
30
0
10
-106.99193881095566
20
-78.198139921890274
30
0
10
-107.27528099234689
20
-77.979831069726814
30
0
10
-107.62961598114811
20
-77.614724967422973
30
0
10
-107.75616295755131
20
-77.460477669942321
30
0
10
-107.88911370451152
20
-77.204000288146432
30
0
10
-107.92576988107584
20
-77.105196873260979
30
0
10
-107.95308224427458
20
-76.918820874146277
30
0
10
-107.95053006549941
20
-76.835559473159762
30
0
10
-107.90879194910518
20
-76.660949864091194
30
0
10
-107.86684027848922
20
-76.576706603501165
30
0
10
-107.72490558330689
20
-76.380654682176925
30
0
10
-107.60674795204169
20
-76.280812270797412
30
0
10
-107.18927397875872
20
-75.999760712773053
30
0
10
-106.77869567227052
20
-75.842460286201941
30
0
10
-106.32912718454996
20
-75.716309738159211
30
0
0
SPLINE
5
166
100
AcDbEntity
8
0
100
AcDbSpline
70
0
71
3
72
18
73
14
74
0
42
0.000000001
43
0.0000000001
44
0.0000000001
40
-0.3592787336438153
40
-0.3592787336438153
40
-0.3592787336438153
40
-0.3592787336438153
40
-0.33241225634857829
40
-0.33241225634857829
40
-0.30703336750462834
40
-0.30703336750462834
40
-0.25663937739831844
40
-0.25663937739831844
40
-0.18224189900088894
40
-0.18224189900088894
40
-0.071065495383543398
40
-0.071065495383543398
40
0
40
0
40
0
40
0
10
-106.32912718454996
20
-75.716309738159211
30
0
10
-106.22004158502025
20
-75.685699570853288
30
0
10
-106.11517035050754
20
-75.643888262120271
30
0
10
-105.92176153907735
20
-75.538428884070214
30
0
10
-105.83462132626806
20
-75.477193683282024
30
0
10
-105.59551746476673
20
-75.26532125829543
30
0
10
-105.47182764261287
20
-75.092728958040396
30
0
10
-105.24002797353484
20
-74.620257795822113
30
0
10
-105.16861605501174
20
-74.301942239803779
30
0
10
-105.10536985396465
20
-73.519810347927873
30
0
10
-105.16746774352308
20
-73.027114710830205
30
0
10
-105.38485451353999
20
-72.327752598408324
30
0
10
-105.49840188153256
20
-72.082187669407858
30
0
10
-105.63300930658976
20
-71.887263743082713
30
0
0
SPLINE
5
167
100
AcDbEntity
8
0
100
AcDbSpline
70
0
71
3
72
12
73
8
74
0
42
0.000000001
43
0.0000000001
44
0.0000000001
40
-0.32270225923660034
40
-0.32270225923660034
40
-0.32270225923660034
40
-0.32270225923660034
40
-0.19823479551251222
40
-0.19823479551251222
40
-0.10186554226093493
40
-0.10186554226093493
40
0
40
0
40
0
40
0
10
-105.63300930658976
20
-71.887263743082713
30
0
10
-105.93223312949567
20
-71.453757653998025
30
0
10
-106.29010442375099
20
-71.056815009648659
30
0
10
-107.047102741872
20
-70.511156540265262
30
0
10
-107.41013782189808
20
-70.332948068716064
30
0
10
-108.219310105126
20
-70.12488378807447
30
0
10
-108.61039978088743
20
-70.119181294882679
30
0
10
-108.94665152231852
20
-70.166406250000051
30
0
0
SPLINE
5
168
100
AcDbEntity
8
0
100
AcDbSpline
70
0
71
3
72
14
73
10
74
0
42
0.000000001
43
0.0000000001
44
0.0000000001
40
-0.4804748402759923
40
-0.4804748402759923
40
-0.4804748402759923
40
-0.4804748402759923
40
-0.3880403306854755
40
-0.3880403306854755
40
-0.31505742114063068
40
-0.31505742114063068
40
-0.23281819123528555
40
-0.23281819123528555
40
0
40
0
40
0
40
0
10
-108.94665152231852
20
-70.166406250000051
30
0
10
-109.2119982848363
20
-70.20369934085096
30
0
10
-109.47637409020722
20
-70.275099532791117
30
0
10
-109.89972070816327
20
-70.502364115243253
30
0
10
-110.06089231314874
20
-70.632742062415815
30
0
10
-110.34529464359653
20
-70.983063846329685
30
0
10
-110.44894054714806
20
-71.197275440461823
30
0
10
-110.7258414176848
20
-72.069421911510261
30
0
10
-110.69607644308675
20
-72.875206298060661
30
0
10
-110.68946342468263
20
-73.651238759358762
30
0
0
SPLINE
5
169
100
AcDbEntity
8
0
100
AcDbSpline
70
0
71
3
72
20
73
16
74
0
42
0.000000001
43
0.0000000001
44
0.0000000001
40
-0.42967824599963073
40
-0.42967824599963073
40
-0.42967824599963073
40
-0.42967824599963073
40
-0.34956936746731643
40
-0.34956936746731643
40
-0.2884308238104013
40
-0.2884308238104013
40
-0.25118455670082623
40
-0.25118455670082623
40
-0.2200483189061441
40
-0.2200483189061441
40
-0.184572084379172
40
-0.184572084379172
40
-0.12864840514541351
40
-0.12864840514541351
40
0
40
0
40
0
40
0
10
-110.68946342468263
20
-73.651238759358762
30
0
10
-110.68752776627605
20
-73.88268805641124
30
0
10
-110.69823680873216
20
-74.127791121325799
30
0
10
-110.76174770062401
20
-74.531525622635286
30
0
10
-110.80675995769091
20
-74.714731989507058
30
0
10
-110.92784383613775
20
-74.97297127146166
30
0
10
-110.98636307338056
20
-75.065482499762652
30
0
10
-111.12494049373673
20
-75.207359622305646
30
0
10
-111.19735556988954
20
-75.258730513172594
30
0
10
-111.37425526151435
20
-75.336382962746001
30
0
10
-111.47479898457522
20
-75.355090414507217
30
0
10
-111.7397762436559
20
-75.361091141811031
30
0
10
-111.90692487704302
20
-75.323963906532327
30
0
10
-112.41335876401192
20
-75.153681337879732
30
0
10
-112.79248947174251
20
-74.925543459474696
30
0
10
-113.14215205510457
20
-74.677290471394883
30
0
0
LINE
5
170
100
AcDbEntity
8
0
100
AcDbLine
10
-113.14215205510457
20
-74.677290471394898
30
0
11
-121.2434300104777
21
-69.999991989135765
31
0
0
LINE
5
171
100
AcDbEntity
8
0
100
AcDbLine
10
-121.2434300104777
20
-69.999991989135765
30
0
11
-121.2434300104777
21
-42.299970881144219
31
0
0
SPLINE
5
172
100
AcDbEntity
8
0
100
AcDbSpline
70
0
71
3
72
20
73
16
74
0
42
0.000000001
43
0.0000000001
44
0.0000000001
40
-0.45425664771222263
40
-0.45425664771222263
40
-0.45425664771222263
40
-0.45425664771222263
40
-0.30193301171781561
40
-0.30193301171781561
40
-0.25766840858458057
40
-0.25766840858458057
40
-0.23077958222334907
40
-0.23077958222334907
40
-0.20663482883250309
40
-0.20663482883250309
40
-0.17786348421935291
40
-0.17786348421935291
40
-0.13063279044848009
40
-0.13063279044848009
40
0
40
0
40
0
40
0
10
-121.2434300104777
20
-42.299970881144233
30
0
10
-121.21145889078039
20
-41.766882335160325
30
0
10
-121.22752266014771
20
-41.30007101868874
30
0
10
-121.34944145498773
20
-40.87713078252775
30
0
10
-121.38772621015968
20
-40.779101255001763
30
0
10
-121.47544616391137
20
-40.645773859764418
30
0
10
-121.51526527963435
20
-40.59992242454652
30
0
10
-121.60665357827381
20
-40.530939157027468
30
0
10
-121.65440384656364
20
-40.507626043085125
30
0
10
-121.769353699757
20
-40.477925390283154
30
0
10
-121.83399768505956
20
-40.476812686739983
30
0
10
-122.00293482564005
20
-40.499662793528721
30
0
10
-122.10850545371923
20
-40.540570356449095
30
0
10
-122.46407523824347
20
-40.719556752042301
30
0
10
-122.76029721442103
20
-40.962115444794222
30
0
10
-123.06984872817992
20
-41.268363952636733
30
0
0
SPLINE
5
173
100
AcDbEntity
8
0
100
AcDbSpline
70
0
71
3
72
16
73
12
74
0
42
0.000000001
43
0.0000000001
44
0.0000000001
40
-0.31170909369099142
40
-0.31170909369099142
40
-0.31170909369099142
40
-0.31170909369099142
40
-0.26471591808564165
40
-0.26471591808564165
40
-0.22365836363332345
40
-0.22365836363332345
40
-0.17004369550148812
40
-0.17004369550148812
40
-0.097700559483010416
40
-0.097700559483010416
40
0
40
0
40
0
40
0
10
-123.06984872817992
20
-41.268363952636733
30
0
10
-123.21617787568195
20
-41.413155524989627
30
0
10
-123.37975113723445
20
-41.538971734276373
30
0
10
-123.72163987661202
20
-41.71726705388533
30
0
10
-123.89024617880619
20
-41.774257815036393
30
0
10
-124.29950582094932
20
-41.839624160925538
30
0
10
-124.53267564924988
20
-41.825569904010429
30
0
10
-125.069486174996
20
-41.699998269900071
30
0
10
-125.36402003614498
20
-41.5573668372556
30
0
10
-125.98225559481249
20
-41.143236622002355
30
0
10
-126.27806370119983
20
-40.845386242278707
30
0
10
-126.47000859578449
20
-40.582294718424521
30
0
0
SPLINE
5
174
100
AcDbEntity
8
0
100
AcDbSpline
70
0
71
3
72
14
73
10
74
0
42
0.000000001
43
0.0000000001
44
0.0000000001
40
-0.48419598678722675
40
-0.48419598678722675
40
-0.48419598678722675
40
-0.48419598678722675
40
-0.3842094864259345
40
-0.3842094864259345
40
-0.27844982541373708
40
-0.27844982541373708
40
-0.13230130160782302
40
-0.13230130160782302
40
0
40
0
40
0
40
0
10
-126.47000859578449
20
-40.582294718424521
30
0
10
-126.62841187312985
20
-40.365247692659892
30
0
10
-126.76044529268317
20
-40.088054450541534
30
0
10
-126.95576296105844
20
-39.438346405254151
30
0
10
-127.00850528941288
20
-39.082952647874954
30
0
10
-127.0309084465448
20
-38.247802444059175
30
0
10
-126.96160559441287
20
-37.755362576946013
30
0
10
-126.66477726812859
20
-36.877278656521007
30
0
10
-126.45454487672939
20
-36.489809115423171
30
0
10
-126.17473430633545
20
-36.148941294352248
30
0
0
SPLINE
5
175
100
AcDbEntity
8
0
100
AcDbSpline
70
0
71
3
72
14
73
10
74
0
42
0.000000001
43
0.0000000001
44
0.0000000001
40
-0.40790626036573691
40
-0.40790626036573691
40
-0.40790626036573691
40
-0.40790626036573691
40
-0.28404789687942927
40
-0.28404789687942927
40
-0.19882586516274026
40
-0.19882586516274026
40
-0.11197112046952008
40
-0.11197112046952008
40
0
40
0
40
0
40
0
10
-126.17473430633545
20
-36.148941294352248
30
0
10
-125.89657310372576
20
-35.810252047898587
30
0
10
-125.62404685715077
20
-35.556517906715143
30
0
10
-125.15889109591012
20
-35.261936490833598
30
0
10
-124.95542853154654
20
-35.171640145030523
30
0
10
-124.51137482915394
20
-35.078231736289112
30
0
10
-124.28767105156851
20
-35.080462996956825
30
0
10
-123.77286894214704
20
-35.178071038669422
30
0
10
-123.47081623396852
20
-35.302023042931026
30
0
10
-123.14922453562419
20
-35.491455586751322
30
0
0
SPLINE
5
176
100
AcDbEntity
8
0
100
AcDbSpline
70
0
71
3
72
20
73
16
74
0
42
0.000000001
43
0.0000000001
44
0.0000000001
40
-0.40042578180091154
40
-0.40042578180091154
40
-0.40042578180091154
40
-0.40042578180091154
40
-0.32149504019271025
40
-0.32149504019271025
40
-0.26613776817641044
40
-0.26613776817641044
40
-0.23368654150348001
40
-0.23368654150348001
40
-0.20576617082526774
40
-0.20576617082526774
40
-0.17335950872899611
40
-0.17335950872899611
40
-0.12136251417699132
40
-0.12136251417699132
40
0
40
0
40
0
40
0
10
-123.14922453562419
20
-35.491455586751322
30
0
10
-122.95315566178878
20
-35.606960277913188
30
0
10
-122.73644741576544
20
-35.719345381686367
30
0
10
-122.3724054489397
20
-35.853311649733655
30
0
10
-122.20735399347356
20
-35.898032607487565
30
0
10
-121.95357663428625
20
-35.912078113762526
30
0
10
-121.85887833014489
20
-35.905119120839267
30
0
10
-121.69100879507569
20
-35.856341779543513
30
0
10
-121.6201364963773
20
-35.820538113813079
30
0
10
-121.48325568969931
20
-35.712011133703001
30
0
10
-121.42529981614555
20
-35.63858763608637
30
0
10
-121.30584475443607
20
-35.425421342812072
30
0
10
-121.26298625065338
20
-35.271537904307195
30
0
10
-121.17843527137694
20
-34.777804267709683
30
0
10
-121.19650690427463
20
-34.359736335792348
30
0
10
-121.2434300104777
20
-33.957925160725928
30
0
0
LINE
5
177
100
AcDbEntity
8
0
100
AcDbLine
10
-121.24343001047768
20
-33.957925160725935
30
0
11
-121.2434300104777
21
-11.784246317545577
31
0
0
SPLINE
5
178
100
AcDbEntity
8
0
100
AcDbSpline
70
0
71
3
72
20
73
16
74
0
42
0.000000001
43
0.0000000001
44
0.0000000001
40
-0.38588984062140919
40
-0.38588984062140919
40
-0.38588984062140919
40
-0.38588984062140919
40
-0.24363675748039157
40
-0.24363675748039157
40
-0.19607793771309678
40
-0.19607793771309678
40
-0.16966763117754058
40
-0.16966763117754058
40
-0.14831476128180401
40
-0.14831476128180401
40
-0.124519236594029
40
-0.124519236594029
40
-0.087850893373212058
40
-0.087850893373212058
40
0
40
0
40
0
40
0
10
-121.2434300104777
20
-11.784246317545595
30
0
10
-121.27164160940561
20
-11.16659706473412
30
0
10
-121.2508101444662
20
-10.623051113759887
30
0
10
-121.12073274140876
20
-10.092168265178563
30
0
10
-121.07372791316345
20
-9.9516642300497384
30
0
10
-120.9654871104123
20
-9.7675912580631366
30
0
10
-120.91832132251508
20
-9.7060062708665669
30
0
10
-120.81346958718923
20
-9.6163524569164043
30
0
10
-120.76115729891413
20
-9.5855084218406859
30
0
10
-120.63772698604157
20
-9.5434329774828193
30
0
10
-120.56997200303128
20
-9.536496920505833
30
0
10
-120.39570302211311
20
-9.5476314968607134
30
0
10
-120.289749527438
20
-9.5812000567177531
30
0
10
-119.96146638733276
20
-9.7266668658798121
30
0
10
-119.72013559855088
20
-9.9101871861784847
30
0
10
-119.50167787869771
20
-10.105198287963901
30
0
0
SPLINE
5
179
100
AcDbEntity
8
0
100
AcDbSpline
70
0
71
3
72
16
73
12
74
0
42
0.000000001
43
0.0000000001
44
0.0000000001
40
-0.45513252500278328
40
-0.45513252500278328
40
-0.45513252500278328
40
-0.45513252500278328
40
-0.33295776656069098
40
-0.33295776656069098
40
-0.26202275820957294
40
-0.26202275820957294
40
-0.19752785294922617
40
-0.19752785294922617
40
-0.11969159127210346
40
-0.11969159127210346
40
0
40
0
40
0
40
0
10
-119.50167787869771
20
-10.105198287963901
30
0
10
-119.19801519914982
20
-10.376252754173098
30
0
10
-118.84784601497702
20
-10.632124145509303
30
0
10
-118.25460766347135
20
-10.883802400386102
30
0
10
-118.02515932984598
20
-10.945037483609038
30
0
10
-117.57367905213151
20
-10.966482078249278
30
0
10
-117.36490680664117
20
-10.934791337206217
30
0
10
-116.91847043927572
20
-10.772536930080118
30
0
10
-116.70027218303674
20
-10.628862920972285
30
0
10
-116.20860017736399
20
-10.189910477202545
30
0
10
-115.96019944470831
20
-9.847099782537045
30
0
10
-115.75782330830891
20
-9.503264745076514
30
0
0
SPLINE
5
180
100
AcDbEntity
8
0
100
AcDbSpline
70
0
71
3
72
14
73
10
74
0
42
0.000000001
43
0.0000000001
44
0.0000000001
40
-0.37550327061888006
40
-0.37550327061888006
40
-0.37550327061888006
40
-0.37550327061888006
40
-0.25725283173842306
40
-0.25725283173842306
40
-0.13997055669008898
40
-0.13997055669008898
40
-0.048906919810552209
40
-0.048906919810552209
40
0
40
0
40
0
40
0
10
-115.75782330830891
20
-9.503264745076514
30
0
10
-115.50512106891537
20
-9.0740761437639943
30
0
10
-115.34513484475141
20
-8.576067672833755
30
0
10
-115.17084820473127
20
-7.5966426674469094
30
0
10
-115.14883336554688
20
-7.0784142811325506
30
0
10
-115.2366014942007
20
-6.209487651407219
30
0
10
-115.31686649339434
20
-5.8627665785900192
30
0
10
-115.4967247619976
20
-5.4309093363794192
30
0
10
-115.57834663066686
20
-5.2793482209077691
30
0
10
-115.68294496536254
20
-5.1543053944905814
30
0
0
SPLINE
5
181
100
AcDbEntity
8
0
100
AcDbSpline
70
0
71
3
72
14
73
10
74
0
42
0.000000001
43
0.0000000001
44
0.0000000001
40
-0.40694548928938284
40
-0.40694548928938284
40
-0.40694548928938284
40
-0.40694548928938284
40
-0.30855332538662139
40
-0.30855332538662139
40
-0.22884330240847039
40
-0.22884330240847039
40
-0.13865434411685182
40
-0.13865434411685182
40
0
40
0
40
0
40
0
10
-115.68294496536254
20
-5.1543053944905814
30
0
10
-115.89291494229934
20
-4.9032203880017411
30
0
10
-116.13913808592216
20
-4.6834193474680959
30
0
10
-116.65977292285206
20
-4.4016024573550121
30
0
10
-116.90868159316443
20
-4.3237089423857729
30
0
10
-117.47048939796227
20
-4.267844669266708
30
0
10
-117.76757814740949
20
-4.3063134898753264
30
0
10
-118.4967104474735
20
-4.5238587681251499
30
0
10
-118.91306672468764
20
-4.7663073399294174
30
0
10
-119.28154233296712
20
-5.0453004201253471
30
0
0
SPLINE
5
182
100
AcDbEntity
8
0
100
AcDbSpline
70
0
71
3
72
20
73
16
74
0
42
0.000000001
43
0.0000000001
44
0.0000000001
40
-0.40932495692045351
40
-0.40932495692045351
40
-0.40932495692045351
40
-0.40932495692045351
40
-0.31346492561953643
40
-0.31346492561953643
40
-0.26898885723567045
40
-0.26898885723567045
40
-0.24107664104184451
40
-0.24107664104184451
40
-0.21497471811200042
40
-0.21497471811200042
40
-0.18313074505897003
40
-0.18313074505897003
40
-0.12991946121616915
40
-0.12991946121616915
40
0
40
0
40
0
40
0
10
-119.28154233296712
20
-5.0453004201253471
30
0
10
-119.53140620555229
20
-5.2344455624822048
30
0
10
-119.79938944351532
20
-5.4081953349560452
30
0
10
-120.17321938226112
20
-5.5610319312047682
30
0
10
-120.3025482652552
20
-5.6000555263662557
30
0
10
-120.51047356436419
20
-5.6174033261543341
30
0
10
-120.59108992386227
20
-5.6130299983815979
30
0
10
-120.74146057013755
20
-5.5725522523547593
30
0
10
-120.80746272541728
20
-5.5396370596604703
30
0
10
-120.93916401575198
20
-5.4368587448517269
30
0
10
-120.99652285105972
20
-5.3644117272327581
30
0
10
-121.11905954213462
20
-5.1521122230984542
30
0
10
-121.16666711127756
20
-4.9942269458845985
30
0
10
-121.27177677473361
20
-4.4783400489672971
30
0
10
-121.27192296622597
20
-4.0272407820849363
30
0
10
-121.24342799186707
20
-3.5951143900553539
30
0
0
LINE
5
183
100
AcDbEntity
8
0
100
AcDbLine
10
-121.24342799186707
20
-3.5951143900553539
30
0
11
-121.24342799186707
21
26.416046333312977
31
0
0
SPLINE
5
184
100
AcDbEntity
8
0
100
AcDbSpline
70
0
71
3
72
18
73
14
74
0
42
0.000000001
43
0.0000000001
44
0.0000000001
40
-0.38414698582650419
40
-0.38414698582650419
40
-0.38414698582650419
40
-0.38414698582650419
40
-0.27432078300349266
40
-0.27432078300349266
40
-0.23068505931741737
40
-0.23068505931741737
40
-0.19687632055763848
40
-0.19687632055763848
40
-0.16028673942948865
40
-0.16028673942948865
40
-0.10568466469521459
40
-0.10568466469521459
40
0
40
0
40
0
40
0
10
-121.24342799186707
20
26.416046333312977
30
0
10
-121.25306375086748
20
26.832305241016282
30
0
10
-121.30482490937791
20
27.218751478152893
30
0
10
-121.475373534159
20
27.638409961765596
30
0
10
-121.53891155835151
20
27.753767638386975
30
0
10
-121.68860809191698
20
27.926724838207654
30
0
10
-121.76464557526528
20
27.989415742255709
30
0
10
-121.94867229507625
20
28.086223530999661
30
0
10
-122.05176970541191
20
28.113879737817772
30
0
10
-122.32000524715198
20
28.138235756526623
30
0
10
-122.48596789856443
20
28.112501904304136
30
0
10
-122.94164105205454
20
27.986364698923264
30
0
10
-123.25876342686571
20
27.82305171969286
30
0
10
-123.55747440656026
20
27.636304537455221
30
0
0
SPLINE
5
185
100
AcDbEntity
8
0
100
AcDbSpline
70
0
71
3
72
16
73
12
74
0
42
0.000000001
43
0.0000000001
44
0.0000000001
40
-0.44255556085780917
40
-0.44255556085780917
40
-0.44255556085780917
40
-0.44255556085780917
40
-0.37327193929601515
40
-0.37327193929601515
40
-0.31340010156781889
40
-0.31340010156781889
40
-0.22505345429096363
40
-0.22505345429096363
40
-0.13030352194498379
40
-0.13030352194498379
40
0
40
0
40
0
40
0
10
-123.55747440656026
20
27.636304537455221
30
0
10
-123.75345377017426
20
27.513795234786002
30
0
10
-123.96025920565486
20
27.405890697973803
30
0
10
-124.36191127257621
20
27.250015675546596
30
0
10
-124.55448580615808
20
27.195926238067798
30
0
10
-125.04336705391908
20
27.12240302624993
30
0
10
-125.33319795938766
20
27.133535606613258
30
0
10
-125.92509915560278
20
27.282677242725057
30
0
10
-126.20617966002717
20
27.424750395248072
30
0
10
-126.81115892014729
20
27.86839798845234
30
0
10
-127.10806180978265
20
28.207269740121234
30
0
10
-127.34895405769348
20
28.568692715962705
30
0
0
SPLINE
5
186
100
AcDbEntity
8
0
100
AcDbSpline
70
0
71
3
72
16
73
12
74
0
42
0.000000001
43
0.0000000001
44
0.0000000001
40
-0.4341762572694865
40
-0.4341762572694865
40
-0.4341762572694865
40
-0.4341762572694865
40
-0.37975289437106985
40
-0.37975289437106985
40
-0.31885037612487976
40
-0.31885037612487976
40
-0.1874292408838496
40
-0.1874292408838496
40
-0.075324571115481687
40
-0.075324571115481687
40
0
40
0
40
0
40
0
10
-127.34895405769348
20
28.568692715962705
30
0
10
-127.44905684527515
20
28.718807107175813
30
0
10
-127.5258557716689
20
28.88827168655596
30
0
10
-127.64885823644802
20
29.251091937282183
30
0
10
-127.69325399713435
20
29.453336505548965
30
0
10
-127.78085723581768
20
30.087442204467546
30
0
10
-127.76849282076896
20
30.548904223445007
30
0
10
-127.62604929708974
20
31.351279362264258
30
0
10
-127.50946613728556
20
31.722884885639271
30
0
10
-127.21136373497481
20
32.272598148214826
30
0
10
-127.06117525377876
20
32.478583942270646
30
0
10
-126.87614296277363
20
32.648304812113423
30
0
0
SPLINE
5
187
100
AcDbEntity
8
0
100
AcDbSpline
70
0
71
3
72
14
73
10
74
0
42
0.000000001
43
0.0000000001
44
0.0000000001
40
-0.33568841257422988
40
-0.33568841257422988
40
-0.33568841257422988
40
-0.33568841257422988
40
-0.26762835758554321
40
-0.26762835758554321
40
-0.21236248066625016
40
-0.21236248066625016
40
-0.14931269543265877
40
-0.14931269543265877
40
0
40
0
40
0
40
0
10
-126.87614296277363
20
32.648304812113423
30
0
10
-126.68018991798925
20
32.828064786148012
30
0
10
-126.46334206257023
20
32.991355188092271
30
0
10
-126.03571053550256
20
33.214272346900827
30
0
10
-125.83337623915699
20
33.286646057236794
30
0
10
-125.37655805464129
20
33.361499455274824
30
0
10
-125.13580694720339
20
33.350012062100234
30
0
10
-124.32570855557451
20
33.161439811428323
30
0
10
-123.83469971292129
20
32.797339570069319
30
0
10
-123.42968020439147
20
32.508075968424457
30
0
0
SPLINE
5
188
100
AcDbEntity
8
0
100
AcDbSpline
70
0
71
3
72
20
73
16
74
0
42
0.000000001
43
0.0000000001
44
0.0000000001
40
-0.50419006183914261
40
-0.50419006183914261
40
-0.50419006183914261
40
-0.50419006183914261
40
-0.39647646140913201
40
-0.39647646140913201
40
-0.35075799284049647
40
-0.35075799284049647
40
-0.31905117279101908
40
-0.31905117279101908
40
-0.28737986526656845
40
-0.28737986526656845
40
-0.24448440776896402
40
-0.24448440776896402
40
-0.17074983685473491
40
-0.17074983685473491
40
0
40
0
40
0
40
0
10
-123.42968020439147
20
32.508075968424457
30
0
10
-123.13931549921125
20
32.300689742805353
30
0
10
-122.82608811970279
20
32.113928397955604
30
0
10
-122.40303620549415
20
31.975798030535341
30
0
10
-122.26841275920017
20
31.947102718814222
30
0
10
-122.04360955617373
20
31.947130412888839
30
0
10
-121.95310601085592
20
31.960934158447671
30
0
10
-121.78078423932753
20
32.025544400261708
30
0
10
-121.70467792603249
20
32.074161740558424
30
0
10
-121.54691617833662
20
32.222465317991265
30
0
10
-121.47796962213084
20
32.329370678315811
30
0
10
-121.33364188938502
20
32.63547698752533
30
0
10
-121.28150470167117
20
32.86263611616333
30
0
10
-121.17932271735916
20
33.56253277654266
30
0
10
-121.19474320733678
20
34.151850883280765
30
0
10
-121.24342799186707
20
34.71893100738523
30
0
0
LINE
5
189
100
AcDbEntity
8
0
100
AcDbLine
10
-121.24342799186707
20
34.71893100738523
30
0
11
-121.24342799186707
21
70.000054295857723
31
0
0
LINE
5
190
100
AcDbEntity
8
0
100
AcDbLine
10
-121.24342799186707
20
70.000054295857723
30
0
11
-112.19970715840658
21
75.221602503458655
31
0
0
SPLINE
5
191
100
AcDbEntity
8
0
100
AcDbSpline
70
0
71
3
72
14
73
10
74
0
42
0.000000001
43
0.0000000001
44
0.0000000001
40
-0.26287141460404612
40
-0.26287141460404612
40
-0.26287141460404612
40
-0.26287141460404612
40
-0.20266214911604452
40
-0.20266214911604452
40
-0.14908021543241209
40
-0.14908021543241209
40
-0.080714783556376429
40
-0.080714783556376429
40
0
40
0
40
0
40
0
10
-112.19970715840657
20
75.221602503458641
30
0
10
-112.02696922126704
20
75.323753122487275
30
0
10
-111.84435015438896
20
75.413046799760693
30
0
10
-111.48609581984809
20
75.537818162363223
30
0
10
-111.31179922601198
20
75.578180098527966
30
0
10
-110.90658450036899
20
75.611563877449029
30
0
10
-110.6842004263485
20
75.58755974139963
30
0
10
-110.21073784690087
20
75.436251778319587
30
0
10
-109.98048605333938
20
75.297044908229509
30
0
10
-109.77427380879719
20
75.124232800801579
30
0
0
SPLINE
5
192
100
AcDbEntity
8
0
100
AcDbSpline
70
0
71
3
72
18
73
14
74
0
42
0.000000001
43
0.0000000001
44
0.0000000001
40
-0.66082303721157587
40
-0.66082303721157587
40
-0.66082303721157587
40
-0.66082303721157587
40
-0.57156384546367289
40
-0.57156384546367289
40
-0.48438722690570413
40
-0.48438722690570413
40
-0.31561070971419353
40
-0.31561070971419353
40
-0.21432313581521861
40
-0.21432313581521861
40
-0.11779002838670993
40
-0.11779002838670993
40
0
40
0
40
0
40
0
10
-109.77427380879719
20
75.124232800801579
30
0
10
-109.57941130502674
20
74.960968542200291
30
0
10
-109.44342790616324
20
74.789416792045827
30
0
10
-109.25389471103712
20
74.438206243666855
30
0
10
-109.19677753949513
20
74.255664044041495
30
0
10
-109.09699325709865
20
73.68353488444923
30
0
10
-109.12322576849999
20
73.292726971195663
30
0
10
-109.08931488597781
20
72.674621089218618
30
0
10
-109.0597613138236
20
72.448895980662215
30
0
10
-108.91430379909221
20
72.020768095560669
30
0
10
-108.80847730724304
20
71.836598799542145
30
0
10
-108.49101200463949
20
71.466665845240129
30
0
10
-108.24584595504369
20
71.27142716189114
30
0
10
-107.89785006841022
20
71.089603424072266
30
0
0
SPLINE
5
193
100
AcDbEntity
8
0
100
AcDbSpline
70
0
71
3
72
18
73
14
74
0
42
0.000000001
43
0.0000000001
44
0.0000000001
40
-0.65016808235315682
40
-0.65016808235315682
40
-0.65016808235315682
40
-0.65016808235315682
40
-0.58341463257319592
40
-0.58341463257319592
40
-0.51562246384529042
40
-0.51562246384529042
40
-0.37700331274294063
40
-0.37700331274294063
40
-0.20165005534711561
40
-0.20165005534711561
40
-0.080846612710348389
40
-0.080846612710348389
40
0
40
0
40
0
40
0
10
-107.89785006841022
20
71.089603424072266
30
0
10
-107.72100805135578
20
70.997218587581742
30
0
10
-107.53210215830453
20
70.93774445156437
30
0
10
-107.13436893449975
20
70.878588001291007
30
0
10
-106.93072264933456
20
70.880644383600512
30
0
10
-106.31877355927256
20
70.960413372694717
30
0
10
-105.89656592628199
20
71.117579303108556
30
0
10
-104.98640069733628
20
71.642770424584825
30
0
10
-104.51714954531995
20
72.052156328309707
30
0
10
-103.90133115337451
20
72.830240200294114
30
0
10
-103.68583767594049
20
73.189610191089912
30
0
10
-103.45835012785452
20
73.822969057795376
30
0
10
-103.40110088539421
20
74.090644224482986
30
0
10
-103.39808031717936
20
74.360116004943833
30
0
0
SPLINE
5
194
100
AcDbEntity
8
0
100
AcDbSpline
70
0
71
3
72
16
73
12
74
0
42
0.000000001
43
0.0000000001
44
0.0000000001
40
-0.33838274521159328
40
-0.33838274521159328
40
-0.33838274521159328
40
-0.33838274521159328
40
-0.30023610324936234
40
-0.30023610324936234
40
-0.26619430883073492
40
-0.26619430883073492
40
-0.2012510797707629
40
-0.2012510797707629
40
-0.072102047965996674
40
-0.072102047965996674
40
0
40
0
40
0
40
0
10
-103.39808031717936
20
74.360116004943833
30
0
10
-103.39659342303271
20
74.492816641546639
30
0
10
-103.40814683095333
20
74.625016951364969
30
0
10
-103.46240641698346
20
74.870374617270102
30
0
10
-103.50098322410133
20
74.981189961494707
30
0
10
-103.65418733963408
20
75.28999201143067
30
0
10
-103.79769727639936
20
75.459075832832539
30
0
10
-104.3062506312355
20
75.9047886727665
30
0
10
-104.74521592492454
20
76.118251627227608
30
0
10
-105.36223570734755
20
76.491363695239627
30
0
10
-105.57075558452158
20
76.633593498371027
30
0
10
-105.74070218404134
20
76.803539212544749
30
0
0
SPLINE
5
195
100
AcDbEntity
8
0
100
AcDbSpline
70
0
71
3
72
18
73
14
74
0
42
0.000000001
43
0.0000000001
44
0.0000000001
40
-0.32185625873691381
40
-0.32185625873691381
40
-0.32185625873691381
40
-0.32185625873691381
40
-0.27462857348274666
40
-0.27462857348274666
40
-0.2346273582058952
40
-0.2346273582058952
40
-0.1956654286792443
40
-0.1956654286792443
40
-0.15537630651848164
40
-0.15537630651848164
40
-0.098401682916982619
40
-0.098401682916982619
40
0
40
0
40
0
40
0
10
-105.74070218404134
20
76.803539212544749
30
0
10
-105.85235493594971
20
76.915234661737571
30
0
10
-105.95889162456874
20
77.037318411967931
30
0
10
-106.12417512529545
20
77.277841751064386
30
0
10
-106.18975228118934
20
77.396894386371414
30
0
10
-106.2791192901512
20
77.645601232570755
30
0
10
-106.30312197572735
20
77.772567635247682
30
0
10
-106.29790018693791
20
78.037771659344187
30
0
10
-106.26702223159874
20
78.166803460078953
30
0
10
-106.13581402428599
20
78.464729000882514
30
0
10
-106.01553045340792
20
78.61988834376065
30
0
10
-105.64836253300066
20
78.987481971650595
30
0
10
-105.34729320133613
20
79.18491958968778
30
0
10
-105.06019220352172
20
79.343540827433259
30
0
0
LINE
5
196
100
AcDbEntity
8
0
100
AcDbLine
10
-105.06019220352172
20
79.343540827433259
30
0
11
-93.432546806335438
21
86.056547578175866
31
0
0
SPLINE
5
197
100
AcDbEntity
8
0
100
AcDbSpline
70
0
71
3
72
20
73
16
74
0
42
0.000000001
43
0.0000000001
44
0.0000000001
40
-0.37980336119762548
40
-0.37980336119762548
40
-0.37980336119762548
40
-0.37980336119762548
40
-0.27428390578114537
40
-0.27428390578114537
40
-0.24210579623834555
40
-0.24210579623834555
40
-0.22062756810374429
40
-0.22062756810374429
40
-0.19978028714822804
40
-0.19978028714822804
40
-0.17256604862801128
40
-0.17256604862801128
40
-0.12617301113584004
40
-0.12617301113584004
40
0
40
0
40
0
40
0
10
-93.432546806335438
20
86.056547578175866
30
0
10
-93.029091076158807
20
86.275695196997276
30
0
10
-92.69866271410784
20
86.503435208538676
30
0
10
-92.444555937989833
20
86.802153672087684
30
0
10
-92.390253127434576
20
86.880960213699979
30
0
10
-92.331618462257723
20
87.022282885332473
30
0
10
-92.316650962027154
20
87.081525451681259
30
0
10
-92.311882625402717
20
87.202141777522556
30
0
10
-92.321500803702207
20
87.259669155940713
30
0
10
-92.36934323288601
20
87.388117882987757
30
0
10
-92.413724195624525
20
87.453208841025713
30
0
10
-92.554609975833117
20
87.608677179731586
30
0
10
-92.671914491251812
20
87.691140283253958
30
0
10
-93.09567787495142
20
87.93817184104293
30
0
10
-93.517045533396129
20
88.079997954116521
30
0
10
-93.923085339864087
20
88.189617474873856
30
0
0
SPLINE
5
198
100
AcDbEntity
8
0
100
AcDbSpline
70
0
71
3
72
16
73
12
74
0
42
0.000000001
43
0.0000000001
44
0.0000000001
40
-0.36573344239439348
40
-0.36573344239439348
40
-0.36573344239439348
40
-0.36573344239439348
40
-0.31179892048822644
40
-0.31179892048822644
40
-0.26443059622655035
40
-0.26443059622655035
40
-0.18566554915704581
40
-0.18566554915704581
40
-0.1008069092206039
40
-0.1008069092206039
40
0
40
0
40
0
40
0
10
-93.923085339864087
20
88.189617474873856
30
0
10
-94.149374331838786
20
88.250713768088147
30
0
10
-94.37072847877451
20
88.330729373056457
30
0
10
-94.765893404305558
20
88.524632417498012
30
0
10
-94.940884252567201
20
88.63256369350546
30
0
10
-95.371162309454846
20
88.97183472037554
30
0
10
-95.590991498329203
20
89.228273585101178
30
0
10
-95.936038562222279
20
89.848574402094314
30
0
10
-96.043750483045486
20
90.204123108888069
30
0
10
-96.141535837307615
20
91.001387726666749
30
0
10
-96.101843947167254
20
91.415319360601188
30
0
10
-96.017527103424072
20
91.74059178034463
30
0
0
SPLINE
5
199
100
AcDbEntity
8
0
100
AcDbSpline
70
0
71
3
72
16
73
12
74
0
42
0.000000001
43
0.0000000001
44
0.0000000001
40
-0.67032219546583338
40
-0.67032219546583338
40
-0.67032219546583338
40
-0.67032219546583338
40
-0.57842369195307108
40
-0.57842369195307108
40
-0.48112012798759074
40
-0.48112012798759074
40
-0.29039546359630941
40
-0.29039546359630941
40
-0.13927929348476889
40
-0.13927929348476889
40
0
40
0
40
0
40
0
10
-96.017527103424072
20
91.74059178034463
30
0
10
-95.961066811596737
20
91.958406596305181
30
0
10
-95.859351446487409
20
92.190409227334811
30
0
10
-95.567388151223412
20
92.676328763669957
30
0
10
-95.382913522978669
20
92.913123260746829
30
0
10
-94.79202804657227
20
93.547196666520733
30
0
10
-94.292708008040194
20
93.934171668758083
30
0
10
-93.275005409282983
20
94.442200063322431
30
0
10
-92.790557903973024
20
94.597420108318232
30
0
10
-91.830284560062353
20
94.712065478628361
30
0
10
-91.370299846551973
20
94.684346943386757
30
0
10
-90.920595804850251
20
94.568988259633372
30
0
0
SPLINE
5
200
100
AcDbEntity
8
0
100
AcDbSpline
70
0
71
3
72
14
73
10
74
0
42
0.000000001
43
0.0000000001
44
0.0000000001
40
-0.46492839441566036
40
-0.46492839441566036
40
-0.46492839441566036
40
-0.46492839441566036
40
-0.28914310659474679
40
-0.28914310659474679
40
-0.20581940683521488
40
-0.20581940683521488
40
-0.11901507433601
40
-0.11901507433601
40
0
40
0
40
0
40
0
10
-90.920595804850251
20
94.568988259633372
30
0
10
-90.529128612361944
20
94.468683309911853
30
0
10
-89.980630997745919
20
94.287861427829412
30
0
10
-89.283999926847628
20
93.777787629990883
30
0
10
-89.086772911051156
20
93.583765159671316
30
0
10
-88.765408953518261
20
93.116757999377484
30
0
10
-88.654254518967761
20
92.854774962009429
30
0
10
-88.507504620469462
20
92.184654675967849
30
0
10
-88.520434745670656
20
91.782075225820364
30
0
10
-88.58908840815225
20
91.391343879699718
30
0
0
SPLINE
5
201
100
AcDbEntity
8
0
100
AcDbSpline
70
0
71
3
72
20
73
16
74
0
42
0.000000001
43
0.0000000001
44
0.0000000001
40
-0.42787024654099137
40
-0.42787024654099137
40
-0.42787024654099137
40
-0.42787024654099137
40
-0.35233978920662201
40
-0.35233978920662201
40
-0.30004789998571307
40
-0.30004789998571307
40
-0.26728550242019183
40
-0.26728550242019183
40
-0.23671285678988077
40
-0.23671285678988077
40
-0.19945906709879802
40
-0.19945906709879802
40
-0.13725970910383722
40
-0.13725970910383722
40
0
40
0
40
0
40
0
10
-88.58908840815225
20
91.391343879699718
30
0
10
-88.627022892602128
20
91.175393268566566
30
0
10
-88.653937068225844
20
90.942312805206655
30
0
10
-88.646131441813779
20
90.570648914400422
30
0
10
-88.627568295541266
20
90.411168829203504
30
0
10
-88.548299545027589
20
90.176440015461651
30
0
10
-88.505528454316789
20
90.090736104391908
30
0
10
-88.390696411924893
20
89.946288781964171
30
0
10
-88.32391385351643
20
89.890054762474392
30
0
10
-88.150463468348207
20
89.79535981625672
30
0
10
-88.044955287463353
20
89.767132369768703
30
0
10
-87.757208676886847
20
89.73391577936664
30
0
10
-87.563771229245816
20
89.756445532978105
30
0
10
-86.996755058304544
20
89.876151108599089
30
0
10
-86.561618535304049
20
90.056929934265241
30
0
10
-86.151745255788157
20
90.260251744588203
30
0
0
LINE
5
202
100
AcDbEntity
8
0
100
AcDbLine
10
-86.151745255788157
20
90.260251744588203
30
0
11
-67.08692461649575
21
101.26744890213011
31
0
0
SPLINE
5
203
100
AcDbEntity
8
0
100
AcDbSpline
70
0
71
3
72
20
73
16
74
0
42
0.000000001
43
0.0000000001
44
0.0000000001
40
-0.53603678884118944
40
-0.53603678884118944
40
-0.53603678884118944
40
-0.53603678884118944
40
-0.32492485849633346
40
-0.32492485849633346
40
-0.23931968149044097
40
-0.23931968149044097
40
-0.19576394358108085
40
-0.19576394358108085
40
-0.16372052544248727
40
-0.16372052544248727
40
-0.13029584660676735
40
-0.13029584660676735
40
-0.082525797040414392
40
-0.082525797040414392
40
0
40
0
40
0
40
0
10
-67.086924616495764
20
101.26744890213011
30
0
10
-66.403771415592672
20
101.7144840172719
30
0
10
-65.66561155840148
20
102.1418273760591
30
0
10
-64.739481766309467
20
102.4886964331978
30
0
10
-64.436945975846299
20
102.57712431318365
30
0
10
-64.006237499572109
20
102.61031885101252
30
0
10
-63.856389318393987
20
102.60507625991553
30
0
10
-63.61090626854164
20
102.54367791255322
30
0
10
-63.513303642108674
20
102.50183564597538
30
0
10
-63.333844365516342
20
102.37606080672521
30
0
10
-63.259333267330966
20
102.29493811005925
30
0
10
-63.11391902083195
20
102.0653289774591
30
0
10
-63.062051094023701
20
101.90872402538035
30
0
10
-62.977111981197865
20
101.48137818822983
30
0
10
-62.979162958971685
20
101.17914937694357
30
0
10
-63.001490847269679
20
100.90497102737427
30
0
0
SPLINE
5
204
100
AcDbEntity
8
0
100
AcDbSpline
70
0
71
3
72
16
73
12
74
0
42
0.000000001
43
0.0000000001
44
0.0000000001
40
-0.6441803033545872
40
-0.6441803033545872
40
-0.6441803033545872
40
-0.6441803033545872
40
-0.48570062477331827
40
-0.48570062477331827
40
-0.36584146913974835
40
-0.36584146913974835
40
-0.268668970693141
40
-0.268668970693141
40
-0.15569892282634948
40
-0.15569892282634948
40
0
40
0
40
0
40
0
10
-63.001490847269679
20
100.90497102737427
30
0
10
-63.033555194719746
20
100.51168621164172
30
0
10
-63.041385168857445
20
100.09228211173267
30
0
10
-62.953830389062986
20
99.40118948737954
30
0
10
-62.881349786941669
20
99.102662936017481
30
0
10
-62.644395974108527
20
98.612069144838898
30
0
10
-62.504209714177541
20
98.419042580745497
30
0
10
-62.113304806685179
20
98.064424019138613
30
0
10
-61.865805594950096
20
97.92906159215319
30
0
10
-61.233196253978555
20
97.697950625317702
30
0
10
-60.793566863423521
20
97.622471949288496
30
0
10
-60.275227991739904
20
97.59635515213013
30
0
0
SPLINE
5
205
100
AcDbEntity
8
0
100
AcDbSpline
70
0
71
3
72
14
73
10
74
0
42
0.000000001
43
0.0000000001
44
0.0000000001
40
-0.4843219271220266
40
-0.4843219271220266
40
-0.4843219271220266
40
-0.4843219271220266
40
-0.37445820395749468
40
-0.37445820395749468
40
-0.25676571825831318
40
-0.25676571825831318
40
-0.094843680712279624
40
-0.094843680712279624
40
0
40
0
40
0
40
0
10
-60.275227991739904
20
97.59635515213013
30
0
10
-59.870270932758778
20
97.575929620505917
30
0
10
-59.455612007678283
20
97.646788003518822
30
0
10
-58.65087702788415
20
97.895073029671025
30
0
10
-58.243870423123525
20
98.086012214107853
30
0
10
-57.358882491216008
20
98.625640650063929
30
0
10
-56.898038063402538
20
99.014753163106221
30
0
10
-56.348323801992734
20
99.67545535066327
30
0
10
-56.165249776352312
20
99.952147277943638
30
0
10
-56.04639212290445
20
100.24509932200112
30
0
0
SPLINE
5
206
100
AcDbEntity
8
0
100
AcDbSpline
70
0
71
3
72
16
73
12
74
0
42
0.000000001
43
0.0000000001
44
0.0000000001
40
-0.55242392835780929
40
-0.55242392835780929
40
-0.55242392835780929
40
-0.55242392835780929
40
-0.49250567536473516
40
-0.49250567536473516
40
-0.43541727466628199
40
-0.43541727466628199
40
-0.32293944087435289
40
-0.32293944087435289
40
-0.1815596771872349
40
-0.1815596771872349
40
0
40
0
40
0
40
0
10
-56.04639212290445
20
100.24509932200112
30
0
10
-55.980310333422679
20
100.40807705965598
30
0
10
-55.929779775149612
20
100.57630755881334
30
0
10
-55.865782025003163
20
100.91363240478003
30
0
10
-55.851092326870372
20
101.08015019399714
30
0
10
-55.858586459694649
20
101.57758768206477
30
0
10
-55.930191952135218
20
101.89881152685112
30
0
10
-56.220477286450638
20
102.58479678665019
30
0
10
-56.46621895027095
20
102.92617828129993
30
0
10
-57.142329199293719
20
103.59377753136752
30
0
10
-57.625661966230339
20
103.90877792706513
30
0
10
-58.18634548187255
20
104.13659305572509
30
0
0
SPLINE
5
207
100
AcDbEntity
8
0
100
AcDbSpline
70
0
71
3
72
20
73
16
74
0
42
0.000000001
43
0.0000000001
44
0.0000000001
40
-0.47715183948409612
40
-0.47715183948409612
40
-0.47715183948409612
40
-0.47715183948409612
40
-0.39105758373683719
40
-0.39105758373683719
40
-0.35299897770800698
40
-0.35299897770800698
40
-0.32488706641475606
40
-0.32488706641475606
40
-0.2954782139360751
40
-0.2954782139360751
40
-0.25330035809103868
40
-0.25330035809103868
40
-0.18043526334067983
40
-0.18043526334067983
40
0
40
0
40
0
40
0
10
-58.18634548187255
20
104.13659305572509
30
0
10
-58.447590980763088
20
104.24278113001188
30
0
10
-58.70209347619528
20
104.37368727280153
30
0
10
-58.975463873776228
20
104.60532233952225
30
0
10
-59.052941164055532
20
104.68757100718277
30
0
10
-59.152090549850207
20
104.85095924516018
30
0
10
-59.182266926294496
20
104.92544795560596
30
0
10
-59.211797009308256
20
105.08894677322586
30
0
10
-59.208592703798253
20
105.1725308393752
30
0
10
-59.164241541448249
20
105.37448549387727
30
0
10
-59.10829880653958
20
105.48713688256433
30
0
10
-58.925282075758815
20
105.76407349060283
30
0
10
-58.762301890332729
20
105.926826719544
30
0
10
-58.210100110318734
20
106.40206513332643
30
0
10
-57.673158023239438
20
106.72667988458346
30
0
10
-57.142037455240867
20
107.00891046524048
30
0
0
LINE
5
208
100
AcDbEntity
8
0
100
AcDbLine
10
-57.142037455240853
20
107.00891046524048
30
0
11
-47.57814286549884
21
112.53076333999633
31
0
0
SPLINE
5
209
100
AcDbEntity
8
0
100
AcDbSpline
70
0
71
3
72
20
73
16
74
0
42
0.000000001
43
0.0000000001
44
0.0000000001
40
-0.43288918238941843
40
-0.43288918238941843
40
-0.43288918238941843
40
-0.43288918238941843
40
-0.29411112171373865
40
-0.29411112171373865
40
-0.22935485246730727
40
-0.22935485246730727
40
-0.19437718401427076
40
-0.19437718401427076
40
-0.16695110902968985
40
-0.16695110902968985
40
-0.1370215605824969
40
-0.1370215605824969
40
-0.091939176963742125
40
-0.091939176963742125
40
0
40
0
40
0
40
0
10
-47.57814286549884
20
112.53076333999633
30
0
10
-47.233653625526586
20
112.74187698904638
30
0
10
-46.848365262524965
20
113.00461585810602
30
0
10
-46.417318786956002
20
113.41617128206727
30
0
10
-46.279853963886097
20
113.57017303879489
30
0
10
-46.134256453983653
20
113.82425968398748
30
0
10
-46.093264525684994
20
113.92077672748152
30
0
10
-46.058334484714216
20
114.10075996932933
30
0
10
-46.056591905793589
20
114.18020807163983
30
0
10
-46.087260516457391
20
114.34590757972829
30
0
10
-46.121626643047108
20
114.42575190047584
30
0
10
-46.241729439719926
20
114.61052257232481
30
0
10
-46.342840895445676
20
114.70477637620618
30
0
10
-46.666301264441053
20
114.94348700779122
30
0
10
-46.950478720344073
20
115.0717468191143
30
0
10
-47.239210065205874
20
115.17448116938272
30
0
0
SPLINE
5
210
100
AcDbEntity
8
0
100
AcDbSpline
70
0
71
3
72
14
73
10
74
0
42
0.000000001
43
0.0000000001
44
0.0000000001
40
-0.44236895046252511
40
-0.44236895046252511
40
-0.44236895046252511
40
-0.44236895046252511
40
-0.32250549941949608
40
-0.32250549941949608
40
-0.21315970650253857
40
-0.21315970650253857
40
-0.11694418754987247
40
-0.11694418754987247
40
0
40
0
40
0
40
0
10
-47.239210065205874
20
115.17448116938272
30
0
10
-47.614729513739142
20
115.30814415484203
30
0
10
-47.993625429578664
20
115.47300577838669
30
0
10
-48.648060233519345
20
115.86731549648528
30
0
10
-48.938521907542253
20
116.09495764110164
30
0
10
-49.378647797891631
20
116.62180477826432
30
0
10
-49.530478115584643
20
116.89628526958617
30
0
10
-49.742796811150576
20
117.57584798094962
30
0
10
-49.767170971898992
20
117.96701610577517
30
0
10
-49.735819625854475
20
118.35556728045145
30
0
0
SPLINE
5
211
100
AcDbEntity
8
0
100
AcDbSpline
70
0
71
3
72
16
73
12
74
0
42
0.000000001
43
0.0000000001
44
0.0000000001
40
-0.6282278370425568
40
-0.6282278370425568
40
-0.6282278370425568
40
-0.6282278370425568
40
-0.5537127931035456
40
-0.5537127931035456
40
-0.47920363697717772
40
-0.47920363697717772
40
-0.32455269205455028
40
-0.32455269205455028
40
-0.13852745083504511
40
-0.13852745083504511
40
0
40
0
40
0
40
0
10
-49.735819625854475
20
118.35556728045145
30
0
10
-49.715820824229475
20
118.60315232663403
30
0
10
-49.659736346874119
20
118.84406870029125
30
0
10
-49.482474720639772
20
119.30805422758483
30
0
10
-49.363052594909689
20
119.52656655095973
30
0
10
-48.924087413896835
20
120.15177558967113
30
0
10
-48.528697993549116
20
120.50704223045921
30
0
10
-47.571529192554635
20
121.12419766428934
30
0
10
-46.96975402224966
20
121.36698320522237
30
0
10
-45.905765542775832
20
121.57772826061482
30
0
10
-45.431751469868125
20
121.60308098883455
30
0
10
-44.974643834431944
20
121.53771114349365
30
0
0
SPLINE
5
212
100
AcDbEntity
8
0
100
AcDbSpline
70
0
71
3
72
14
73
10
74
0
42
0.000000001
43
0.0000000001
44
0.0000000001
40
-0.63821102266276331
40
-0.63821102266276331
40
-0.63821102266276331
40
-0.63821102266276331
40
-0.4978124027148515
40
-0.4978124027148515
40
-0.36704529191256996
40
-0.36704529191256996
40
-0.21154433533168815
40
-0.21154433533168815
40
0
40
0
40
0
40
0
10
-44.974643834431944
20
121.53771114349365
30
0
10
-44.608738114310228
20
121.48533293092694
30
0
10
-44.257984909294962
20
121.37179310196382
30
0
10
-43.642504779107931
20
121.01229942684128
30
0
10
-43.388551418698768
20
120.78460177065024
30
0
10
-42.935357222095035
20
120.18367843557985
30
0
10
-42.768089579190168
20
119.80816456849988
30
0
10
-42.525075892078227
20
118.87185697987775
30
0
10
-42.491452394340556
20
118.24455947835261
30
0
10
-42.581225649515773
20
117.54514961242675
30
0
0
SPLINE
5
213
100
AcDbEntity
8
0
100
AcDbSpline
70
0
71
3
72
20
73
16
74
0
42
0.000000001
43
0.0000000001
44
0.0000000001
40
-0.43449215069059088
40
-0.43449215069059088
40
-0.43449215069059088
40
-0.43449215069059088
40
-0.38769124198702781
40
-0.38769124198702781
40
-0.34988947514981789
40
-0.34988947514981789
40
-0.32120670453127859
40
-0.32120670453127859
40
-0.29265134778068702
40
-0.29265134778068702
40
-0.25413953267502642
40
-0.25413953267502642
40
-0.18799074106121916
40
-0.18799074106121916
40
0
40
0
40
0
40
0
10
-42.581225649515773
20
117.54514961242675
30
0
10
-42.598132896198322
20
117.41355034111918
30
0
10
-42.606838212002422
20
117.27553908968396
30
0
10
-42.591793314588962
20
117.03593836760517
30
0
10
-42.57361985681122
20
116.92679611154547
30
0
10
-42.507601073387384
20
116.7499047660734
30
0
10
-42.468197933541148
20
116.67909559447321
30
0
10
-42.361587157151718
20
116.55636654408502
30
0
10
-42.298018950313001
20
116.50840747331934
30
0
10
-42.127313425260382
20
116.42388820858854
30
0
10
-42.018289976465262
20
116.39991981835477
30
0
10
-41.722275711884116
20
116.3751354662958
30
0
10
-41.519648619076442
20
116.40209740865039
30
0
10
-40.816784258198425
20
116.55441861623176
30
0
10
-40.206662657825454
20
116.82308090601792
30
0
10
-39.648846499125142
20
117.10858670870464
30
0
0
LINE
5
214
100
AcDbEntity
8
0
100
AcDbLine
10
-39.648846499125142
20
117.10858670870464
30
0
11
-14.128997548421207
21
131.842702293396
31
0
0
SPLINE
5
215
100
AcDbEntity
8
0
100
AcDbSpline
70
0
71
3
72
20
73
16
74
0
42
0.000000001
43
0.0000000001
44
0.0000000001
40
-0.44355509352202921
40
-0.44355509352202921
40
-0.44355509352202921
40
-0.44355509352202921
40
-0.32861100458649217
40
-0.32861100458649217
40
-0.24343072165423957
40
-0.24343072165423957
40
-0.19975689955654194
40
-0.19975689955654194
40
-0.16736789221448442
40
-0.16736789221448442
40
-0.13338674559999164
40
-0.13338674559999164
40
-0.084482331239802366
40
-0.084482331239802366
40
0
40
0
40
0
40
0
10
-14.128997548421207
20
131.842702293396
30
0
10
-13.818087981358351
20
132.06540821694608
30
0
10
-13.473869234858594
20
132.28941487614222
30
0
10
-12.879929049981314
20
132.59324927785025
30
0
10
-12.591334802620672
20
132.71462520021757
30
0
10
-12.168131716747325
20
132.79625134170971
30
0
10
-12.018385809606535
20
132.80792348502411
30
0
10
-11.765995882023555
20
132.77433356929083
30
0
10
-11.663293436415101
20
132.74330094039212
30
0
10
-11.468266781093545
20
132.63686427118108
30
0
10
-11.38381565584764
20
132.56323771612489
30
0
10
-11.210121323119502
20
132.34687182418637
30
0
10
-11.139354600500235
20
132.19324699159054
30
0
10
-11.00362225947304
20
131.76834930889123
30
0
10
-10.97026804842695
20
131.46056883756572
30
0
10
-10.960618591308577
20
131.17912643750509
30
0
0
SPLINE
5
216
100
AcDbEntity
8
0
100
AcDbSpline
70
0
71
3
72
14
73
10
74
0
42
0.000000001
43
0.0000000001
44
0.0000000001
40
-0.52351678820853365
40
-0.52351678820853365
40
-0.52351678820853365
40
-0.52351678820853365
40
-0.3350595943112944
40
-0.3350595943112944
40
-0.22375584580866326
40
-0.22375584580866326
40
-0.12140126092662305
40
-0.12140126092662305
40
0
40
0
40
0
40
0
10
-10.960618591308577
20
131.17912643750509
30
0
10
-10.946030443195323
20
130.75386087940544
30
0
10
-11.013592476479539
20
130.29747069413497
30
0
10
-11.015665432279659
20
129.57373623820666
30
0
10
-10.993314674165058
20
129.30844237945831
30
0
10
-10.850784487235998
20
128.81338066975124
30
0
10
-10.74372766180139
20
128.60049283253821
30
0
10
-10.415781579218585
20
128.1740959803447
30
0
10
-10.166810343735882
20
127.95392537385251
30
0
10
-9.8173582712809093
20
127.74986224174499
30
0
0
SPLINE
5
217
100
AcDbEntity
8
0
100
AcDbSpline
70
0
71
3
72
18
73
14
74
0
42
0.000000001
43
0.0000000001
44
0.0000000001
40
-0.57156088236882341
40
-0.57156088236882341
40
-0.57156088236882341
40
-0.57156088236882341
40
-0.51007851953713357
40
-0.51007851953713357
40
-0.44938516558325009
40
-0.44938516558325009
40
-0.32880481015727198
40
-0.32880481015727198
40
-0.21227721859037779
40
-0.21227721859037779
40
-0.10788011480299545
40
-0.10788011480299545
40
0
40
0
40
0
40
0
10
-9.8173582712809093
20
127.74986224174499
30
0
10
-9.6406361687801372
20
127.6466762540867
30
0
10
-9.4537271317589138
20
127.56283671817968
30
0
10
-9.0676746396254178
20
127.43526059840298
30
0
10
-8.8699198667642563
20
127.39142222339028
30
0
10
-8.2712180888681761
20
127.3178100090805
30
0
10
-7.8639501611012133
20
127.34482771116762
30
0
10
-7.0992809783027502
20
127.53825491638651
30
0
10
-6.7404684866986582
20
127.69999826751578
30
0
10
-6.1412355559707219
20
128.1250636097709
30
0
10
-5.8962479629113274
20
128.37334445246623
30
0
10
-5.5060775192145197
20
128.96211743773745
30
0
10
-5.3722228206491849
20
129.29335429711566
30
0
10
-5.3025014241536184
20
129.64613094329835
30
0
0
SPLINE
5
218
100
AcDbEntity
8
0
100
AcDbSpline
70
0
71
3
72
14
73
10
74
0
42
0.000000001
43
0.0000000001
44
0.0000000001
40
-0.3684726726103954
40
-0.3684726726103954
40
-0.3684726726103954
40
-0.3684726726103954
40
-0.28936057505499552
40
-0.28936057505499552
40
-0.22394924407309966
40
-0.22394924407309966
40
-0.13017513880677592
40
-0.13017513880677592
40
0
40
0
40
0
40
0
10
-5.3025014241536184
20
129.64613094329835
30
0
10
-5.2388412505278819
20
129.96822734908829
30
0
10
-5.2169171692777869
20
130.29943674598948
30
0
10
-5.3067693734491694
20
130.89361569650237
30
0
10
-5.3938466758936743
20
131.14468196223874
30
0
10
-5.7247251038437241
20
131.71916570551969
30
0
10
-5.9990738382225794
20
131.99070151685456
30
0
10
-6.7042666776780848
20
132.55428825378294
30
0
10
-7.1549574258097515
20
132.81368378317671
30
0
10
-7.4908691406249872
20
133.08836067517598
30
0
0
SPLINE
5
219
100
AcDbEntity
8
0
100
AcDbSpline
70
0
71
3
72
18
73
14
74
0
42
0.000000001
43
0.0000000001
44
0.0000000001
40
-0.34562004085226139
40
-0.34562004085226139
40
-0.34562004085226139
40
-0.34562004085226139
40
-0.28387084665842649
40
-0.28387084665842649
40
-0.233336064532357
40
-0.233336064532357
40
-0.19234407901574288
40
-0.19234407901574288
40
-0.15133584240721321
40
-0.15133584240721321
40
-0.095687530174303856
40
-0.095687530174303856
40
0
40
0
40
0
40
0
10
-7.4908691406249872
20
133.08836067517598
30
0
10
-7.6505429991882759
20
133.21895528604037
30
0
10
-7.8069882757113014
20
133.36494897816488
30
0
10
-8.0481702858079451
20
133.65260935756294
30
0
10
-8.1456823947907377
20
133.79607927410402
30
0
10
-8.269274512054853
20
134.07621864371609
30
0
10
-8.3048506841554364
20
134.20784695369525
30
0
10
-8.3203819532172645
20
134.48175554526676
30
0
10
-8.2998008478426577
20
134.61491310075681
30
0
10
-8.1922235175841891
20
134.91987748383312
30
0
10
-8.0875576643077629
20
135.07870063553838
30
0
10
-7.7559948580611069
20
135.46087757324543
30
0
10
-7.4767506348193393
20
135.66948551508705
30
0
10
-7.2067133585611742
20
135.83923342227936
30
0
0
LINE
5
220
100
AcDbEntity
8
0
100
AcDbLine
10
-7.2067133585611742
20
135.83923342227936
30
0
11
-1.3256289115304298e-05
21
140.00006306819679
31
0
0
LINE
5
221
100
AcDbEntity
8
0
100
AcDbLine
10
-1.3256289115304298e-05
20
140.00006306819679
30
0
11
9.932954279581736
21
134.26522985299428
31
0
0
SPLINE
5
222
100
AcDbEntity
8
0
100
AcDbSpline
70
0
71
3
72
18
73
14
74
0
42
0.000000001
43
0.0000000001
44
0.0000000001
40
-0.35831509416643925
40
-0.35831509416643925
40
-0.35831509416643925
40
-0.35831509416643925
40
-0.21399466631417893
40
-0.21399466631417893
40
-0.16189435781345723
40
-0.16189435781345723
40
-0.12927470062175619
40
-0.12927470062175619
40
-0.098862054243910175
40
-0.098862054243910175
40
-0.061821608749845026
40
-0.061821608749845026
40
0
40
0
40
0
40
0
10
9.932954279581736
20
134.26522985299428
30
0
10
10.489618011661889
20
133.94911530247848
30
0
10
10.987760638041662
20
133.60651027911305
30
0
10
11.432848412140981
20
133.12545687020082
30
0
10
11.544189629300536
20
132.97953409920711
30
0
10
11.66528901442013
20
132.72361943169986
30
0
10
11.698131892471865
20
132.61924628291237
30
0
10
11.718342911260704
20
132.40952400797573
30
0
10
11.708094687276009
20
132.31041283144708
30
0
10
11.640775602834875
20
132.09522616827491
30
0
10
11.576573793178861
20
131.98847261981388
30
0
10
11.366795598298943
20
131.73329021940421
30
0
10
11.190269501328519
20
131.59860429016152
30
0
10
11.015623982747407
20
131.48922136624654
30
0
0
SPLINE
5
223
100
AcDbEntity
8
0
100
AcDbSpline
70
0
71
3
72
14
73
10
74
0
42
0.000000001
43
0.0000000001
44
0.0000000001
40
-0.42696183226163043
40
-0.42696183226163043
40
-0.42696183226163043
40
-0.42696183226163043
40
-0.33581321157253768
40
-0.33581321157253768
40
-0.25435948101806038
40
-0.25435948101806038
40
-0.13410160557583858
40
-0.13410160557583858
40
0
40
0
40
0
40
0
10
11.015623982747407
20
131.48922136624654
30
0
10
10.721931561123338
20
131.30525826958797
30
0
10
10.453386343707756
20
131.08722206268618
30
0
10
10.011788142204569
20
130.60241469834807
30
0
10
9.8367645211270354
20
130.34888944886075
30
0
10
9.4943374145141135
20
129.66385002681048
30
0
10
9.3781282775808954
20
129.2198630589736
30
0
10
9.3098388610554021
20
128.25909428704489
30
0
10
9.3798944675744504
20
127.76805469525917
30
0
10
9.5196720123291279
20
127.34346545537313
30
0
0
SPLINE
5
224
100
AcDbEntity
8
0
100
AcDbSpline
70
0
71
3
72
16
73
12
74
0
42
0.000000001
43
0.0000000001
44
0.0000000001
40
-0.41580610921087163
40
-0.41580610921087163
40
-0.41580610921087163
40
-0.41580610921087163
40
-0.36926199690239414
40
-0.36926199690239414
40
-0.32093174165819571
40
-0.32093174165819571
40
-0.22038991910961886
40
-0.22038991910961886
40
-0.085990556871332169
40
-0.085990556871332169
40
0
40
0
40
0
40
0
10
9.5196720123291279
20
127.34346545537313
30
0
10
9.5824603286646575
20
127.15270286359937
30
0
10
9.6696226660039812
20
126.97075266885543
30
0
10
9.882730722605519
20
126.6211324817403
30
0
10
10.010290950749933
20
126.45384365556068
30
0
10
10.439948377812021
20
125.97588179752063
30
0
10
10.790540663493122
20
125.69549871712125
30
0
10
11.654483932385141
20
125.16069835404579
30
0
10
12.197525844827675
20
124.93755236636524
30
0
10
13.04257044686976
20
124.75368150838167
30
0
10
13.35995398356131
20
124.72762131628483
30
0
10
13.645324579874689
20
124.75451656977334
30
0
0
SPLINE
5
225
100
AcDbEntity
8
0
100
AcDbSpline
70
0
71
3
72
16
73
12
74
0
42
0.000000001
43
0.0000000001
44
0.0000000001
40
-0.65551180759926253
40
-0.65551180759926253
40
-0.65551180759926253
40
-0.65551180759926253
40
-0.53149452899193539
40
-0.53149452899193539
40
-0.42789201249707987
40
-0.42789201249707987
40
-0.3228347514038673
40
-0.3228347514038673
40
-0.19490334757074518
40
-0.19490334757074518
40
0
40
0
40
0
40
0
10
13.645324579874689
20
124.75451656977334
30
0
10
13.954248644142824
20
124.78356049633416
30
0
10
14.269551328335218
20
124.83791959507721
30
0
10
14.812391028897325
20
125.01318558200047
30
0
10
15.049405627403868
20
125.12275196924813
30
0
10
15.475508790130878
20
125.42676798813181
30
0
10
15.652123481578951
20
125.61392380511874
30
0
10
15.960131241492748
20
126.11079455705239
30
0
10
16.060270246567526
20
126.41759643942126
30
0
10
16.201719304482079
20
127.21362628387986
30
0
10
16.196168950814688
20
127.77676507356841
30
0
10
16.117331314086947
20
128.42164173126221
30
0
0
SPLINE
5
226
100
AcDbEntity
8
0
100
AcDbSpline
70
0
71
3
72
20
73
16
74
0
42
0.000000001
43
0.0000000001
44
0.0000000001
40
-0.42867963867330933
40
-0.42867963867330933
40
-0.42867963867330933
40
-0.42867963867330933
40
-0.32598473441890585
40
-0.32598473441890585
40
-0.28452551088803335
40
-0.28452551088803335
40
-0.25722605162415191
40
-0.25722605162415191
40
-0.23099971396768895
40
-0.23099971396768895
40
-0.19721864776922587
40
-0.19721864776922587
40
-0.13985482746120587
40
-0.13985482746120587
40
0
40
0
40
0
40
0
10
16.117331314086947
20
128.42164173126221
30
0
10
16.076029671180013
20
128.75942458451593
30
0
10
16.060466023515797
20
129.10966551502455
30
0
10
16.13292969393612
20
129.51861731591518
30
0
10
16.166933198628609
20
129.63892022598773
30
0
10
16.259493213807751
20
129.81435400573824
30
0
10
16.305802077862207
20
129.87794543410809
30
0
10
16.420550294279149
20
129.98130458030909
30
0
10
16.484594146635558
20
130.01880347404702
30
0
10
16.6479846193015
20
130.07607234127241
30
0
10
16.746258501688001
20
130.08553025639745
30
0
10
17.00884796438422
20
130.07401152768045
30
0
10
17.181511166914486
20
130.02661248866434
30
0
10
17.713453285391651
20
129.82975912237987
30
0
10
18.128959006522688
20
129.57822398263735
30
0
10
18.511807250976595
20
129.31222852071127
30
0
0
LINE
5
227
100
AcDbEntity
8
0
100
AcDbLine
10
18.511807250976592
20
129.31222852071127
30
0
11
32.05952682495122
21
121.49035050074259
31
0
0
SPLINE
5
228
100
AcDbEntity
8
0
100
AcDbSpline
70
0
71
3
72
20
73
16
74
0
42
0.000000001
43
0.0000000001
44
0.0000000001
40
-0.36398854594336322
40
-0.36398854594336322
40
-0.36398854594336322
40
-0.36398854594336322
40
-0.27310530850310905
40
-0.27310530850310905
40
-0.22684789129243949
40
-0.22684789129243949
40
-0.19987999704374454
40
-0.19987999704374454
40
-0.17682705425299844
40
-0.17682705425299844
40
-0.15017964020686808
40
-0.15017964020686808
40
-0.10758643573498478
40
-0.10758643573498478
40
0
40
0
40
0
40
0
10
32.059526824951199
20
121.49035050074259
30
0
10
32.278753213585311
20
121.35211954681898
30
0
10
32.533832774427474
20
121.21014187278141
30
0
10
32.903785270454591
20
121.07820819700906
30
0
10
33.041030228595346
20
121.04241639022217
30
0
10
33.250966674922054
20
121.03278450378789
30
0
10
33.328992526226088
20
121.03920540410712
30
0
10
33.466545520759951
20
121.08048938057026
30
0
10
33.524352935947718
20
121.11025363388927
30
0
10
33.635465684475115
20
121.19978481794986
30
0
10
33.682247401482236
20
121.25995268987914
30
0
10
33.777989451714618
20
121.4341363738442
30
0
10
33.811673497289732
20
121.55928248207059
30
0
10
33.880254549227168
20
121.9840745146391
30
0
10
33.854829247779733
20
122.35766159909622
30
0
10
33.804446156819701
20
122.71272622744242
30
0
0
SPLINE
5
229
100
AcDbEntity
8
0
100
AcDbSpline
70
0
71
3
72
14
73
10
74
0
42
0.000000001
43
0.0000000001
44
0.0000000001
40
-0.34953934302554629
40
-0.34953934302554629
40
-0.34953934302554629
40
-0.34953934302554629
40
-0.24355070279612834
40
-0.24355070279612834
40
-0.16993034007704838
40
-0.16993034007704838
40
-0.096672681889681922
40
-0.096672681889681922
40
0
40
0
40
0
40
0
10
33.804446156819701
20
122.71272622744242
30
0
10
33.743087986547579
20
123.14477268651839
30
0
10
33.741566842988902
20
123.59133077393102
30
0
10
33.924572395207797
20
124.30700018083967
30
0
10
34.049879728459779
20
124.5784193322264
30
0
10
34.413311358486837
20
125.06004985079549
30
0
10
34.640372865802924
20
125.25627976595528
30
0
10
35.239645200632872
20
125.61231599155221
30
0
10
35.60740547736367
20
125.72400780893835
30
0
10
35.92587674458823
20
125.77316199938454
30
0
0
SPLINE
5
230
100
AcDbEntity
8
0
100
AcDbSpline
70
0
71
3
72
14
73
10
74
0
42
0.000000001
43
0.0000000001
44
0.0000000001
40
-0.28640090286498987
40
-0.28640090286498987
40
-0.28640090286498987
40
-0.28640090286498987
40
-0.23280695773102209
40
-0.23280695773102209
40
-0.17900518019209061
40
-0.17900518019209061
40
-0.067055922406416682
40
-0.067055922406416682
40
0
40
0
40
0
40
0
10
35.92587674458823
20
125.77316199938454
30
0
10
36.187172309337264
20
125.81347605072133
30
0
10
36.453527662095517
20
125.8166134968111
30
0
10
36.980853093144596
20
125.76488794956924
30
0
10
37.243712386491737
20
125.7096103546195
30
0
10
38.02567739937524
20
125.47044398127063
30
0
10
38.51255705987829
20
125.21317070563524
30
0
10
39.115913960255966
20
124.74978659887256
30
0
10
39.301480508389631
20
124.56530794566387
30
0
10
39.431605911254906
20
124.38357062339783
30
0
0
SPLINE
5
231
100
AcDbEntity
8
0
100
AcDbSpline
70
0
71
3
72
16
73
12
74
0
42
0.000000001
43
0.0000000001
44
0.0000000001
40
-0.629062550800503
40
-0.629062550800503
40
-0.629062550800503
40
-0.629062550800503
40
-0.53919593651747222
40
-0.53919593651747222
40
-0.45372877876306822
40
-0.45372877876306822
40
-0.32659755600703144
40
-0.32659755600703144
40
-0.18350216107833234
40
-0.18350216107833234
40
0
40
0
40
0
40
0
10
39.431605911254906
20
124.38357062339783
30
0
10
39.567908584348572
20
124.19307448039075
30
0
10
39.686354708582037
20
123.98999818137382
30
0
10
39.870910479854977
20
123.5721597378229
30
0
10
39.938663645268193
20
123.35985560570252
30
0
10
40.040577548336074
20
122.81562884280694
30
0
10
40.040225198876016
20
122.48658119466761
30
0
10
39.902091663800917
20
121.79639537617518
30
0
10
39.751335107589341
20
121.45673095965654
30
0
10
39.275365117615664
20
120.74976738440783
30
0
10
38.893822646261853
20
120.37276401877976
30
0
10
38.386773045857758
20
120.03064470291137
30
0
0
SPLINE
5
232
100
AcDbEntity
8
0
100
AcDbSpline
70
0
71
3
72
18
73
14
74
0
42
0.000000001
43
0.0000000001
44
0.0000000001
40
-0.31111691324958834
40
-0.31111691324958834
40
-0.31111691324958834
40
-0.31111691324958834
40
-0.26550035587644616
40
-0.26550035587644616
40
-0.22545572935220068
40
-0.22545572935220068
40
-0.1933018269465332
40
-0.1933018269465332
40
-0.1576364931301476
40
-0.1576364931301476
40
-0.10294930787037411
40
-0.10294930787037411
40
0
40
0
40
0
40
0
10
38.386773045857758
20
120.03064470291137
30
0
10
38.260162267519398
20
119.9452012091671
30
0
10
38.136053220142429
20
119.84739540918179
30
0
10
37.936830025831753
20
119.64074537285714
30
0
10
37.854597446489812
20
119.53163346025866
30
0
10
37.752371687563262
20
119.31222118946499
30
0
10
37.724822953934179
20
119.20967291951946
30
0
10
37.711628631749583
20
118.98267758686862
30
0
10
37.731404792067814
20
118.86591377859553
30
0
10
37.830852688845034
20
118.57980545435895
30
0
10
37.935817218506443
20
118.41883413701424
30
0
10
38.271322074755318
20
118.0115554183776
30
0
10
38.569893960784697
20
117.76855809399916
30
0
10
38.849793879191097
20
117.57001889546711
30
0
0
LINE
5
233
100
AcDbEntity
8
0
100
AcDbLine
10
38.849793879191097
20
117.57001889546711
30
0
11
46.939965438842805
21
112.89906692504883
31
0
0
SPLINE
5
234
100
AcDbEntity
8
0
100
AcDbSpline
70
0
71
3
72
20
73
16
74
0
42
0.000000001
43
0.0000000001
44
0.0000000001
40
-0.54954534489530293
40
-0.54954534489530293
40
-0.54954534489530293
40
-0.54954534489530293
40
-0.39810208132529723
40
-0.39810208132529723
40
-0.33265066068779792
40
-0.33265066068779792
40
-0.29402184828568811
40
-0.29402184828568811
40
-0.2605195795689037
40
-0.2605195795689037
40
-0.22143791655552444
40
-0.22143791655552444
40
-0.15844229168020416
40
-0.15844229168020416
40
0
40
0
40
0
40
0
10
46.939965438842819
20
112.89906692504883
30
0
10
47.318564208293367
20
112.6794259510752
30
0
10
47.69213498241519
20
112.4277300959629
30
0
10
48.081200165825067
20
112.04362004802593
30
0
10
48.19512188154691
20
111.90921480683485
30
0
10
48.319703474822035
20
111.67773093742198
30
0
10
48.35481119202565
20
111.58564408690563
30
0
10
48.382922362039771
20
111.40557714349302
30
0
10
48.380304104561354
20
111.32250475122578
30
0
10
48.337804872569414
20
111.14410452670785
30
0
10
48.293473194848808
20
111.05612649625228
30
0
10
48.142997453484554
20
110.84672589753963
30
0
10
48.014673053627078
20
110.73660603061717
30
0
10
47.556510820792525
20
110.41761618423713
30
0
10
47.095592683661451
20
110.22779177556296
30
0
10
46.591779327392615
20
110.06934623718263
30
0
0
SPLINE
5
235
100
AcDbEntity
8
0
100
AcDbSpline
70
0
71
3
72
16
73
12
74
0
42
0.000000001
43
0.0000000001
44
0.0000000001
40
-0.59797596436958167
40
-0.59797596436958167
40
-0.59797596436958167
40
-0.59797596436958167
40
-0.50600216913013263
40
-0.50600216913013263
40
-0.41918399252292798
40
-0.41918399252292798
40
-0.30928097342423067
40
-0.30928097342423067
40
-0.17291280925045957
40
-0.17291280925045957
40
0
40
0
40
0
40
0
10
46.591779327392615
20
110.06934623718263
30
0
10
46.387992490187685
20
110.00525503021144
30
0
10
46.196472783072629
20
109.9116157913347
30
0
10
45.862946863077696
20
109.66506114199574
30
0
10
45.724614841790768
20
109.52001661465211
30
0
10
45.471219375472984
20
109.14065578134766
30
0
10
45.37849982761162
20
108.90256385115224
30
0
10
45.267809394632614
20
108.3413492786088
30
0
10
45.27059664999436
20
107.99828395473311
30
0
10
45.432779283697386
20
107.18063141656557
30
0
10
45.63316453305994
20
106.69786759632103
30
0
10
45.951750564575207
20
106.21754242579142
30
0
0
SPLINE
5
236
100
AcDbEntity
8
0
100
AcDbSpline
70
0
71
3
72
14
73
10
74
0
42
0.000000001
43
0.0000000001
44
0.0000000001
40
-0.54256156880343576
40
-0.54256156880343576
40
-0.54256156880343576
40
-0.54256156880343576
40
-0.38640661252603437
40
-0.38640661252603437
40
-0.2280815847627323
40
-0.2280815847627323
40
-0.099439296209523353
40
-0.099439296209523353
40
0
40
0
40
0
40
0
10
45.951750564575207
20
106.21754242579142
30
0
10
46.194883581088874
20
105.85104562819512
30
0
10
46.550584582851258
20
105.49676964360449
30
0
10
47.401801878937178
20
104.88663955375728
30
0
10
47.892446148796608
20
104.63705842853258
30
0
10
48.805851218116047
20
104.34886895678687
30
0
10
49.23859297016628
20
104.2747332028747
30
0
10
49.998710073061716
20
104.29360679774007
30
0
10
50.325135725511103
20
104.35250446149686
30
0
10
50.63355458577476
20
104.47393922805786
30
0
0
SPLINE
5
237
100
AcDbEntity
8
0
100
AcDbSpline
70
0
71
3
72
14
73
10
74
0
42
0.000000001
43
0.0000000001
44
0.0000000001
40
-0.38950483813095094
40
-0.38950483813095094
40
-0.38950483813095094
40
-0.38950483813095094
40
-0.32983354798612441
40
-0.32983354798612441
40
-0.27647126103803493
40
-0.27647126103803493
40
-0.18945147649343863
40
-0.18945147649343863
40
0
40
0
40
0
40
0
10
50.63355458577476
20
104.47393922805786
30
0
10
50.846116382826068
20
104.55759906213549
30
0
10
51.046835712042352
20
104.66571856238278
30
0
10
51.391365556640039
20
104.92760384807173
30
0
10
51.533630402463686
20
105.07128648299995
30
0
10
51.85323045076948
20
105.50345954434138
30
0
10
51.983189053630305
20
105.80865500775474
30
0
10
52.242123092599186
20
106.83517060878238
30
0
10
52.187545096362904
20
107.61210723659987
30
0
10
52.120253245035819
20
108.24001668294271
30
0
0
SPLINE
5
238
100
AcDbEntity
8
0
100
AcDbSpline
70
0
71
3
72
20
73
16
74
0
42
0.000000001
43
0.0000000001
44
0.0000000001
40
-0.33530586467090706
40
-0.33530586467090706
40
-0.33530586467090706
40
-0.33530586467090706
40
-0.28037879629578705
40
-0.28037879629578705
40
-0.24913753953702117
40
-0.24913753953702117
40
-0.22716591506956238
40
-0.22716591506956238
40
-0.20499002802641378
40
-0.20499002802641378
40
-0.17455896642445887
40
-0.17455896642445887
40
-0.12214319566152135
40
-0.12214319566152135
40
0
40
0
40
0
40
0
10
52.120253245035819
20
108.24001668294271
30
0
10
52.103291115286979
20
108.39795343767179
30
0
10
52.096866144355303
20
108.57086360423804
30
0
10
52.132613746524342
20
108.81816415017687
30
0
10
52.155887893816427
20
108.90907293586
30
0
10
52.224565300450585
20
109.04742006469961
30
0
10
52.261065987848674
20
109.09919923029541
30
0
10
52.354865844652139
20
109.18652023358659
30
0
10
52.4091682192159
20
109.21894163432762
30
0
10
52.552407887121973
20
109.27187938585455
30
0
10
52.642288452923474
20
109.28181378464329
30
0
10
52.882544143919183
20
109.2769852656217
30
0
10
53.04394565057828
20
109.23879044449201
30
0
10
53.524444496765035
20
109.08408038342751
30
0
10
53.898627189138807
20
108.88902364383645
30
0
10
54.248030344645208
20
108.68001728057861
30
0
0
LINE
5
239
100
AcDbEntity
8
0
100
AcDbLine
10
54.248030344645208
20
108.68001728057861
30
0
11
81.190022786458357
21
93.124898433685274
31
0
0
SPLINE
5
240
100
AcDbEntity
8
0
100
AcDbSpline
70
0
71
3
72
20
73
16
74
0
42
0.000000001
43
0.0000000001
44
0.0000000001
40
-0.45087067680563531
40
-0.45087067680563531
40
-0.45087067680563531
40
-0.45087067680563531
40
-0.29687178878798731
40
-0.29687178878798731
40
-0.22589613254325641
40
-0.22589613254325641
40
-0.18841968895209904
40
-0.18841968895209904
40
-0.15974759114273968
40
-0.15974759114273968
40
-0.12899111266414165
40
-0.12899111266414165
40
-0.083556894638933191
40
-0.083556894638933191
40
0
40
0
40
0
40
0
10
81.190022786458371
20
93.124898433685274
30
0
10
81.565397034334111
20
92.871744202674904
30
0
10
81.98646460509606
20
92.557989125050312
30
0
10
82.449241459875466
20
92.079829841609651
30
0
10
82.595769508850168
20
91.902824418656991
30
0
10
82.745325262869031
20
91.6179414870644
30
0
10
82.786216022218341
20
91.511678075038276
30
0
10
82.816982332717402
20
91.317726043882473
30
0
10
82.816260305200146
20
91.233663824946504
30
0
10
82.778777185962426
20
91.061258498315283
30
0
10
82.74081126544543
20
90.97954147668861
30
0
10
82.611580902761617
20
90.793908134943734
30
0
10
82.506042488145027
20
90.701706599549098
30
0
10
82.190384000454571
20
90.485732632841277
30
0
10
81.931767086011433
20
90.376257748957599
30
0
10
81.66706085205081
20
90.289622529347724
30
0
0
SPLINE
5
241
100
AcDbEntity
8
0
100
AcDbSpline
70
0
71
3
72
16
73
12
74
0
42
0.000000001
43
0.0000000001
44
0.0000000001
40
-0.48462346897091862
40
-0.48462346897091862
40
-0.48462346897091862
40
-0.48462346897091862
40
-0.39675218625408859
40
-0.39675218625408859
40
-0.31433317717724263
40
-0.31433317717724263
40
-0.20197111574105228
40
-0.20197111574105228
40
-0.1038201399149148
40
-0.1038201399149148
40
0
40
0
40
0
40
0
10
81.66706085205081
20
90.289622529347724
30
0
10
81.388049362678004
20
90.198279816974804
30
0
10
81.117715056831003
20
90.080373399387582
30
0
10
80.624165809709396
20
89.798314650490894
30
0
10
80.399157642703869
20
89.637500879894219
30
0
10
79.918597266204827
20
89.200342492263644
30
0
10
79.68340369508303
20
88.904756556804628
30
0
10
79.364731140770544
20
88.280712406393121
30
0
10
79.269706942774093
20
87.968413890855075
30
0
10
79.203512559547448
20
87.299519892674027
30
0
10
79.241308444514715
20
86.957874763458534
30
0
10
79.342703374226915
20
86.626994832356772
30
0
0
SPLINE
5
242
100
AcDbEntity
8
0
100
AcDbSpline
70
0
71
3
72
16
73
12
74
0
42
0.000000001
43
0.0000000001
44
0.0000000001
40
-0.66063977234711335
40
-0.66063977234711335
40
-0.66063977234711335
40
-0.66063977234711335
40
-0.53381317006823203
40
-0.53381317006823203
40
-0.40254642466410229
40
-0.40254642466410229
40
-0.22037074040695509
40
-0.22037074040695509
40
-0.095543533373081177
40
-0.095543533373081177
40
0
40
0
40
0
40
0
10
79.342703374226915
20
86.626994832356772
30
0
10
79.450059631896295
20
86.276718837890172
30
0
10
79.642171478824395
20
85.92268543717185
30
0
10
80.160185153999436
20
85.236105047226701
30
0
10
80.480458206492486
20
84.917645364108324
30
0
10
81.301150584805413
20
84.265638935432264
30
0
10
81.854127220500231
20
83.949620556060069
30
0
10
82.823688749752549
20
83.616610611056501
30
0
10
83.241071296257701
20
83.532558987258355
30
0
10
83.975785088543788
20
83.531128483595523
30
0
10
84.290465238344808
20
83.579376940713118
30
0
10
84.589653778076183
20
83.688531589508059
30
0
0
SPLINE
5
243
100
AcDbEntity
8
0
100
AcDbSpline
70
0
71
3
72
14
73
10
74
0
42
0.000000001
43
0.0000000001
44
0.0000000001
40
-0.52632163878770699
40
-0.52632163878770699
40
-0.52632163878770699
40
-0.52632163878770699
40
-0.40763682591325784
40
-0.40763682591325784
40
-0.30361249944646362
40
-0.30361249944646362
40
-0.17125871269735546
40
-0.17125871269735546
40
0
40
0
40
0
40
0
10
84.589653778076183
20
83.688531589508059
30
0
10
84.913177078207781
20
83.806575040465887
30
0
10
85.230348155513127
20
83.95412669317416
30
0
10
85.773588934396628
20
84.305521995518262
30
0
10
86.003873974345524
20
84.498673821708394
30
0
10
86.451817076678807
20
85.019689633627124
30
0
10
86.631358676196101
20
85.349388083116921
30
0
10
86.904504371697158
20
86.188387723820327
30
0
10
86.955554057719709
20
86.715133270501624
30
0
10
86.932808558146206
20
87.28554232915242
30
0
0
SPLINE
5
244
100
AcDbEntity
8
0
100
AcDbSpline
70
0
71
3
72
20
73
16
74
0
42
0.000000001
43
0.0000000001
44
0.0000000001
40
-0.43543462041906184
40
-0.43543462041906184
40
-0.43543462041906184
40
-0.43543462041906184
40
-0.36409507000530739
40
-0.36409507000530739
40
-0.30806632049343052
40
-0.30806632049343052
40
-0.26938820945926395
40
-0.26938820945926395
40
-0.2360087731045869
40
-0.2360087731045869
40
-0.19719125874432972
40
-0.19719125874432972
40
-0.13479783760839784
40
-0.13479783760839784
40
0
40
0
40
0
40
0
10
86.932808558146206
20
87.28554232915242
30
0
10
86.924543893037693
20
87.493032923609519
30
0
10
86.927696448434588
20
87.710930919329968
30
0
10
86.973669349102849
20
88.079229913503838
30
0
10
87.009418056346789
20
88.246953644888009
30
0
10
87.11467013865115
20
88.502465644241283
30
0
10
87.171311726917864
20
88.601458193520159
30
0
10
87.311435769122809
20
88.758314084264853
30
0
10
87.387248734889596
20
88.816686855383182
30
0
10
87.576669932246659
20
88.909043004226461
30
0
10
87.686901076249555
20
88.933828938124876
30
0
10
87.981663026214605
20
88.9527678822936
30
0
10
88.172040649973283
20
88.919158037779553
30
0
10
88.724597648673864
20
88.762432972376331
30
0
10
89.134443841995108
20
88.551274279158534
30
0
10
89.517792892456072
20
88.316886838277185
30
0
0
LINE
5
245
100
AcDbEntity
8
0
100
AcDbLine
10
89.517792892456086
20
88.316886838277185
30
0
11
105.00888544718427
21
79.373174031575516
31
0
0
SPLINE
5
246
100
AcDbEntity
8
0
100
AcDbSpline
70
0
71
3
72
20
73
16
74
0
42
0.000000001
43
0.0000000001
44
0.0000000001
40
-0.46417077661090245
40
-0.46417077661090245
40
-0.46417077661090245
40
-0.46417077661090245
40
-0.34028124874203813
40
-0.34028124874203813
40
-0.29564943220721285
40
-0.29564943220721285
40
-0.26701414449564781
40
-0.26701414449564781
40
-0.24004270710384101
40
-0.24004270710384101
40
-0.20619019830115276
40
-0.20619019830115276
40
-0.14920786753209789
40
-0.14920786753209789
40
0
40
0
40
0
40
0
10
105.00888544718428
20
79.373174031575516
30
0
10
105.38700115181703
20
79.093999933174175
30
0
10
105.76576346405325
20
78.863173751911731
30
0
10
106.22289825003455
20
78.71189965729674
30
0
10
106.35366571937325
20
78.682353229008427
30
0
10
106.56329379937134
20
78.679776456482557
30
0
10
106.64466656335243
20
78.690257508379446
30
0
10
106.79487901781908
20
78.742817624908071
30
0
10
106.85991397310568
20
78.781531308155678
30
0
10
106.98931307916436
20
78.897968316135447
30
0
10
107.04438769252521
20
78.978744649119378
30
0
10
107.15855399232196
20
79.212174847764985
30
0
10
107.1980861285877
20
79.383457805205211
30
0
10
107.27856419023873
20
79.966274057524998
30
0
10
107.24205036154352
20
80.487883608254805
30
0
10
107.17556521097822
20
80.980779393513984
30
0
0
SPLINE
5
247
100
AcDbEntity
8
0
100
AcDbSpline
70
0
71
3
72
14
73
10
74
0
42
0.000000001
43
0.0000000001
44
0.0000000001
40
-0.43078743105723127
40
-0.43078743105723127
40
-0.43078743105723127
40
-0.43078743105723127
40
-0.34238581520565814
40
-0.34238581520565814
40
-0.25782049007817925
40
-0.25782049007817925
40
-0.14346479922206223
40
-0.14346479922206223
40
0
40
0
40
0
40
0
10
107.17556521097822
20
80.980779393513984
30
0
10
107.13640919233461
20
81.271426621508368
30
0
10
107.14934177550234
20
81.56217200772798
30
0
10
107.28524826341354
20
82.11891904294697
30
0
10
107.40072972596911
20
82.374035537652688
30
0
10
107.7673470451483
20
82.921691354420034
30
0
10
108.04594702610882
20
83.187199262798288
30
0
10
108.7579100693535
20
83.662357572976859
30
0
10
109.21223293523555
20
83.840961824265193
30
0
10
109.6819690704346
20
83.930619525909407
30
0
0
SPLINE
5
248
100
AcDbEntity
8
0
100
AcDbSpline
70
0
71
3
72
16
73
12
74
0
42
0.000000001
43
0.0000000001
44
0.0000000001
40
-0.57281222852231872
40
-0.57281222852231872
40
-0.57281222852231872
40
-0.57281222852231872
40
-0.4936103455351305
40
-0.4936103455351305
40
-0.40569470605785729
40
-0.40569470605785729
40
-0.24768666006573545
40
-0.24768666006573545
40
-0.11983393827980501
40
-0.11983393827980501
40
0
40
0
40
0
40
0
10
109.6819690704346
20
83.930619525909407
30
0
10
109.93858518662925
20
83.979608532555517
30
0
10
110.2080431257159
20
83.991171549174908
30
0
10
110.76058474497614
20
83.9609451287551
30
0
10
111.0533975760187
20
83.912618194044455
30
0
10
111.84312777492188
20
83.70606993018157
30
0
10
112.33970986669733
20
83.484920094874838
30
0
10
113.12236301130903
20
82.943449120953971
30
0
10
113.43377627078578
20
82.648156763265092
30
0
10
113.91226138478078
20
81.976222369771392
30
0
10
114.07917792070761
20
81.617108935432384
30
0
10
114.17565472920739
20
81.229488372802734
30
0
0
SPLINE
5
249
100
AcDbEntity
8
0
100
AcDbSpline
70
0
71
3
72
14
73
10
74
0
42
0.000000001
43
0.0000000001
44
0.0000000001
40
-0.34256395515547039
40
-0.34256395515547039
40
-0.34256395515547039
40
-0.34256395515547039
40
-0.27473477932013379
40
-0.27473477932013379
40
-0.21858827221885013
40
-0.21858827221885013
40
-0.14595715103126825
40
-0.14595715103126825
40
0
40
0
40
0
40
0
10
114.17565472920739
20
81.229488372802734
30
0
10
114.25232230500563
20
80.921306308536444
30
0
10
114.29972692665602
20
80.603308054291375
30
0
10
114.29989094603542
20
80.022681730464441
30
0
10
114.26755690643353
20
79.762884048726249
30
0
10
114.10073264146996
20
79.183187460571872
30
0
10
113.94510429123432
20
78.888726045312652
30
0
10
113.30756979164514
20
78.086149456892272
30
0
10
112.72746709959129
20
77.753822155951141
30
0
10
112.30479024251306
20
77.512887064615882
30
0
0
SPLINE
5
250
100
AcDbEntity
8
0
100
AcDbSpline
70
0
71
3
72
20
73
16
74
0
42
0.000000001
43
0.0000000001
44
0.0000000001
40
-0.44301920117575755
40
-0.44301920117575755
40
-0.44301920117575755
40
-0.44301920117575755
40
-0.36258648641021157
40
-0.36258648641021157
40
-0.30496783091538993
40
-0.30496783091538993
40
-0.26991022136132725
40
-0.26991022136132725
40
-0.23836779895211682
40
-0.23836779895211682
40
-0.20073669977975778
40
-0.20073669977975778
40
-0.13890271198477186
40
-0.13890271198477186
40
0
40
0
40
0
40
0
10
112.30479024251306
20
77.512887064615882
30
0
10
112.10238513911153
20
77.397533103879837
30
0
10
111.89353735660659
20
77.262370792913885
30
0
10
111.58781564357329
20
77.003557570908242
30
0
10
111.46345119738776
20
76.876950178855338
30
0
10
111.31880088387024
20
76.64970214982533
30
0
10
111.27571212257764
20
76.556602332869844
30
0
10
111.23262732092169
20
76.367815897592337
30
0
10
111.22978296523108
20
76.277907046978143
30
0
10
111.26374050488178
20
76.079671520896682
30
0
10
111.30697277658936
20
75.97894825655743
30
0
10
111.45976885220435
20
75.73350612505962
30
0
10
111.59650895495975
20
75.598519575242761
30
0
10
112.0482860480349
20
75.231302073676005
30
0
10
112.47037994008545
20
75.008184564925699
30
0
10
112.89375623067222
20
74.820754877726216
30
0
0
LINE
5
251
100
AcDbEntity
8
0
100
AcDbLine
10
112.89375623067221
20
74.820754877726216
30
0
11
121.24348882039391
21
70.00004622141519
31
0
0
CIRCLE
5
252
100
AcDbEntity
8
0
100
AcDbCircle
10
-169.12177826491069
20
0
30
0
40
3.9999999999999858
210
0
220
0
230
1
0
CIRCLE
5
253
100
AcDbEntity
8
0
100
AcDbCircle
10
84.560889132455301
20
-146.46375631061159
30
0
40
4.0000000000000036
210
0
220
0
230
1
0
CIRCLE
5
254
100
AcDbEntity
8
0
100
AcDbCircle
10
-84.560889132455358
20
-146.46375631061156
30
0
40
4.0000000000000036
210
0
220
0
230
1
0
CIRCLE
5
255
100
AcDbEntity
8
0
100
AcDbCircle
10
0
20
0
30
0
40
190.19999999999999
210
0
220
-0
230
1
0
CIRCLE
5
256
100
AcDbEntity
8
0
100
AcDbCircle
10
-136.39900109604909
20
78.750000000000014
30
0
40
6
210
0
220
0
230
1
0
CIRCLE
5
257
100
AcDbEntity
8
0
100
AcDbCircle
10
-136.39900109604912
20
-78.749999999999986
30
0
40
6
210
0
220
0
230
1
0
CIRCLE
5
258
100
AcDbEntity
8
0
100
AcDbCircle
10
-4.4408920985006262e-14
20
-157.50000000000003
30
0
40
6
210
0
220
0
230
1
0
CIRCLE
5
259
100
AcDbEntity
8
0
100
AcDbCircle
10
136.39900109604906
20
-78.750000000000028
30
0
40
6
210
0
220
0
230
1
0
CIRCLE
5
260
100
AcDbEntity
8
0
100
AcDbCircle
10
136.39900109604918
20
78.749999999999929
30
0
40
6
210
0
220
0
230
1
0
CIRCLE
5
261
100
AcDbEntity
8
0
100
AcDbCircle
10
1.2434497875801753e-13
20
157.5
30
0
40
6
210
0
220
0
230
1
0
LWPOLYLINE
5
262
100
AcDbEntity
8
0
100
AcDbPolyline
90
6
70
1
43
0.0
10
-151.74355652982138
20
87.609183210283589
10
-5.3290705182007514e-14
20
175.21836642056712
10
151.7435565298214
20
87.609183210283433
10
151.74355652982132
20
-87.609183210283689
10
-3.5527136788005009e-14
20
-175.21836642056715
10
-151.7435565298214
20
-87.609183210283561
0
LINE
5
263
100
AcDbEntity
8
0
100
AcDbLine
10
0
20
191.00000284612179
30
0
11
0
21
201.0000029951334
31
0
0
LINE
5
264
100
AcDbEntity
8
0
100
AcDbLine
10
-165.41085458764155
20
95.500001423060908
30
0
11
-174.07110875453378
21
100.50000149756671
31
0
0
LINE
5
265
100
AcDbEntity
8
0
100
AcDbLine
10
-165.41085458764158
20
-95.500001423060866
30
0
11
-174.07110875453381
21
-100.50000149756664
31
0
0
LINE
5
266
100
AcDbEntity
8
0
100
AcDbLine
10
-2.3390754212263838e-14
20
-191.00000284612179
30
0
11
-2.4615401029659852e-14
21
-201.0000029951334
31
0
0
LINE
5
267
100
AcDbEntity
8
0
100
AcDbLine
10
165.4108545876415
20
-95.500001423061022
30
0
11
174.07110875453373
21
-100.50000149756684
31
0
0
LINE
5
268
100
AcDbEntity
8
0
100
AcDbLine
10
165.41085458764161
20
95.500001423060766
30
0
11
174.07110875453387
21
100.50000149756656
31
0
0
ENDSEC
0
SECTION
2
OBJECTS
0
DICTIONARY
5
C
100
AcDbDictionary
3
ACAD_GROUP
350
D
3
ACAD_MLINESTYLE
350
17
0
DICTIONARY
5
D
100
AcDbDictionary
0
DICTIONARY
5
1A
330
C
100
AcDbDictionary
0
DICTIONARY
5
17
100
AcDbDictionary
0
ENDSEC
0
EOF
