0
SECTION
2
HEADER
9
$INSUNITS
70
4
9
$ACADVER
1
AC1014
9
$HANDSEED
5
FFFF
0
ENDSEC
0
SECTION
2
TABLES
0
TABLE
2
VPORT
5
8
100
AcDbSymbolTable
0
ENDTAB
0
TABLE
2
LTYPE
5
5
100
AcDbSymbolTable
0
LTYPE
5
14
100
AcDbSymbolTableRecord
100
AcDbLinetypeTableRecord
2
BYBLOCK
70
0
0
LTYPE
5
15
100
AcDbSymbolTableRecord
100
AcDbLinetypeTableRecord
2
BYLAYER
70
0
0
ENDTAB
0
TABLE
2
LAYER
5
2
100
AcDbSymbolTable
70
2
0
LAYER
5
50
100
AcDbSymbolTableRecord
100
AcDbLayerTableRecord
2
0
70
0
6
CONTINUOUS
0
ENDTAB
0
TABLE
2
STYLE
5
3
100
AcDbSymbolTable
70
1
0
STYLE
5
11
100
AcDbSymbolTableRecord
100
AcDbTextStyleTableRecord
2
STANDARD
70
0
0
ENDTAB
0
TABLE
2
VIEW
5
6
100
AcDbSymbolTable
70
0
0
ENDTAB
0
TABLE
2
UCS
5
7
100
AcDbSymbolTable
70
0
0
ENDTAB
0
TABLE
2
APPID
5
9
100
AcDbSymbolTable
70
2
0
APPID
5
12
100
AcDbSymbolTableRecord
100
AcDbRegAppTableRecord
2
ACAD
70
0
0
ENDTAB
0
TABLE
2
DIMSTYLE
5
A
100
AcDbSymbolTable
70
1
0
ENDTAB
0
TABLE
2
BLOCK_RECORD
5
1
100
AcDbSymbolTable
70
1
0
BLOCK_RECORD
5
1F
100
AcDbSymbolTableRecord
100
AcDbBlockTableRecord
2
*MODEL_SPACE
0
BLOCK_RECORD
5
1B
100
AcDbSymbolTableRecord
100
AcDbBlockTableRecord
2
*PAPER_SPACE
0
ENDTAB
0
ENDSEC
0
SECTION
2
BLOCKS
0
BLOCK
5
20
100
AcDbEntity
100
AcDbBlockBegin
2
*MODEL_SPACE
0
ENDBLK
5
21
100
AcDbEntity
100
AcDbBlockEnd
0
BLOCK
5
1C
100
AcDbEntity
100
AcDbBlockBegin
2
*PAPER_SPACE
0
ENDBLK
5
1D
100
AcDbEntity
100
AcDbBlockEnd
0
ENDSEC
0
SECTION
2
ENTITIES
0
CIRCLE
5
100
100
AcDbEntity
8
0
100
AcDbCircle
10
84.560889132455401
20
146.46375631061156
30
0
40
3.0000000000000071
210
0
220
0
230
1
0
CIRCLE
5
101
100
AcDbEntity
8
0
100
AcDbCircle
10
84.560889132455287
20
-146.46375631061164
30
0
40
3.0000000000000071
210
0
220
0
230
1
0
CIRCLE
5
102
100
AcDbEntity
8
0
100
AcDbCircle
10
-169.12177826491069
20
0
30
0
40
3.0000000000000071
210
0
220
0
230
1
0
CIRCLE
5
103
100
AcDbEntity
8
0
100
AcDbCircle
10
-84.560889132455358
20
-146.46375631061159
30
0
40
3.0000000000000071
210
0
220
0
230
1
0
CIRCLE
5
104
100
AcDbEntity
8
0
100
AcDbCircle
10
-84.56088913245523
20
146.46375631061164
30
0
40
3.0000000000000071
210
0
220
0
230
1
0
CIRCLE
5
105
100
AcDbEntity
8
0
100
AcDbCircle
10
169.12177826491069
20
-2.0711444441823127e-14
30
0
40
3.0000000000000071
210
0
220
0
230
1
0
LINE
5
106
100
AcDbEntity
8
0
100
AcDbLine
10
-0.00012249266867521644
20
139.9999999999464
30
0
11
-1.3256289114194075e-05
21
140.00006306819679
31
0
0
LINE
5
107
100
AcDbEntity
8
0
100
AcDbLine
10
-1.3256289114194075e-05
20
140.00006306819679
30
0
11
9.598048457317118e-05
21
139.99999999996709
31
0
0
ARC
5
108
100
AcDbEntity
8
0
100
AcDbCircle
10
2.6645352591003757e-14
20
5.3290705182007514e-14
30
0
40
139.99999999999994
210
0
220
-0
230
1
100
AcDbArc
50
36.554065828635103
51
89.999960719452289
0
SPLINE
5
109
100
AcDbEntity
8
0
100
AcDbSpline
70
4
71
3
72
8
73
4
74
0
42
0.000000001
43
0.0000000001
44
0.0000000001
40
0.5318100542830948
40
0.5318100542830948
40
0.5318100542830948
40
0.5318100542830948
40
1
40
1
40
1
40
1
41
1
41
1
41
1
41
1
10
112.46132969877671
20
83.381348768073138
30
0
10
113.26074243272124
20
82.924607603385908
30
0
10
113.93223652351392
20
82.207484051892919
30
0
10
114.17565472920739
20
81.229488372802734
30
0
0
ELLIPSE
5
110
100
AcDbEntity
8
0
100
AcDbEllipse
10
-587.03554516731015
20
382.76627920637691
30
0
11
701.12259880003421
21
-303.55626174995342
31
0.0
40
0.056905171222817977
41
0.037644373735031621
42
0.043449484385661548
0
ARC
5
111
100
AcDbEntity
8
0
100
AcDbCircle
10
2.6645352591003757e-14
20
5.3290705182007514e-14
30
0
40
139.99999999999994
210
0
220
0
230
1
100
AcDbArc
50
-269.9999498691933
51
35.313325244636673
0
LWPOLYLINE
5
112
100
AcDbEntity
8
0
100
AcDbPolyline
90
84
70
1
43
0.0
10
-180.22380023708902
20
-49.883682984537359
42
-0.094471552403800771
10
-185.93570996277271
20
19.922644418842641
10
-188.91864412166544
20
20.242181286400331
42
-0.0060161643329975254
10
-188.37687769087114
20
24.782089327547617
10
-185.40249582325063
20
24.390870064627237
42
-0.06761608291551191
10
-172.17583045190054
20
72.969057882080349
10
-174.93804006196535
20
74.139612484003607
42
-0.0060161643329975254
10
-173.10343908904858
20
78.327513528415039
10
-170.37019492420825
20
77.090833965441661
42
-0.067616082915512021
10
-143.62890694301382
20
119.74864128813769
10
-145.93316407900249
20
121.669682427016
42
-0.006016164332995194
10
-142.9632903148451
20
125.145905335945
10
-140.70592412740262
20
123.16997570615008
42
-0.067616082915511688
10
-102.74664600158093
20
156.24380543056998
10
-104.3950532491872
20
158.75034758103476
42
-0.006016164332995194
10
-100.5449695205736
20
161.21634254661313
10
-98.957351571213792
20
158.67086238503651
42
-0.067616082915511688
10
-53.040154788767182
20
179.32022189363818
10
-53.891141345441525
20
182.19699471858928
42
-0.0060161643329975254
10
-49.49150589482845
20
183.44097373341145
10
-48.709986195092497
20
180.54455750554729
42
-0.067616082915511577
10
1.2216047242746431
20
186.9960098020747
10
1.2411244688788847
20
189.99594629900059
42
-0.0060161643329975254
10
5.812456034157103
20
189.9110722281641
10
5.7207579230915506
20
186.91247397855869
42
-0.067616082915511688
10
55.378448682336305
20
178.61194646926012
10
56.266798306381958
20
181.47740192197188
42
-0.006016164332995194
10
60.617224534610791
20
180.07096403840507
10
59.660183957380056
20
177.22771355003019
42
-0.06761608291551191
10
104.77920373373664
20
154.88808367632447
10
106.46008875998734
20
157.37296305660507
42
-0.0060161643329986357
10
110.2159802986763
20
154.76575101359398
10
108.47579114443593
20
152.32203627705584
42
-0.067616082915512021
10
145.18116556531567
20
117.86190718419758
10
147.51022588949309
20
119.75280062708642
42
-0.0060161643329975254
10
150.34901404076442
20
116.16873063337664
10
147.97512965334946
20
114.33442615448061
42
-0.067616082915511577
10
173.11447673168351
20
70.713350549350821
10
175.89168475759479
20
71.847861715815057
42
-0.0060161643329986357
10
177.56956477148128
20
67.594745852519381
10
174.76586238958888
20
66.527387918234794
42
-0.067616082915511688
10
186.1801297755035
20
17.491691649942158
10
189.16696946310441
20
17.772384874993399
42
-0.0060161643329975254
10
189.53983931597304
20
13.215495150583653
10
186.54711040475564
20
13.006752078667212
42
-0.06761608291551191
10
183.25600212060044
20
-37.232213025476668
10
186.19595355208554
20
-37.829444627559532
42
-0.0060161643329975254
10
185.23178991693743
20
-42.298747075623155
10
182.30706018068901
20
-41.630947722513113
42
-0.067616082915511688
10
164.5932277628167
20
-88.758489028472823
10
167.23379794276832
20
-90.182353183077566
42
-0.0060161643329986357
10
165.01540646111971
20
-94.180229509549648
10
162.40986160446968
20
-92.69324060370856
42
-0.067616082915511688
10
131.7946290311009
20
-132.66188510101347
10
133.909036840889
20
-134.79009552762184
42
-0.0060161643329975254
10
130.62694049356708
20
-137.97319456071924
10
128.56435354164319
20
-135.79472375029661
42
-0.067616082915512021
10
87.67706077230423
20
-165.17182875517739
10
89.083713701348557
20
-167.82160752768442
42
-0.0060161643329975254
10
85.019790049019747
20
-169.91655393168901
10
83.677302961455553
20
-167.23369567493503
42
-0.067616082915511466
10
36.029489307750978
20
-183.49625582071872
10
36.607579233929386
20
-186.44003095534924
42
-0.0060161643329975254
10
32.110851816621533
20
-187.26690363118351
10
31.603761935549961
20
-184.31007089012007
42
-0.06761608291551191
10
-18.712416839094203
20
-186.06140238114935
10
-19.012538238375136
20
-189.04635248989692
42
-0.0060161643329986357
10
-23.55587522608694
20
-188.5341368090485
10
-23.184017302636839
20
-185.55727240318822
42
-0.06761608291551191
10
-71.847237192407064
20
-172.64696495397186
10
-72.999794473964016
20
-175.41673240246783
42
-0.006016164332995194
10
-77.199543849587172
20
-173.6094191840283
10
-75.980674540685698
20
-170.86818632016428
42
-0.067616082915511688
10
-118.81157325235854
20
-144.4050209005886
10
-120.71758088966124
20
-146.72172867080076
42
-0.006016164332995194
10
-124.21305393960262
20
-143.77453610078993
10
-122.25185387348449
20
-141.50436115009384
42
-0.067616082915511688
10
-155.57196862827342
20
-103.76108411694389
10
-158.06773222403308
20
-105.42576549189171
42
-0.0060161643329975254
10
-160.55872587305544
20
-101.59180845925039
10
-158.02362955989827
20
-99.987661742417117
42
-0.067616082915511688
10
-178.97131594694275
20
-54.205793677609648
10
-181.8424908628792
20
-55.075480177513413
42
-0.006016164332995194
10
-183.11507013189447
20
-50.684031909382988
0
ENDSEC
0
SECTION
2
OBJECTS
0
DICTIONARY
5
C
100
AcDbDictionary
3
ACAD_GROUP
350
D
3
ACAD_MLINESTYLE
350
17
0
DICTIONARY
5
D
100
AcDbDictionary
0
DICTIONARY
5
1A
330
C
100
AcDbDictionary
0
DICTIONARY
5
17
100
AcDbDictionary
0
ENDSEC
0
EOF
