0
SECTION
2
HEADER
9
$INSUNITS
70
4
9
$ACADVER
1
AC1014
9
$HANDSEED
5
FFFF
0
ENDSEC
0
SECTION
2
TABLES
0
TABLE
2
VPORT
5
8
100
AcDbSymbolTable
0
ENDTAB
0
TABLE
2
LTYPE
5
5
100
AcDbSymbolTable
0
LTYPE
5
14
100
AcDbSymbolTableRecord
100
AcDbLinetypeTableRecord
2
BYBLOCK
70
0
0
LTYPE
5
15
100
AcDbSymbolTableRecord
100
AcDbLinetypeTableRecord
2
BYLAYER
70
0
0
ENDTAB
0
TABLE
2
LAYER
5
2
100
AcDbSymbolTable
70
2
0
LAYER
5
50
100
AcDbSymbolTableRecord
100
AcDbLayerTableRecord
2
0
70
0
6
CONTINUOUS
0
ENDTAB
0
TABLE
2
STYLE
5
3
100
AcDbSymbolTable
70
1
0
STYLE
5
11
100
AcDbSymbolTableRecord
100
AcDbTextStyleTableRecord
2
STANDARD
70
0
0
ENDTAB
0
TABLE
2
VIEW
5
6
100
AcDbSymbolTable
70
0
0
ENDTAB
0
TABLE
2
UCS
5
7
100
AcDbSymbolTable
70
0
0
ENDTAB
0
TABLE
2
APPID
5
9
100
AcDbSymbolTable
70
2
0
APPID
5
12
100
AcDbSymbolTableRecord
100
AcDbRegAppTableRecord
2
ACAD
70
0
0
ENDTAB
0
TABLE
2
DIMSTYLE
5
A
100
AcDbSymbolTable
70
1
0
ENDTAB
0
TABLE
2
BLOCK_RECORD
5
1
100
AcDbSymbolTable
70
1
0
BLOCK_RECORD
5
1F
100
AcDbSymbolTableRecord
100
AcDbBlockTableRecord
2
*MODEL_SPACE
0
BLOCK_RECORD
5
1B
100
AcDbSymbolTableRecord
100
AcDbBlockTableRecord
2
*PAPER_SPACE
0
ENDTAB
0
ENDSEC
0
SECTION
2
BLOCKS
0
BLOCK
5
20
100
AcDbEntity
100
AcDbBlockBegin
2
*MODEL_SPACE
0
ENDBLK
5
21
100
AcDbEntity
100
AcDbBlockEnd
0
BLOCK
5
1C
100
AcDbEntity
100
AcDbBlockBegin
2
*PAPER_SPACE
0
ENDBLK
5
1D
100
AcDbEntity
100
AcDbBlockEnd
0
ENDSEC
0
SECTION
2
ENTITIES
0
LWPOLYLINE
5
100
100
AcDbEntity
8
0
100
AcDbPolyline
90
8
70
1
43
0.0
10
-21
20
117.99999999999999
10
-21
20
82.000000000000014
42
0.41421356237309509
10
-18.000000000000004
20
79
10
18.000000000000004
20
79.000000000000014
42
0.41421356237309509
10
21
20
82.000000000000014
10
21.000000000000007
20
117.99999999999999
42
0.41421356237309509
10
18.000000000000004
20
121
10
-18.000000000000004
20
121
42
0.41421356237309509
0
LWPOLYLINE
5
101
100
AcDbEntity
8
0
100
AcDbPolyline
90
8
70
1
43
0.0
10
-23.000000000000007
20
71
42
-0.4142135623730952
10
-29.000000000000007
20
77
10
-29.000000000000021
20
123
42
-0.41421356237309587
10
-23.000000000000007
20
129
10
23.000000000000007
20
129
42
-0.41421356237309587
10
29.000000000000004
20
123
10
29.000000000000004
20
77
42
-0.41421356237309509
10
23.000000000000007
20
71
0
LWPOLYLINE
5
102
100
AcDbEntity
8
0
100
AcDbPolyline
90
8
70
1
43
0.0
10
77
20
71
42
-0.41421356237309509
10
71
20
77
10
71
20
123
42
-0.41421356237309681
10
77
20
129
10
123
20
129
42
-0.41421356237309681
10
129
20
123
10
129
20
77
42
-0.41421356237309681
10
123
20
71
0
CIRCLE
5
103
100
AcDbEntity
8
0
100
AcDbCircle
10
84.5
20
115.5
30
0
40
1.4999999999999991
210
0
220
-0
230
1
0
CIRCLE
5
104
100
AcDbEntity
8
0
100
AcDbCircle
10
115.5
20
84.5
30
0
40
1.4999999999999991
210
0
220
-0
230
1
0
CIRCLE
5
105
100
AcDbEntity
8
0
100
AcDbCircle
10
115.5
20
115.5
30
0
40
1.4999999999999991
210
0
220
-0
230
1
0
CIRCLE
5
106
100
AcDbEntity
8
0
100
AcDbCircle
10
100
20
100
30
0
40
15.049999999999999
210
0
220
-0
230
1
0
CIRCLE
5
107
100
AcDbEntity
8
0
100
AcDbCircle
10
84.5
20
84.5
30
0
40
1.4999999999999991
210
0
220
-0
230
1
0
LWPOLYLINE
5
108
100
AcDbEntity
8
0
100
AcDbPolyline
90
8
70
1
43
0.0
10
79
20
17.999999999999993
10
79
20
-18.000000000000011
42
0.41421356237309509
10
82.000000000000014
20
-21.000000000000011
10
117.99999999999999
20
-21.000000000000014
42
0.41421356237309509
10
121
20
-18.000000000000011
10
121
20
17.999999999999993
42
0.41421356237309509
10
117.99999999999999
20
20.999999999999993
10
82.000000000000014
20
20.999999999999996
42
0.41421356237309509
0
LWPOLYLINE
5
109
100
AcDbEntity
8
0
100
AcDbPolyline
90
4
70
1
43
0.0
10
97.450000000000017
20
-80
10
97.450000000000017
20
-100
42
0.99999999999999989
10
102.55000000000001
20
-100
10
102.55000000000001
20
-80
42
0.99999999999999989
0
LWPOLYLINE
5
110
100
AcDbEntity
8
0
100
AcDbPolyline
90
4
70
1
43
0.0
10
102.55000000000001
20
-60.000000000000007
10
102.55000000000001
20
-40.000000000000007
42
0.99999999999999989
10
97.450000000000017
20
-40.000000000000007
10
97.449999999999989
20
-60.000000000000007
42
0.99999999999999989
0
LWPOLYLINE
5
111
100
AcDbEntity
8
0
100
AcDbPolyline
90
14
70
1
43
0.0
10
77
20
-29.000000000000014
42
-0.41421356237309509
10
71
20
-23.000000000000014
10
71
20
23
42
-0.4142135623730952
10
77
20
28.999999999999993
10
123
20
29.000000000000014
42
-0.41421356237309587
10
129
20
23
10
129
20
-23.000000000000014
42
-0.41421356237309587
10
123
20
-29.000000000000014
10
116.50000000000003
20
-29.000000000000014
42
0.4142135623730952
10
110.5
20
-35.000000000000014
10
110.49999999999999
20
-100
42
-0.99999999999999989
10
89.500000000000014
20
-100
10
89.500000000000014
20
-35.000000000000007
42
0.41421356237309509
10
83.500000000000014
20
-29.000000000000014
0
LWPOLYLINE
5
112
100
AcDbEntity
8
0
100
AcDbPolyline
90
4
70
1
43
0.0
10
-97.449999999999989
20
-60
10
-97.449999999999989
20
-40
42
0.99999999999999989
10
-102.54999999999998
20
-40
10
-102.55000000000001
20
-60
42
0.99999999999999989
0
CIRCLE
5
113
100
AcDbEntity
8
0
100
AcDbCircle
10
-100
20
0
30
0
40
7.0500000000000007
210
0
220
-0
230
1
0
LWPOLYLINE
5
114
100
AcDbEntity
8
0
100
AcDbPolyline
90
4
70
1
43
0.0
10
-102.54999999999998
20
-80
10
-102.54999999999998
20
-100
42
0.99999999999999989
10
-97.449999999999989
20
-100
10
-97.449999999999989
20
-80
42
0.99999999999999989
0
LWPOLYLINE
5
115
100
AcDbEntity
8
0
100
AcDbPolyline
90
4
70
1
43
0.0
10
-110.49999999999999
20
-10.782045260524573
42
-2.4601947867166252
10
-89.5
20
-10.782045260524562
10
-89.500000000000014
20
-100
42
-0.99999999999999989
10
-110.49999999999999
20
-100
0
ENDSEC
0
SECTION
2
OBJECTS
0
DICTIONARY
5
C
100
AcDbDictionary
3
ACAD_GROUP
350
D
3
ACAD_MLINESTYLE
350
17
0
DICTIONARY
5
D
100
AcDbDictionary
0
DICTIONARY
5
1A
330
C
100
AcDbDictionary
0
DICTIONARY
5
17
100
AcDbDictionary
0
ENDSEC
0
EOF
