0
SECTION
2
HEADER
9
$INSUNITS
70
4
9
$ACADVER
1
AC1014
9
$HANDSEED
5
FFFF
0
ENDSEC
0
SECTION
2
TABLES
0
TABLE
2
VPORT
5
8
100
AcDbSymbolTable
0
ENDTAB
0
TABLE
2
LTYPE
5
5
100
AcDbSymbolTable
0
LTYPE
5
14
100
AcDbSymbolTableRecord
100
AcDbLinetypeTableRecord
2
BYBLOCK
70
0
0
LTYPE
5
15
100
AcDbSymbolTableRecord
100
AcDbLinetypeTableRecord
2
BYLAYER
70
0
0
ENDTAB
0
TABLE
2
LAYER
5
2
100
AcDbSymbolTable
70
2
0
LAYER
5
50
100
AcDbSymbolTableRecord
100
AcDbLayerTableRecord
2
0
70
0
6
CONTINUOUS
0
ENDTAB
0
TABLE
2
STYLE
5
3
100
AcDbSymbolTable
70
1
0
STYLE
5
11
100
AcDbSymbolTableRecord
100
AcDbTextStyleTableRecord
2
STANDARD
70
0
0
ENDTAB
0
TABLE
2
VIEW
5
6
100
AcDbSymbolTable
70
0
0
ENDTAB
0
TABLE
2
UCS
5
7
100
AcDbSymbolTable
70
0
0
ENDTAB
0
TABLE
2
APPID
5
9
100
AcDbSymbolTable
70
2
0
APPID
5
12
100
AcDbSymbolTableRecord
100
AcDbRegAppTableRecord
2
ACAD
70
0
0
ENDTAB
0
TABLE
2
DIMSTYLE
5
A
100
AcDbSymbolTable
70
1
0
ENDTAB
0
TABLE
2
BLOCK_RECORD
5
1
100
AcDbSymbolTable
70
1
0
BLOCK_RECORD
5
1F
100
AcDbSymbolTableRecord
100
AcDbBlockTableRecord
2
*MODEL_SPACE
0
BLOCK_RECORD
5
1B
100
AcDbSymbolTableRecord
100
AcDbBlockTableRecord
2
*PAPER_SPACE
0
ENDTAB
0
ENDSEC
0
SECTION
2
BLOCKS
0
BLOCK
5
20
100
AcDbEntity
100
AcDbBlockBegin
2
*MODEL_SPACE
0
ENDBLK
5
21
100
AcDbEntity
100
AcDbBlockEnd
0
BLOCK
5
1C
100
AcDbEntity
100
AcDbBlockBegin
2
*PAPER_SPACE
0
ENDBLK
5
1D
100
AcDbEntity
100
AcDbBlockEnd
0
ENDSEC
0
SECTION
2
ENTITIES
0
ARC
5
100
100
AcDbEntity
8
0
100
AcDbCircle
10
790.68624224223356
20
730.73333672258161
30
12.000000000000028
40
2.5000000000000151
210
0
220
-0
230
1
100
AcDbArc
50
51.061176122394677
51
128.93882387760533
0
LINE
5
101
100
AcDbEntity
8
0
100
AcDbLine
10
792.25746787848061
20
732.6778803708446
30
12.000000000000028
11
794.74169859397057
21
732.6778803708446
31
12.000000000000028
0
LINE
5
102
100
AcDbEntity
8
0
100
AcDbLine
10
794.74169859397057
20
732.6778803708446
30
12.000000000000028
11
794.74169859397057
21
812.67788037084358
31
12.000000000000028
0
LINE
5
103
100
AcDbEntity
8
0
100
AcDbLine
10
794.74169859397057
20
812.67788037084358
30
12.000000000000028
11
792.25746787848061
21
812.67788037084358
31
12.000000000000028
0
ARC
5
104
100
AcDbEntity
8
0
100
AcDbCircle
10
790.68624224223356
20
814.62242401910657
30
12.000000000000028
40
2.5000000000000151
210
0
220
0
230
1
100
AcDbArc
50
231.06117612239467
51
308.93882387760533
0
LINE
5
105
100
AcDbEntity
8
0
100
AcDbLine
10
789.11501660598651
20
812.67788037084358
30
12.000000000000028
11
788.74169859397068
21
812.67788037084358
31
12.000000000000028
0
LINE
5
106
100
AcDbEntity
8
0
100
AcDbLine
10
788.74169859397068
20
812.67788037084358
30
12.000000000000028
11
788.74169859397057
21
813.05119838285941
31
12.000000000000028
0
ARC
5
107
100
AcDbEntity
8
0
100
AcDbCircle
10
790.68624224223356
20
814.62242401910657
30
12.000000000000028
40
2.5000000000000151
210
0
220
0
230
1
100
AcDbArc
50
141.06117612239265
51
218.93882387760735
0
LINE
5
108
100
AcDbEntity
8
0
100
AcDbLine
10
788.74169859397057
20
816.19364965535374
30
12.000000000000028
11
788.74169859397068
21
861.17788037084313
31
12.000000000000028
0
LINE
5
109
100
AcDbEntity
8
0
100
AcDbLine
10
788.74169859397068
20
861.17788037084313
30
12.000000000000028
11
751.00746787848129
21
861.17788037084301
31
12.000000000000028
0
ARC
5
110
100
AcDbEntity
8
0
100
AcDbCircle
10
749.43624224223413
20
863.12242401910589
30
12.000000000000028
40
2.5000000000000151
210
0
220
0
230
1
100
AcDbArc
50
231.061176122391
51
308.93882387760902
0
LINE
5
111
100
AcDbEntity
8
0
100
AcDbLine
10
747.86501660598697
20
861.17788037084301
30
12.000000000000028
11
747.49169859397114
21
861.17788037084301
31
12.000000000000028
0
LINE
5
112
100
AcDbEntity
8
0
100
AcDbLine
10
747.49169859397114
20
861.17788037084301
30
12.000000000000028
11
747.49169859397114
21
861.55119838285884
31
12.000000000000028
0
ARC
5
113
100
AcDbEntity
8
0
100
AcDbCircle
10
749.43624224223413
20
863.12242401910589
30
12.000000000000028
40
2.5000000000000151
210
0
220
0
230
1
100
AcDbArc
50
141.06117612239265
51
218.9388238776053
0
LINE
5
114
100
AcDbEntity
8
0
100
AcDbLine
10
747.49169859397114
20
864.69364965535306
30
12.000000000000028
11
747.49169859397114
21
867.1778803708429
31
12.000000000000028
0
LINE
5
115
100
AcDbEntity
8
0
100
AcDbLine
10
747.49169859397114
20
867.1778803708429
30
12.000000000000028
11
667.49169859397193
21
867.1778803708429
31
12.000000000000028
0
LINE
5
116
100
AcDbEntity
8
0
100
AcDbLine
10
667.49169859397193
20
867.1778803708429
30
12.000000000000028
11
667.49169859397193
21
864.69364965535294
31
12.000000000000028
0
ARC
5
117
100
AcDbEntity
8
0
100
AcDbCircle
10
665.54715494570951
20
863.12242401910589
30
12.000000000000028
40
2.499999999999484
210
0
220
0
230
1
100
AcDbArc
50
-38.93882387761149
51
38.938823877613508
0
LINE
5
118
100
AcDbEntity
8
0
100
AcDbLine
10
667.49169859397193
20
861.55119838285896
30
12.000000000000028
11
667.49169859397193
21
861.17788037084313
31
12.000000000000028
0
LINE
5
119
100
AcDbEntity
8
0
100
AcDbLine
10
667.49169859397193
20
861.17788037084313
30
12.000000000000028
11
667.1183805819561
21
861.17788037084301
31
12.000000000000028
0
ARC
5
120
100
AcDbEntity
8
0
100
AcDbCircle
10
665.54715494570951
20
863.12242401910589
30
12.000000000000028
40
2.5000000000003726
210
0
220
0
230
1
100
AcDbArc
50
231.0611761223829
51
308.93882387759891
0
LINE
5
121
100
AcDbEntity
8
0
100
AcDbLine
10
663.97592930946189
20
861.17788037084301
30
12.000000000000028
11
588.50746787848311
21
861.17788037084301
31
12.000000000000028
0
ARC
5
122
100
AcDbEntity
8
0
100
AcDbCircle
10
586.93624224223595
20
863.12242401910612
30
12.000000000000028
40
2.4999999999999707
210
0
220
0
230
1
100
AcDbArc
50
231.06117612239467
51
308.93882387760567
0
LINE
5
123
100
AcDbEntity
8
0
100
AcDbLine
10
585.3650166059889
20
861.17788037084313
30
12.000000000000028
11
584.99169859397296
21
861.17788037084313
31
12.000000000000028
0
LINE
5
124
100
AcDbEntity
8
0
100
AcDbLine
10
584.99169859397296
20
861.17788037084313
30
12.000000000000028
11
584.99169859397296
21
861.55119838285896
31
12.000000000000028
0
ARC
5
125
100
AcDbEntity
8
0
100
AcDbCircle
10
586.93624224223595
20
863.12242401910612
30
12.000000000000028
40
2.5000000000000151
210
0
220
0
230
1
100
AcDbArc
50
141.0611761223947
51
218.93882387760735
0
LINE
5
126
100
AcDbEntity
8
0
100
AcDbLine
10
584.99169859397296
20
864.69364965535317
30
12.000000000000028
11
584.99169859397296
21
867.17788037084301
31
12.000000000000028
0
LINE
5
127
100
AcDbEntity
8
0
100
AcDbLine
10
584.99169859397296
20
867.17788037084301
30
12.000000000000028
11
504.99169859397392
21
867.17788037084301
31
12.000000000000028
0
LINE
5
128
100
AcDbEntity
8
0
100
AcDbLine
10
504.99169859397392
20
867.17788037084301
30
12.000000000000028
11
504.99169859397392
21
864.69364965535317
31
12.000000000000028
0
ARC
5
129
100
AcDbEntity
8
0
100
AcDbCircle
10
503.04715494571093
20
863.12242401910612
30
12.000000000000028
40
2.5000000000000706
210
0
220
0
230
1
100
AcDbArc
50
-38.938823877606509
51
38.938823877605323
0
LINE
5
130
100
AcDbEntity
8
0
100
AcDbLine
10
504.99169859397398
20
861.55119838285896
30
12.000000000000028
11
504.99169859397392
21
861.17788037084313
31
12.000000000000028
0
LINE
5
131
100
AcDbEntity
8
0
100
AcDbLine
10
504.99169859397392
20
861.17788037084313
30
12.000000000000028
11
504.61838058195804
21
861.17788037084313
31
12.000000000000028
0
ARC
5
132
100
AcDbEntity
8
0
100
AcDbCircle
10
503.04715494571093
20
863.12242401910612
30
12.000000000000028
40
2.4999999999999258
210
0
220
0
230
1
100
AcDbArc
50
231.06117612239566
51
308.93882387760635
0
LINE
5
133
100
AcDbEntity
8
0
100
AcDbLine
10
501.47592930946394
20
861.17788037084313
30
12.000000000000028
11
426.00746787848493
21
861.17788037084313
31
12.000000000000028
0
ARC
5
134
100
AcDbEntity
8
0
100
AcDbCircle
10
424.43624224223782
20
863.12242401910612
30
12.000000000000028
40
2.4999999999999707
210
0
220
0
230
1
100
AcDbArc
50
231.06117612239467
51
308.93882387760635
0
LINE
5
135
100
AcDbEntity
8
0
100
AcDbLine
10
422.86501660599077
20
861.17788037084313
30
12.000000000000028
11
422.49169859397483
21
861.17788037084313
31
12.000000000000028
0
LINE
5
136
100
AcDbEntity
8
0
100
AcDbLine
10
422.49169859397483
20
861.17788037084313
30
12.000000000000028
11
422.49169859397483
21
861.55119838285896
31
12.000000000000028
0
ARC
5
137
100
AcDbEntity
8
0
100
AcDbCircle
10
424.43624224223782
20
863.12242401910612
30
12.000000000000028
40
2.5000000000000151
210
0
220
0
230
1
100
AcDbArc
50
141.0611761223947
51
218.93882387760735
0
LINE
5
138
100
AcDbEntity
8
0
100
AcDbLine
10
422.49169859397483
20
864.69364965535317
30
12.000000000000028
11
422.49169859397483
21
867.17788037084301
31
12.000000000000028
0
LINE
5
139
100
AcDbEntity
8
0
100
AcDbLine
10
422.49169859397483
20
867.17788037084301
30
12.000000000000028
11
342.49169859397574
21
867.17788037084301
31
12.000000000000028
0
LINE
5
140
100
AcDbEntity
8
0
100
AcDbLine
10
342.49169859397574
20
867.17788037084301
30
12.000000000000028
11
342.49169859397574
21
864.69364965535317
31
12.000000000000028
0
ARC
5
141
100
AcDbEntity
8
0
100
AcDbCircle
10
340.54715494571275
20
863.12242401910612
30
12.000000000000028
40
2.5000000000000706
210
0
220
0
230
1
100
AcDbArc
50
-38.938823877606509
51
38.938823877605323
0
LINE
5
142
100
AcDbEntity
8
0
100
AcDbLine
10
342.4916985939758
20
861.55119838285896
30
12.000000000000028
11
342.49169859397574
21
861.17788037084313
31
12.000000000000028
0
LINE
5
143
100
AcDbEntity
8
0
100
AcDbLine
10
342.49169859397574
20
861.17788037084313
30
12.000000000000028
11
342.11838058195985
21
861.17788037084313
31
12.000000000000028
0
ARC
5
144
100
AcDbEntity
8
0
100
AcDbCircle
10
340.54715494571275
20
863.12242401910612
30
12.000000000000028
40
2.4999999999999258
210
0
220
0
230
1
100
AcDbArc
50
231.06117612239669
51
308.93882387760635
0
LINE
5
145
100
AcDbEntity
8
0
100
AcDbLine
10
338.97592930946581
20
861.17788037084313
30
12.000000000000028
11
263.50746787848675
21
861.17788037084313
31
12.000000000000028
0
ARC
5
146
100
AcDbEntity
8
0
100
AcDbCircle
10
261.93624224223976
20
863.12242401910612
30
12.000000000000028
40
2.4999999999999929
210
0
220
0
230
1
100
AcDbArc
50
231.06117612239365
51
308.93882387760431
0
LINE
5
147
100
AcDbEntity
8
0
100
AcDbLine
10
260.36501660599265
20
861.17788037084313
30
12.000000000000028
11
259.99169859397676
21
861.17788037084313
31
12.000000000000028
0
LINE
5
148
100
AcDbEntity
8
0
100
AcDbLine
10
259.99169859397676
20
861.17788037084313
30
12.000000000000028
11
259.99169859397676
21
861.55119838285896
31
12.000000000000028
0
ARC
5
149
100
AcDbEntity
8
0
100
AcDbCircle
10
261.93624224223976
20
863.12242401910612
30
12.000000000000028
40
2.4999999999999876
210
0
220
0
230
1
100
AcDbArc
50
141.0611761223947
51
218.93882387760735
0
LINE
5
150
100
AcDbEntity
8
0
100
AcDbLine
10
259.99169859397676
20
864.69364965535317
30
12.000000000000028
11
259.99169859397676
21
867.17788037084301
31
12.000000000000028
0
LINE
5
151
100
AcDbEntity
8
0
100
AcDbLine
10
259.99169859397676
20
867.17788037084301
30
12.000000000000028
11
179.99169859397767
21
867.17788037084301
31
12.000000000000028
0
LINE
5
152
100
AcDbEntity
8
0
100
AcDbLine
10
179.99169859397767
20
867.17788037084301
30
12.000000000000028
11
179.99169859397767
21
864.69364965535328
31
12.000000000000028
0
ARC
5
153
100
AcDbEntity
8
0
100
AcDbCircle
10
178.04715494571457
20
863.12242401910623
30
12.000000000000028
40
2.5000000000000706
210
0
220
0
230
1
100
AcDbArc
50
-38.938823877604115
51
38.938823877603696
0
LINE
5
154
100
AcDbEntity
8
0
100
AcDbLine
10
179.99169859397765
20
861.55119838285918
30
12.000000000000028
11
179.99169859397767
21
861.17788037084324
31
12.000000000000028
0
LINE
5
155
100
AcDbEntity
8
0
100
AcDbLine
10
179.99169859397767
20
861.17788037084324
30
12.000000000000028
11
179.61838058196179
21
861.17788037084324
31
12.000000000000028
0
ARC
5
156
100
AcDbEntity
8
0
100
AcDbCircle
10
178.04715494571457
20
863.12242401910623
30
12.000000000000028
40
2.4999999999999258
210
0
220
0
230
1
100
AcDbArc
50
231.06117612239618
51
308.93882387760834
0
LINE
5
157
100
AcDbEntity
8
0
100
AcDbLine
10
176.4759293094676
20
861.17788037084324
30
12.000000000000028
11
138.7416985939781
21
861.17788037084324
31
12.000000000000028
0
LINE
5
158
100
AcDbEntity
8
0
100
AcDbLine
10
138.7416985939781
20
861.17788037084324
30
12.000000000000028
11
138.7416985939781
21
816.19364965535385
31
12.000000000000028
0
ARC
5
159
100
AcDbEntity
8
0
100
AcDbCircle
10
136.79715494571494
20
814.62242401910669
30
12.000000000000028
40
2.5000000000001394
210
0
220
0
230
1
100
AcDbArc
50
-38.938823877603248
51
38.938823877604896
0
LINE
5
160
100
AcDbEntity
8
0
100
AcDbLine
10
138.74169859397807
20
813.05119838285964
30
12.000000000000028
11
138.7416985939781
21
812.6778803708437
31
12.000000000000028
0
LINE
5
161
100
AcDbEntity
8
0
100
AcDbLine
10
138.7416985939781
20
812.6778803708437
30
12.000000000000028
11
138.36838058196221
21
812.6778803708437
31
12.000000000000028
0
ARC
5
162
100
AcDbEntity
8
0
100
AcDbCircle
10
136.79715494571494
20
814.62242401910669
30
12.000000000000028
40
2.4999999999998925
210
0
220
0
230
1
100
AcDbArc
50
231.0611761223972
51
308.93882387760937
0
LINE
5
163
100
AcDbEntity
8
0
100
AcDbLine
10
135.22592930946803
20
812.6778803708437
30
12.000000000000028
11
132.74169859397819
21
812.6778803708437
31
12.000000000000028
0
LINE
5
164
100
AcDbEntity
8
0
100
AcDbLine
10
132.74169859397819
20
812.6778803708437
30
12.000000000000028
11
132.74169859397813
21
732.67788037084472
31
12.000000000000028
0
LINE
5
165
100
AcDbEntity
8
0
100
AcDbLine
10
132.74169859397813
20
732.67788037084472
30
12.000000000000028
11
135.22592930946797
21
732.67788037084472
31
12.000000000000028
0
ARC
5
166
100
AcDbEntity
8
0
100
AcDbCircle
10
136.79715494571514
20
730.73333672258173
30
12.000000000000028
40
2.4999999999999929
210
0
220
-0
230
1
100
AcDbArc
50
51.061176122394677
51
128.93882387760735
0
LINE
5
167
100
AcDbEntity
8
0
100
AcDbLine
10
138.36838058196219
20
732.67788037084472
30
12.000000000000028
11
138.7416985939781
21
732.67788037084472
31
12.000000000000028
0
LINE
5
168
100
AcDbEntity
8
0
100
AcDbLine
10
138.7416985939781
20
732.67788037084472
30
12.000000000000028
11
138.7416985939781
21
732.30456235882889
31
12.000000000000028
0
ARC
5
169
100
AcDbEntity
8
0
100
AcDbCircle
10
136.79715494571514
20
730.73333672258173
30
12.000000000000028
40
2.4999999999999876
210
0
220
0
230
1
100
AcDbArc
50
-38.938823877608186
51
38.93882387760776
0
LINE
5
170
100
AcDbEntity
8
0
100
AcDbLine
10
138.74169859397807
20
729.16211108633456
30
12.000000000000028
11
138.74169859397807
21
651.19364965535578
31
12.000000000000028
0
ARC
5
171
100
AcDbEntity
8
0
100
AcDbCircle
10
136.79715494571496
20
649.62242401910873
30
12.000000000000028
40
2.5000000000000977
210
0
220
0
230
1
100
AcDbArc
50
-38.938823877605692
51
38.938823877603696
0
LINE
5
172
100
AcDbEntity
8
0
100
AcDbLine
10
138.74169859397807
20
648.05119838286157
30
12.000000000000028
11
138.7416985939781
21
647.67788037084574
31
12.000000000000028
0
LINE
5
173
100
AcDbEntity
8
0
100
AcDbLine
10
138.7416985939781
20
647.67788037084574
30
12.000000000000028
11
138.36838058196221
21
647.67788037084574
31
12.000000000000028
0
ARC
5
174
100
AcDbEntity
8
0
100
AcDbCircle
10
136.79715494571496
20
649.62242401910873
30
12.000000000000028
40
2.4999999999999032
210
0
220
0
230
1
100
AcDbArc
50
231.06117612239669
51
308.93882387760885
0
LINE
5
175
100
AcDbEntity
8
0
100
AcDbLine
10
135.22592930946803
20
647.67788037084574
30
12.000000000000028
11
132.74169859397819
21
647.67788037084574
31
12.000000000000028
0
LINE
5
176
100
AcDbEntity
8
0
100
AcDbLine
10
132.74169859397819
20
647.67788037084574
30
12.000000000000028
11
132.74169859397813
21
567.67788037084665
31
12.000000000000028
0
LINE
5
177
100
AcDbEntity
8
0
100
AcDbLine
10
132.74169859397813
20
567.67788037084665
30
12.000000000000028
11
135.22592930946797
21
567.67788037084665
31
12.000000000000028
0
ARC
5
178
100
AcDbEntity
8
0
100
AcDbCircle
10
136.79715494571511
20
565.73333672258366
30
12.000000000000028
40
2.4999999999999929
210
0
220
-0
230
1
100
AcDbArc
50
51.061176122394166
51
128.93882387760684
0
LINE
5
179
100
AcDbEntity
8
0
100
AcDbLine
10
138.36838058196219
20
567.67788037084665
30
12.000000000000028
11
138.7416985939781
21
567.67788037084665
31
12.000000000000028
0
LINE
5
180
100
AcDbEntity
8
0
100
AcDbLine
10
138.7416985939781
20
567.67788037084665
30
12.000000000000028
11
138.7416985939781
21
567.30456235883071
31
12.000000000000028
0
ARC
5
181
100
AcDbEntity
8
0
100
AcDbCircle
10
136.79715494571511
20
565.73333672258366
30
12.000000000000028
40
2.4999999999999565
210
0
220
0
230
1
100
AcDbArc
50
-38.938823877605742
51
38.938823877605323
0
LINE
5
182
100
AcDbEntity
8
0
100
AcDbLine
10
138.74169859397807
20
564.16211108633661
30
12.000000000000028
11
138.7416985939781
21
545.17788037084688
31
12.000000000000028
0
LINE
5
183
100
AcDbEntity
8
0
100
AcDbLine
10
138.7416985939781
20
545.17788037084688
30
12.000000000000028
11
788.74169859397057
21
545.17788037084665
31
12.000000000000028
0
LINE
5
184
100
AcDbEntity
8
0
100
AcDbLine
10
788.74169859397057
20
545.17788037084665
30
12.000000000000028
11
788.74169859397057
21
564.16211108633649
31
12.000000000000028
0
ARC
5
185
100
AcDbEntity
8
0
100
AcDbCircle
10
790.68624224223322
20
565.73333672258354
30
12.000000000000028
40
2.4999999999997495
210
0
220
0
230
1
100
AcDbArc
50
141.0611761223918
51
218.93882387761022
0
LINE
5
186
100
AcDbEntity
8
0
100
AcDbLine
10
788.74169859397057
20
567.30456235883048
30
12.000000000000028
11
788.74169859397057
21
567.67788037084654
31
12.000000000000028
0
LINE
5
187
100
AcDbEntity
8
0
100
AcDbLine
10
788.74169859397057
20
567.67788037084654
30
12.000000000000028
11
789.11501660598651
21
567.67788037084654
31
12.000000000000028
0
ARC
5
188
100
AcDbEntity
8
0
100
AcDbCircle
10
790.68624224223322
20
565.73333672258354
30
12.000000000000028
40
2.5000000000000488
210
0
220
-0
230
1
100
AcDbArc
50
51.061176122388979
51
128.93882387759925
0
LINE
5
189
100
AcDbEntity
8
0
100
AcDbLine
10
792.2574678784805
20
567.67788037084642
30
12.000000000000028
11
794.74169859397057
21
567.67788037084654
31
12.000000000000028
0
LINE
5
190
100
AcDbEntity
8
0
100
AcDbLine
10
794.74169859397057
20
567.67788037084654
30
12.000000000000028
11
794.74169859397057
21
647.67788037084551
31
12.000000000000028
0
LINE
5
191
100
AcDbEntity
8
0
100
AcDbLine
10
794.74169859397057
20
647.67788037084551
30
12.000000000000028
11
792.25746787848061
21
647.67788037084551
31
12.000000000000028
0
ARC
5
192
100
AcDbEntity
8
0
100
AcDbCircle
10
790.68624224223367
20
649.62242401910828
30
12.000000000000028
40
2.4999999999997939
210
0
220
0
230
1
100
AcDbArc
50
231.06117612239137
51
308.93882387760652
0
LINE
5
193
100
AcDbEntity
8
0
100
AcDbLine
10
789.11501660598663
20
647.67788037084551
30
12.000000000000028
11
788.74169859397068
21
647.67788037084551
31
12.000000000000028
0
LINE
5
194
100
AcDbEntity
8
0
100
AcDbLine
10
788.74169859397068
20
647.67788037084551
30
12.000000000000028
11
788.74169859397057
21
648.05119838286146
31
12.000000000000028
0
ARC
5
195
100
AcDbEntity
8
0
100
AcDbCircle
10
790.68624224223367
20
649.62242401910828
30
12.000000000000028
40
2.5000000000003042
210
0
220
0
230
1
100
AcDbArc
50
141.06117612239024
51
218.93882387759965
0
LINE
5
196
100
AcDbEntity
8
0
100
AcDbLine
10
788.74169859397057
20
651.19364965535567
30
12.000000000000028
11
788.74169859397057
21
729.16211108633445
31
12.000000000000028
0
ARC
5
197
100
AcDbEntity
8
0
100
AcDbCircle
10
790.68624224223356
20
730.73333672258161
30
12.000000000000028
40
2.5000000000000151
210
0
220
0
230
1
100
AcDbArc
50
141.0611761223947
51
218.93882387760735
0
LINE
5
198
100
AcDbEntity
8
0
100
AcDbLine
10
788.74169859397057
20
732.30456235882866
30
12.000000000000028
11
788.74169859397057
21
732.67788037084438
31
12.000000000000028
0
LINE
5
199
100
AcDbEntity
8
0
100
AcDbLine
10
788.74169859397057
20
732.67788037084438
30
12.000000000000028
11
789.11501660598651
21
732.6778803708446
31
12.000000000000028
0
LINE
5
200
100
AcDbEntity
8
0
100
AcDbLine
10
788.74169859397057
20
533.17788037084688
30
12.000000000000028
11
138.7416985939781
21
533.17788037084699
31
12.000000000000028
0
LINE
5
201
100
AcDbEntity
8
0
100
AcDbLine
10
788.74169859397057
20
519.17788037084711
30
12.000000000000028
11
138.7416985939781
21
519.17788037084722
31
12.000000000000028
0
ARC
5
202
100
AcDbEntity
8
0
100
AcDbCircle
10
843.82962702243333
20
405.69018964768452
30
12.000000000000002
40
2.5000000000000706
210
0
220
-0
230
1
100
AcDbArc
50
51.061176122396311
51
128.93882387760371
0
LINE
5
203
100
AcDbEntity
8
0
100
AcDbLine
10
845.40085265868038
20
407.63473329594763
30
12.000000000000002
11
850.36931408966007
21
407.63473329594768
31
12.000000000000002
0
ARC
5
204
100
AcDbEntity
8
0
100
AcDbCircle
10
851.94053972590723
20
405.69018964768452
30
12.000000000000002
40
2.5000000000000706
210
0
220
-0
230
1
100
AcDbArc
50
51.061176122394279
51
128.9388238776049
0
LINE
5
205
100
AcDbEntity
8
0
100
AcDbLine
10
853.51176536215439
20
407.63473329594763
30
12.000000000000002
11
853.88508337417011
21
407.63473329594768
31
12.000000000000014
0
LINE
5
206
100
AcDbEntity
8
0
100
AcDbLine
10
853.88508337417011
20
407.63473329594768
30
12.000000000000014
11
853.88508337417011
21
407.26141528393168
31
12.000000000000002
0
ARC
5
207
100
AcDbEntity
8
0
100
AcDbCircle
10
851.94053972590723
20
405.69018964768452
30
12.000000000000002
40
2.4999999999998366
210
0
220
0
230
1
100
AcDbArc
50
-38.938823877601266
51
38.938823877608989
0
LINE
5
208
100
AcDbEntity
8
0
100
AcDbLine
10
853.88508337417022
20
404.1189640114377
30
12.000000000000002
11
853.88508337417011
21
371.15050258045841
31
12.000000000000002
0
ARC
5
209
100
AcDbEntity
8
0
100
AcDbCircle
10
851.94053972590746
20
369.57927694421136
30
12.000000000000002
40
2.4999999999997047
210
0
220
0
230
1
100
AcDbArc
50
-38.938823877606559
51
38.938823877610233
0
LINE
5
210
100
AcDbEntity
8
0
100
AcDbLine
10
853.88508337417022
20
368.00805130796442
30
12.000000000000002
11
853.88508337417022
21
367.63473329594837
31
12.000000000000002
0
LINE
5
211
100
AcDbEntity
8
0
100
AcDbLine
10
853.88508337417022
20
367.63473329594837
30
12.000000000000002
11
853.51176536215439
21
367.63473329594837
31
12.000000000000002
0
ARC
5
212
100
AcDbEntity
8
0
100
AcDbCircle
10
851.94053972590746
20
369.57927694421136
30
12.000000000000002
40
2.5000000000001381
210
0
220
0
230
1
100
AcDbArc
50
231.06117612238779
51
308.93882387760328
0
LINE
5
213
100
AcDbEntity
8
0
100
AcDbLine
10
850.36931408966007
20
367.63473329594842
30
12.000000000000002
11
845.40085265868038
21
367.63473329594837
31
12.000000000000002
0
ARC
5
214
100
AcDbEntity
8
0
100
AcDbCircle
10
843.82962702243333
20
369.57927694421153
30
12.000000000000002
40
2.5000000000000706
210
0
220
0
230
1
100
AcDbArc
50
231.06117612239629
51
308.93882387760289
0
LINE
5
215
100
AcDbEntity
8
0
100
AcDbLine
10
842.25840138618628
20
367.63473329594842
30
12.000000000000002
11
841.88508337417045
21
367.63473329594837
31
12.000000000000002
0
LINE
5
216
100
AcDbEntity
8
0
100
AcDbLine
10
841.88508337417045
20
367.63473329594837
30
12.000000000000002
11
841.88508337417034
21
368.00805130796437
31
12.000000000000002
0
ARC
5
217
100
AcDbEntity
8
0
100
AcDbCircle
10
843.82962702243333
20
369.57927694421153
30
12.000000000000002
40
2.4999999999998366
210
0
220
0
230
1
100
AcDbArc
50
141.06117612239873
51
218.93882387760735
0
LINE
5
218
100
AcDbEntity
8
0
100
AcDbLine
10
841.88508337417034
20
371.15050258045835
30
12.000000000000002
11
841.88508337417034
21
404.11896401143764
31
12.000000000000002
0
ARC
5
219
100
AcDbEntity
8
0
100
AcDbCircle
10
843.82962702243333
20
405.69018964768452
30
12.000000000000002
40
2.5000000000000151
210
0
220
0
230
1
100
AcDbArc
50
141.06117612239368
51
218.93882387760229
0
LINE
5
220
100
AcDbEntity
8
0
100
AcDbLine
10
841.88508337417034
20
407.26141528393163
30
12.000000000000002
11
841.88508337417034
21
407.63473329594768
31
12.000000000000014
0
LINE
5
221
100
AcDbEntity
8
0
100
AcDbLine
10
841.88508337417034
20
407.63473329594768
30
12.000000000000014
11
842.25840138618628
21
407.63473329594763
31
12.000000000000002
0
ARC
5
222
100
AcDbEntity
8
0
100
AcDbCircle
10
843.82962702243378
20
55.690189647691298
30
12.000000000000002
40
2.4999999999999605
210
0
220
-0
230
1
100
AcDbArc
50
51.06117612239742
51
128.93882387760564
0
LINE
5
223
100
AcDbEntity
8
0
100
AcDbLine
10
845.40085265868072
20
57.634733295954341
30
12.000000000000002
11
850.36931408966052
21
57.634733295954348
31
12.000000000000002
0
ARC
5
224
100
AcDbEntity
8
0
100
AcDbCircle
10
851.94053972590768
20
55.690189647691312
30
12.000000000000002
40
2.4999999999999605
210
0
220
-0
230
1
100
AcDbArc
50
51.061176122397313
51
128.93882387760675
0
LINE
5
225
100
AcDbEntity
8
0
100
AcDbLine
10
853.51176536215462
20
57.634733295954348
30
12.000000000000002
11
853.88508337417056
21
57.634733295954348
31
12.000000000000014
0
LINE
5
226
100
AcDbEntity
8
0
100
AcDbLine
10
853.88508337417056
20
57.634733295954348
30
12.000000000000014
11
853.88508337417056
21
57.261415283938419
31
12.000000000000002
0
ARC
5
227
100
AcDbEntity
8
0
100
AcDbCircle
10
851.94053972590768
20
55.690189647691312
30
12.000000000000002
40
2.4999999999999205
210
0
220
0
230
1
100
AcDbArc
50
-38.93882387760366
51
38.93882387760798
0
LINE
5
228
100
AcDbEntity
8
0
100
AcDbLine
10
853.88508337417068
20
54.118964011444355
30
12.000000000000002
11
853.88508337417068
21
21.150502580465119
31
12.000000000000002
0
ARC
5
229
100
AcDbEntity
8
0
100
AcDbCircle
10
851.9405397259078
20
19.57927694421808
30
12.000000000000002
40
2.4999999999998628
210
0
220
0
230
1
100
AcDbArc
50
-38.938823877606815
51
38.938823877606779
0
LINE
5
230
100
AcDbEntity
8
0
100
AcDbLine
10
853.88508337417068
20
18.008051307971037
30
12.000000000000002
11
853.88508337417068
21
17.634733295955108
31
12.000000000000002
0
LINE
5
231
100
AcDbEntity
8
0
100
AcDbLine
10
853.88508337417068
20
17.634733295955108
30
12.000000000000002
11
853.51176536215473
21
17.634733295955108
31
12.000000000000002
0
ARC
5
232
100
AcDbEntity
8
0
100
AcDbCircle
10
851.9405397259078
20
19.57927694421808
30
12.000000000000002
40
2.5000000000000009
210
0
220
0
230
1
100
AcDbArc
50
231.06117612239447
51
308.93882387760362
0
LINE
5
233
100
AcDbEntity
8
0
100
AcDbLine
10
850.36931408966075
20
17.634733295955101
30
12.000000000000002
11
845.40085265868083
21
17.634733295955098
31
12.000000000000002
0
ARC
5
234
100
AcDbEntity
8
0
100
AcDbCircle
10
843.82962702243378
20
19.579276944218165
30
12.000000000000002
40
2.499999999999988
210
0
220
0
230
1
100
AcDbArc
50
231.06117612239578
51
308.93882387760425
0
LINE
5
235
100
AcDbEntity
8
0
100
AcDbLine
10
842.25840138618673
20
17.634733295955094
30
12.000000000000002
11
841.8850833741709
21
17.634733295955094
31
12.000000000000002
0
LINE
5
236
100
AcDbEntity
8
0
100
AcDbLine
10
841.8850833741709
20
17.634733295955094
30
12.000000000000002
11
841.8850833741709
21
18.008051307971041
31
12.000000000000002
0
ARC
5
237
100
AcDbEntity
8
0
100
AcDbCircle
10
843.82962702243378
20
19.579276944218165
30
12.000000000000002
40
2.4999999999998952
210
0
220
0
230
1
100
AcDbArc
50
141.06117612239703
51
218.93882387760831
0
LINE
5
238
100
AcDbEntity
8
0
100
AcDbLine
10
841.88508337417079
20
21.150502580465083
30
12.000000000000002
11
841.8850833741709
21
54.118964011444348
31
12.000000000000002
0
ARC
5
239
100
AcDbEntity
8
0
100
AcDbCircle
10
843.82962702243378
20
55.690189647691298
30
12.000000000000002
40
2.500000000000004
210
0
220
0
230
1
100
AcDbArc
50
141.06117612239393
51
218.93882387760516
0
LINE
5
240
100
AcDbEntity
8
0
100
AcDbLine
10
841.88508337417079
20
57.261415283938391
30
12.000000000000002
11
841.88508337417079
21
57.634733295954334
31
12.000000000000014
0
LINE
5
241
100
AcDbEntity
8
0
100
AcDbLine
10
841.88508337417079
20
57.634733295954334
30
12.000000000000014
11
842.25840138618673
21
57.63473329595427
31
12.000000000000002
0
ARC
5
242
100
AcDbEntity
8
0
100
AcDbCircle
10
1171.8296270224268
20
544.91261027754172
30
12.000000000000002
40
2.4999999999997939
210
0
220
0
230
1
100
AcDbArc
50
231.06117612238938
51
308.93882387761062
0
LINE
5
243
100
AcDbEntity
8
0
100
AcDbLine
10
1170.2584013861797
20
542.96806662927895
30
12.000000000000002
11
1169.885083374164
21
542.96806662927884
31
12.000000000000002
0
LINE
5
244
100
AcDbEntity
8
0
100
AcDbLine
10
1169.885083374164
20
542.96806662927884
30
12.000000000000002
11
1169.885083374164
21
543.34138464129478
31
12.000000000000002
0
ARC
5
245
100
AcDbEntity
8
0
100
AcDbCircle
10
1171.8296270224268
20
544.91261027754172
30
12.000000000000002
40
2.50000000000006
210
0
220
0
230
1
100
AcDbArc
50
141.06117612239103
51
218.93882387760493
0
LINE
5
246
100
AcDbEntity
8
0
100
AcDbLine
10
1169.885083374164
20
546.48383591378888
30
12.000000000000002
11
1169.8850833741637
21
666.11896401143315
31
12.000000000000002
0
ARC
5
247
100
AcDbEntity
8
0
100
AcDbCircle
10
1171.8296270224266
20
667.6901896476802
30
12.000000000000002
40
2.5000000000000151
210
0
220
0
230
1
100
AcDbArc
50
141.0611761223943
51
218.93882387760695
0
LINE
5
248
100
AcDbEntity
8
0
100
AcDbLine
10
1169.8850833741635
20
669.26141528392736
30
12.000000000000002
11
1169.8850833741637
21
669.63473329594319
31
12.000000000000002
0
LINE
5
249
100
AcDbEntity
8
0
100
AcDbLine
10
1169.8850833741637
20
669.63473329594319
30
12.000000000000002
11
1170.2584013861797
21
669.63473329594319
31
12.000000000000002
0
ARC
5
250
100
AcDbEntity
8
0
100
AcDbCircle
10
1171.8296270224266
20
667.6901896476802
30
12.000000000000002
40
2.5000000000000151
210
0
220
-0
230
1
100
AcDbArc
50
51.061176122392645
51
128.93882387760331
0
LINE
5
251
100
AcDbEntity
8
0
100
AcDbLine
10
1173.4008526586738
20
669.63473329594319
30
12.000000000000002
11
1181.8850833741635
21
669.63473329594319
31
12.000000000000002
0
LINE
5
252
100
AcDbEntity
8
0
100
AcDbLine
10
1181.8850833741635
20
669.63473329594319
30
12.000000000000002
11
1181.8850833741633
21
769.63473329594137
31
12.000000000000002
0
ARC
5
253
100
AcDbEntity
8
0
100
AcDbCircle
10
713.84326595149878
20
-28.938628100933599
30
12.000000000000002
40
925.6254946732048
210
0
220
-0
230
1
100
AcDbArc
50
59.625540903283543
51
62.973124205515632
0
LINE
5
254
100
AcDbEntity
8
0
100
AcDbLine
10
1134.4552615346756
20
795.60252039351985
30
12.000000000000002
11
1136.95051229927
21
801.06517936810417
31
12.000000000000002
0
ARC
5
255
100
AcDbEntity
8
0
100
AcDbCircle
10
713.84326595149878
20
-28.938628100933599
30
12.000000000000002
40
931.62549467320457
210
0
220
-0
230
1
100
AcDbArc
50
62.989085219625274
51
67.910667838385763
0
LINE
5
256
100
AcDbEntity
8
0
100
AcDbLine
10
1064.1826610236976
20
834.30431023423682
30
12.000000000000002
11
1061.687410259103
21
828.84165125965274
31
12.000000000000002
0
ARC
5
257
100
AcDbEntity
8
0
100
AcDbCircle
10
713.84326595149878
20
-28.938628100933599
30
12.000000000000002
40
925.6254946732048
210
0
220
-0
230
1
100
AcDbArc
50
67.926628852495426
51
74.621795456959589
0
LINE
5
258
100
AcDbEntity
8
0
100
AcDbLine
10
959.30929292373435
20
863.54609781401473
30
12.000000000000002
11
960.65018639817492
21
869.4000643445836
31
12.000000000000002
0
ARC
5
259
100
AcDbEntity
8
0
100
AcDbCircle
10
713.84326595149878
20
-28.938628100933599
30
12.000000000000002
40
931.62549467320468
210
0
220
-0
230
1
100
AcDbArc
50
74.637756471069252
51
79.559339089829734
0
LINE
5
260
100
AcDbEntity
8
0
100
AcDbLine
10
882.66974356794753
20
887.26205012448474
30
12.000000000000002
11
881.32885009350684
21
881.40808359391576
31
12.000000000000002
0
ARC
5
261
100
AcDbEntity
8
0
100
AcDbCircle
10
713.84326595149878
20
-28.938628100933599
30
12.000000000000002
40
925.62549467320468
210
0
220
-0
230
1
100
AcDbArc
50
79.575300103939398
51
82.922883406171451
0
LINE
5
262
100
AcDbEntity
8
0
100
AcDbLine
10
827.88508337417034
20
889.63473329593853
30
12.000000000000002
11
827.88508337417113
21
9.6347332959553
31
12.000000000000002
0
LINE
5
263
100
AcDbEntity
8
0
100
AcDbLine
10
827.88508337417113
20
9.6347332959553
30
12.000000000000002
11
867.88508337417045
21
9.6347332959553054
31
12.000000000000002
0
ARC
5
264
100
AcDbEntity
8
0
100
AcDbCircle
10
907.43252324074001
20
3.6347332959554879
30
12.000000000000002
40
39.999999999999233
210
0
220
-0
230
1
100
AcDbArc
50
90
51
171.37307344132145
0
LINE
5
265
100
AcDbEntity
8
0
100
AcDbLine
10
907.43252324074001
20
43.634733295954724
30
12.000000000000002
11
1102.3376435075954
21
43.63473329595503
31
12.000000000000002
0
ARC
5
266
100
AcDbEntity
8
0
100
AcDbCircle
10
1102.3376435075954
20
3.6347332959557841
30
12.000000000000002
40
39.999999999999261
210
0
220
-0
230
1
100
AcDbArc
50
8.6269265586786119
51
90
0
LINE
5
267
100
AcDbEntity
8
0
100
AcDbLine
10
1141.8850833741651
20
9.6347332959556553
30
12.000000000000002
11
1169.8850833741647
21
9.6347332959556908
31
12.000000000000002
0
LINE
5
268
100
AcDbEntity
8
0
100
AcDbLine
10
1169.8850833741647
20
9.6347332959556908
30
12.000000000000002
11
1169.8850833741644
21
132.7856306781099
31
12.000000000000002
0
ARC
5
269
100
AcDbEntity
8
0
100
AcDbCircle
10
1171.8296270224275
20
134.35685631435697
30
12.000000000000002
40
2.4999999999999818
210
0
220
0
230
1
100
AcDbArc
50
141.06117612239632
51
218.93882387760416
0
LINE
5
270
100
AcDbEntity
8
0
100
AcDbLine
10
1169.8850833741644
20
135.92808195060402
30
12.000000000000002
11
1169.8850833741644
21
136.30139996261994
31
12.000000000000002
0
LINE
5
271
100
AcDbEntity
8
0
100
AcDbLine
10
1169.8850833741644
20
136.30139996261994
30
12.000000000000002
11
1170.2584013861804
21
136.30139996261994
31
12.000000000000002
0
ARC
5
272
100
AcDbEntity
8
0
100
AcDbCircle
10
1171.8296270224275
20
134.35685631435697
30
12.000000000000002
40
2.4999999999999876
210
0
220
-0
230
1
100
AcDbArc
50
51.061176122396297
51
128.93882387760775
0
LINE
5
273
100
AcDbEntity
8
0
100
AcDbLine
10
1173.4008526586745
20
136.30139996261994
30
12.000000000000002
11
1181.8850833741644
21
136.30139996261997
31
12.000000000000002
0
LINE
5
274
100
AcDbEntity
8
0
100
AcDbLine
10
1181.8850833741644
20
136.30139996261997
30
12.000000000000002
11
1181.885083374164
21
276.30139996261732
31
12.000000000000002
0
LINE
5
275
100
AcDbEntity
8
0
100
AcDbLine
10
1181.885083374164
20
276.30139996261732
30
12.000000000000002
11
1173.4008526586742
21
276.30139996261738
31
12.000000000000002
0
ARC
5
276
100
AcDbEntity
8
0
100
AcDbCircle
10
1171.8296270224273
20
278.24594361088032
30
12.000000000000002
40
2.4999999999999876
210
0
220
0
230
1
100
AcDbArc
50
231.06117612239188
51
308.93882387760414
0
LINE
5
277
100
AcDbEntity
8
0
100
AcDbLine
10
1170.2584013861801
20
276.30139996261738
30
12.000000000000002
11
1169.8850833741642
21
276.30139996261732
31
12.000000000000002
0
LINE
5
278
100
AcDbEntity
8
0
100
AcDbLine
10
1169.8850833741642
20
276.30139996261732
30
12.000000000000002
11
1169.8850833741642
21
276.67471797463327
31
12.000000000000002
0
ARC
5
279
100
AcDbEntity
8
0
100
AcDbCircle
10
1171.8296270224273
20
278.24594361088032
30
12.000000000000002
40
2.499999999999948
210
0
220
0
230
1
100
AcDbArc
50
141.06117612239734
51
218.93882387760368
0
LINE
5
280
100
AcDbEntity
8
0
100
AcDbLine
10
1169.8850833741642
20
279.81716924712731
30
12.000000000000002
11
1169.885083374164
21
399.45229734477152
31
12.000000000000002
0
ARC
5
281
100
AcDbEntity
8
0
100
AcDbCircle
10
1171.8296270224268
20
401.02352298101857
30
12.000000000000002
40
2.4999999999997495
210
0
220
0
230
1
100
AcDbArc
50
141.06117612239302
51
218.93882387760695
0
LINE
5
282
100
AcDbEntity
8
0
100
AcDbLine
10
1169.885083374164
20
402.59474861726562
30
12.000000000000002
11
1169.8850833741642
21
402.96806662928157
31
12.000000000000002
0
LINE
5
283
100
AcDbEntity
8
0
100
AcDbLine
10
1169.8850833741642
20
402.96806662928157
30
12.000000000000002
11
1170.2584013861801
21
402.96806662928162
31
12.000000000000002
0
ARC
5
284
100
AcDbEntity
8
0
100
AcDbCircle
10
1171.8296270224268
20
401.02352298101857
30
12.000000000000002
40
2.5000000000001044
210
0
220
-0
230
1
100
AcDbArc
50
51.061176122392645
51
128.93882387759845
0
LINE
5
285
100
AcDbEntity
8
0
100
AcDbLine
10
1173.400852658674
20
402.96806662928157
30
12.000000000000002
11
1181.885083374164
21
402.96806662928157
31
12.000000000000002
0
LINE
5
286
100
AcDbEntity
8
0
100
AcDbLine
10
1181.885083374164
20
402.96806662928157
30
12.000000000000002
11
1181.8850833741637
21
542.96806662927895
31
12.000000000000002
0
LINE
5
287
100
AcDbEntity
8
0
100
AcDbLine
10
1181.8850833741637
20
542.96806662927895
30
12.000000000000002
11
1173.400852658674
21
542.96806662927895
31
12.000000000000002
0
ARC
5
288
100
AcDbEntity
8
0
100
AcDbCircle
10
878.32962702243265
20
409.57927694421079
30
12.000000000000002
40
2.5000000000000706
210
0
220
0
230
1
100
AcDbArc
50
231.06117612239549
51
308.93882387760453
0
LINE
5
289
100
AcDbEntity
8
0
100
AcDbLine
10
876.7584013861856
20
407.63473329594774
30
12.000000000000002
11
876.38508337416977
21
407.63473329594774
31
12.000000000000018
0
LINE
5
290
100
AcDbEntity
8
0
100
AcDbLine
10
876.38508337416977
20
407.63473329594774
30
12.000000000000018
11
876.38508337416965
21
408.00805130796363
31
12.000000000000002
0
ARC
5
291
100
AcDbEntity
8
0
100
AcDbCircle
10
878.32962702243265
20
409.57927694421079
30
12.000000000000002
40
2.499999999999881
210
0
220
0
230
1
100
AcDbArc
50
141.06117612239771
51
218.93882387760735
0
LINE
5
292
100
AcDbEntity
8
0
100
AcDbLine
10
876.38508337416965
20
411.15050258045767
30
12.000000000000002
11
876.38508337416965
21
416.11896401143753
31
12.000000000000002
0
ARC
5
293
100
AcDbEntity
8
0
100
AcDbCircle
10
878.32962702243231
20
417.69018964768458
30
12.000000000000002
40
2.4999999999997495
210
0
220
0
230
1
100
AcDbArc
50
141.0611761223908
51
218.93882387761022
0
LINE
5
294
100
AcDbEntity
8
0
100
AcDbLine
10
876.38508337416965
20
419.26141528393157
30
12.000000000000002
11
876.38508337416965
21
419.63473329594757
31
12.000000000000018
0
LINE
5
295
100
AcDbEntity
8
0
100
AcDbLine
10
876.38508337416965
20
419.63473329594757
30
12.000000000000018
11
876.7584013861856
21
419.63473329594751
31
12.000000000000002
0
ARC
5
296
100
AcDbEntity
8
0
100
AcDbCircle
10
878.32962702243231
20
417.69018964768458
30
12.000000000000002
40
2.5000000000001381
210
0
220
-0
230
1
100
AcDbArc
50
51.061176122387778
51
128.93882387760007
0
LINE
5
297
100
AcDbEntity
8
0
100
AcDbLine
10
879.9008526586797
20
419.63473329594751
30
12.000000000000002
11
952.86931408965813
21
419.63473329594757
31
12.000000000000002
0
ARC
5
298
100
AcDbEntity
8
0
100
AcDbCircle
10
954.44053972590518
20
417.69018964768452
30
12.000000000000002
40
2.5000000000000706
210
0
220
-0
230
1
100
AcDbArc
50
51.061176122393469
51
128.93882387760451
0
LINE
5
299
100
AcDbEntity
8
0
100
AcDbLine
10
956.01176536215235
20
419.63473329594757
30
12.000000000000002
11
956.38508337416829
21
419.63473329594757
31
12.000000000000018
0
LINE
5
300
100
AcDbEntity
8
0
100
AcDbLine
10
956.38508337416829
20
419.63473329594757
30
12.000000000000018
11
956.38508337416829
21
419.26141528393157
31
12.000000000000002
0
ARC
5
301
100
AcDbEntity
8
0
100
AcDbCircle
10
954.44053972590518
20
417.69018964768452
30
12.000000000000002
40
2.4999999999998366
210
0
220
0
230
1
100
AcDbArc
50
-38.938823877599638
51
38.938823877603696
0
LINE
5
302
100
AcDbEntity
8
0
100
AcDbLine
10
956.38508337416829
20
416.1189640114377
30
12.000000000000002
11
956.38508337416829
21
411.15050258045767
31
12.000000000000002
0
ARC
5
303
100
AcDbEntity
8
0
100
AcDbCircle
10
954.44053972590541
20
409.57927694421079
30
12.000000000000002
40
2.4999999999998597
210
0
220
0
230
1
100
AcDbArc
50
-38.938823877605948
51
38.938823877603923
0
LINE
5
304
100
AcDbEntity
8
0
100
AcDbLine
10
956.38508337416829
20
408.0080513079638
30
12.000000000000002
11
956.38508337416829
21
407.6347332959478
31
12.000000000000018
0
LINE
5
305
100
AcDbEntity
8
0
100
AcDbLine
10
956.38508337416829
20
407.6347332959478
30
12.000000000000018
11
956.01176536215235
21
407.6347332959478
31
12.000000000000002
0
ARC
5
306
100
AcDbEntity
8
0
100
AcDbCircle
10
954.44053972590541
20
409.57927694421079
30
12.000000000000002
40
2.5000000000001044
210
0
220
0
230
1
100
AcDbArc
50
231.06117612239063
51
308.93882387760328
0
LINE
5
307
100
AcDbEntity
8
0
100
AcDbLine
10
952.86931408965813
20
407.6347332959478
30
12.000000000000002
11
879.9008526586797
21
407.63473329594774
31
12.000000000000002
0
ARC
5
308
100
AcDbEntity
8
0
100
AcDbCircle
10
1119.4405397259025
20
409.57927694421096
30
12.000000000000002
40
2.4999999999997495
210
0
220
0
230
1
100
AcDbArc
50
-38.938823877610218
51
38.938823877610233
0
LINE
5
309
100
AcDbEntity
8
0
100
AcDbLine
10
1121.3850833741651
20
408.00805130796391
30
12.000000000000002
11
1121.3850833741649
21
407.63473329594802
31
12.000000000000018
0
LINE
5
310
100
AcDbEntity
8
0
100
AcDbLine
10
1121.3850833741649
20
407.63473329594802
30
12.000000000000018
11
1121.0117653621492
21
407.63473329594802
31
12.000000000000002
0
ARC
5
311
100
AcDbEntity
8
0
100
AcDbCircle
10
1119.4405397259025
20
409.57927694421096
30
12.000000000000002
40
2.5000000000001381
210
0
220
0
230
1
100
AcDbArc
50
231.06117612238779
51
308.93882387760004
0
LINE
5
312
100
AcDbEntity
8
0
100
AcDbLine
10
1117.8693140896551
20
407.63473329594802
30
12.000000000000002
11
1044.9008526586765
21
407.63473329594797
31
12.000000000000002
0
ARC
5
313
100
AcDbEntity
8
0
100
AcDbCircle
10
1043.3296270224296
20
409.57927694421107
30
12.000000000000002
40
2.5000000000001252
210
0
220
0
230
1
100
AcDbArc
50
231.0611761223943
51
308.93882387760169
0
LINE
5
314
100
AcDbEntity
8
0
100
AcDbLine
10
1041.7584013861824
20
407.63473329594797
30
12.000000000000002
11
1041.3850833741665
21
407.63473329594797
31
12.000000000000018
0
LINE
5
315
100
AcDbEntity
8
0
100
AcDbLine
10
1041.3850833741665
20
407.63473329594797
30
12.000000000000018
11
1041.3850833741665
21
408.00805130796385
31
12.000000000000002
0
ARC
5
316
100
AcDbEntity
8
0
100
AcDbCircle
10
1043.3296270224296
20
409.57927694421107
30
12.000000000000002
40
2.4999999999998366
210
0
220
0
230
1
100
AcDbArc
50
141.06117612240035
51
218.93882387760672
0
LINE
5
317
100
AcDbEntity
8
0
100
AcDbLine
10
1041.3850833741665
20
411.1505025804579
30
12.000000000000002
11
1041.3850833741665
21
416.11896401143775
31
12.000000000000002
0
ARC
5
318
100
AcDbEntity
8
0
100
AcDbCircle
10
1043.3296270224296
20
417.69018964768475
30
12.000000000000002
40
2.4999999999999707
210
0
220
0
230
1
100
AcDbArc
50
141.06117612239632
51
218.93882387760266
0
LINE
5
319
100
AcDbEntity
8
0
100
AcDbLine
10
1041.3850833741665
20
419.2614152839318
30
12.000000000000002
11
1041.3850833741665
21
419.63473329594774
31
12.000000000000018
0
LINE
5
320
100
AcDbEntity
8
0
100
AcDbLine
10
1041.3850833741665
20
419.63473329594774
30
12.000000000000018
11
1041.7584013861824
21
419.63473329594768
31
12.000000000000002
0
ARC
5
321
100
AcDbEntity
8
0
100
AcDbCircle
10
1043.3296270224296
20
417.69018964768475
30
12.000000000000002
40
2.4999999999999596
210
0
220
-0
230
1
100
AcDbArc
50
51.061176122391828
51
128.93882387760814
0
LINE
5
322
100
AcDbEntity
8
0
100
AcDbLine
10
1044.9008526586767
20
419.63473329594768
30
12.000000000000002
11
1117.8693140896551
21
419.63473329594774
31
12.000000000000002
0
ARC
5
323
100
AcDbEntity
8
0
100
AcDbCircle
10
1119.440539725902
20
417.69018964768458
30
12.000000000000002
40
2.5000000000001812
210
0
220
-0
230
1
100
AcDbArc
50
51.061176122395104
51
128.93882387760087
0
LINE
5
324
100
AcDbEntity
8
0
100
AcDbLine
10
1121.0117653621492
20
419.63473329594774
30
12.000000000000002
11
1121.3850833741649
21
419.63473329594774
31
12.000000000000018
0
LINE
5
325
100
AcDbEntity
8
0
100
AcDbLine
10
1121.3850833741649
20
419.63473329594774
30
12.000000000000018
11
1121.3850833741649
21
419.26141528393191
31
12.000000000000002
0
ARC
5
326
100
AcDbEntity
8
0
100
AcDbCircle
10
1119.440539725902
20
417.69018964768458
30
12.000000000000002
40
2.4999999999997917
210
0
220
0
230
1
100
AcDbArc
50
-38.938823877601877
51
38.938823877612037
0
LINE
5
327
100
AcDbEntity
8
0
100
AcDbLine
10
1121.3850833741649
20
416.11896401143781
30
12.000000000000002
11
1121.3850833741651
21
411.15050258045801
31
12.000000000000002
0
ARC
5
328
100
AcDbEntity
8
0
100
AcDbCircle
10
878.3296270224331
20
59.579276944217412
30
12.000000000000002
40
2.4999999999999605
210
0
220
0
230
1
100
AcDbArc
50
231.06117612239527
51
308.93882387760368
0
LINE
5
329
100
AcDbEntity
8
0
100
AcDbLine
10
876.75840138618605
20
57.634733295954376
30
12.000000000000002
11
876.38508337417022
21
57.634733295954376
31
12.000000000000018
0
LINE
5
330
100
AcDbEntity
8
0
100
AcDbLine
10
876.38508337417022
20
57.634733295954376
30
12.000000000000018
11
876.38508337417022
21
58.008051307970298
31
12.000000000000002
0
ARC
5
331
100
AcDbEntity
8
0
100
AcDbCircle
10
878.3296270224331
20
59.579276944217412
30
12.000000000000002
40
2.4999999999999316
210
0
220
0
230
1
100
AcDbArc
50
141.06117612239609
51
218.93882387760809
0
LINE
5
332
100
AcDbEntity
8
0
100
AcDbLine
10
876.38508337417011
20
61.150502580464384
30
12.000000000000002
11
876.38508337417022
21
66.118964011444177
31
12.000000000000002
0
ARC
5
333
100
AcDbEntity
8
0
100
AcDbCircle
10
878.32962702243299
20
67.690189647691213
30
12.000000000000002
40
2.4999999999998654
210
0
220
0
230
1
100
AcDbArc
50
141.06117612239302
51
218.93882387760834
0
LINE
5
334
100
AcDbEntity
8
0
100
AcDbLine
10
876.38508337417011
20
69.261415283938263
30
12.000000000000002
11
876.38508337417011
21
69.634733295954177
31
12.000000000000018
0
LINE
5
335
100
AcDbEntity
8
0
100
AcDbLine
10
876.38508337417011
20
69.634733295954177
30
12.000000000000018
11
876.75840138618594
21
69.634733295954177
31
12.000000000000002
0
ARC
5
336
100
AcDbEntity
8
0
100
AcDbCircle
10
878.32962702243299
20
67.690189647691213
30
12.000000000000002
40
2.4999999999999947
210
0
220
-0
230
1
100
AcDbArc
50
51.061176122394272
51
128.93882387760576
0
LINE
5
337
100
AcDbEntity
8
0
100
AcDbLine
10
879.90085265868004
20
69.634733295954177
30
12.000000000000002
11
952.8693140896587
21
69.634733295954277
31
12.000000000000002
0
ARC
5
338
100
AcDbEntity
8
0
100
AcDbCircle
10
954.44053972590564
20
67.690189647691241
30
12.000000000000002
40
2.4999999999999605
210
0
220
-0
230
1
100
AcDbArc
50
51.061176122397313
51
128.93882387760269
0
LINE
5
339
100
AcDbEntity
8
0
100
AcDbLine
10
956.01176536215257
20
69.634733295954277
30
12.000000000000002
11
956.38508337416852
21
69.634733295954277
31
12.000000000000018
0
LINE
5
340
100
AcDbEntity
8
0
100
AcDbLine
10
956.38508337416852
20
69.634733295954277
30
12.000000000000018
11
956.38508337416863
21
69.261415283938348
31
12.000000000000002
0
ARC
5
341
100
AcDbEntity
8
0
100
AcDbCircle
10
954.44053972590564
20
67.690189647691241
30
12.000000000000002
40
2.4999999999999205
210
0
220
0
230
1
100
AcDbArc
50
-38.938823877603561
51
38.938823877606332
0
LINE
5
342
100
AcDbEntity
8
0
100
AcDbLine
10
956.38508337416863
20
66.118964011444291
30
12.000000000000002
11
956.38508337416863
21
61.150502580464476
31
12.000000000000002
0
ARC
5
343
100
AcDbEntity
8
0
100
AcDbCircle
10
954.44053972590586
20
59.579276944217447
30
12.000000000000002
40
2.4999999999998597
210
0
220
0
230
1
100
AcDbArc
50
-38.938823877608343
51
38.938823877608215
0
LINE
5
344
100
AcDbEntity
8
0
100
AcDbLine
10
956.38508337416863
20
58.008051307970412
30
12.000000000000002
11
956.38508337416863
21
57.634733295954483
31
12.000000000000018
0
LINE
5
345
100
AcDbEntity
8
0
100
AcDbLine
10
956.38508337416863
20
57.634733295954483
30
12.000000000000018
11
956.0117653621528
21
57.634733295954476
31
12.000000000000002
0
ARC
5
346
100
AcDbEntity
8
0
100
AcDbCircle
10
954.44053972590586
20
59.579276944217447
30
12.000000000000002
40
2.5000000000000009
210
0
220
0
230
1
100
AcDbArc
50
231.06117612239231
51
308.93882387760362
0
LINE
5
347
100
AcDbEntity
8
0
100
AcDbLine
10
952.8693140896587
20
57.634733295954476
30
12.000000000000002
11
879.90085265868004
21
57.634733295954447
31
12.000000000000002
0
ARC
5
348
100
AcDbEntity
8
0
100
AcDbCircle
10
1119.4405397259025
20
59.579276944217654
30
12.000000000000002
40
2.4999999999998654
210
0
220
0
230
1
100
AcDbArc
50
-38.938823877606964
51
38.938823877606836
0
LINE
5
349
100
AcDbEntity
8
0
100
AcDbLine
10
1121.3850833741653
20
58.008051307970604
30
12.000000000000002
11
1121.3850833741653
21
57.634733295954696
31
12.000000000000018
0
LINE
5
350
100
AcDbEntity
8
0
100
AcDbLine
10
1121.3850833741653
20
57.634733295954696
30
12.000000000000018
11
1121.0117653621496
21
57.634733295954689
31
12.000000000000002
0
ARC
5
351
100
AcDbEntity
8
0
100
AcDbCircle
10
1119.4405397259025
20
59.579276944217654
30
12.000000000000002
40
2.4999999999999947
210
0
220
0
230
1
100
AcDbArc
50
231.06117612239629
51
308.93882387760777
0
LINE
5
352
100
AcDbEntity
8
0
100
AcDbLine
10
1117.8693140896555
20
57.634733295954689
30
12.000000000000002
11
1044.900852658677
21
57.634733295954597
31
12.000000000000002
0
ARC
5
353
100
AcDbEntity
8
0
100
AcDbCircle
10
1043.32962702243
20
59.579276944217625
30
12.000000000000002
40
2.4999999999999605
210
0
220
0
230
1
100
AcDbArc
50
231.06117612239328
51
308.93882387760277
0
LINE
5
354
100
AcDbEntity
8
0
100
AcDbLine
10
1041.7584013861829
20
57.634733295954589
30
12.000000000000002
11
1041.3850833741669
21
57.634733295954589
31
12.000000000000018
0
LINE
5
355
100
AcDbEntity
8
0
100
AcDbLine
10
1041.3850833741669
20
57.634733295954589
30
12.000000000000018
11
1041.3850833741669
21
58.008051307970504
31
12.000000000000002
0
ARC
5
356
100
AcDbEntity
8
0
100
AcDbCircle
10
1043.32962702243
20
59.579276944217625
30
12.000000000000002
40
2.4999999999999316
210
0
220
0
230
1
100
AcDbArc
50
141.06117612239771
51
218.93882387760493
0
LINE
5
357
100
AcDbEntity
8
0
100
AcDbLine
10
1041.3850833741669
20
61.150502580464597
30
12.000000000000002
11
1041.3850833741669
21
66.118964011444376
31
12.000000000000002
0
ARC
5
358
100
AcDbEntity
8
0
100
AcDbCircle
10
1043.3296270224298
20
67.690189647691426
30
12.000000000000002
40
2.4999999999998654
210
0
220
0
230
1
100
AcDbArc
50
141.06117612239302
51
218.93882387760695
0
LINE
5
359
100
AcDbEntity
8
0
100
AcDbLine
10
1041.3850833741669
20
69.261415283938476
30
12.000000000000002
11
1041.3850833741669
21
69.634733295954391
31
12.000000000000018
0
LINE
5
360
100
AcDbEntity
8
0
100
AcDbLine
10
1041.3850833741669
20
69.634733295954391
30
12.000000000000018
11
1041.7584013861829
21
69.634733295954391
31
12.000000000000002
0
ARC
5
361
100
AcDbEntity
8
0
100
AcDbCircle
10
1043.3296270224298
20
67.690189647691426
30
12.000000000000002
40
2.4999999999999947
210
0
220
-0
230
1
100
AcDbArc
50
51.06117612239224
51
128.93882387760371
0
LINE
5
362
100
AcDbEntity
8
0
100
AcDbLine
10
1044.900852658677
20
69.634733295954391
30
12.000000000000002
11
1117.8693140896555
21
69.634733295954476
31
12.000000000000002
0
ARC
5
363
100
AcDbEntity
8
0
100
AcDbCircle
10
1119.4405397259022
20
67.690189647691653
30
12.000000000000002
40
2.4999999999998974
210
0
220
-0
230
1
100
AcDbArc
50
51.0611761223904
51
128.93882387760169
0
LINE
5
364
100
AcDbEntity
8
0
100
AcDbLine
10
1121.0117653621494
20
69.63473329595449
30
12.000000000000002
11
1121.3850833741653
21
69.63473329595449
31
12.000000000000018
0
LINE
5
365
100
AcDbEntity
8
0
100
AcDbLine
10
1121.3850833741653
20
69.63473329595449
30
12.000000000000018
11
1121.3850833741653
21
69.261415283938575
31
12.000000000000002
0
ARC
5
366
100
AcDbEntity
8
0
100
AcDbCircle
10
1119.4405397259022
20
67.690189647691653
30
12.000000000000002
40
2.5000000000001643
210
0
220
0
230
1
100
AcDbArc
50
-38.938823877605998
51
38.938823877601408
0
LINE
5
367
100
AcDbEntity
8
0
100
AcDbLine
10
1121.3850833741653
20
66.118964011444476
30
12.000000000000002
11
1121.3850833741653
21
61.150502580464696
31
12.000000000000002
0
LINE
5
368
100
AcDbEntity
8
0
100
AcDbLine
10
867.88508337416965
20
473.63473329594649
30
12.000000000000002
11
867.88508337416931
21
794.12288256070053
31
12.000000000000002
0
ARC
5
369
100
AcDbEntity
8
0
100
AcDbCircle
10
907.88508337416852
20
794.12288256070065
30
12.000000000000002
40
39.999999999999275
210
0
220
-0
230
1
100
AcDbArc
50
76.734398593875625
51
180
0
ARC
5
370
100
AcDbEntity
8
0
100
AcDbCircle
10
713.84326595149878
20
-28.938628100933599
30
12.000000000000002
40
885.62549467320537
210
0
220
-0
230
1
100
AcDbArc
50
62.685049684273999
51
76.73439859387571
0
ARC
5
371
100
AcDbEntity
8
0
100
AcDbCircle
10
1101.8850833741651
20
722.39753179862714
30
12.000000000000002
40
39.999999999999289
210
0
220
-0
230
1
100
AcDbArc
50
0
51
62.685049684274254
0
LINE
5
372
100
AcDbEntity
8
0
100
AcDbLine
10
1141.8850833741644
20
722.39753179862714
30
12.000000000000002
11
1141.8850833741647
21
473.63473329594694
31
12.000000000000002
0
ARC
5
373
100
AcDbEntity
8
0
100
AcDbCircle
10
1101.8850833741653
20
473.63473329594677
30
12.000000000000002
40
39.999999999999218
210
-0
220
0
230
1
100
AcDbArc
50
-90
51
0
0
LINE
5
374
100
AcDbEntity
8
0
100
AcDbLine
10
1101.8850833741653
20
433.63473329594751
30
12.000000000000002
11
907.8850833741692
21
433.63473329594734
31
12.000000000000002
0
ARC
5
375
100
AcDbEntity
8
0
100
AcDbCircle
10
907.88508337416897
20
473.63473329594649
30
12.000000000000002
40
39.999999999999289
210
0
220
0
230
1
100
AcDbArc
50
180
51
270.00000000000034
0
LINE
5
376
100
AcDbEntity
8
0
100
AcDbLine
10
867.88508337417034
20
123.6347332959532
30
12.000000000000002
11
867.88508337416999
21
353.63473329594876
31
12.000000000000002
0
ARC
5
377
100
AcDbEntity
8
0
100
AcDbCircle
10
907.8850833741692
20
353.63473329594876
30
12.000000000000002
40
39.999999999999218
210
0
220
-0
230
1
100
AcDbArc
50
90
51
180
0
LINE
5
378
100
AcDbEntity
8
0
100
AcDbLine
10
907.8850833741692
20
393.63473329594797
30
12.000000000000002
11
1101.8850833741656
21
393.63473329594819
31
12.000000000000002
0
ARC
5
379
100
AcDbEntity
8
0
100
AcDbCircle
10
1101.8850833741656
20
353.63473329594905
30
12.000000000000002
40
39.999999999999289
210
0
220
-0
230
1
100
AcDbArc
50
0
51
90
0
LINE
5
380
100
AcDbEntity
8
0
100
AcDbLine
10
1141.8850833741649
20
353.6347332959491
30
12.000000000000002
11
1141.8850833741651
21
123.63473329595354
31
12.000000000000002
0
ARC
5
381
100
AcDbEntity
8
0
100
AcDbCircle
10
1101.8850833741658
20
123.63473329595351
30
12.000000000000002
40
39.999999999999233
210
-0
220
0
230
1
100
AcDbArc
50
-90
51
0
0
LINE
5
382
100
AcDbEntity
8
0
100
AcDbLine
10
1101.8850833741658
20
83.634733295954277
30
12.000000000000002
11
907.88508337416943
21
83.634733295953964
31
12.000000000000002
0
ARC
5
383
100
AcDbEntity
8
0
100
AcDbCircle
10
907.88508337416943
20
123.63473329595321
30
12.000000000000002
40
39.999999999999147
210
0
220
0
230
1
100
AcDbArc
50
180
51
270
0
LINE
5
384
100
AcDbEntity
8
0
100
AcDbLine
10
841.88508337417034
20
371.15050258045835
30
12.000000000000002
11
841.88508337417034
21
404.11896401143764
31
12.000000000000002
0
LINE
5
385
100
AcDbEntity
8
0
100
AcDbLine
10
853.88508337417011
20
404.1189640114377
30
12.000000000000002
11
853.88508337417011
21
371.15050258045841
31
12.000000000000002
0
ARC
5
386
100
AcDbEntity
8
0
100
AcDbCircle
10
55.13125858160771
20
1355.9082679052904
30
12.000000000000028
40
2.4999999999999929
210
0
220
0
230
1
100
AcDbArc
50
231.06117612239277
51
308.93882387760721
0
LINE
5
387
100
AcDbEntity
8
0
100
AcDbLine
10
53.560032945360646
20
1353.9637242570275
30
12.000000000000028
11
48.591571514380888
21
1353.9637242570277
31
12.000000000000028
0
ARC
5
388
100
AcDbEntity
8
0
100
AcDbCircle
10
47.020345878133831
20
1355.9082679052904
30
12.000000000000028
40
2.4999999999999871
210
0
220
0
230
1
100
AcDbArc
50
231.06117612239277
51
308.93882387761039
0
LINE
5
389
100
AcDbEntity
8
0
100
AcDbLine
10
45.449120241886767
20
1353.9637242570275
30
12.000000000000028
11
45.075802229870845
21
1353.9637242570277
31
12.000000000000028
0
LINE
5
390
100
AcDbEntity
8
0
100
AcDbLine
10
45.075802229870845
20
1353.9637242570277
30
12.000000000000028
11
45.075802229870838
21
1354.3370422690436
31
12.000000000000028
0
ARC
5
391
100
AcDbEntity
8
0
100
AcDbCircle
10
47.020345878133831
20
1355.9082679052904
30
12.000000000000028
40
2.5000000000000222
210
0
220
0
230
1
100
AcDbArc
50
141.06117612239277
51
218.93882387759922
0
LINE
5
392
100
AcDbEntity
8
0
100
AcDbLine
10
45.075802229870831
20
1357.4794935415375
30
12.000000000000028
11
45.075802229870845
21
1390.447954972517
31
12.000000000000028
0
ARC
5
393
100
AcDbEntity
8
0
100
AcDbCircle
10
47.020345878133689
20
1392.0191806087641
30
12.000000000000028
40
2.4999999999999116
210
0
220
0
230
1
100
AcDbArc
50
141.06117612239072
51
218.93882387760951
0
LINE
5
394
100
AcDbEntity
8
0
100
AcDbLine
10
45.075802229870831
20
1393.5904062450113
30
12.000000000000028
11
45.07580222987086
21
1393.963724257027
31
12.000000000000028
0
LINE
5
395
100
AcDbEntity
8
0
100
AcDbLine
10
45.07580222987086
20
1393.963724257027
30
12.000000000000028
11
45.449120241886774
21
1393.963724257027
31
12.000000000000028
0
ARC
5
396
100
AcDbEntity
8
0
100
AcDbCircle
10
47.020345878133689
20
1392.0191806087641
30
12.000000000000028
40
2.5000000000000764
210
0
220
-0
230
1
100
AcDbArc
50
51.061176122390258
51
128.93882387760456
0
LINE
5
397
100
AcDbEntity
8
0
100
AcDbLine
10
48.591571514380895
20
1393.963724257027
30
12.000000000000028
11
53.560032945360661
21
1393.963724257027
31
12.000000000000028
0
ARC
5
398
100
AcDbEntity
8
0
100
AcDbCircle
10
55.13125858160771
20
1392.0191806087641
30
12.000000000000028
40
2.4999999999999871
210
0
220
-0
230
1
100
AcDbArc
50
51.061176122392787
51
128.93882387760695
0
LINE
5
399
100
AcDbEntity
8
0
100
AcDbLine
10
56.702484217854774
20
1393.963724257027
30
12.000000000000028
11
57.075802229870696
21
1393.963724257027
31
12.000000000000028
0
LINE
5
400
100
AcDbEntity
8
0
100
AcDbLine
10
57.075802229870696
20
1393.963724257027
30
12.000000000000028
11
57.075802229870696
21
1393.5904062450113
31
12.000000000000028
0
ARC
5
401
100
AcDbEntity
8
0
100
AcDbCircle
10
55.13125858160771
20
1392.0191806087641
30
12.000000000000028
40
2.5000000000000222
210
0
220
0
230
1
100
AcDbArc
50
-38.93882387760717
51
38.938823877607454
0
LINE
5
402
100
AcDbEntity
8
0
100
AcDbLine
10
57.075802229870717
20
1390.447954972517
30
12.000000000000028
11
57.075802229870696
21
1357.4794935415375
31
12.000000000000028
0
ARC
5
403
100
AcDbEntity
8
0
100
AcDbCircle
10
55.13125858160771
20
1355.9082679052904
30
12.000000000000028
40
2.5000000000000222
210
0
220
0
230
1
100
AcDbArc
50
-38.93882387760717
51
38.938823877607454
0
LINE
5
404
100
AcDbEntity
8
0
100
AcDbLine
10
57.075802229870717
20
1354.3370422690432
30
12.000000000000028
11
57.075802229870689
21
1353.9637242570277
31
12.000000000000028
0
LINE
5
405
100
AcDbEntity
8
0
100
AcDbLine
10
57.075802229870689
20
1353.9637242570277
30
12.000000000000028
11
56.702484217854774
21
1353.9637242570275
31
12.000000000000028
0
ARC
5
406
100
AcDbEntity
8
0
100
AcDbCircle
10
55.131258581607774
20
1705.908267905286
30
12.000000000000028
40
2.4999999999999818
210
0
220
0
230
1
100
AcDbArc
50
231.06117612239302
51
308.93882387760715
0
LINE
5
407
100
AcDbEntity
8
0
100
AcDbLine
10
53.560032945360724
20
1703.9637242570232
30
12.000000000000028
11
48.591571514380938
21
1703.9637242570232
31
12.000000000000028
0
ARC
5
408
100
AcDbEntity
8
0
100
AcDbCircle
10
47.020345878133895
20
1705.908267905286
30
12.000000000000028
40
2.4999999999999818
210
0
220
0
230
1
100
AcDbArc
50
231.06117612239288
51
308.93882387760681
0
LINE
5
409
100
AcDbEntity
8
0
100
AcDbLine
10
45.449120241886838
20
1703.9637242570232
30
12.000000000000028
11
45.075802229870909
21
1703.9637242570232
31
12.000000000000028
0
LINE
5
410
100
AcDbEntity
8
0
100
AcDbLine
10
45.075802229870909
20
1703.9637242570232
30
12.000000000000028
11
45.075802229870902
21
1704.3370422690391
31
12.000000000000028
0
ARC
5
411
100
AcDbEntity
8
0
100
AcDbCircle
10
47.020345878133895
20
1705.908267905286
30
12.000000000000028
40
2.5000000000000151
210
0
220
0
230
1
100
AcDbArc
50
141.06117612239265
51
218.93882387760331
0
LINE
5
412
100
AcDbEntity
8
0
100
AcDbLine
10
45.075802229870902
20
1707.4794935415332
30
12.000000000000028
11
45.075802229870909
21
1740.4479549725124
31
12.000000000000028
0
ARC
5
413
100
AcDbEntity
8
0
100
AcDbCircle
10
47.020345878133689
20
1742.0191806087596
30
12.000000000000028
40
2.4999999999998423
210
0
220
0
230
1
100
AcDbArc
50
141.06117612238947
51
218.93882387761039
0
LINE
5
414
100
AcDbEntity
8
0
100
AcDbLine
10
45.075802229870916
20
1743.5904062450068
30
12.000000000000028
11
45.075802229870916
21
1743.9637242570225
31
12.000000000000028
0
LINE
5
415
100
AcDbEntity
8
0
100
AcDbLine
10
45.075802229870916
20
1743.9637242570225
30
12.000000000000028
11
45.449120241886845
21
1743.9637242570225
31
12.000000000000028
0
ARC
5
416
100
AcDbEntity
8
0
100
AcDbCircle
10
47.020345878133689
20
1742.0191806087596
30
12.000000000000028
40
2.5000000000001101
210
0
220
-0
230
1
100
AcDbArc
50
51.061176122389362
51
128.93882387760331
0
LINE
5
417
100
AcDbEntity
8
0
100
AcDbLine
10
48.591571514380945
20
1743.9637242570225
30
12.000000000000028
11
53.560032945360739
21
1743.9637242570225
31
12.000000000000028
0
ARC
5
418
100
AcDbEntity
8
0
100
AcDbCircle
10
55.131258581607781
20
1742.0191806087596
30
12.000000000000028
40
2.499999999999976
210
0
220
-0
230
1
100
AcDbArc
50
51.061176122393043
51
128.93882387760684
0
LINE
5
419
100
AcDbEntity
8
0
100
AcDbLine
10
56.702484217854831
20
1743.9637242570225
30
12.000000000000028
11
57.07580222987076
21
1743.9637242570225
31
12.000000000000028
0
LINE
5
420
100
AcDbEntity
8
0
100
AcDbLine
10
57.07580222987076
20
1743.9637242570225
30
12.000000000000028
11
57.07580222987076
21
1743.5904062450068
31
12.000000000000028
0
ARC
5
421
100
AcDbEntity
8
0
100
AcDbCircle
10
55.131258581607781
20
1742.0191806087596
30
12.000000000000028
40
2.5000000000000151
210
-0
220
0
230
1
100
AcDbArc
50
-38.938823877607319
51
38.938823877607554
0
LINE
5
422
100
AcDbEntity
8
0
100
AcDbLine
10
57.075802229870774
20
1740.4479549725124
30
12.000000000000028
11
57.07580222987076
21
1707.479493541533
31
12.000000000000028
0
ARC
5
423
100
AcDbEntity
8
0
100
AcDbCircle
10
55.131258581607774
20
1705.908267905286
30
12.000000000000028
40
2.5000000000000084
210
0
220
0
230
1
100
AcDbArc
50
-38.938823877603404
51
38.938823877603397
0
LINE
5
424
100
AcDbEntity
8
0
100
AcDbLine
10
57.07580222987076
20
1704.3370422690391
30
12.000000000000028
11
57.075802229870753
21
1703.9637242570232
31
12.000000000000028
0
LINE
5
425
100
AcDbEntity
8
0
100
AcDbLine
10
57.075802229870753
20
1703.9637242570232
30
12.000000000000028
11
56.702484217854831
21
1703.9637242570232
31
12.000000000000028
0
ARC
5
426
100
AcDbEntity
8
0
100
AcDbCircle
10
375.02034587812989
20
1483.3525139420958
30
12.000000000000028
40
2.5000000000002358
210
0
220
0
230
1
100
AcDbArc
50
141.06117612239757
51
218.93882387759433
0
LINE
5
427
100
AcDbEntity
8
0
100
AcDbLine
10
373.07580222986655
20
1484.923739578343
30
12.000000000000028
11
373.0758022298665
21
1485.2970575903589
31
12.000000000000028
0
LINE
5
428
100
AcDbEntity
8
0
100
AcDbLine
10
373.0758022298665
20
1485.2970575903589
30
12.000000000000028
11
373.44912024188238
21
1485.2970575903589
31
12.000000000000028
0
ARC
5
429
100
AcDbEntity
8
0
100
AcDbCircle
10
375.02034587812989
20
1483.3525139420958
30
12.000000000000028
40
2.4999999999995262
210
0
220
-0
230
1
100
AcDbArc
50
51.061176122400134
51
128.93882387761178
0
LINE
5
430
100
AcDbEntity
8
0
100
AcDbLine
10
376.59157151437654
20
1485.2970575903587
30
12.000000000000028
11
385.07580222986638
21
1485.2970575903589
31
12.000000000000028
0
LINE
5
431
100
AcDbEntity
8
0
100
AcDbLine
10
385.07580222986638
20
1485.2970575903589
30
12.000000000000028
11
385.07580222986638
21
1625.2970575903573
31
12.000000000000028
0
LINE
5
432
100
AcDbEntity
8
0
100
AcDbLine
10
385.07580222986638
20
1625.2970575903573
30
12.000000000000028
11
376.59157151437671
21
1625.2970575903573
31
12.000000000000028
0
ARC
5
433
100
AcDbEntity
8
0
100
AcDbCircle
10
375.02034587812972
20
1627.2416012386198
30
12.000000000000028
40
2.4999999999993965
210
0
220
0
230
1
100
AcDbArc
50
231.0611761223812
51
308.93882387761255
0
LINE
5
434
100
AcDbEntity
8
0
100
AcDbLine
10
373.44912024188255
20
1625.2970575903576
30
12.000000000000028
11
373.07580222986655
21
1625.2970575903573
31
12.000000000000028
0
LINE
5
435
100
AcDbEntity
8
0
100
AcDbLine
10
373.07580222986655
20
1625.2970575903573
30
12.000000000000028
11
373.07580222986655
21
1625.670375602373
31
12.000000000000028
0
ARC
5
436
100
AcDbEntity
8
0
100
AcDbCircle
10
375.02034587812972
20
1627.2416012386198
30
12.000000000000028
40
2.5000000000004832
210
0
220
0
230
1
100
AcDbArc
50
141.061176122387
51
218.9388238775968
0
LINE
5
437
100
AcDbEntity
8
0
100
AcDbLine
10
373.07580222986655
20
1628.8128268748674
30
12.000000000000028
11
373.07580222986655
21
1751.9637242570225
31
12.000000000000028
0
LINE
5
438
100
AcDbEntity
8
0
100
AcDbLine
10
373.07580222986655
20
1751.9637242570225
30
12.000000000000028
11
345.07580222986695
21
1751.9637242570225
31
12.000000000000028
0
ARC
5
439
100
AcDbEntity
8
0
100
AcDbCircle
10
305.52836236329762
20
1757.9637242570218
30
12.000000000000028
40
39.999999999998863
210
0
220
0
230
1
100
AcDbArc
50
269.99999999999932
51
351.37307344132205
0
LINE
5
440
100
AcDbEntity
8
0
100
AcDbLine
10
305.52836236329716
20
1717.9637242570229
30
12.000000000000028
11
110.62324209644044
21
1717.9637242570225
31
12.000000000000028
0
ARC
5
441
100
AcDbEntity
8
0
100
AcDbCircle
10
110.62324209644058
20
1757.9637242570225
30
12.000000000000028
40
39.999999999999645
210
0
220
0
230
1
100
AcDbArc
50
188.62692655867869
51
269.99999999999983
0
LINE
5
442
100
AcDbEntity
8
0
100
AcDbLine
10
71.07580222987059
20
1751.9637242570225
30
12.000000000000028
11
31.075802229871105
21
1751.9637242570225
31
12.000000000000028
0
LINE
5
443
100
AcDbEntity
8
0
100
AcDbLine
10
31.075802229871105
20
1751.9637242570225
30
12.000000000000028
11
31.075802229871119
21
871.96372425703373
31
12.000000000000028
0
ARC
5
444
100
AcDbEntity
8
0
100
AcDbCircle
10
-82.966015192742361
20
1790.537085653548
30
12.000000000000028
40
925.62549467284248
210
0
220
0
230
1
100
AcDbArc
50
277.07711659382772
51
280.42469989606116
0
LINE
5
445
100
AcDbEntity
8
0
100
AcDbLine
10
84.51956894920815
20
880.19037395905684
30
12.000000000000028
11
85.860462423648656
21
874.3364074284882
31
12.000000000000028
0
ARC
5
446
100
AcDbEntity
8
0
100
AcDbCircle
10
-82.966015192742361
20
1790.537085653548
30
12.000000000000028
40
931.62549467284202
210
0
220
0
230
1
100
AcDbArc
50
280.44066091017078
51
285.36224352893311
0
LINE
5
447
100
AcDbEntity
8
0
100
AcDbLine
10
163.84090525387549
20
892.19839320838878
30
12.000000000000028
11
162.50001177943605
21
898.05235973895788
31
12.000000000000028
0
ARC
5
448
100
AcDbEntity
8
0
100
AcDbCircle
10
-82.966015192742361
20
1790.537085653548
30
12.000000000000028
40
925.62549467284407
210
0
220
0
230
1
100
AcDbArc
50
285.3782045430429
51
292.07337114750959
0
LINE
5
449
100
AcDbEntity
8
0
100
AcDbLine
10
264.8781291148041
20
932.75680629331976
30
12.000000000000028
11
267.37337987939975
21
927.2941473187359
31
12.000000000000028
0
ARC
5
450
100
AcDbEntity
8
0
100
AcDbCircle
10
-82.966015192742361
20
1790.537085653548
30
12.000000000000028
40
931.62549467285135
210
0
220
0
230
1
100
AcDbArc
50
292.08933216161932
51
297.0109147803816
0
LINE
5
451
100
AcDbEntity
8
0
100
AcDbLine
10
340.14123115497216
20
960.53327818486866
30
12.000000000000028
11
337.64598039037827
21
965.99593715945332
31
12.000000000000028
0
ARC
5
452
100
AcDbEntity
8
0
100
AcDbCircle
10
-82.966015192742361
20
1790.537085653548
30
12.000000000000028
40
925.62549467285965
210
0
220
0
230
1
100
AcDbArc
50
297.02687579449133
51
300.37445909672476
0
LINE
5
453
100
AcDbEntity
8
0
100
AcDbLine
10
385.07580222986661
20
991.96372425703225
30
12.000000000000028
11
385.07580222986633
21
1091.9637242570309
31
12.000000000000028
0
LINE
5
454
100
AcDbEntity
8
0
100
AcDbLine
10
385.07580222986633
20
1091.9637242570309
30
12.000000000000028
11
376.59157151437654
21
1091.9637242570309
31
12.000000000000028
0
ARC
5
455
100
AcDbEntity
8
0
100
AcDbCircle
10
375.02034587812943
20
1093.908267905294
30
12.000000000000028
40
2.4999999999999707
210
0
220
0
230
1
100
AcDbArc
50
231.06117612239629
51
308.93882387760465
0
LINE
5
456
100
AcDbEntity
8
0
100
AcDbLine
10
373.44912024188238
20
1091.9637242570309
30
12.000000000000028
11
373.07580222986644
21
1091.9637242570309
31
12.000000000000028
0
LINE
5
457
100
AcDbEntity
8
0
100
AcDbLine
10
373.07580222986644
20
1091.9637242570309
30
12.000000000000028
11
373.07580222986644
21
1092.3370422690468
31
12.000000000000028
0
ARC
5
458
100
AcDbEntity
8
0
100
AcDbCircle
10
375.02034587812943
20
1093.908267905294
30
12.000000000000028
40
2.5000000000000151
210
0
220
0
230
1
100
AcDbArc
50
141.06117612239669
51
218.93882387760735
0
LINE
5
459
100
AcDbEntity
8
0
100
AcDbLine
10
373.07580222986644
20
1095.4794935415409
30
12.000000000000028
11
373.07580222986644
21
1215.114621639186
31
12.000000000000028
0
ARC
5
460
100
AcDbEntity
8
0
100
AcDbCircle
10
375.02034587812943
20
1216.6858472754329
30
12.000000000000028
40
2.4999999999999596
210
0
220
0
230
1
100
AcDbArc
50
141.06117612239183
51
218.93882387760331
0
LINE
5
461
100
AcDbEntity
8
0
100
AcDbLine
10
373.0758022298665
20
1218.2570729116801
30
12.000000000000028
11
373.0758022298665
21
1218.6303909236958
31
12.000000000000028
0
LINE
5
462
100
AcDbEntity
8
0
100
AcDbLine
10
373.0758022298665
20
1218.6303909236958
30
12.000000000000028
11
373.44912024188233
21
1218.6303909236958
31
12.000000000000028
0
ARC
5
463
100
AcDbEntity
8
0
100
AcDbCircle
10
375.02034587812943
20
1216.6858472754329
30
12.000000000000028
40
2.5000000000001044
210
0
220
-0
230
1
100
AcDbArc
50
51.061176122388979
51
128.93882387760797
0
LINE
5
464
100
AcDbEntity
8
0
100
AcDbLine
10
376.59157151437671
20
1218.6303909236958
30
12.000000000000028
11
385.07580222986638
21
1218.6303909236958
31
12.000000000000028
0
LINE
5
465
100
AcDbEntity
8
0
100
AcDbLine
10
385.07580222986638
20
1218.6303909236958
30
12.000000000000028
11
385.07580222986638
21
1358.630390923694
31
12.000000000000028
0
LINE
5
466
100
AcDbEntity
8
0
100
AcDbLine
10
385.07580222986638
20
1358.630390923694
30
12.000000000000028
11
376.59157151437648
21
1358.630390923694
31
12.000000000000028
0
ARC
5
467
100
AcDbEntity
8
0
100
AcDbCircle
10
375.02034587812949
20
1360.5749345719569
30
12.000000000000028
40
2.4999999999997047
210
0
220
0
230
1
100
AcDbArc
50
231.06117612239501
51
308.93882387760596
0
LINE
5
468
100
AcDbEntity
8
0
100
AcDbLine
10
373.44912024188255
20
1358.630390923694
30
12.000000000000028
11
373.0758022298665
21
1358.630390923694
31
12.000000000000028
0
LINE
5
469
100
AcDbEntity
8
0
100
AcDbLine
10
373.0758022298665
20
1358.630390923694
30
12.000000000000028
11
373.0758022298665
21
1359.0037089357099
31
12.000000000000028
0
ARC
5
470
100
AcDbEntity
8
0
100
AcDbCircle
10
375.02034587812949
20
1360.5749345719569
30
12.000000000000028
40
2.5000000000001936
210
0
220
0
230
1
100
AcDbArc
50
141.06117612239265
51
218.93882387760331
0
LINE
5
471
100
AcDbEntity
8
0
100
AcDbLine
10
373.0758022298665
20
1362.146160208204
30
12.000000000000028
11
373.07580222986655
21
1481.7812883058491
31
12.000000000000028
0
ARC
5
472
100
AcDbEntity
8
0
100
AcDbCircle
10
81.520345878133384
20
1343.9082679052908
30
12.000000000000028
40
2.4999999999999818
210
0
220
0
230
1
100
AcDbArc
50
231.06117612239629
51
308.93882387760397
0
LINE
5
473
100
AcDbEntity
8
0
100
AcDbLine
10
79.949120241886334
20
1341.9637242570277
30
12.000000000000028
11
79.575802229870419
21
1341.9637242570277
31
12.000000000000028
0
LINE
5
474
100
AcDbEntity
8
0
100
AcDbLine
10
79.575802229870419
20
1341.9637242570277
30
12.000000000000028
11
79.575802229870419
21
1342.3370422690436
31
12.000000000000028
0
ARC
5
475
100
AcDbEntity
8
0
100
AcDbCircle
10
81.520345878133384
20
1343.9082679052908
30
12.000000000000028
40
2.5000000000000084
210
0
220
0
230
1
100
AcDbArc
50
141.06117612239265
51
218.93882387760777
0
LINE
5
476
100
AcDbEntity
8
0
100
AcDbLine
10
79.575802229870391
20
1345.479493541538
30
12.000000000000028
11
79.575802229870419
21
1350.4479549725174
31
12.000000000000028
0
ARC
5
477
100
AcDbEntity
8
0
100
AcDbCircle
10
81.520345878133256
20
1352.0191806087646
30
12.000000000000028
40
2.4999999999999116
210
0
220
0
230
1
100
AcDbArc
50
141.06117612239083
51
218.93882387760956
0
LINE
5
478
100
AcDbEntity
8
0
100
AcDbLine
10
79.575802229870391
20
1353.5904062450118
30
12.000000000000028
11
79.575802229870419
21
1353.9637242570277
31
12.000000000000028
0
LINE
5
479
100
AcDbEntity
8
0
100
AcDbLine
10
79.575802229870419
20
1353.9637242570277
30
12.000000000000028
11
79.949120241886334
21
1353.9637242570277
31
12.000000000000028
0
ARC
5
480
100
AcDbEntity
8
0
100
AcDbCircle
10
81.520345878133256
20
1352.0191806087646
30
12.000000000000028
40
2.5000000000000822
210
0
220
-0
230
1
100
AcDbArc
50
51.061176122393533
51
128.93882387760144
0
LINE
5
481
100
AcDbEntity
8
0
100
AcDbLine
10
83.091571514380462
20
1353.9637242570277
30
12.000000000000028
11
156.06003294535932
21
1353.9637242570277
31
12.000000000000028
0
ARC
5
482
100
AcDbEntity
8
0
100
AcDbCircle
10
157.63125858160637
20
1352.0191806087646
30
12.000000000000028
40
2.4999999999999929
210
0
220
-0
230
1
100
AcDbArc
50
51.061176122395814
51
128.93882387760371
0
LINE
5
483
100
AcDbEntity
8
0
100
AcDbLine
10
159.20248421785345
20
1353.9637242570277
30
12.000000000000028
11
159.57580222986937
21
1353.9637242570277
31
12.000000000000028
0
LINE
5
484
100
AcDbEntity
8
0
100
AcDbLine
10
159.57580222986937
20
1353.9637242570277
30
12.000000000000028
11
159.57580222986937
21
1353.5904062450118
31
12.000000000000028
0
ARC
5
485
100
AcDbEntity
8
0
100
AcDbCircle
10
157.63125858160637
20
1352.0191806087646
30
12.000000000000028
40
2.5000000000000151
210
0
220
0
230
1
100
AcDbArc
50
-38.938823877607319
51
38.938823877607348
0
LINE
5
486
100
AcDbEntity
8
0
100
AcDbLine
10
159.57580222986937
20
1350.4479549725174
30
12.000000000000028
11
159.57580222986937
21
1345.4794935415375
31
12.000000000000028
0
ARC
5
487
100
AcDbEntity
8
0
100
AcDbCircle
10
157.63125858160657
20
1343.9082679052908
30
12.000000000000028
40
2.4999999999998765
210
0
220
0
230
1
100
AcDbArc
50
-38.938823877610218
51
38.938823877602111
0
LINE
5
488
100
AcDbEntity
8
0
100
AcDbLine
10
159.57580222986937
20
1342.3370422690436
30
12.000000000000028
11
159.57580222986937
21
1341.9637242570277
31
12.000000000000028
0
LINE
5
489
100
AcDbEntity
8
0
100
AcDbLine
10
159.57580222986937
20
1341.9637242570277
30
12.000000000000028
11
159.20248421785345
21
1341.9637242570277
31
12.000000000000028
0
ARC
5
490
100
AcDbEntity
8
0
100
AcDbCircle
10
157.63125858160657
20
1343.9082679052908
30
12.000000000000028
40
2.5000000000001044
210
0
220
0
230
1
100
AcDbArc
50
231.06117612239228
51
308.93882387760067
0
LINE
5
491
100
AcDbEntity
8
0
100
AcDbLine
10
156.0600329453593
20
1341.9637242570277
30
12.000000000000028
11
83.091571514380448
21
1341.9637242570277
31
12.000000000000028
0
ARC
5
492
100
AcDbEntity
8
0
100
AcDbCircle
10
322.63125858160424
20
1343.9082679052904
30
12.000000000000028
40
2.4999999999999707
210
0
220
0
230
1
100
AcDbArc
50
231.06117612239302
51
308.93882387760596
0
LINE
5
493
100
AcDbEntity
8
0
100
AcDbLine
10
321.06003294535719
20
1341.9637242570275
30
12.000000000000028
11
248.09157151437819
21
1341.9637242570275
31
12.000000000000028
0
ARC
5
494
100
AcDbEntity
8
0
100
AcDbCircle
10
246.52034587813117
20
1343.9082679052904
30
12.000000000000028
40
2.4999999999999929
210
0
220
0
230
1
100
AcDbArc
50
231.06117612239251
51
308.93882387760647
0
LINE
5
495
100
AcDbEntity
8
0
100
AcDbLine
10
244.94912024188409
20
1341.9637242570275
30
12.000000000000028
11
244.5758022298682
21
1341.9637242570275
31
12.000000000000028
0
LINE
5
496
100
AcDbEntity
8
0
100
AcDbLine
10
244.5758022298682
20
1341.9637242570275
30
12.000000000000028
11
244.5758022298682
21
1342.3370422690434
31
12.000000000000028
0
ARC
5
497
100
AcDbEntity
8
0
100
AcDbCircle
10
246.52034587813117
20
1343.9082679052904
30
12.000000000000028
40
2.4999999999999876
210
0
220
0
230
1
100
AcDbArc
50
141.06117612239225
51
218.93882387760371
0
LINE
5
498
100
AcDbEntity
8
0
100
AcDbLine
10
244.5758022298682
20
1345.4794935415375
30
12.000000000000028
11
244.5758022298682
21
1350.4479549725172
31
12.000000000000028
0
ARC
5
499
100
AcDbEntity
8
0
100
AcDbCircle
10
246.52034587813165
20
1352.0191806087644
30
12.000000000000028
40
2.5000000000003739
210
0
220
0
230
1
100
AcDbArc
50
141.06117612239922
51
218.93882387760078
0
LINE
5
500
100
AcDbEntity
8
0
100
AcDbLine
10
244.5758022298682
20
1353.5904062450115
30
12.000000000000028
11
244.5758022298682
21
1353.9637242570277
31
12.000000000000028
0
LINE
5
501
100
AcDbEntity
8
0
100
AcDbLine
10
244.5758022298682
20
1353.9637242570277
30
12.000000000000028
11
244.94912024188412
21
1353.9637242570275
31
12.000000000000028
0
ARC
5
502
100
AcDbEntity
8
0
100
AcDbCircle
10
246.52034587813165
20
1352.0191806087644
30
12.000000000000028
40
2.4999999999996803
210
0
220
-0
230
1
100
AcDbArc
50
51.061176122404426
51
128.93882387761229
0
LINE
5
503
100
AcDbEntity
8
0
100
AcDbLine
10
248.09157151437824
20
1353.9637242570275
30
12.000000000000028
11
321.06003294535719
21
1353.9637242570275
31
12.000000000000028
0
ARC
5
504
100
AcDbEntity
8
0
100
AcDbCircle
10
322.63125858160424
20
1352.0191806087644
30
12.000000000000028
40
2.4999999999999707
210
0
220
-0
230
1
100
AcDbArc
50
51.061176122397335
51
128.93882387760371
0
LINE
5
505
100
AcDbEntity
8
0
100
AcDbLine
10
324.20248421785124
20
1353.9637242570275
30
12.000000000000028
11
324.57580222986712
21
1353.9637242570275
31
12.000000000000028
0
LINE
5
506
100
AcDbEntity
8
0
100
AcDbLine
10
324.57580222986712
20
1353.9637242570275
30
12.000000000000028
11
324.57580222986724
21
1353.5904062450115
31
12.000000000000028
0
ARC
5
507
100
AcDbEntity
8
0
100
AcDbCircle
10
322.63125858160424
20
1352.0191806087644
30
12.000000000000028
40
2.5000000000000151
210
-0
220
0
230
1
100
AcDbArc
50
-38.938823877607319
51
38.938823877607348
0
LINE
5
508
100
AcDbEntity
8
0
100
AcDbLine
10
324.57580222986724
20
1350.4479549725172
30
12.000000000000028
11
324.57580222986724
21
1345.479493541538
31
12.000000000000028
0
ARC
5
509
100
AcDbEntity
8
0
100
AcDbCircle
10
322.63125858160424
20
1343.9082679052904
30
12.000000000000028
40
2.5000000000000151
210
-0
220
0
230
1
100
AcDbArc
50
-38.938823877603298
51
38.938823877615462
0
LINE
5
510
100
AcDbEntity
8
0
100
AcDbLine
10
324.57580222986724
20
1342.3370422690434
30
12.000000000000028
11
324.57580222986724
21
1341.9637242570277
31
12.000000000000028
0
LINE
5
511
100
AcDbEntity
8
0
100
AcDbLine
10
324.57580222986724
20
1341.9637242570277
30
12.000000000000028
11
324.20248421785124
21
1341.9637242570275
31
12.000000000000028
0
ARC
5
512
100
AcDbEntity
8
0
100
AcDbCircle
10
81.520345878133469
20
1693.9082679052863
30
12.000000000000028
40
2.4999999999999818
210
0
220
0
230
1
100
AcDbArc
50
231.06117612239629
51
308.93882387760368
0
LINE
5
513
100
AcDbEntity
8
0
100
AcDbLine
10
79.949120241886419
20
1691.9637242570232
30
12.000000000000028
11
79.57580222987049
21
1691.9637242570232
31
12.000000000000028
0
LINE
5
514
100
AcDbEntity
8
0
100
AcDbLine
10
79.57580222987049
20
1691.9637242570232
30
12.000000000000028
11
79.575802229870476
21
1692.3370422690391
31
12.000000000000028
0
ARC
5
515
100
AcDbEntity
8
0
100
AcDbCircle
10
81.520345878133469
20
1693.9082679052863
30
12.000000000000028
40
2.5000000000000084
210
0
220
0
230
1
100
AcDbArc
50
141.06117612239245
51
218.93882387760735
0
LINE
5
516
100
AcDbEntity
8
0
100
AcDbLine
10
79.57580222987049
20
1695.4794935415334
30
12.000000000000028
11
79.575802229870476
21
1700.4479549725129
31
12.000000000000028
0
ARC
5
517
100
AcDbEntity
8
0
100
AcDbCircle
10
81.520345878133256
20
1702.0191806087601
30
12.000000000000028
40
2.4999999999998423
210
0
220
0
230
1
100
AcDbArc
50
141.06117612238938
51
218.93882387761039
0
LINE
5
518
100
AcDbEntity
8
0
100
AcDbLine
10
79.57580222987049
20
1703.5904062450072
30
12.000000000000028
11
79.575802229870476
21
1703.9637242570232
31
12.000000000000028
0
LINE
5
519
100
AcDbEntity
8
0
100
AcDbLine
10
79.575802229870476
20
1703.9637242570232
30
12.000000000000028
11
79.949120241886405
21
1703.9637242570232
31
12.000000000000028
0
ARC
5
520
100
AcDbEntity
8
0
100
AcDbCircle
10
81.520345878133256
20
1702.0191806087601
30
12.000000000000028
40
2.5000000000001155
210
0
220
-0
230
1
100
AcDbArc
50
51.061176122392517
51
128.93882387760013
0
LINE
5
521
100
AcDbEntity
8
0
100
AcDbLine
10
83.091571514380519
20
1703.9637242570232
30
12.000000000000028
11
156.06003294535938
21
1703.9637242570232
31
12.000000000000028
0
ARC
5
522
100
AcDbEntity
8
0
100
AcDbCircle
10
157.63125858160643
20
1702.0191806087601
30
12.000000000000028
40
2.4999999999999818
210
0
220
-0
230
1
100
AcDbArc
50
51.061176122396311
51
128.93882387760371
0
LINE
5
523
100
AcDbEntity
8
0
100
AcDbLine
10
159.20248421785348
20
1703.9637242570232
30
12.000000000000028
11
159.57580222986945
21
1703.9637242570232
31
12.000000000000028
0
LINE
5
524
100
AcDbEntity
8
0
100
AcDbLine
10
159.57580222986945
20
1703.9637242570232
30
12.000000000000028
11
159.57580222986945
21
1703.5904062450072
31
12.000000000000028
0
ARC
5
525
100
AcDbEntity
8
0
100
AcDbCircle
10
157.63125858160643
20
1702.0191806087601
30
12.000000000000028
40
2.5000000000000009
210
0
220
0
230
1
100
AcDbArc
50
-38.938823877607781
51
38.938823877606936
0
LINE
5
526
100
AcDbEntity
8
0
100
AcDbLine
10
159.5758022298694
20
1700.4479549725129
30
12.000000000000028
11
159.57580222986942
21
1695.479493541533
31
12.000000000000028
0
ARC
5
527
100
AcDbEntity
8
0
100
AcDbCircle
10
157.63125858160672
20
1693.9082679052863
30
12.000000000000028
40
2.4999999999997802
210
0
220
0
230
1
100
AcDbArc
50
-38.938823877611853
51
38.93882387760334
0
LINE
5
528
100
AcDbEntity
8
0
100
AcDbLine
10
159.5758022298694
20
1692.3370422690391
30
12.000000000000028
11
159.57580222986942
21
1691.9637242570232
31
12.000000000000028
0
LINE
5
529
100
AcDbEntity
8
0
100
AcDbLine
10
159.57580222986942
20
1691.9637242570232
30
12.000000000000028
11
159.20248421785348
21
1691.9637242570232
31
12.000000000000028
0
ARC
5
530
100
AcDbEntity
8
0
100
AcDbCircle
10
157.63125858160672
20
1693.9082679052863
30
12.000000000000028
40
2.5000000000001603
210
0
220
0
230
1
100
AcDbArc
50
231.06117612239126
51
308.93882387759862
0
LINE
5
531
100
AcDbEntity
8
0
100
AcDbLine
10
156.06003294535938
20
1691.9637242570232
30
12.000000000000028
11
83.091571514380519
21
1691.9637242570232
31
12.000000000000028
0
ARC
5
532
100
AcDbEntity
8
0
100
AcDbCircle
10
322.63125858160424
20
1693.9082679052858
30
12.000000000000028
40
2.4999999999999707
210
0
220
0
230
1
100
AcDbArc
50
231.06117612239302
51
308.93882387760596
0
LINE
5
533
100
AcDbEntity
8
0
100
AcDbLine
10
321.06003294535719
20
1691.9637242570229
30
12.000000000000028
11
248.09157151437833
21
1691.9637242570232
31
12.000000000000028
0
ARC
5
534
100
AcDbEntity
8
0
100
AcDbCircle
10
246.52034587813122
20
1693.9082679052863
30
12.000000000000028
40
2.4999999999999929
210
0
220
0
230
1
100
AcDbArc
50
231.06117612239578
51
308.93882387760465
0
LINE
5
535
100
AcDbEntity
8
0
100
AcDbLine
10
244.94912024188415
20
1691.9637242570232
30
12.000000000000028
11
244.57580222986826
21
1691.9637242570232
31
12.000000000000028
0
LINE
5
536
100
AcDbEntity
8
0
100
AcDbLine
10
244.57580222986826
20
1691.9637242570232
30
12.000000000000028
11
244.57580222986826
21
1692.3370422690391
31
12.000000000000028
0
ARC
5
537
100
AcDbEntity
8
0
100
AcDbCircle
10
246.52034587813122
20
1693.9082679052863
30
12.000000000000028
40
2.4999999999999876
210
0
220
0
230
1
100
AcDbArc
50
141.06117612239225
51
218.93882387760777
0
LINE
5
538
100
AcDbEntity
8
0
100
AcDbLine
10
244.57580222986826
20
1695.4794935415334
30
12.000000000000028
11
244.57580222986826
21
1700.4479549725127
31
12.000000000000028
0
ARC
5
539
100
AcDbEntity
8
0
100
AcDbCircle
10
246.52034587813094
20
1702.0191806087601
30
12.000000000000028
40
2.4999999999997664
210
0
220
0
230
1
100
AcDbArc
50
141.06117612238813
51
218.9388238776159
0
LINE
5
540
100
AcDbEntity
8
0
100
AcDbLine
10
244.57580222986826
20
1703.5904062450072
30
12.000000000000028
11
244.57580222986826
21
1703.9637242570229
31
12.000000000000028
0
LINE
5
541
100
AcDbEntity
8
0
100
AcDbLine
10
244.57580222986826
20
1703.9637242570229
30
12.000000000000028
11
244.9491202418842
21
1703.9637242570232
31
12.000000000000028
0
ARC
5
542
100
AcDbEntity
8
0
100
AcDbCircle
10
246.52034587813094
20
1702.0191806087601
30
12.000000000000028
40
2.5000000000001714
210
0
220
-0
230
1
100
AcDbArc
50
51.061176122390748
51
128.93882387759814
0
LINE
5
543
100
AcDbEntity
8
0
100
AcDbLine
10
248.0915715143783
20
1703.9637242570232
30
12.000000000000028
11
321.06003294535725
21
1703.9637242570232
31
12.000000000000028
0
ARC
5
544
100
AcDbEntity
8
0
100
AcDbCircle
10
322.63125858160424
20
1702.0191806087601
30
12.000000000000028
40
2.4999999999999707
210
0
220
-0
230
1
100
AcDbArc
50
51.061176122397335
51
128.93882387760269
0
LINE
5
545
100
AcDbEntity
8
0
100
AcDbLine
10
324.20248421785124
20
1703.9637242570232
30
12.000000000000028
11
324.57580222986724
21
1703.9637242570229
31
12.000000000000028
0
LINE
5
546
100
AcDbEntity
8
0
100
AcDbLine
10
324.57580222986724
20
1703.9637242570229
30
12.000000000000028
11
324.57580222986724
21
1703.590406245007
31
12.000000000000028
0
ARC
5
547
100
AcDbEntity
8
0
100
AcDbCircle
10
322.63125858160424
20
1702.0191806087601
30
12.000000000000028
40
2.4999999999999596
210
0
220
0
230
1
100
AcDbArc
50
-38.938823877608996
51
38.938823877603298
0
LINE
5
548
100
AcDbEntity
8
0
100
AcDbLine
10
324.57580222986712
20
1700.4479549725129
30
12.000000000000028
11
324.57580222986724
21
1695.4794935415334
31
12.000000000000028
0
ARC
5
549
100
AcDbEntity
8
0
100
AcDbCircle
10
322.63125858160424
20
1693.9082679052858
30
12.000000000000028
40
2.4999999999999596
210
0
220
0
230
1
100
AcDbArc
50
-38.938823877604925
51
38.938823877615462
0
LINE
5
550
100
AcDbEntity
8
0
100
AcDbLine
10
324.57580222986712
20
1692.3370422690389
30
12.000000000000028
11
324.57580222986724
21
1691.9637242570232
31
12.000000000000028
0
LINE
5
551
100
AcDbEntity
8
0
100
AcDbLine
10
324.57580222986724
20
1691.9637242570232
30
12.000000000000028
11
324.20248421785124
21
1691.9637242570229
31
12.000000000000028
0
LINE
5
552
100
AcDbEntity
8
0
100
AcDbLine
10
71.075802229870519
20
1407.9637242570268
30
12.000000000000028
11
71.075802229870561
21
1637.9637242570238
31
12.000000000000028
0
ARC
5
553
100
AcDbEntity
8
0
100
AcDbCircle
10
111.07580222986996
20
1637.9637242570238
30
12.000000000000028
40
39.999999999999432
210
0
220
-0
230
1
100
AcDbArc
50
89.999999999999872
51
180
0
LINE
5
554
100
AcDbEntity
8
0
100
AcDbLine
10
111.07580222987005
20
1677.9637242570232
30
12.000000000000028
11
305.07580222986752
21
1677.9637242570232
31
12.000000000000028
0
ARC
5
555
100
AcDbEntity
8
0
100
AcDbCircle
10
305.07580222986758
20
1637.9637242570238
30
12.000000000000028
40
39.999999999999361
210
0
220
0
230
1
100
AcDbArc
50
0
51
90.000000000000071
0
LINE
5
556
100
AcDbEntity
8
0
100
AcDbLine
10
345.07580222986695
20
1637.9637242570238
30
12.000000000000028
11
345.07580222986695
21
1407.9637242570268
31
12.000000000000028
0
ARC
5
557
100
AcDbEntity
8
0
100
AcDbCircle
10
305.07580222986758
20
1407.9637242570268
30
12.000000000000028
40
39.999999999999432
210
0
220
0
230
1
100
AcDbArc
50
-90.000000000000099
51
0
0
LINE
5
558
100
AcDbEntity
8
0
100
AcDbLine
10
305.07580222986752
20
1367.9637242570275
30
12.000000000000028
11
111.07580222986999
21
1367.963724257027
31
12.000000000000028
0
ARC
5
559
100
AcDbEntity
8
0
100
AcDbCircle
10
111.07580222986988
20
1407.9637242570268
30
12.000000000000028
40
39.999999999999361
210
0
220
0
230
1
100
AcDbArc
50
180
51
270.00000000000017
0
LINE
5
560
100
AcDbEntity
8
0
100
AcDbLine
10
71.075802229870447
20
967.47557499227241
30
12.000000000000028
11
71.075802229870504
21
1287.9637242570284
31
12.000000000000028
0
ARC
5
561
100
AcDbEntity
8
0
100
AcDbCircle
10
111.07580222986989
20
1287.9637242570284
30
12.000000000000028
40
39.999999999999432
210
0
220
-0
230
1
100
AcDbArc
50
89.999999999999858
51
180
0
LINE
5
562
100
AcDbEntity
8
0
100
AcDbLine
10
111.07580222986999
20
1327.9637242570277
30
12.000000000000028
11
305.07580222986752
21
1327.9637242570279
31
12.000000000000028
0
ARC
5
563
100
AcDbEntity
8
0
100
AcDbCircle
10
305.07580222986758
20
1287.9637242570284
30
12.000000000000028
40
39.999999999999467
210
0
220
0
230
1
100
AcDbArc
50
0
51
90.000000000000071
0
LINE
5
564
100
AcDbEntity
8
0
100
AcDbLine
10
345.07580222986701
20
1287.9637242570284
30
12.000000000000028
11
345.07580222986695
21
1039.2009257543464
31
12.000000000000028
0
ARC
5
565
100
AcDbEntity
8
0
100
AcDbCircle
10
305.07580222986752
20
1039.2009257543466
30
12.000000000000028
40
39.999999999999389
210
0
220
0
230
1
100
AcDbArc
50
297.31495031572592
51
360
0
ARC
5
566
100
AcDbEntity
8
0
100
AcDbCircle
10
-82.966015192742361
20
1790.537085653548
30
12.000000000000028
40
885.62549467284316
210
-0
220
0
230
1
100
AcDbArc
50
283.26560140612605
51
297.31495031573343
0
ARC
5
567
100
AcDbEntity
8
0
100
AcDbCircle
10
111.07580222986975
20
967.4755749922723
30
12.000000000000028
40
39.999999999999304
210
0
220
0
230
1
100
AcDbArc
50
180
51
283.26560140612457
0
LINE
5
568
100
AcDbEntity
8
0
100
AcDbLine
10
452.99948136502962
20
1615.8147409059889
30
12.000000000000002
11
452.99948136502951
21
965.81474090600364
31
12.000000000000002
0
ARC
5
569
100
AcDbEntity
8
0
100
AcDbCircle
10
393.50197807453384
20
2338.8109316796481
30
12.000000000000002
40
2.5000000000004019
210
0
220
0
230
1
100
AcDbArc
50
-38.938823877599994
51
38.93882387759998
0
LINE
5
570
100
AcDbEntity
8
0
100
AcDbLine
10
395.44652172279734
20
2337.2397060434009
30
12.000000000000002
11
395.44652172279734
21
2336.8663880313852
31
12.000000000000002
0
LINE
5
571
100
AcDbEntity
8
0
100
AcDbLine
10
395.44652172279734
20
2336.8663880313852
30
12.000000000000002
11
395.07320371078146
21
2336.8663880313852
31
11.999999999999996
0
ARC
5
572
100
AcDbEntity
8
0
100
AcDbCircle
10
393.50197807453384
20
2338.8109316796481
30
12.000000000000002
40
2.4999999999994369
210
0
220
0
230
1
100
AcDbArc
50
231.06117612239564
51
308.9388238776171
0
LINE
5
573
100
AcDbEntity
8
0
100
AcDbLine
10
391.9307524382873
20
2336.8663880313857
30
12.000000000000002
11
389.44652172279734
21
2336.8663880313852
31
12.000000000000002
0
LINE
5
574
100
AcDbEntity
8
0
100
AcDbLine
10
389.44652172279734
20
2336.8663880313852
30
12.000000000000002
11
389.44652172279734
21
1686.8663880313886
31
12.000000000000002
0
LINE
5
575
100
AcDbEntity
8
0
100
AcDbLine
10
389.44652172279734
20
1686.8663880313886
30
12.000000000000002
11
391.93075243828724
21
1686.8663880313886
31
12.000000000000002
0
ARC
5
576
100
AcDbEntity
8
0
100
AcDbCircle
10
393.50197807453412
20
1684.9218443831262
30
12.000000000000002
40
2.4999999999993965
210
0
220
-0
230
1
100
AcDbArc
50
51.061176122381191
51
128.93882387761047
0
LINE
5
577
100
AcDbEntity
8
0
100
AcDbLine
10
395.07320371078129
20
1686.8663880313884
30
12.000000000000002
11
395.44652172279723
21
1686.8663880313886
31
12.000000000000002
0
LINE
5
578
100
AcDbEntity
8
0
100
AcDbLine
10
395.44652172279723
20
1686.8663880313886
30
12.000000000000002
11
395.44652172279723
21
1686.4930700193727
31
12.000000000000002
0
ARC
5
579
100
AcDbEntity
8
0
100
AcDbCircle
10
393.50197807453412
20
1684.9218443831262
30
12.000000000000002
40
2.5000000000004832
210
0
220
0
230
1
100
AcDbArc
50
-38.938823877613835
51
38.938823877593549
0
LINE
5
580
100
AcDbEntity
8
0
100
AcDbLine
10
395.44652172279723
20
1683.3506187468786
30
12.000000000000002
11
395.44652172279723
21
1680.8663880313889
31
12.000000000000002
0
LINE
5
581
100
AcDbEntity
8
0
100
AcDbLine
10
395.44652172279723
20
1680.8663880313889
30
12.000000000000002
11
435.44652172279706
21
1680.8663880313889
31
12.000000000000002
0
LINE
5
582
100
AcDbEntity
8
0
100
AcDbLine
10
435.44652172279706
20
1680.8663880313889
30
12.000000000000002
11
435.44652172279706
21
1714.8663880313889
31
12.000000000000002
0
ARC
5
583
100
AcDbEntity
8
0
100
AcDbCircle
10
449.44652172279683
20
1752.3363760217787
30
12.000000000000002
40
39.999999999999787
210
0
220
0
230
1
100
AcDbArc
50
180
51
249.51268488527742
0
LINE
5
584
100
AcDbEntity
8
0
100
AcDbLine
10
409.446521722797
20
1752.3363760217787
30
12.000000000000002
11
409.44652172279717
21
2271.3964000409951
31
12.000000000000002
0
ARC
5
585
100
AcDbEntity
8
0
100
AcDbCircle
10
449.44652172279694
20
2271.3964000409951
30
12.000000000000002
40
39.999999999999893
210
0
220
0
230
1
100
AcDbArc
50
110.48731511472258
51
180
0
LINE
5
586
100
AcDbEntity
8
0
100
AcDbLine
10
435.44652172279712
20
2308.8663880313852
30
12.000000000000002
11
435.44652172279712
21
2342.8663880313852
31
12.000000000000002
0
LINE
5
587
100
AcDbEntity
8
0
100
AcDbLine
10
435.44652172279712
20
2342.8663880313852
30
12.000000000000002
11
395.44652172279734
21
2342.8663880313852
31
12.000000000000002
0
LINE
5
588
100
AcDbEntity
8
0
100
AcDbLine
10
395.44652172279734
20
2342.8663880313852
30
12.000000000000002
11
395.44652172279734
21
2340.3821573158953
31
12.000000000000002
0
ARC
5
589
100
AcDbEntity
8
0
100
AcDbCircle
10
161.65251703914981
20
2426.2890560557121
30
12.000000000000002
40
2.4999999999997109
210
0
220
0
230
1
100
AcDbArc
50
141.06117612238694
51
218.93882387761309
0
LINE
5
590
100
AcDbEntity
8
0
100
AcDbLine
10
159.70797339088722
20
2427.8602816919592
30
12.000000000000002
11
159.70797339088719
21
2430.3445124074487
31
12.000000000000002
0
LINE
5
591
100
AcDbEntity
8
0
100
AcDbLine
10
159.70797339088719
20
2430.3445124074487
30
12.000000000000002
11
79.707973390887886
21
2430.3445124074487
31
12.000000000000002
0
LINE
5
592
100
AcDbEntity
8
0
100
AcDbLine
10
79.707973390887886
20
2430.3445124074487
30
12.000000000000002
11
79.707973390887901
21
2427.8602816919592
31
12.000000000000002
0
ARC
5
593
100
AcDbEntity
8
0
100
AcDbCircle
10
77.76342974262522
20
2426.2890560557121
30
12.000000000000002
40
2.4999999999997522
210
0
220
0
230
1
100
AcDbArc
50
-38.938823877612052
51
38.938823877611853
0
LINE
5
594
100
AcDbEntity
8
0
100
AcDbLine
10
79.707973390887886
20
2424.7178304194649
30
12.000000000000002
11
79.707973390887901
21
2424.3445124074487
31
12.000000000000002
0
LINE
5
595
100
AcDbEntity
8
0
100
AcDbLine
10
79.707973390887901
20
2424.3445124074487
30
12.000000000000002
11
79.334655378871986
21
2424.3445124074487
31
12.000000000000002
0
ARC
5
596
100
AcDbEntity
8
0
100
AcDbCircle
10
77.76342974262522
20
2426.2890560557121
30
12.000000000000002
40
2.5000000000001883
210
0
220
0
230
1
100
AcDbArc
50
231.06117612239376
51
308.93882387759538
0
LINE
5
597
100
AcDbEntity
8
0
100
AcDbLine
10
76.192204106377844
20
2424.3445124074487
30
12.000000000000002
11
31.207973390888277
21
2424.3445124074487
31
12.000000000000002
0
LINE
5
598
100
AcDbEntity
8
0
100
AcDbLine
10
31.207973390888277
20
2424.3445124074487
30
12.000000000000002
11
31.207973390888327
21
2386.6102816919592
31
12.000000000000002
0
ARC
5
599
100
AcDbEntity
8
0
100
AcDbCircle
10
29.263429742624815
20
2385.0390560557121
30
12.000000000000002
40
2.5000000000003952
210
0
220
0
230
1
100
AcDbArc
50
-38.938823877600349
51
38.93882387759988
0
LINE
5
600
100
AcDbEntity
8
0
100
AcDbLine
10
31.207973390888295
20
2383.4678304194649
30
12.000000000000002
11
31.207973390888313
21
2383.0945124074492
31
12.000000000000002
0
LINE
5
601
100
AcDbEntity
8
0
100
AcDbLine
10
31.207973390888313
20
2383.0945124074492
30
12.000000000000002
11
30.83465537887243
21
2383.0945124074492
31
12.000000000000002
0
ARC
5
602
100
AcDbEntity
8
0
100
AcDbCircle
10
29.263429742624815
20
2385.0390560557121
30
12.000000000000002
40
2.4999999999994564
210
0
220
0
230
1
100
AcDbArc
50
231.06117612239501
51
308.93882387761704
0
LINE
5
603
100
AcDbEntity
8
0
100
AcDbLine
10
27.692204106378245
20
2383.0945124074497
30
12.000000000000002
11
25.20797339088832
21
2383.0945124074492
31
12.000000000000002
0
LINE
5
604
100
AcDbEntity
8
0
100
AcDbLine
10
25.20797339088832
20
2383.0945124074492
30
12.000000000000002
11
25.20797339088832
21
2303.0945124074497
31
12.000000000000002
0
LINE
5
605
100
AcDbEntity
8
0
100
AcDbLine
10
25.20797339088832
20
2303.0945124074497
30
12.000000000000002
11
27.692204106378334
21
2303.0945124074497
31
12.000000000000002
0
ARC
5
606
100
AcDbEntity
8
0
100
AcDbCircle
10
29.263429742625391
20
2301.1499687591868
30
12.000000000000002
40
2.4999999999999676
210
0
220
-0
230
1
100
AcDbArc
50
51.061176122393348
51
128.93882387760709
0
LINE
5
607
100
AcDbEntity
8
0
100
AcDbLine
10
30.834655378872423
20
2303.0945124074497
30
12.000000000000002
11
31.20797339088838
21
2303.0945124074497
31
12.000000000000002
0
LINE
5
608
100
AcDbEntity
8
0
100
AcDbLine
10
31.20797339088838
20
2303.0945124074497
30
12.000000000000002
11
31.207973390888384
21
2302.7211943954339
31
12.000000000000002
0
ARC
5
609
100
AcDbEntity
8
0
100
AcDbCircle
10
29.263429742625391
20
2301.1499687591868
30
12.000000000000002
40
2.5000000000000009
210
-0
220
0
230
1
100
AcDbArc
50
-38.938823877607632
51
38.938823877607348
0
LINE
5
610
100
AcDbEntity
8
0
100
AcDbLine
10
31.207973390888366
20
2299.5787431229396
30
12.000000000000002
11
31.207973390888405
21
2224.1102816919606
31
12.000000000000002
0
ARC
5
611
100
AcDbEntity
8
0
100
AcDbCircle
10
29.263429742625661
20
2222.5390560557134
30
12.000000000000002
40
2.4999999999997975
210
-0
220
0
230
1
100
AcDbArc
50
-38.938823877603248
51
38.938823877610929
0
LINE
5
612
100
AcDbEntity
8
0
100
AcDbLine
10
31.207973390888377
20
2220.9678304194667
30
12.000000000000002
11
31.207973390888384
21
2220.5945124074506
31
12.000000000000002
0
LINE
5
613
100
AcDbEntity
8
0
100
AcDbLine
10
31.207973390888384
20
2220.5945124074506
30
12.000000000000002
11
30.834655378872501
21
2220.5945124074506
31
12.000000000000002
0
ARC
5
614
100
AcDbEntity
8
0
100
AcDbCircle
10
29.263429742625661
20
2222.5390560557134
30
12.000000000000002
40
2.4999999999999503
210
0
220
0
230
1
100
AcDbArc
50
231.06117612238103
51
308.93882387760328
0
LINE
5
615
100
AcDbEntity
8
0
100
AcDbLine
10
27.692204106378306
20
2220.594512407451
30
12.000000000000002
11
25.207973390888391
21
2220.5945124074506
31
12.000000000000002
0
LINE
5
616
100
AcDbEntity
8
0
100
AcDbLine
10
25.207973390888391
20
2220.5945124074506
30
12.000000000000002
11
25.207973390888391
21
2140.594512407451
31
12.000000000000002
0
LINE
5
617
100
AcDbEntity
8
0
100
AcDbLine
10
25.207973390888391
20
2140.594512407451
30
12.000000000000002
11
27.692204106378263
21
2140.594512407451
31
12.000000000000002
0
ARC
5
618
100
AcDbEntity
8
0
100
AcDbCircle
10
29.263429742625192
20
2138.6499687591886
30
12.000000000000002
40
2.4999999999994635
210
0
220
-0
230
1
100
AcDbArc
50
51.061176122382307
51
128.93882387761136
0
LINE
5
619
100
AcDbEntity
8
0
100
AcDbLine
10
30.834655378872476
20
2140.594512407451
30
12.000000000000002
11
31.20797339088838
21
2140.594512407451
31
12.000000000000002
0
LINE
5
620
100
AcDbEntity
8
0
100
AcDbLine
10
31.20797339088838
20
2140.594512407451
30
12.000000000000002
11
31.207973390888384
21
2140.2211943954353
31
12.000000000000002
0
ARC
5
621
100
AcDbEntity
8
0
100
AcDbCircle
10
29.263429742625192
20
2138.6499687591886
30
12.000000000000002
40
2.5000000000005205
210
-0
220
0
230
1
100
AcDbArc
50
-38.938823877612712
51
38.938823877596377
0
LINE
5
622
100
AcDbEntity
8
0
100
AcDbLine
10
31.207973390888377
20
2137.078743122941
30
12.000000000000002
11
31.207973390888405
21
2061.610281691962
31
12.000000000000002
0
ARC
5
623
100
AcDbEntity
8
0
100
AcDbCircle
10
29.263429742625
20
2060.0390560557153
30
12.000000000000002
40
2.5000000000003504
210
0
220
0
230
1
100
AcDbArc
50
-38.938823877601166
51
38.938823877593308
0
LINE
5
624
100
AcDbEntity
8
0
100
AcDbLine
10
31.207973390888423
20
2058.4678304194681
30
12.000000000000002
11
31.207973390888455
21
2058.0945124074519
31
12.000000000000002
0
LINE
5
625
100
AcDbEntity
8
0
100
AcDbLine
10
31.207973390888455
20
2058.0945124074519
30
12.000000000000002
11
30.834655378872572
21
2058.0945124074519
31
12.000000000000002
0
ARC
5
626
100
AcDbEntity
8
0
100
AcDbCircle
10
29.263429742625
20
2060.0390560557153
30
12.000000000000002
40
2.4999999999994897
210
0
220
0
230
1
100
AcDbArc
50
231.06117612240064
51
308.93882387760971
0
LINE
5
627
100
AcDbEntity
8
0
100
AcDbLine
10
27.692204106378377
20
2058.0945124074524
30
12.000000000000002
11
25.207973390888462
21
2058.0945124074519
31
12.000000000000002
0
LINE
5
628
100
AcDbEntity
8
0
100
AcDbLine
10
25.207973390888462
20
2058.0945124074519
30
12.000000000000002
11
25.207973390888462
21
1978.0945124074526
31
12.000000000000002
0
LINE
5
629
100
AcDbEntity
8
0
100
AcDbLine
10
25.207973390888462
20
1978.0945124074526
30
12.000000000000002
11
27.692204106378334
21
1978.0945124074526
31
12.000000000000002
0
ARC
5
630
100
AcDbEntity
8
0
100
AcDbCircle
10
29.263429742625313
20
1976.14996875919
30
12.000000000000002
40
2.4999999999996541
210
0
220
-0
230
1
100
AcDbArc
50
51.061176122383188
51
128.93882387760897
0
LINE
5
631
100
AcDbEntity
8
0
100
AcDbLine
10
30.834655378872547
20
1978.0945124074524
30
12.000000000000002
11
31.207973390888451
21
1978.0945124074526
31
12.000000000000002
0
LINE
5
632
100
AcDbEntity
8
0
100
AcDbLine
10
31.207973390888451
20
1978.0945124074526
30
12.000000000000002
11
31.207973390888455
21
1977.7211943954367
31
12.000000000000002
0
ARC
5
633
100
AcDbEntity
8
0
100
AcDbCircle
10
29.263429742625313
20
1976.14996875919
30
12.000000000000002
40
2.5000000000002869
210
0
220
0
230
1
100
AcDbArc
50
-38.938823877609714
51
38.938823877597095
0
LINE
5
634
100
AcDbEntity
8
0
100
AcDbLine
10
31.207973390888423
20
1974.5787431229426
30
12.000000000000002
11
31.207973390888476
21
1899.1102816919633
31
12.000000000000002
0
ARC
5
635
100
AcDbEntity
8
0
100
AcDbCircle
10
29.263429742625803
20
1897.5390560557164
30
12.000000000000002
40
2.4999999999997251
210
0
220
0
230
1
100
AcDbArc
50
-38.938823877608698
51
38.938823877607902
0
LINE
5
636
100
AcDbEntity
8
0
100
AcDbLine
10
31.207973390888423
20
1895.9678304194695
30
12.000000000000002
11
31.207973390888455
21
1895.5945124074535
31
12.000000000000002
0
LINE
5
637
100
AcDbEntity
8
0
100
AcDbLine
10
31.207973390888455
20
1895.5945124074535
30
12.000000000000002
11
30.834655378872572
21
1895.5945124074535
31
12.000000000000002
0
ARC
5
638
100
AcDbEntity
8
0
100
AcDbCircle
10
29.263429742625803
20
1897.5390560557164
30
12.000000000000002
40
2.4999999999999951
210
0
220
0
230
1
100
AcDbArc
50
231.06117612238302
51
308.93882387760198
0
LINE
5
639
100
AcDbEntity
8
0
100
AcDbLine
10
27.692204106378377
20
1895.5945124074537
30
12.000000000000002
11
25.207973390888462
21
1895.5945124074535
31
12.000000000000002
0
LINE
5
640
100
AcDbEntity
8
0
100
AcDbLine
10
25.207973390888462
20
1895.5945124074535
30
12.000000000000002
11
25.207973390888462
21
1815.594512407454
31
12.000000000000002
0
LINE
5
641
100
AcDbEntity
8
0
100
AcDbLine
10
25.207973390888462
20
1815.594512407454
30
12.000000000000002
11
27.692204106378405
21
1815.594512407454
31
12.000000000000002
0
ARC
5
642
100
AcDbEntity
8
0
100
AcDbCircle
10
29.263429742625334
20
1813.6499687591916
30
12.000000000000002
40
2.4999999999994635
210
0
220
-0
230
1
100
AcDbArc
50
51.061176122379038
51
128.93882387761136
0
LINE
5
643
100
AcDbEntity
8
0
100
AcDbLine
10
30.834655378872618
20
1815.5945124074537
30
12.000000000000002
11
31.207973390888522
21
1815.594512407454
31
12.000000000000002
0
LINE
5
644
100
AcDbEntity
8
0
100
AcDbLine
10
31.207973390888522
20
1815.594512407454
30
12.000000000000002
11
31.207973390888526
21
1815.221194395438
31
12.000000000000002
0
ARC
5
645
100
AcDbEntity
8
0
100
AcDbCircle
10
29.263429742625334
20
1813.6499687591916
30
12.000000000000002
40
2.5000000000005036
210
0
220
0
230
1
100
AcDbArc
50
-38.938823877613018
51
38.938823877592327
0
LINE
5
646
100
AcDbEntity
8
0
100
AcDbLine
10
31.207973390888494
20
1812.0787431229439
30
12.000000000000002
11
31.20797339088854
21
1774.3445124074542
31
12.000000000000002
0
LINE
5
647
100
AcDbEntity
8
0
100
AcDbLine
10
31.20797339088854
20
1774.3445124074542
30
12.000000000000002
11
76.192204106378085
21
1774.3445124074542
31
12.000000000000002
0
ARC
5
648
100
AcDbEntity
8
0
100
AcDbCircle
10
77.763429742625121
20
1772.3999687591913
30
12.000000000000002
40
2.4999999999999871
210
0
220
-0
230
1
100
AcDbArc
50
51.061176122392787
51
128.93882387760672
0
LINE
5
649
100
AcDbEntity
8
0
100
AcDbLine
10
79.334655378872185
20
1774.3445124074542
30
12.000000000000002
11
79.707973390888114
21
1774.3445124074542
31
12.000000000000002
0
LINE
5
650
100
AcDbEntity
8
0
100
AcDbLine
10
79.707973390888114
20
1774.3445124074542
30
12.000000000000002
11
79.707973390888114
21
1773.9711943954385
31
12.000000000000002
0
ARC
5
651
100
AcDbEntity
8
0
100
AcDbCircle
10
77.763429742625121
20
1772.3999687591913
30
12.000000000000002
40
2.4999999999999947
210
0
220
0
230
1
100
AcDbArc
50
-38.938823877607781
51
38.938823877607348
0
LINE
5
652
100
AcDbEntity
8
0
100
AcDbLine
10
79.707973390888085
20
1770.8287431229442
30
12.000000000000002
11
79.707973390888114
21
1768.3445124074547
31
12.000000000000002
0
LINE
5
653
100
AcDbEntity
8
0
100
AcDbLine
10
79.707973390888114
20
1768.3445124074547
30
12.000000000000002
11
159.70797339088742
21
1768.3445124074547
31
12.000000000000002
0
LINE
5
654
100
AcDbEntity
8
0
100
AcDbLine
10
159.70797339088742
20
1768.3445124074547
30
12.000000000000002
11
159.70797339088739
21
1770.8287431229446
31
12.000000000000002
0
ARC
5
655
100
AcDbEntity
8
0
100
AcDbCircle
10
161.65251703915084
20
1772.3999687591913
30
12.000000000000002
40
2.5000000000003193
210
0
220
0
230
1
100
AcDbArc
50
141.06117612239839
51
218.93882387759268
0
LINE
5
656
100
AcDbEntity
8
0
100
AcDbLine
10
159.70797339088745
20
1773.9711943954385
30
12.000000000000002
11
159.70797339088739
21
1774.3445124074547
31
12.000000000000002
0
LINE
5
657
100
AcDbEntity
8
0
100
AcDbLine
10
159.70797339088739
20
1774.3445124074547
30
12.000000000000002
11
160.08129140290333
21
1774.3445124074542
31
12.000000000000002
0
ARC
5
658
100
AcDbEntity
8
0
100
AcDbCircle
10
161.65251703915084
20
1772.3999687591913
30
12.000000000000002
40
2.4999999999997251
210
0
220
-0
230
1
100
AcDbArc
50
51.061176122400632
51
128.93882387761508
0
LINE
5
659
100
AcDbEntity
8
0
100
AcDbLine
10
163.22374267539746
20
1774.3445124074542
30
12.000000000000002
11
241.19220410637652
21
1774.3445124074542
31
12.000000000000002
0
ARC
5
660
100
AcDbEntity
8
0
100
AcDbCircle
10
242.7634297426236
20
1772.3999687591913
30
12.000000000000002
40
2.4999999999999929
210
0
220
-0
230
1
100
AcDbArc
50
51.061176122393043
51
128.93882387760746
0
LINE
5
661
100
AcDbEntity
8
0
100
AcDbLine
10
244.33465537887065
20
1774.3445124074542
30
12.000000000000002
11
244.70797339088659
21
1774.3445124074542
31
12.000000000000002
0
LINE
5
662
100
AcDbEntity
8
0
100
AcDbLine
10
244.70797339088659
20
1774.3445124074542
30
12.000000000000002
11
244.70797339088659
21
1773.9711943954385
31
12.000000000000002
0
ARC
5
663
100
AcDbEntity
8
0
100
AcDbCircle
10
242.7634297426236
20
1772.3999687591913
30
12.000000000000002
40
2.4999999999999876
210
0
220
0
230
1
100
AcDbArc
50
-38.938823877608186
51
38.938823877607348
0
LINE
5
664
100
AcDbEntity
8
0
100
AcDbLine
10
244.70797339088654
20
1770.8287431229442
30
12.000000000000002
11
244.70797339088659
21
1768.3445124074547
31
12.000000000000002
0
LINE
5
665
100
AcDbEntity
8
0
100
AcDbLine
10
244.70797339088659
20
1768.3445124074547
30
12.000000000000002
11
324.70797339088591
21
1768.3445124074547
31
12.000000000000002
0
LINE
5
666
100
AcDbEntity
8
0
100
AcDbLine
10
324.70797339088591
20
1768.3445124074547
30
12.000000000000002
11
324.70797339088591
21
1770.8287431229446
31
12.000000000000002
0
ARC
5
667
100
AcDbEntity
8
0
100
AcDbCircle
10
326.65251703914942
20
1772.3999687591913
30
12.000000000000002
40
2.5000000000004019
210
0
220
0
230
1
100
AcDbArc
50
141.06117612240004
51
218.93882387759183
0
LINE
5
668
100
AcDbEntity
8
0
100
AcDbLine
10
324.70797339088591
20
1773.9711943954385
30
12.000000000000002
11
324.70797339088591
21
1774.3445124074547
31
12.000000000000002
0
LINE
5
669
100
AcDbEntity
8
0
100
AcDbLine
10
324.70797339088591
20
1774.3445124074547
30
12.000000000000002
11
325.0812914029018
21
1774.3445124074542
31
12.000000000000002
0
ARC
5
670
100
AcDbEntity
8
0
100
AcDbCircle
10
326.65251703914942
20
1772.3999687591913
30
12.000000000000002
40
2.4999999999996576
210
0
220
-0
230
1
100
AcDbArc
50
51.061176122402152
51
128.9388238776171
0
LINE
5
671
100
AcDbEntity
8
0
100
AcDbLine
10
328.22374267539595
20
1774.3445124074542
30
12.000000000000002
11
347.20797339088568
21
1774.3445124074542
31
12.000000000000002
0
LINE
5
672
100
AcDbEntity
8
0
100
AcDbLine
10
347.20797339088568
20
1774.3445124074542
30
12.000000000000002
11
347.20797339088551
21
2424.3445124074487
31
12.000000000000002
0
LINE
5
673
100
AcDbEntity
8
0
100
AcDbLine
10
347.20797339088551
20
2424.3445124074487
30
12.000000000000002
11
328.22374267539573
21
2424.3445124074487
31
12.000000000000002
0
ARC
5
674
100
AcDbEntity
8
0
100
AcDbCircle
10
326.65251703914873
20
2426.2890560557121
30
12.000000000000002
40
2.5000000000000151
210
0
220
0
230
1
100
AcDbArc
50
231.06117612239962
51
308.93882387759936
0
LINE
5
675
100
AcDbEntity
8
0
100
AcDbLine
10
325.08129140290168
20
2424.3445124074487
30
12.000000000000002
11
324.70797339088568
21
2424.3445124074487
31
12.000000000000002
0
LINE
5
676
100
AcDbEntity
8
0
100
AcDbLine
10
324.70797339088568
20
2424.3445124074487
30
12.000000000000002
11
324.70797339088568
21
2424.7178304194649
31
12.000000000000002
0
ARC
5
677
100
AcDbEntity
8
0
100
AcDbCircle
10
326.65251703914873
20
2426.2890560557121
30
12.000000000000002
40
2.5000000000000151
210
0
220
0
230
1
100
AcDbArc
50
141.06117612239265
51
218.9388238776065
0
LINE
5
678
100
AcDbEntity
8
0
100
AcDbLine
10
324.70797339088574
20
2427.8602816919592
30
12.000000000000002
11
324.70797339088568
21
2430.3445124074487
31
12.000000000000002
0
LINE
5
679
100
AcDbEntity
8
0
100
AcDbLine
10
324.70797339088568
20
2430.3445124074487
30
12.000000000000002
11
244.70797339088642
21
2430.3445124074487
31
12.000000000000002
0
LINE
5
680
100
AcDbEntity
8
0
100
AcDbLine
10
244.70797339088642
20
2430.3445124074487
30
12.000000000000002
11
244.70797339088642
21
2427.8602816919592
31
12.000000000000002
0
ARC
5
681
100
AcDbEntity
8
0
100
AcDbCircle
10
242.7634297426236
20
2426.2890560557121
30
12.000000000000002
40
2.4999999999998765
210
0
220
0
230
1
100
AcDbArc
50
-38.938823877609813
51
38.938823877609806
0
LINE
5
682
100
AcDbEntity
8
0
100
AcDbLine
10
244.70797339088642
20
2424.7178304194649
30
12.000000000000002
11
244.70797339088642
21
2424.3445124074487
31
12.000000000000002
0
LINE
5
683
100
AcDbEntity
8
0
100
AcDbLine
10
244.70797339088642
20
2424.3445124074487
30
12.000000000000002
11
244.33465537887048
21
2424.3445124074487
31
12.000000000000002
0
ARC
5
684
100
AcDbEntity
8
0
100
AcDbCircle
10
242.7634297426236
20
2426.2890560557121
30
12.000000000000002
40
2.5000000000001044
210
0
220
0
230
1
100
AcDbArc
50
231.06117612239603
51
308.93882387759737
0
LINE
5
685
100
AcDbEntity
8
0
100
AcDbLine
10
241.19220410637635
20
2424.3445124074487
30
12.000000000000002
11
163.2237426753972
21
2424.3445124074487
31
12.000000000000002
0
ARC
5
686
100
AcDbEntity
8
0
100
AcDbCircle
10
161.65251703914981
20
2426.2890560557121
30
12.000000000000002
40
2.4999999999997695
210
0
220
0
230
1
100
AcDbArc
50
231.06117612240567
51
308.93882387760652
0
LINE
5
687
100
AcDbEntity
8
0
100
AcDbLine
10
160.0812914029031
20
2424.3445124074487
30
12.000000000000002
11
159.70797339088719
21
2424.3445124074487
31
12.000000000000002
0
LINE
5
688
100
AcDbEntity
8
0
100
AcDbLine
10
159.70797339088719
20
2424.3445124074487
30
12.000000000000002
11
159.70797339088722
21
2424.7178304194649
31
12.000000000000002
0
LINE
5
689
100
AcDbEntity
8
0
100
AcDbLine
10
373.20797339088529
20
2424.3445124074487
30
12.000000000000002
11
373.20797339088551
21
1774.3445124074547
31
12.000000000000002
0
LINE
5
690
100
AcDbEntity
8
0
100
AcDbLine
10
359.20797339088546
20
2424.3445124074487
30
12.000000000000002
11
359.20797339088563
21
1774.3445124074547
31
12.000000000000002
0
ARC
5
691
100
AcDbEntity
8
0
100
AcDbCircle
10
541.11589182772173
20
2419.7044469096504
30
12.000000000000028
40
2.4999999999997389
210
0
220
0
230
1
100
AcDbArc
50
-38.938823877612258
51
38.938823877612265
0
LINE
5
692
100
AcDbEntity
8
0
100
AcDbLine
10
543.06043547598438
20
2418.1332212734033
30
12.000000000000028
11
543.06043547598438
21
2417.7599032613871
31
12.000000000000028
0
LINE
5
693
100
AcDbEntity
8
0
100
AcDbLine
10
543.06043547598438
20
2417.7599032613871
30
12.000000000000028
11
542.68711746396843
21
2417.7599032613871
31
12.000000000000028
0
ARC
5
694
100
AcDbEntity
8
0
100
AcDbCircle
10
541.11589182772173
20
2419.7044469096504
30
12.000000000000028
40
2.4999999999999729
210
0
220
0
230
1
100
AcDbArc
50
231.061176122387
51
308.93882387759436
0
LINE
5
695
100
AcDbEntity
8
0
100
AcDbLine
10
539.54466619147433
20
2417.7599032613875
30
12.000000000000028
11
443.06043547598478
21
2417.7599032613871
31
12.000000000000028
0
LINE
5
696
100
AcDbEntity
8
0
100
AcDbLine
10
443.06043547598478
20
2417.7599032613871
30
12.000000000000028
11
443.06043547598472
21
1767.7599032613898
31
12.000000000000028
0
LINE
5
697
100
AcDbEntity
8
0
100
AcDbLine
10
443.06043547598472
20
1767.7599032613898
30
12.000000000000028
11
539.54466619147422
21
1767.7599032613898
31
12.000000000000028
0
ARC
5
698
100
AcDbEntity
8
0
100
AcDbCircle
10
541.11589182772127
20
1765.8153596131274
30
12.000000000000028
40
2.4999999999993965
210
0
220
-0
230
1
100
AcDbArc
50
51.061176122381191
51
128.93882387761354
0
LINE
5
699
100
AcDbEntity
8
0
100
AcDbLine
10
542.68711746396843
20
1767.7599032613896
30
12.000000000000028
11
543.06043547598438
21
1767.7599032613898
31
12.000000000000028
0
LINE
5
700
100
AcDbEntity
8
0
100
AcDbLine
10
543.06043547598438
20
1767.7599032613898
30
12.000000000000028
11
543.06043547598438
21
1767.3865852493739
31
12.000000000000028
0
ARC
5
701
100
AcDbEntity
8
0
100
AcDbCircle
10
541.11589182772127
20
1765.8153596131274
30
12.000000000000028
40
2.5000000000004832
210
0
220
0
230
1
100
AcDbArc
50
-38.938823877613835
51
38.938823877593549
0
LINE
5
702
100
AcDbEntity
8
0
100
AcDbLine
10
543.06043547598438
20
1764.2441339768798
30
12.000000000000028
11
543.06043547598438
21
1755.7599032613898
31
12.000000000000028
0
LINE
5
703
100
AcDbEntity
8
0
100
AcDbLine
10
543.06043547598438
20
1755.7599032613898
30
12.000000000000028
11
669.72710214265044
21
1755.7599032613898
31
12.000000000000028
0
LINE
5
704
100
AcDbEntity
8
0
100
AcDbLine
10
669.72710214265044
20
1755.7599032613898
30
12.000000000000028
11
669.72710214265044
21
1764.2441339768798
31
12.000000000000028
0
ARC
5
705
100
AcDbEntity
8
0
100
AcDbCircle
10
671.67164579091389
20
1765.8153596131269
30
12.000000000000028
40
2.5000000000003464
210
0
220
0
230
1
100
AcDbArc
50
141.06117612240328
51
218.93882387760078
0
LINE
5
706
100
AcDbEntity
8
0
100
AcDbLine
10
669.72710214265044
20
1767.3865852493739
30
12.000000000000028
11
669.72710214265044
21
1767.7599032613898
31
12.000000000000028
0
LINE
5
707
100
AcDbEntity
8
0
100
AcDbLine
10
669.72710214265044
20
1767.7599032613898
30
12.000000000000028
11
670.10042015466638
21
1767.7599032613898
31
12.000000000000028
0
ARC
5
708
100
AcDbEntity
8
0
100
AcDbCircle
10
671.67164579091389
20
1765.8153596131269
30
12.000000000000028
40
2.4999999999996576
210
0
220
-0
230
1
100
AcDbArc
50
51.06117612240115
51
128.93882387761508
0
LINE
5
709
100
AcDbEntity
8
0
100
AcDbLine
10
673.24287142716048
20
1767.7599032613898
30
12.000000000000028
11
806.21133285813994
21
1767.7599032613898
31
12.000000000000028
0
ARC
5
710
100
AcDbEntity
8
0
100
AcDbCircle
10
807.78255849438676
20
1765.8153596131272
30
12.000000000000028
40
2.4999999999997939
210
0
220
-0
230
1
100
AcDbArc
50
51.061176122387735
51
128.93882387760618
0
LINE
5
711
100
AcDbEntity
8
0
100
AcDbLine
10
809.35378413063393
20
1767.7599032613898
30
12.000000000000028
11
809.72710214264998
21
1767.7599032613898
31
12.000000000000028
0
LINE
5
712
100
AcDbEntity
8
0
100
AcDbLine
10
809.72710214264998
20
1767.7599032613898
30
12.000000000000028
11
809.72710214264998
21
1767.3865852493739
31
12.000000000000028
0
ARC
5
713
100
AcDbEntity
8
0
100
AcDbCircle
10
807.78255849438676
20
1765.8153596131272
30
12.000000000000028
40
2.5000000000003042
210
0
220
0
230
1
100
AcDbArc
50
-38.938823877608137
51
38.938823877595972
0
LINE
5
714
100
AcDbEntity
8
0
100
AcDbLine
10
809.72710214264998
20
1764.2441339768798
30
12.000000000000028
11
809.72710214264998
21
1755.7599032613898
31
12.000000000000028
0
LINE
5
715
100
AcDbEntity
8
0
100
AcDbLine
10
809.72710214264998
20
1755.7599032613898
30
12.000000000000028
11
936.39376880931604
21
1755.7599032613898
31
12.000000000000028
0
LINE
5
716
100
AcDbEntity
8
0
100
AcDbLine
10
936.39376880931604
20
1755.7599032613898
30
12.000000000000028
11
936.39376880931604
21
1764.2441339768798
31
12.000000000000028
0
ARC
5
717
100
AcDbEntity
8
0
100
AcDbCircle
10
938.33831245757949
20
1765.8153596131269
30
12.000000000000028
40
2.5000000000003464
210
0
220
0
230
1
100
AcDbArc
50
141.06117612240328
51
218.93882387760078
0
LINE
5
718
100
AcDbEntity
8
0
100
AcDbLine
10
936.39376880931604
20
1767.3865852493739
30
12.000000000000028
11
936.39376880931604
21
1767.7599032613898
31
12.000000000000028
0
LINE
5
719
100
AcDbEntity
8
0
100
AcDbLine
10
936.39376880931604
20
1767.7599032613898
30
12.000000000000028
11
936.76708682133199
21
1767.7599032613898
31
12.000000000000028
0
ARC
5
720
100
AcDbEntity
8
0
100
AcDbCircle
10
938.33831245757949
20
1765.8153596131269
30
12.000000000000028
40
2.4999999999996576
210
0
220
-0
230
1
100
AcDbArc
50
51.06117612240115
51
128.93882387761508
0
LINE
5
721
100
AcDbEntity
8
0
100
AcDbLine
10
939.90953809382609
20
1767.7599032613898
30
12.000000000000028
11
1072.8779995248053
21
1767.7599032613898
31
12.000000000000028
0
ARC
5
722
100
AcDbEntity
8
0
100
AcDbCircle
10
1074.4492251610525
20
1765.8153596131269
30
12.000000000000028
40
2.4999999999999258
210
0
220
-0
230
1
100
AcDbArc
50
51.061176122395061
51
128.938823877609
0
LINE
5
723
100
AcDbEntity
8
0
100
AcDbLine
10
1076.0204507972994
20
1767.7599032613898
30
12.000000000000028
11
1076.3937688093156
21
1767.7599032613898
31
12.000000000000028
0
LINE
5
724
100
AcDbEntity
8
0
100
AcDbLine
10
1076.3937688093156
20
1767.7599032613898
30
12.000000000000028
11
1076.3937688093156
21
1767.3865852493739
31
12.000000000000028
0
ARC
5
725
100
AcDbEntity
8
0
100
AcDbCircle
10
1074.4492251610525
20
1765.8153596131269
30
12.000000000000028
40
2.5000000000000151
210
0
220
0
230
1
100
AcDbArc
50
-38.938823877605692
51
38.938823877601656
0
LINE
5
726
100
AcDbEntity
8
0
100
AcDbLine
10
1076.3937688093156
20
1764.2441339768798
30
12.000000000000028
11
1076.3937688093156
21
1755.7599032613898
31
12.000000000000028
0
LINE
5
727
100
AcDbEntity
8
0
100
AcDbLine
10
1076.3937688093156
20
1755.7599032613898
30
12.000000000000028
11
1203.0604354759816
21
1755.7599032613898
31
12.000000000000028
0
LINE
5
728
100
AcDbEntity
8
0
100
AcDbLine
10
1203.0604354759816
20
1755.7599032613898
30
12.000000000000028
11
1203.0604354759816
21
1795.7599032613896
31
12.000000000000028
0
ARC
5
729
100
AcDbEntity
8
0
100
AcDbCircle
10
1209.0604354759816
20
1835.3073431279604
30
12.000000000000028
40
40
210
0
220
0
230
1
100
AcDbArc
50
180
51
261.37307344132142
0
LINE
5
730
100
AcDbEntity
8
0
100
AcDbLine
10
1169.0604354759816
20
1835.3073431279599
30
12.000000000000028
11
1169.0604354759816
21
2350.212463394817
31
12.000000000000028
0
ARC
5
731
100
AcDbEntity
8
0
100
AcDbCircle
10
1209.0604354759814
20
2350.212463394817
30
12.000000000000028
40
39.999999999999666
210
0
220
0
230
1
100
AcDbArc
50
98.626926558678377
51
180
0
LINE
5
732
100
AcDbEntity
8
0
100
AcDbLine
10
1203.0604354759816
20
2389.7599032613871
30
12.000000000000028
11
1203.0604354759816
21
2429.7599032613871
31
12.000000000000028
0
LINE
5
733
100
AcDbEntity
8
0
100
AcDbLine
10
1203.0604354759816
20
2429.7599032613871
30
12.000000000000028
11
1076.3937688093156
21
2429.7599032613875
31
12.000000000000028
0
LINE
5
734
100
AcDbEntity
8
0
100
AcDbLine
10
1076.3937688093156
20
2429.7599032613875
30
12.000000000000028
11
1076.3937688093156
21
2421.2756725458976
31
12.000000000000028
0
ARC
5
735
100
AcDbEntity
8
0
100
AcDbCircle
10
1074.4492251610527
20
2419.7044469096504
30
12.000000000000028
40
2.4999999999997939
210
0
220
0
230
1
100
AcDbArc
50
-38.938823877608996
51
38.938823877608989
0
LINE
5
736
100
AcDbEntity
8
0
100
AcDbLine
10
1076.3937688093156
20
2418.1332212734033
30
12.000000000000028
11
1076.3937688093156
21
2417.7599032613871
31
12.000000000000028
0
LINE
5
737
100
AcDbEntity
8
0
100
AcDbLine
10
1076.3937688093156
20
2417.7599032613871
30
12.000000000000028
11
1076.0204507972996
21
2417.7599032613871
31
12.000000000000028
0
ARC
5
738
100
AcDbEntity
8
0
100
AcDbCircle
10
1074.4492251610527
20
2419.7044469096504
30
12.000000000000028
40
2.5000000000001936
210
0
220
0
230
1
100
AcDbArc
50
231.0611761223935
51
308.9388238775984
0
LINE
5
739
100
AcDbEntity
8
0
100
AcDbLine
10
1072.8779995248053
20
2417.7599032613871
30
12.000000000000028
11
939.90953809382609
21
2417.7599032613871
31
12.000000000000028
0
ARC
5
740
100
AcDbEntity
8
0
100
AcDbCircle
10
938.33831245757904
20
2419.7044469096504
30
12.000000000000028
40
2.4999999999999258
210
0
220
0
230
1
100
AcDbArc
50
231.06117612240163
51
308.93882387760038
0
LINE
5
741
100
AcDbEntity
8
0
100
AcDbLine
10
936.7670868213321
20
2417.7599032613871
30
12.000000000000028
11
936.39376880931604
21
2417.7599032613871
31
12.000000000000028
0
LINE
5
742
100
AcDbEntity
8
0
100
AcDbLine
10
936.39376880931604
20
2417.7599032613871
30
12.000000000000028
11
936.39376880931604
21
2418.1332212734033
31
12.000000000000028
0
ARC
5
743
100
AcDbEntity
8
0
100
AcDbCircle
10
938.33831245757904
20
2419.7044469096504
30
12.000000000000028
40
2.5000000000000151
210
0
220
0
230
1
100
AcDbArc
50
141.06117612239265
51
218.93882387760735
0
LINE
5
744
100
AcDbEntity
8
0
100
AcDbLine
10
936.39376880931604
20
2421.2756725458976
30
12.000000000000028
11
936.39376880931604
21
2429.7599032613871
31
12.000000000000028
0
LINE
5
745
100
AcDbEntity
8
0
100
AcDbLine
10
936.39376880931604
20
2429.7599032613871
30
12.000000000000028
11
809.72710214264998
21
2429.7599032613875
31
12.000000000000028
0
LINE
5
746
100
AcDbEntity
8
0
100
AcDbLine
10
809.72710214264998
20
2429.7599032613875
30
12.000000000000028
11
809.72710214264998
21
2421.2756725458976
31
12.000000000000028
0
ARC
5
747
100
AcDbEntity
8
0
100
AcDbCircle
10
807.78255849438722
20
2419.7044469096504
30
12.000000000000028
40
2.4999999999997939
210
0
220
0
230
1
100
AcDbArc
50
-38.938823877610631
51
38.938823877610631
0
LINE
5
748
100
AcDbEntity
8
0
100
AcDbLine
10
809.72710214264998
20
2418.1332212734033
30
12.000000000000028
11
809.72710214264998
21
2417.7599032613871
31
12.000000000000028
0
LINE
5
749
100
AcDbEntity
8
0
100
AcDbLine
10
809.72710214264998
20
2417.7599032613871
30
12.000000000000028
11
809.35378413063404
21
2417.7599032613871
31
12.000000000000028
0
ARC
5
750
100
AcDbEntity
8
0
100
AcDbCircle
10
807.78255849438722
20
2419.7044469096504
30
12.000000000000028
40
2.4999999999999729
210
0
220
0
230
1
100
AcDbArc
50
231.061176122387
51
308.93882387759641
0
LINE
5
751
100
AcDbEntity
8
0
100
AcDbLine
10
806.21133285813983
20
2417.7599032613875
30
12.000000000000028
11
673.24287142716059
21
2417.7599032613871
31
12.000000000000028
0
ARC
5
752
100
AcDbEntity
8
0
100
AcDbCircle
10
671.67164579091366
20
2419.7044469096495
30
12.000000000000028
40
2.4999999999994413
210
0
220
0
230
1
100
AcDbArc
50
231.06117612237588
51
308.93882387761153
0
LINE
5
753
100
AcDbEntity
8
0
100
AcDbLine
10
670.10042015466638
20
2417.7599032613875
30
12.000000000000028
11
669.72710214265044
21
2417.7599032613871
31
12.000000000000028
0
LINE
5
754
100
AcDbEntity
8
0
100
AcDbLine
10
669.72710214265044
20
2417.7599032613871
30
12.000000000000028
11
669.72710214265044
21
2418.1332212734033
31
12.000000000000028
0
ARC
5
755
100
AcDbEntity
8
0
100
AcDbCircle
10
671.67164579091366
20
2419.7044469096495
30
12.000000000000028
40
2.5000000000004832
210
0
220
0
230
1
100
AcDbArc
50
141.06117612237972
51
218.93882387758785
0
LINE
5
756
100
AcDbEntity
8
0
100
AcDbLine
10
669.72710214265044
20
2421.2756725458976
30
12.000000000000028
11
669.72710214265044
21
2429.7599032613871
31
12.000000000000028
0
LINE
5
757
100
AcDbEntity
8
0
100
AcDbLine
10
669.72710214265044
20
2429.7599032613871
30
12.000000000000028
11
543.06043547598438
21
2429.7599032613875
31
12.000000000000028
0
LINE
5
758
100
AcDbEntity
8
0
100
AcDbLine
10
543.06043547598438
20
2429.7599032613875
30
12.000000000000028
11
543.06043547598438
21
2421.2756725458976
31
12.000000000000028
0
ARC
5
759
100
AcDbEntity
8
0
100
AcDbCircle
10
795.00497912424623
20
2049.565359613126
30
12.000000000000028
40
2.499999999999662
210
0
220
-0
230
1
100
AcDbArc
50
51.061176122382427
51
128.93882387760695
0
LINE
5
760
100
AcDbEntity
8
0
100
AcDbLine
10
796.57620476049351
20
2051.5099032613884
30
12.000000000000028
11
801.54466619147331
21
2051.5099032613889
31
12.000000000000028
0
ARC
5
761
100
AcDbEntity
8
0
100
AcDbCircle
10
803.11589182772013
20
2049.565359613126
30
12.000000000000028
40
2.499999999999662
210
0
220
-0
230
1
100
AcDbArc
50
51.06117612238446
51
128.93882387760291
0
LINE
5
762
100
AcDbEntity
8
0
100
AcDbLine
10
804.6871174639673
20
2051.5099032613884
30
12.000000000000028
11
805.06043547598324
21
2051.5099032613889
31
12.000000000000028
0
LINE
5
763
100
AcDbEntity
8
0
100
AcDbLine
10
805.06043547598324
20
2051.5099032613889
30
12.000000000000028
11
805.06043547598324
21
2051.1365852493727
31
12.000000000000028
0
ARC
5
764
100
AcDbEntity
8
0
100
AcDbCircle
10
803.11589182772013
20
2049.565359613126
30
12.000000000000028
40
2.5000000000003042
210
0
220
0
230
1
100
AcDbArc
50
-38.938823877609764
51
38.938823877597599
0
LINE
5
765
100
AcDbEntity
8
0
100
AcDbLine
10
805.06043547598324
20
2047.9941339768786
30
12.000000000000028
11
805.06043547598324
21
1975.0256725458994
31
12.000000000000028
0
ARC
5
766
100
AcDbEntity
8
0
100
AcDbCircle
10
803.11589182771979
20
1973.4544469096522
30
12.000000000000028
40
2.5000000000003464
210
0
220
0
230
1
100
AcDbArc
50
-38.938823877600811
51
38.938823877600804
0
LINE
5
767
100
AcDbEntity
8
0
100
AcDbLine
10
805.06043547598324
20
1971.8832212734051
30
12.000000000000028
11
805.06043547598324
21
1971.5099032613894
31
12.000000000000028
0
LINE
5
768
100
AcDbEntity
8
0
100
AcDbLine
10
805.06043547598324
20
1971.5099032613894
30
12.000000000000028
11
804.6871174639673
21
1971.5099032613894
31
12.000000000000028
0
ARC
5
769
100
AcDbEntity
8
0
100
AcDbCircle
10
803.11589182771979
20
1973.4544469096522
30
12.000000000000028
40
2.4999999999995262
210
0
220
0
230
1
100
AcDbArc
50
231.06117612239788
51
308.93882387761505
0
LINE
5
770
100
AcDbEntity
8
0
100
AcDbLine
10
801.5446661914732
20
1971.5099032613896
30
12.000000000000028
11
796.57620476049328
21
1971.5099032613894
31
12.000000000000028
0
ARC
5
771
100
AcDbEntity
8
0
100
AcDbCircle
10
795.00497912424646
20
1973.454446909652
30
12.000000000000028
40
2.499999999999662
210
0
220
0
230
1
100
AcDbArc
50
231.06117612238239
51
308.93882387760618
0
LINE
5
772
100
AcDbEntity
8
0
100
AcDbLine
10
793.43375348799918
20
1971.5099032613896
30
12.000000000000028
11
793.06043547598335
21
1971.5099032613894
31
12.000000000000028
0
LINE
5
773
100
AcDbEntity
8
0
100
AcDbLine
10
793.06043547598335
20
1971.5099032613894
30
12.000000000000028
11
793.06043547598335
21
1971.8832212734051
31
12.000000000000028
0
ARC
5
774
100
AcDbEntity
8
0
100
AcDbCircle
10
795.00497912424646
20
1973.454446909652
30
12.000000000000028
40
2.5000000000003042
210
0
220
0
230
1
100
AcDbArc
50
141.06117612239024
51
218.93882387760164
0
LINE
5
775
100
AcDbEntity
8
0
100
AcDbLine
10
793.06043547598335
20
1975.0256725458994
30
12.000000000000028
11
793.06043547598335
21
2047.9941339768786
31
12.000000000000028
0
ARC
5
776
100
AcDbEntity
8
0
100
AcDbCircle
10
795.00497912424623
20
2049.565359613126
30
12.000000000000028
40
2.4999999999997256
210
0
220
0
230
1
100
AcDbArc
50
141.06117612239913
51
218.938823877613
0
LINE
5
777
100
AcDbEntity
8
0
100
AcDbLine
10
793.06043547598335
20
2051.1365852493727
30
12.000000000000028
11
793.06043547598335
21
2051.5099032613889
31
12.000000000000028
0
LINE
5
778
100
AcDbEntity
8
0
100
AcDbLine
10
793.06043547598335
20
2051.5099032613889
30
12.000000000000028
11
793.43375348799918
21
2051.5099032613889
31
12.000000000000028
0
ARC
5
779
100
AcDbEntity
8
0
100
AcDbCircle
10
1145.0604354759819
20
2135.9544469096518
30
12.000000000000028
40
2.5000000000005262
210
0
220
0
230
1
100
AcDbArc
50
269.36450398980764
51
308.93882387760243
0
ARC
5
780
100
AcDbEntity
8
0
100
AcDbCircle
10
1145.0049791242445
20
2135.9544469096504
30
12.000000000000028
40
2.4999999999990843
210
0
220
0
230
1
100
AcDbArc
50
231.06117612239004
51
270.63549601019787
0
LINE
5
781
100
AcDbEntity
8
0
100
AcDbLine
10
1143.433753487998
20
2134.0099032613884
30
12.000000000000028
11
1143.0604354759819
21
2134.0099032613884
31
12.000000000000028
0
LINE
5
782
100
AcDbEntity
8
0
100
AcDbLine
10
1143.0604354759819
20
2134.0099032613884
30
12.000000000000028
11
1143.0604354759819
21
2134.3832212734042
31
12.000000000000028
0
ARC
5
783
100
AcDbEntity
8
0
100
AcDbCircle
10
1145.0049791242445
20
2135.9544469096504
30
12.000000000000028
40
2.5000000000003295
210
0
220
0
230
1
100
AcDbArc
50
141.06117612237153
51
218.93882387759604
0
LINE
5
784
100
AcDbEntity
8
0
100
AcDbLine
10
1143.0604354759819
20
2137.5256725458985
30
12.000000000000028
11
1143.0604354759819
21
2202.509903261388
31
12.000000000000028
0
ARC
5
785
100
AcDbEntity
8
0
100
AcDbCircle
10
1145.0604354759819
20
2204.009903261388
30
12.000000000000028
40
2.4999999999999432
210
0
220
0
230
1
100
AcDbArc
50
143.13010235415598
51
216.86989764584402
0
LINE
5
786
100
AcDbEntity
8
0
100
AcDbLine
10
1143.0604354759819
20
2205.509903261388
30
12.000000000000028
11
1143.0604354759819
21
2210.4941339768779
31
12.000000000000028
0
ARC
5
787
100
AcDbEntity
8
0
100
AcDbCircle
10
1145.0049791242454
20
2212.0653596131251
30
12.000000000000028
40
2.5000000000003464
210
0
220
0
230
1
100
AcDbArc
50
141.06117612240084
51
218.93882387759913
0
LINE
5
788
100
AcDbEntity
8
0
100
AcDbLine
10
1143.0604354759819
20
2213.6365852493723
30
12.000000000000028
11
1143.0604354759819
21
2214.009903261388
31
12.000000000000028
0
LINE
5
789
100
AcDbEntity
8
0
100
AcDbLine
10
1143.0604354759819
20
2214.009903261388
30
12.000000000000028
11
1143.4337534879978
21
2214.009903261388
31
12.000000000000028
0
ARC
5
790
100
AcDbEntity
8
0
100
AcDbCircle
10
1145.0049791242454
20
2212.0653596131251
30
12.000000000000028
40
2.4999999999997473
210
0
220
-0
230
1
100
AcDbArc
50
51.061176122399111
51
128.9388238776171
0
LINE
5
791
100
AcDbEntity
8
0
100
AcDbLine
10
1146.5762047604921
20
2214.009903261388
30
12.000000000000028
11
1155.0604354759819
21
2214.009903261388
31
12.000000000000028
0
LINE
5
792
100
AcDbEntity
8
0
100
AcDbLine
10
1155.0604354759819
20
2214.009903261388
30
12.000000000000028
11
1155.0604354759819
21
2134.0099032613884
31
12.000000000000028
0
LINE
5
793
100
AcDbEntity
8
0
100
AcDbLine
10
1155.0604354759819
20
2134.0099032613884
30
12.000000000000028
11
1146.631661112229
21
2134.0099032613884
31
12.000000000000028
0
ARC
5
794
100
AcDbEntity
8
0
100
AcDbCircle
10
1153.1158918277192
20
1973.454446909652
30
12.000000000000028
40
2.4999999999997939
210
0
220
0
230
1
100
AcDbArc
50
-38.938823877612258
51
38.938823877608201
0
LINE
5
795
100
AcDbEntity
8
0
100
AcDbLine
10
1155.0604354759819
20
1971.8832212734048
30
12.000000000000028
11
1155.0604354759819
21
1971.5099032613889
31
12.000000000000028
0
LINE
5
796
100
AcDbEntity
8
0
100
AcDbLine
10
1155.0604354759819
20
1971.5099032613889
30
12.000000000000028
11
1154.6871174639659
21
1971.5099032613889
31
12.000000000000028
0
ARC
5
797
100
AcDbEntity
8
0
100
AcDbCircle
10
1153.1158918277192
20
1973.454446909652
30
12.000000000000028
40
2.5000000000001936
210
0
220
0
230
1
100
AcDbArc
50
231.06117612238614
51
308.9388238775976
0
LINE
5
798
100
AcDbEntity
8
0
100
AcDbLine
10
1151.5446661914716
20
1971.5099032613889
30
12.000000000000028
11
1146.5762047604921
21
1971.5099032613889
31
12.000000000000028
0
ARC
5
799
100
AcDbEntity
8
0
100
AcDbCircle
10
1145.004979124245
20
1973.454446909652
30
12.000000000000028
40
2.5000000000000151
210
0
220
0
230
1
100
AcDbArc
50
231.0611761223943
51
308.93882387760567
0
LINE
5
800
100
AcDbEntity
8
0
100
AcDbLine
10
1143.4337534879978
20
1971.5099032613889
30
12.000000000000028
11
1143.0604354759819
21
1971.5099032613889
31
12.000000000000028
0
LINE
5
801
100
AcDbEntity
8
0
100
AcDbLine
10
1143.0604354759819
20
1971.5099032613889
30
12.000000000000028
11
1143.0604354759819
21
1971.8832212734048
31
12.000000000000028
0
ARC
5
802
100
AcDbEntity
8
0
100
AcDbCircle
10
1145.004979124245
20
1973.454446909652
30
12.000000000000028
40
2.5000000000000151
210
0
220
0
230
1
100
AcDbArc
50
141.06117612239834
51
218.9388238776057
0
LINE
5
803
100
AcDbEntity
8
0
100
AcDbLine
10
1143.0604354759819
20
1975.0256725458989
30
12.000000000000028
11
1143.0604354759819
21
2047.9941339768786
31
12.000000000000028
0
ARC
5
804
100
AcDbEntity
8
0
100
AcDbCircle
10
1145.0049791242454
20
2049.5653596131256
30
12.000000000000028
40
2.5000000000003464
210
0
220
0
230
1
100
AcDbArc
50
141.06117612240084
51
218.9388238775951
0
LINE
5
805
100
AcDbEntity
8
0
100
AcDbLine
10
1143.0604354759819
20
2051.1365852493727
30
12.000000000000028
11
1143.0604354759819
21
2051.5099032613889
31
12.000000000000028
0
LINE
5
806
100
AcDbEntity
8
0
100
AcDbLine
10
1143.0604354759819
20
2051.5099032613889
30
12.000000000000028
11
1143.4337534879978
21
2051.5099032613889
31
12.000000000000028
0
ARC
5
807
100
AcDbEntity
8
0
100
AcDbCircle
10
1145.0049791242454
20
2049.5653596131256
30
12.000000000000028
40
2.4999999999997473
210
0
220
-0
230
1
100
AcDbArc
50
51.061176122405669
51
128.93882387761053
0
LINE
5
808
100
AcDbEntity
8
0
100
AcDbLine
10
1146.5762047604921
20
2051.5099032613889
30
12.000000000000028
11
1151.5446661914718
21
2051.5099032613889
31
12.000000000000028
0
ARC
5
809
100
AcDbEntity
8
0
100
AcDbCircle
10
1153.1158918277188
20
2049.5653596131256
30
12.000000000000028
40
2.5000000000000151
210
0
220
-0
230
1
100
AcDbArc
50
51.061176122397555
51
128.9388238775984
0
LINE
5
810
100
AcDbEntity
8
0
100
AcDbLine
10
1154.6871174639659
20
2051.5099032613889
30
12.000000000000028
11
1155.0604354759819
21
2051.5099032613889
31
12.000000000000028
0
LINE
5
811
100
AcDbEntity
8
0
100
AcDbLine
10
1155.0604354759819
20
2051.5099032613889
30
12.000000000000028
11
1155.0604354759819
21
2051.1365852493727
31
12.000000000000028
0
ARC
5
812
100
AcDbEntity
8
0
100
AcDbCircle
10
1153.1158918277188
20
2049.5653596131256
30
12.000000000000028
40
2.5000000000000151
210
0
220
0
230
1
100
AcDbArc
50
-38.938823877601671
51
38.938823877605707
0
LINE
5
813
100
AcDbEntity
8
0
100
AcDbLine
10
1155.0604354759819
20
2047.9941339768786
30
12.000000000000028
11
1155.0604354759819
21
1975.0256725458989
31
12.000000000000028
0
ARC
5
814
100
AcDbEntity
8
0
100
AcDbCircle
10
1145.0604354759819
20
1819.0099032613898
30
12.000000000000028
40
2.4999999999999432
210
0
220
0
230
1
100
AcDbArc
50
143.13010235415598
51
216.86989764584402
0
LINE
5
815
100
AcDbEntity
8
0
100
AcDbLine
10
1143.0604354759819
20
1820.5099032613898
30
12.000000000000028
11
1143.0604354759819
21
1885.4941339768793
31
12.000000000000028
0
ARC
5
816
100
AcDbEntity
8
0
100
AcDbCircle
10
1145.0049791242445
20
1887.0653596131265
30
12.000000000000028
40
2.4999999999997939
210
0
220
0
230
1
100
AcDbArc
50
141.06117612238774
51
218.93882387761224
0
LINE
5
817
100
AcDbEntity
8
0
100
AcDbLine
10
1143.0604354759819
20
1888.6365852493736
30
12.000000000000028
11
1143.0604354759819
21
1889.0099032613894
31
12.000000000000028
0
LINE
5
818
100
AcDbEntity
8
0
100
AcDbLine
10
1143.0604354759819
20
1889.0099032613894
30
12.000000000000028
11
1143.4337534879978
21
1889.0099032613896
31
12.000000000000028
0
ARC
5
819
100
AcDbEntity
8
0
100
AcDbCircle
10
1145.0049791242445
20
1887.0653596131265
30
12.000000000000028
40
2.5000000000001936
210
0
220
-0
230
1
100
AcDbArc
50
51.061176122386179
51
128.93882387759763
0
LINE
5
820
100
AcDbEntity
8
0
100
AcDbLine
10
1146.5762047604921
20
1889.0099032613896
30
12.000000000000028
11
1151.5446661914718
21
1889.0099032613896
31
12.000000000000028
0
ARC
5
821
100
AcDbEntity
8
0
100
AcDbCircle
10
1153.1158918277188
20
1887.0653596131269
30
12.000000000000028
40
2.4999999999997939
210
0
220
-0
230
1
100
AcDbArc
50
51.061176122391785
51
128.9388238776082
0
LINE
5
822
100
AcDbEntity
8
0
100
AcDbLine
10
1154.6871174639657
20
1889.0099032613896
30
12.000000000000028
11
1155.0604354759819
21
1889.0099032613896
31
12.000000000000028
0
LINE
5
823
100
AcDbEntity
8
0
100
AcDbLine
10
1155.0604354759819
20
1889.0099032613896
30
12.000000000000028
11
1155.0604354759819
21
1888.6365852493736
31
12.000000000000028
0
ARC
5
824
100
AcDbEntity
8
0
100
AcDbCircle
10
1153.1158918277188
20
1887.0653596131269
30
12.000000000000028
40
2.5000000000003042
210
0
220
0
230
1
100
AcDbArc
50
-38.938823877613835
51
38.938823877597599
0
LINE
5
825
100
AcDbEntity
8
0
100
AcDbLine
10
1155.0604354759819
20
1885.4941339768793
30
12.000000000000028
11
1155.0604354759819
21
1809.0099032613898
31
12.000000000000028
0
LINE
5
826
100
AcDbEntity
8
0
100
AcDbLine
10
1155.0604354759819
20
1809.0099032613898
30
12.000000000000028
11
1146.5762047604919
21
1809.0099032613898
31
12.000000000000028
0
ARC
5
827
100
AcDbEntity
8
0
100
AcDbCircle
10
1145.004979124245
20
1810.9544469096525
30
12.000000000000028
40
2.4999999999997939
210
0
220
0
230
1
100
AcDbArc
50
231.06117612239177
51
308.93882387760823
0
LINE
5
828
100
AcDbEntity
8
0
100
AcDbLine
10
1143.433753487998
20
1809.0099032613898
30
12.000000000000028
11
1143.0604354759819
21
1809.0099032613898
31
12.000000000000028
0
LINE
5
829
100
AcDbEntity
8
0
100
AcDbLine
10
1143.0604354759819
20
1809.0099032613898
30
12.000000000000028
11
1143.0604354759819
21
1809.3832212734058
31
12.000000000000028
0
ARC
5
830
100
AcDbEntity
8
0
100
AcDbCircle
10
1145.004979124245
20
1810.9544469096525
30
12.000000000000028
40
2.5000000000003042
210
0
220
0
230
1
100
AcDbArc
50
141.06117612239024
51
218.9388238775976
0
LINE
5
831
100
AcDbEntity
8
0
100
AcDbLine
10
1143.0604354759819
20
1812.5256725458999
30
12.000000000000028
11
1143.0604354759819
21
1817.5099032613898
31
12.000000000000028
0
ARC
5
832
100
AcDbEntity
8
0
100
AcDbCircle
10
1145.0049791242454
20
2374.5653596131247
30
12.000000000000028
40
2.5000000000003464
210
0
220
0
230
1
100
AcDbArc
50
141.06117612240084
51
218.93882387759913
0
LINE
5
833
100
AcDbEntity
8
0
100
AcDbLine
10
1143.0604354759819
20
2376.1365852493718
30
12.000000000000028
11
1143.0604354759819
21
2376.5099032613871
31
12.000000000000028
0
LINE
5
834
100
AcDbEntity
8
0
100
AcDbLine
10
1143.0604354759819
20
2376.5099032613871
30
12.000000000000028
11
1143.4337534879978
21
2376.5099032613875
31
12.000000000000028
0
ARC
5
835
100
AcDbEntity
8
0
100
AcDbCircle
10
1145.0049791242454
20
2374.5653596131247
30
12.000000000000028
40
2.4999999999997473
210
0
220
-0
230
1
100
AcDbArc
50
51.061176122399111
51
128.9388238776171
0
LINE
5
836
100
AcDbEntity
8
0
100
AcDbLine
10
1146.5762047604921
20
2376.5099032613875
30
12.000000000000028
11
1151.5446661914718
21
2376.5099032613875
31
12.000000000000028
0
ARC
5
837
100
AcDbEntity
8
0
100
AcDbCircle
10
1153.115891827719
20
2374.5653596131247
30
12.000000000000028
40
2.5000000000000151
210
0
220
-0
230
1
100
AcDbArc
50
51.061176122391018
51
128.938823877609
0
LINE
5
838
100
AcDbEntity
8
0
100
AcDbLine
10
1154.6871174639662
20
2376.5099032613875
30
12.000000000000028
11
1155.0604354759819
21
2376.5099032613875
31
12.000000000000028
0
LINE
5
839
100
AcDbEntity
8
0
100
AcDbLine
10
1155.0604354759819
20
2376.5099032613875
30
12.000000000000028
11
1155.0604354759819
21
2376.1365852493718
31
12.000000000000028
0
ARC
5
840
100
AcDbEntity
8
0
100
AcDbCircle
10
1153.115891827719
20
2374.5653596131247
30
12.000000000000028
40
2.5000000000000151
210
0
220
0
230
1
100
AcDbArc
50
-38.938823877608996
51
38.938823877608989
0
LINE
5
841
100
AcDbEntity
8
0
100
AcDbLine
10
1155.0604354759819
20
2372.9941339768775
30
12.000000000000028
11
1155.0604354759819
21
2300.0256725458976
31
12.000000000000028
0
ARC
5
842
100
AcDbEntity
8
0
100
AcDbCircle
10
1153.1158918277192
20
2298.4544469096509
30
12.000000000000028
40
2.4999999999997939
210
0
220
0
230
1
100
AcDbArc
50
-38.938823877612258
51
38.938823877604158
0
LINE
5
843
100
AcDbEntity
8
0
100
AcDbLine
10
1155.0604354759819
20
2296.8832212734037
30
12.000000000000028
11
1155.0604354759819
21
2296.509903261388
31
12.000000000000028
0
LINE
5
844
100
AcDbEntity
8
0
100
AcDbLine
10
1155.0604354759819
20
2296.509903261388
30
12.000000000000028
11
1154.6871174639662
21
2296.509903261388
31
12.000000000000028
0
ARC
5
845
100
AcDbEntity
8
0
100
AcDbCircle
10
1153.1158918277192
20
2298.4544469096509
30
12.000000000000028
40
2.5000000000001936
210
0
220
0
230
1
100
AcDbArc
50
231.061176122387
51
308.93882387760493
0
LINE
5
846
100
AcDbEntity
8
0
100
AcDbLine
10
1151.5446661914718
20
2296.509903261388
30
12.000000000000028
11
1146.5762047604921
21
2296.509903261388
31
12.000000000000028
0
ARC
5
847
100
AcDbEntity
8
0
100
AcDbCircle
10
1145.004979124245
20
2298.4544469096509
30
12.000000000000028
40
2.5000000000000151
210
0
220
0
230
1
100
AcDbArc
50
231.061176122391
51
308.93882387760902
0
LINE
5
848
100
AcDbEntity
8
0
100
AcDbLine
10
1143.4337534879978
20
2296.509903261388
30
12.000000000000028
11
1143.0604354759819
21
2296.509903261388
31
12.000000000000028
0
LINE
5
849
100
AcDbEntity
8
0
100
AcDbLine
10
1143.0604354759819
20
2296.509903261388
30
12.000000000000028
11
1143.0604354759819
21
2296.8832212734037
31
12.000000000000028
0
ARC
5
850
100
AcDbEntity
8
0
100
AcDbCircle
10
1145.004979124245
20
2298.4544469096509
30
12.000000000000028
40
2.5000000000000151
210
0
220
0
230
1
100
AcDbArc
50
141.0611761223943
51
218.9388238776057
0
LINE
5
851
100
AcDbEntity
8
0
100
AcDbLine
10
1143.0604354759819
20
2300.025672545898
30
12.000000000000028
11
1143.0604354759819
21
2372.9941339768775
31
12.000000000000028
0
ARC
5
852
100
AcDbEntity
8
0
100
AcDbCircle
10
795.00497912424635
20
1887.0653596131272
30
12.000000000000028
40
2.499999999999484
210
0
220
-0
230
1
100
AcDbArc
50
51.061176122388517
51
128.9388238776115
0
LINE
5
853
100
AcDbEntity
8
0
100
AcDbLine
10
796.57620476049328
20
1889.0099032613896
30
12.000000000000028
11
801.54466619147331
21
1889.0099032613896
31
12.000000000000028
0
ARC
5
854
100
AcDbEntity
8
0
100
AcDbCircle
10
803.11589182772013
20
1887.0653596131269
30
12.000000000000028
40
2.4999999999997939
210
0
220
-0
230
1
100
AcDbArc
50
51.06117612238976
51
128.93882387760618
0
LINE
5
855
100
AcDbEntity
8
0
100
AcDbLine
10
804.68711746396718
20
1889.0099032613896
30
12.000000000000028
11
805.06043547598324
21
1889.0099032613896
31
12.000000000000028
0
LINE
5
856
100
AcDbEntity
8
0
100
AcDbLine
10
805.06043547598324
20
1889.0099032613896
30
12.000000000000028
11
805.06043547598324
21
1888.6365852493736
31
12.000000000000028
0
ARC
5
857
100
AcDbEntity
8
0
100
AcDbCircle
10
803.11589182772013
20
1887.0653596131269
30
12.000000000000028
40
2.5000000000003042
210
0
220
0
230
1
100
AcDbArc
50
-38.938823877613835
51
38.938823877597599
0
LINE
5
858
100
AcDbEntity
8
0
100
AcDbLine
10
805.06043547598324
20
1885.4941339768793
30
12.000000000000028
11
805.06043547598324
21
1812.5256725458999
31
12.000000000000028
0
ARC
5
859
100
AcDbEntity
8
0
100
AcDbCircle
10
803.11589182771979
20
1810.9544469096527
30
12.000000000000028
40
2.5000000000003464
210
0
220
0
230
1
100
AcDbArc
50
-38.938823877596739
51
38.938823877600804
0
LINE
5
860
100
AcDbEntity
8
0
100
AcDbLine
10
805.06043547598324
20
1809.3832212734058
30
12.000000000000028
11
805.06043547598324
21
1809.0099032613898
31
12.000000000000028
0
LINE
5
861
100
AcDbEntity
8
0
100
AcDbLine
10
805.06043547598324
20
1809.0099032613898
30
12.000000000000028
11
804.6871174639673
21
1809.0099032613898
31
12.000000000000028
0
ARC
5
862
100
AcDbEntity
8
0
100
AcDbCircle
10
803.11589182771979
20
1810.9544469096527
30
12.000000000000028
40
2.4999999999995262
210
0
220
0
230
1
100
AcDbArc
50
231.06117612239788
51
308.93882387761505
0
LINE
5
863
100
AcDbEntity
8
0
100
AcDbLine
10
801.5446661914732
20
1809.00990326139
30
12.000000000000028
11
796.57620476049328
21
1809.0099032613898
31
12.000000000000028
0
ARC
5
864
100
AcDbEntity
8
0
100
AcDbCircle
10
795.00497912424646
20
1810.9544469096525
30
12.000000000000028
40
2.499999999999662
210
0
220
0
230
1
100
AcDbArc
50
231.06117612238239
51
308.93882387760618
0
LINE
5
865
100
AcDbEntity
8
0
100
AcDbLine
10
793.43375348799918
20
1809.00990326139
30
12.000000000000028
11
793.06043547598335
21
1809.0099032613898
31
12.000000000000028
0
LINE
5
866
100
AcDbEntity
8
0
100
AcDbLine
10
793.06043547598335
20
1809.0099032613898
30
12.000000000000028
11
793.06043547598335
21
1809.3832212734058
31
12.000000000000028
0
ARC
5
867
100
AcDbEntity
8
0
100
AcDbCircle
10
795.00497912424646
20
1810.9544469096525
30
12.000000000000028
40
2.5000000000003042
210
0
220
0
230
1
100
AcDbArc
50
141.06117612239024
51
218.9388238775976
0
LINE
5
868
100
AcDbEntity
8
0
100
AcDbLine
10
793.06043547598335
20
1812.5256725458999
30
12.000000000000028
11
793.06043547598335
21
1885.4941339768793
31
12.000000000000028
0
ARC
5
869
100
AcDbEntity
8
0
100
AcDbCircle
10
795.00497912424635
20
1887.0653596131272
30
12.000000000000028
40
2.4999999999996576
210
0
220
0
230
1
100
AcDbArc
50
141.06117612240482
51
218.93882387761948
0
LINE
5
870
100
AcDbEntity
8
0
100
AcDbLine
10
793.06043547598335
20
1888.6365852493736
30
12.000000000000028
11
793.06043547598335
21
1889.0099032613894
31
12.000000000000028
0
LINE
5
871
100
AcDbEntity
8
0
100
AcDbLine
10
793.06043547598335
20
1889.0099032613894
30
12.000000000000028
11
793.43375348799941
21
1889.0099032613896
31
12.000000000000028
0
ARC
5
872
100
AcDbEntity
8
0
100
AcDbCircle
10
795.0049791242468
20
2212.0653596131251
30
12.000000000000028
40
2.5000000000003464
210
0
220
0
230
1
100
AcDbArc
50
141.06117612239922
51
218.93882387760078
0
LINE
5
873
100
AcDbEntity
8
0
100
AcDbLine
10
793.06043547598335
20
2213.6365852493723
30
12.000000000000028
11
793.06043547598335
21
2214.009903261388
31
12.000000000000028
0
LINE
5
874
100
AcDbEntity
8
0
100
AcDbLine
10
793.06043547598335
20
2214.009903261388
30
12.000000000000028
11
793.43375348799918
21
2214.009903261388
31
12.000000000000028
0
ARC
5
875
100
AcDbEntity
8
0
100
AcDbCircle
10
795.0049791242468
20
2212.0653596131251
30
12.000000000000028
40
2.4999999999995262
210
0
220
-0
230
1
100
AcDbArc
50
51.061176122399111
51
128.9388238776171
0
LINE
5
876
100
AcDbEntity
8
0
100
AcDbLine
10
796.57620476049351
20
2214.009903261388
30
12.000000000000028
11
801.54466619147331
21
2214.009903261388
31
12.000000000000028
0
ARC
5
877
100
AcDbEntity
8
0
100
AcDbCircle
10
803.11589182772013
20
2212.0653596131256
30
12.000000000000028
40
2.499999999999662
210
0
220
-0
230
1
100
AcDbArc
50
51.06117612238446
51
128.93882387760948
0
LINE
5
878
100
AcDbEntity
8
0
100
AcDbLine
10
804.6871174639673
20
2214.009903261388
30
12.000000000000028
11
805.06043547598324
21
2214.009903261388
31
12.000000000000028
0
LINE
5
879
100
AcDbEntity
8
0
100
AcDbLine
10
805.06043547598324
20
2214.009903261388
30
12.000000000000028
11
805.06043547598324
21
2213.6365852493723
31
12.000000000000028
0
ARC
5
880
100
AcDbEntity
8
0
100
AcDbCircle
10
803.11589182772013
20
2212.0653596131256
30
12.000000000000028
40
2.5000000000003042
210
0
220
0
230
1
100
AcDbArc
50
-38.938823877613835
51
38.938823877597599
0
LINE
5
881
100
AcDbEntity
8
0
100
AcDbLine
10
805.06043547598324
20
2210.4941339768779
30
12.000000000000028
11
805.06043547598324
21
2137.5256725458985
31
12.000000000000028
0
ARC
5
882
100
AcDbEntity
8
0
100
AcDbCircle
10
803.11589182772059
20
2135.9544469096513
30
12.000000000000028
40
2.4999999999997939
210
0
220
0
230
1
100
AcDbArc
50
-38.938823877612258
51
38.938823877612265
0
LINE
5
883
100
AcDbEntity
8
0
100
AcDbLine
10
805.06043547598324
20
2134.3832212734042
30
12.000000000000028
11
805.06043547598324
21
2134.0099032613884
31
12.000000000000028
0
LINE
5
884
100
AcDbEntity
8
0
100
AcDbLine
10
805.06043547598324
20
2134.0099032613884
30
12.000000000000028
11
804.6871174639673
21
2134.0099032613884
31
12.000000000000028
0
ARC
5
885
100
AcDbEntity
8
0
100
AcDbCircle
10
803.11589182772059
20
2135.9544469096513
30
12.000000000000028
40
2.4999999999999729
210
0
220
0
230
1
100
AcDbArc
50
231.0611761223804
51
308.9388238776009
0
LINE
5
886
100
AcDbEntity
8
0
100
AcDbLine
10
801.5446661914732
20
2134.0099032613889
30
12.000000000000028
11
796.57620476049328
21
2134.0099032613884
31
12.000000000000028
0
ARC
5
887
100
AcDbEntity
8
0
100
AcDbCircle
10
795.00497912424646
20
2135.9544469096509
30
12.000000000000028
40
2.4999999999994413
210
0
220
0
230
1
100
AcDbArc
50
231.06117612237588
51
308.93882387760942
0
LINE
5
888
100
AcDbEntity
8
0
100
AcDbLine
10
793.43375348799918
20
2134.0099032613889
30
12.000000000000028
11
793.06043547598335
21
2134.0099032613884
31
12.000000000000028
0
LINE
5
889
100
AcDbEntity
8
0
100
AcDbLine
10
793.06043547598335
20
2134.0099032613884
30
12.000000000000028
11
793.06043547598335
21
2134.3832212734042
31
12.000000000000028
0
ARC
5
890
100
AcDbEntity
8
0
100
AcDbCircle
10
795.00497912424646
20
2135.9544469096509
30
12.000000000000028
40
2.5000000000004832
210
0
220
0
230
1
100
AcDbArc
50
141.0611761223862
51
218.9388238775976
0
LINE
5
891
100
AcDbEntity
8
0
100
AcDbLine
10
793.06043547598335
20
2137.5256725458985
30
12.000000000000028
11
793.06043547598335
21
2210.4941339768779
31
12.000000000000028
0
ARC
5
892
100
AcDbEntity
8
0
100
AcDbCircle
10
795.0049791242468
20
2374.5653596131247
30
12.000000000000028
40
2.5000000000003464
210
0
220
0
230
1
100
AcDbArc
50
141.06117612239922
51
218.93882387760078
0
LINE
5
893
100
AcDbEntity
8
0
100
AcDbLine
10
793.06043547598335
20
2376.1365852493718
30
12.000000000000028
11
793.06043547598335
21
2376.5099032613871
31
12.000000000000028
0
LINE
5
894
100
AcDbEntity
8
0
100
AcDbLine
10
793.06043547598335
20
2376.5099032613871
30
12.000000000000028
11
793.43375348799918
21
2376.5099032613875
31
12.000000000000028
0
ARC
5
895
100
AcDbEntity
8
0
100
AcDbCircle
10
795.0049791242468
20
2374.5653596131247
30
12.000000000000028
40
2.4999999999995262
210
0
220
-0
230
1
100
AcDbArc
50
51.061176122392567
51
128.9388238776171
0
LINE
5
896
100
AcDbEntity
8
0
100
AcDbLine
10
796.57620476049351
20
2376.5099032613871
30
12.000000000000028
11
801.54466619147331
21
2376.5099032613875
31
12.000000000000028
0
ARC
5
897
100
AcDbEntity
8
0
100
AcDbCircle
10
803.11589182772013
20
2374.5653596131247
30
12.000000000000028
40
2.499999999999662
210
0
220
-0
230
1
100
AcDbArc
50
51.06117612238446
51
128.93882387760291
0
LINE
5
898
100
AcDbEntity
8
0
100
AcDbLine
10
804.6871174639673
20
2376.5099032613871
30
12.000000000000028
11
805.06043547598324
21
2376.5099032613875
31
12.000000000000028
0
LINE
5
899
100
AcDbEntity
8
0
100
AcDbLine
10
805.06043547598324
20
2376.5099032613875
30
12.000000000000028
11
805.06043547598324
21
2376.1365852493718
31
12.000000000000028
0
ARC
5
900
100
AcDbEntity
8
0
100
AcDbCircle
10
803.11589182772013
20
2374.5653596131247
30
12.000000000000028
40
2.5000000000003042
210
0
220
0
230
1
100
AcDbArc
50
-38.938823877605692
51
38.938823877605707
0
LINE
5
901
100
AcDbEntity
8
0
100
AcDbLine
10
805.06043547598324
20
2372.9941339768775
30
12.000000000000028
11
805.06043547598324
21
2300.0256725458976
31
12.000000000000028
0
ARC
5
902
100
AcDbEntity
8
0
100
AcDbCircle
10
803.11589182772059
20
2298.4544469096509
30
12.000000000000028
40
2.4999999999997939
210
0
220
0
230
1
100
AcDbArc
50
-38.938823877612258
51
38.938823877604158
0
LINE
5
903
100
AcDbEntity
8
0
100
AcDbLine
10
805.06043547598324
20
2296.8832212734037
30
12.000000000000028
11
805.06043547598324
21
2296.509903261388
31
12.000000000000028
0
LINE
5
904
100
AcDbEntity
8
0
100
AcDbLine
10
805.06043547598324
20
2296.509903261388
30
12.000000000000028
11
804.6871174639673
21
2296.509903261388
31
12.000000000000028
0
ARC
5
905
100
AcDbEntity
8
0
100
AcDbCircle
10
803.11589182772059
20
2298.4544469096509
30
12.000000000000028
40
2.4999999999999729
210
0
220
0
230
1
100
AcDbArc
50
231.061176122387
51
308.9388238776009
0
LINE
5
906
100
AcDbEntity
8
0
100
AcDbLine
10
801.5446661914732
20
2296.509903261388
30
12.000000000000028
11
796.57620476049328
21
2296.509903261388
31
12.000000000000028
0
ARC
5
907
100
AcDbEntity
8
0
100
AcDbCircle
10
795.00497912424646
20
2298.4544469096504
30
12.000000000000028
40
2.4999999999994413
210
0
220
0
230
1
100
AcDbArc
50
231.06117612238239
51
308.93882387760942
0
LINE
5
908
100
AcDbEntity
8
0
100
AcDbLine
10
793.43375348799918
20
2296.509903261388
30
12.000000000000028
11
793.06043547598335
21
2296.509903261388
31
12.000000000000028
0
LINE
5
909
100
AcDbEntity
8
0
100
AcDbLine
10
793.06043547598335
20
2296.509903261388
30
12.000000000000028
11
793.06043547598335
21
2296.8832212734037
31
12.000000000000028
0
ARC
5
910
100
AcDbEntity
8
0
100
AcDbCircle
10
795.00497912424646
20
2298.4544469096504
30
12.000000000000028
40
2.5000000000004832
210
0
220
0
230
1
100
AcDbArc
50
141.0611761223862
51
218.9388238775976
0
LINE
5
911
100
AcDbEntity
8
0
100
AcDbLine
10
793.06043547598335
20
2300.025672545898
30
12.000000000000028
11
793.06043547598335
21
2372.9941339768775
31
12.000000000000028
0
LINE
5
912
100
AcDbEntity
8
0
100
AcDbLine
10
547.9321314313479
20
1347.9058784398699
30
12
11
724.93213143134528
21
1347.9058784398694
31
12
0
ARC
5
913
100
AcDbEntity
8
0
100
AcDbCircle
10
724.93213143134517
20
1307.9058784398703
30
12.000000000000187
40
39.999999999999432
210
2.7755575615629308e-16
220
-6.3347210932766697e-31
230
1
100
AcDbArc
50
0
51
89.999999999999844
0
LINE
5
914
100
AcDbEntity
8
0
100
AcDbLine
10
764.93213143134449
20
1307.9058784398703
30
12.000000000000174
11
764.93213143134335
21
971.9058784398751
31
12
0
ARC
5
915
100
AcDbEntity
8
0
100
AcDbCircle
10
724.93213143134403
20
971.9058784398751
30
12.000000000000329
40
39.999999999999432
210
8.3859820613202194e-31
220
2.7755575615629308e-16
230
1
100
AcDbArc
50
-90.000000000000313
51
0
0
LINE
5
916
100
AcDbEntity
8
0
100
AcDbLine
10
724.93213143134381
20
931.90587843987578
30
12.000000000000339
11
547.93213143134665
21
931.90587843987646
31
12.000000000000002
0
ARC
5
917
100
AcDbEntity
8
0
100
AcDbCircle
10
547.93213143134665
20
971.90587843987578
30
12.000000000000329
40
39.999999999999432
210
2.7755575615629308e-16
220
-5.4277536667413778e-31
230
1
100
AcDbArc
50
180
51
270
0
LINE
5
918
100
AcDbEntity
8
0
100
AcDbLine
10
507.93213143134722
20
971.90587843987589
30
12.000000000000339
11
507.93213143134835
21
1307.9058784398708
31
12.000000000000002
0
ARC
5
919
100
AcDbEntity
8
0
100
AcDbCircle
10
547.93213143134767
20
1307.9058784398705
30
12.000000000000187
40
39.999999999999432
210
1.638495193192933e-29
220
4.6629367034257237e-15
230
1
100
AcDbArc
50
89.999999999999673
51
180
0
LINE
5
920
100
AcDbEntity
8
0
100
AcDbLine
10
547.93213143134903
20
1697.9058784398649
30
12.000000000000002
11
724.93213143134642
21
1697.9058784398644
31
12.000000000000002
0
ARC
5
921
100
AcDbEntity
8
0
100
AcDbCircle
10
724.93213143134631
20
1657.9058784398649
30
12.000000000000036
40
39.999999999999432
210
2.7755575615629308e-16
220
-6.6712126164578545e-31
230
1
100
AcDbArc
50
0
51
89.999999999999844
0
LINE
5
922
100
AcDbEntity
8
0
100
AcDbLine
10
764.93213143134562
20
1657.9058784398649
30
12.000000000000025
11
764.93213143134494
21
1427.9058784398683
31
12
0
ARC
5
923
100
AcDbEntity
8
0
100
AcDbCircle
10
724.93213143134551
20
1427.9058784398685
30
12.000000000000133
40
39.999999999999432
210
8.3859820613202194e-31
220
2.7755575615629308e-16
230
1
100
AcDbArc
50
269.99999999999983
51
360
0
LINE
5
924
100
AcDbEntity
8
0
100
AcDbLine
10
724.9321314313454
20
1387.9058784398692
30
12.000000000000144
11
547.93213143134813
21
1387.9058784398696
31
12.000000000000002
0
ARC
5
925
100
AcDbEntity
8
0
100
AcDbCircle
10
547.93213143134813
20
1427.905878439869
30
12.000000000000133
40
39.999999999999361
210
2.7755575615629357e-16
220
-6.3347210932766697e-31
230
1
100
AcDbArc
50
180
51
270
0
LINE
5
926
100
AcDbEntity
8
0
100
AcDbLine
10
507.93213143134881
20
1427.905878439869
30
12.000000000000144
11
507.93213143134943
21
1657.9058784398658
31
12
0
ARC
5
927
100
AcDbEntity
8
0
100
AcDbCircle
10
547.93213143134881
20
1657.9058784398653
30
12.000000000000036
40
39.999999999999432
210
2.7771013168664882e-30
220
8.3266726846887924e-16
230
1
100
AcDbArc
50
89.999999999999673
51
180
0
LINE
5
928
100
AcDbEntity
8
0
100
AcDbLine
10
467.93213143135029
20
1737.9058784398646
30
11.999999999999691
11
467.93213143134756
21
891.90587843987726
31
12.000000000000002
0
LINE
5
929
100
AcDbEntity
8
0
100
AcDbLine
10
467.93213143134756
20
891.90587843987726
30
12.000000000000002
11
804.93213143134255
21
891.90587843987612
31
12.000000000000002
0
LINE
5
930
100
AcDbEntity
8
0
100
AcDbLine
10
804.93213143134255
20
891.90587843987612
30
12.000000000000002
11
804.93213143134528
21
1737.9058784398635
31
11.999999999999691
0
LINE
5
931
100
AcDbEntity
8
0
100
AcDbLine
10
804.93213143134528
20
1737.9058784398635
30
11.999999999999691
11
467.93213143135029
21
1737.9058784398646
31
11.999999999999691
0
LINE
5
932
100
AcDbEntity
8
0
100
AcDbLine
10
931.0188409561448
20
1352.2300665871614
30
12
11
1108.018840956144
21
1352.2300665871614
31
12
0
ARC
5
933
100
AcDbEntity
8
0
100
AcDbCircle
10
1108.0188409561442
20
1312.2300665871617
30
12.000000000000188
40
39.999999999999716
210
5.5511151231260637e-17
220
3.398015393263144e-16
230
1
100
AcDbArc
50
0
51
90.000000000000327
0
LINE
5
934
100
AcDbEntity
8
0
100
AcDbLine
10
1148.018840956144
20
1312.2300665871614
30
12.000000000000187
11
1148.0188409561435
21
976.23006658716304
31
12.000000000000002
0
ARC
5
935
100
AcDbEntity
8
0
100
AcDbCircle
10
1108.0188409561433
20
976.23006658716338
30
12.000000000000327
40
40.000000000000142
210
-3.3980153932631795e-16
220
5.5511151231254006e-17
230
1
100
AcDbArc
50
270.00000000000068
51
360
0
LINE
5
936
100
AcDbEntity
8
0
100
AcDbLine
10
1108.0188409561438
20
936.23006658716326
30
12.000000000000329
11
931.01884095614469
21
936.23006658716338
31
12.000000000000002
0
ARC
5
937
100
AcDbEntity
8
0
100
AcDbCircle
10
931.01884095614491
20
976.23006658716361
30
12.000000000000327
40
40.000000000000284
210
5.5511151231253809e-17
220
3.3980153932631795e-16
230
1
100
AcDbArc
50
180
51
269.99999999999972
0
LINE
5
938
100
AcDbEntity
8
0
100
AcDbLine
10
891.01884095614469
20
976.23006658716326
30
12.000000000000329
11
891.01884095614514
21
1312.2300665871614
31
12
0
ARC
5
939
100
AcDbEntity
8
0
100
AcDbCircle
10
931.01884095614469
20
1312.2300665871617
30
12.000000000000188
40
39.999999999999716
210
-3.398015393263005e-16
220
4.71844785465695e-15
230
1
100
AcDbArc
50
89.999999999999844
51
180
0
LINE
5
940
100
AcDbEntity
8
0
100
AcDbLine
10
931.01884095614514
20
1702.2300665871599
30
12.000000000000002
11
1108.0188409561442
21
1702.2300665871594
31
12.000000000000002
0
ARC
5
941
100
AcDbEntity
8
0
100
AcDbCircle
10
1108.0188409561445
20
1662.2300665871601
30
12.000000000000037
40
39.999999999999716
210
5.5511151231260637e-17
220
3.398015393263144e-16
230
1
100
AcDbArc
50
0
51
90.000000000000327
0
LINE
5
942
100
AcDbEntity
8
0
100
AcDbLine
10
1148.0188409561442
20
1662.2300665871599
30
12.000000000000036
11
1148.018840956144
21
1432.2300665871608
31
12
0
ARC
5
943
100
AcDbEntity
8
0
100
AcDbCircle
10
1108.0188409561442
20
1432.2300665871605
30
12.000000000000131
40
39.999999999999432
210
-3.3980153932631706e-16
220
5.5511151231259824e-17
230
1
100
AcDbArc
50
-90
51
0
0
LINE
5
944
100
AcDbEntity
8
0
100
AcDbLine
10
1108.0188409561442
20
1392.2300665871612
30
12.000000000000133
11
931.01884095614491
21
1392.2300665871614
31
12.000000000000002
0
ARC
5
945
100
AcDbEntity
8
0
100
AcDbCircle
10
931.0188409561448
20
1432.2300665871612
30
12.000000000000131
40
39.999999999999716
210
5.5511151231258221e-17
220
3.3980153932631435e-16
230
1
100
AcDbArc
50
180
51
270.00000000000017
0
LINE
5
946
100
AcDbEntity
8
0
100
AcDbLine
10
891.01884095614514
20
1432.2300665871612
30
12.000000000000133
11
891.01884095614525
21
1662.2300665871601
31
12
0
ARC
5
947
100
AcDbEntity
8
0
100
AcDbCircle
10
931.01884095614514
20
1662.2300665871599
30
12.000000000000037
40
40
210
-3.3980153932631706e-16
220
8.8817841970012523e-16
230
1
100
AcDbArc
50
90
51
180
0
LINE
5
948
100
AcDbEntity
8
0
100
AcDbLine
10
1188.0188409561433
20
896.23006658716338
30
12.000000000000002
11
1188.018840956144
21
1742.2300665871594
31
11.999999999999691
0
LINE
5
949
100
AcDbEntity
8
0
100
AcDbLine
10
1188.018840956144
20
1742.2300665871594
30
11.999999999999691
11
851.01884095614548
21
1742.2300665871599
31
11.999999999999691
0
LINE
5
950
100
AcDbEntity
8
0
100
AcDbLine
10
851.01884095614548
20
1742.2300665871599
30
11.999999999999691
11
851.01884095614491
21
896.23006658716361
31
12.000000000000002
0
LINE
5
951
100
AcDbEntity
8
0
100
AcDbLine
10
851.01884095614491
20
896.23006658716361
30
12.000000000000002
11
1188.0188409561433
21
896.23006658716338
31
12.000000000000002
0
LINE
5
952
100
AcDbEntity
8
0
100
AcDbLine
10
71.462554012626128
20
440.39673443501408
30
12.000000000000002
11
769.46255401262238
21
440.39673443501334
31
12.000000000000002
0
LINE
5
953
100
AcDbEntity
8
0
100
AcDbLine
10
769.46255401262238
20
440.39673443501334
30
12.000000000000002
11
769.46255401262249
21
500.89673443501312
31
12.000000000000002
0
LINE
5
954
100
AcDbEntity
8
0
100
AcDbLine
10
769.46255401262249
20
500.89673443501312
30
12.000000000000002
11
71.462554012626214
21
500.89673443501374
31
12.000000000000002
0
LINE
5
955
100
AcDbEntity
8
0
100
AcDbLine
10
71.462554012626214
20
500.89673443501374
30
12.000000000000002
11
71.462554012626128
21
440.39673443501408
31
12.000000000000002
0
LINE
5
956
100
AcDbEntity
8
0
100
AcDbLine
10
71.4625540126261
20
415.3967344350142
30
12.000000000000002
11
769.46255401262238
21
415.39673443501351
31
12.000000000000002
0
LINE
5
957
100
AcDbEntity
8
0
100
AcDbLine
10
769.46255401262238
20
415.39673443501351
30
12.000000000000002
11
769.46255401262249
21
435.3967344350134
31
12.000000000000002
0
LINE
5
958
100
AcDbEntity
8
0
100
AcDbLine
10
769.46255401262249
20
435.3967344350134
30
12.000000000000002
11
71.462554012626214
21
435.39673443501408
31
12.000000000000002
0
LINE
5
959
100
AcDbEntity
8
0
100
AcDbLine
10
71.462554012626214
20
435.39673443501408
30
12.000000000000002
11
71.4625540126261
21
415.3967344350142
31
12.000000000000002
0
ARC
5
960
100
AcDbEntity
8
0
100
AcDbCircle
10
85.407097660889164
20
398.45219078675132
30
12.000000000000002
40
2.5000000000000671
210
0
220
0
230
1
100
AcDbArc
50
141.06117612239754
51
218.93882387760348
0
LINE
5
961
100
AcDbEntity
8
0
100
AcDbLine
10
83.462554012626043
20
400.02341642299831
30
12.000000000000002
11
83.462554012626072
21
400.39673443501431
31
12.000000000000002
0
LINE
5
962
100
AcDbEntity
8
0
100
AcDbLine
10
83.462554012626072
20
400.39673443501431
30
12.000000000000002
11
83.835872024641986
21
400.39673443501431
31
12.000000000000002
0
ARC
5
963
100
AcDbEntity
8
0
100
AcDbCircle
10
85.407097660889164
20
398.45219078675132
30
12.000000000000002
40
2.4999999999999258
210
0
220
-0
230
1
100
AcDbArc
50
51.061176122396191
51
128.93882387760763
0
LINE
5
964
100
AcDbEntity
8
0
100
AcDbLine
10
86.978323297136129
20
400.39673443501431
30
12.000000000000002
11
91.946784728115873
21
400.39673443501431
31
12.000000000000002
0
ARC
5
965
100
AcDbEntity
8
0
100
AcDbCircle
10
93.518010364362979
20
398.45219078675132
30
12.000000000000002
40
2.4999999999999929
210
0
220
-0
230
1
100
AcDbArc
50
51.061176122394421
51
128.93882387760635
0
LINE
5
966
100
AcDbEntity
8
0
100
AcDbLine
10
95.089236000610043
20
400.39673443501431
30
12.000000000000002
11
95.462554012625958
21
400.39673443501431
31
12.000000000000002
0
LINE
5
967
100
AcDbEntity
8
0
100
AcDbLine
10
95.462554012625958
20
400.39673443501431
30
12.000000000000002
11
95.462554012625958
21
400.02341642299831
31
12.000000000000002
0
ARC
5
968
100
AcDbEntity
8
0
100
AcDbCircle
10
93.518010364362979
20
398.45219078675132
30
12.000000000000002
40
2.4999999999999707
210
0
220
0
230
1
100
AcDbArc
50
-38.938823877605337
51
38.93882387760452
0
LINE
5
969
100
AcDbEntity
8
0
100
AcDbLine
10
95.462554012625972
20
396.88096515050427
30
12.000000000000002
11
95.462554012625958
21
390.39673443501431
31
12.000000000000002
0
LINE
5
970
100
AcDbEntity
8
0
100
AcDbLine
10
95.462554012625958
20
390.39673443501431
30
12.000000000000002
11
745.4625540126226
21
390.39673443501374
31
12.000000000000002
0
LINE
5
971
100
AcDbEntity
8
0
100
AcDbLine
10
745.4625540126226
20
390.39673443501374
30
12.000000000000002
11
745.46255401262238
21
396.88096515050358
31
12.000000000000002
0
ARC
5
972
100
AcDbEntity
8
0
100
AcDbCircle
10
747.40709766088548
20
398.45219078675058
30
12.000000000000002
40
2.4999999999999707
210
0
220
0
230
1
100
AcDbArc
50
141.06117612239632
51
218.93882387760266
0
LINE
5
973
100
AcDbEntity
8
0
100
AcDbLine
10
745.46255401262238
20
400.02341642299763
30
12.000000000000002
11
745.46255401262238
21
400.39673443501363
31
12.000000000000002
0
LINE
5
974
100
AcDbEntity
8
0
100
AcDbLine
10
745.46255401262238
20
400.39673443501363
30
12.000000000000002
11
745.83587202463832
21
400.39673443501363
31
12.000000000000002
0
ARC
5
975
100
AcDbEntity
8
0
100
AcDbCircle
10
747.40709766088548
20
398.45219078675058
30
12.000000000000002
40
2.5000000000000151
210
0
220
-0
230
1
100
AcDbArc
50
51.061176122394677
51
128.93882387760652
0
LINE
5
976
100
AcDbEntity
8
0
100
AcDbLine
10
748.97832329713253
20
400.39673443501357
30
12.000000000000002
11
753.94678472811233
21
400.39673443501357
31
12.000000000000002
0
ARC
5
977
100
AcDbEntity
8
0
100
AcDbCircle
10
755.51801036435927
20
398.45219078675052
30
12.000000000000002
40
2.5000000000000706
210
0
220
-0
230
1
100
AcDbArc
50
51.061176122393469
51
128.93882387760249
0
LINE
5
978
100
AcDbEntity
8
0
100
AcDbLine
10
757.08923600060643
20
400.39673443501357
30
12.000000000000002
11
757.46255401262238
21
400.39673443501357
31
12.000000000000002
0
LINE
5
979
100
AcDbEntity
8
0
100
AcDbLine
10
757.46255401262238
20
400.39673443501357
30
12.000000000000002
11
757.46255401262238
21
400.02341642299768
31
12.000000000000002
0
ARC
5
980
100
AcDbEntity
8
0
100
AcDbCircle
10
755.51801036435927
20
398.45219078675052
30
12.000000000000002
40
2.4999999999999258
210
0
220
0
230
1
100
AcDbArc
50
-38.938823877602687
51
38.938823877605707
0
LINE
5
981
100
AcDbEntity
8
0
100
AcDbLine
10
757.46255401262238
20
396.88096515050353
30
12.000000000000002
11
757.46255401262238
21
390.39673443501357
31
12.000000000000002
0
LINE
5
982
100
AcDbEntity
8
0
100
AcDbLine
10
757.46255401262238
20
390.39673443501357
30
12.000000000000002
11
769.46255401262238
21
390.39673443501363
31
12.000000000000002
0
LINE
5
983
100
AcDbEntity
8
0
100
AcDbLine
10
769.46255401262238
20
390.39673443501363
30
12.000000000000002
11
769.46255401262249
21
410.39673443501357
31
12.000000000000002
0
LINE
5
984
100
AcDbEntity
8
0
100
AcDbLine
10
769.46255401262249
20
410.39673443501357
30
12.000000000000002
11
71.462554012626214
21
410.3967344350142
31
12.000000000000002
0
LINE
5
985
100
AcDbEntity
8
0
100
AcDbLine
10
71.462554012626214
20
410.3967344350142
30
12.000000000000002
11
71.462554012626086
21
390.39673443501431
31
12.000000000000002
0
LINE
5
986
100
AcDbEntity
8
0
100
AcDbLine
10
71.462554012626086
20
390.39673443501431
30
12.000000000000002
11
83.462554012626043
21
390.39673443501437
31
12.000000000000002
0
LINE
5
987
100
AcDbEntity
8
0
100
AcDbLine
10
83.462554012626043
20
390.39673443501437
30
12.000000000000002
11
83.462554012626043
21
396.88096515050427
31
12.000000000000002
0
LINE
5
988
100
AcDbEntity
8
0
100
AcDbLine
10
745.46255401262238
20
365.3967344350138
30
12.000000000000002
11
745.46255401262238
21
385.39673443501374
31
12.000000000000002
0
LINE
5
989
100
AcDbEntity
8
0
100
AcDbLine
10
745.46255401262238
20
385.39673443501374
30
12.000000000000002
11
95.462554012625844
21
385.39673443501437
31
12.000000000000002
0
LINE
5
990
100
AcDbEntity
8
0
100
AcDbLine
10
95.462554012625844
20
385.39673443501437
30
12.000000000000002
11
95.46255401262593
21
384.02790826779574
31
12.000000000000002
0
LINE
5
991
100
AcDbEntity
8
0
100
AcDbLine
10
95.46255401262593
20
384.02790826779574
30
12.000000000000002
11
95.449163365919404
21
384.02790826779574
31
12.000000000000002
0
LINE
5
992
100
AcDbEntity
8
0
100
AcDbLine
10
95.449163365919404
20
384.02790826779574
30
12.000000000000002
11
95.449163365919404
21
365.39673443501442
31
12.000000000000002
0
LINE
5
993
100
AcDbEntity
8
0
100
AcDbLine
10
95.449163365919404
20
365.39673443501442
30
12.000000000000002
11
745.46255401262238
21
365.3967344350138
31
12.000000000000002
0
LINE
5
994
100
AcDbEntity
8
0
100
AcDbLine
10
83.462554012625986
20
365.39673443501442
30
12.000000000000002
11
83.462554012626029
21
385.39673443501431
31
12.000000000000002
0
LINE
5
995
100
AcDbEntity
8
0
100
AcDbLine
10
83.462554012626029
20
385.39673443501431
30
12.000000000000002
11
71.462554012626072
21
385.39673443501437
31
12.000000000000002
0
LINE
5
996
100
AcDbEntity
8
0
100
AcDbLine
10
71.462554012626072
20
385.39673443501437
30
12.000000000000002
11
71.462554012626057
21
365.39673443501442
31
12.000000000000002
0
LINE
5
997
100
AcDbEntity
8
0
100
AcDbLine
10
71.462554012626057
20
365.39673443501442
30
12.000000000000002
11
83.462554012625986
21
365.39673443501442
31
12.000000000000002
0
LINE
5
998
100
AcDbEntity
8
0
100
AcDbLine
10
83.462554012625958
20
340.39673443501465
30
12.000000000000002
11
83.462554012625972
21
360.39673443501448
31
12.000000000000002
0
LINE
5
999
100
AcDbEntity
8
0
100
AcDbLine
10
83.462554012625972
20
360.39673443501448
30
12.000000000000002
11
71.462554012626043
21
360.39673443501448
31
12.000000000000002
0
LINE
5
1000
100
AcDbEntity
8
0
100
AcDbLine
10
71.462554012626043
20
360.39673443501448
30
12.000000000000002
11
71.462554012626043
21
340.39673443501465
31
12.000000000000002
0
LINE
5
1001
100
AcDbEntity
8
0
100
AcDbLine
10
71.462554012626043
20
340.39673443501465
30
12.000000000000002
11
83.462554012625958
21
340.39673443501465
31
12.000000000000002
0
LINE
5
1002
100
AcDbEntity
8
0
100
AcDbLine
10
83.46255401262593
20
315.39673443501471
30
12.000000000000002
11
83.462554012625958
21
335.39673443501454
31
12.000000000000002
0
LINE
5
1003
100
AcDbEntity
8
0
100
AcDbLine
10
83.462554012625958
20
335.39673443501454
30
12.000000000000002
11
71.462554012626029
21
335.39673443501465
31
12.000000000000002
0
LINE
5
1004
100
AcDbEntity
8
0
100
AcDbLine
10
71.462554012626029
20
335.39673443501465
30
12.000000000000002
11
71.462554012626015
21
315.39673443501476
31
12.000000000000002
0
LINE
5
1005
100
AcDbEntity
8
0
100
AcDbLine
10
71.462554012626015
20
315.39673443501476
30
12.000000000000002
11
83.46255401262593
21
315.39673443501471
31
12.000000000000002
0
LINE
5
1006
100
AcDbEntity
8
0
100
AcDbLine
10
745.46255401262238
20
315.39673443501403
30
12.000000000000002
11
745.46255401262238
21
335.39673443501391
31
12.000000000000002
0
LINE
5
1007
100
AcDbEntity
8
0
100
AcDbLine
10
745.46255401262238
20
335.39673443501391
30
12.000000000000002
11
95.462554012625844
21
335.39673443501454
31
12.000000000000002
0
LINE
5
1008
100
AcDbEntity
8
0
100
AcDbLine
10
95.462554012625844
20
335.39673443501454
30
12.000000000000002
11
95.462554012625858
21
315.39673443501465
31
12.000000000000002
0
LINE
5
1009
100
AcDbEntity
8
0
100
AcDbLine
10
95.462554012625858
20
315.39673443501465
30
12.000000000000002
11
745.46255401262238
21
315.39673443501403
31
12.000000000000002
0
LINE
5
1010
100
AcDbEntity
8
0
100
AcDbLine
10
745.46255401262238
20
340.39673443501391
30
12.000000000000002
11
745.46255401262238
21
360.3967344350138
31
12.000000000000002
0
LINE
5
1011
100
AcDbEntity
8
0
100
AcDbLine
10
745.46255401262238
20
360.3967344350138
30
12.000000000000002
11
95.462554012625844
21
360.39673443501448
31
12.000000000000002
0
LINE
5
1012
100
AcDbEntity
8
0
100
AcDbLine
10
95.462554012625844
20
360.39673443501448
30
12.000000000000002
11
95.462554012625915
21
359.02790826779602
31
12.000000000000002
0
LINE
5
1013
100
AcDbEntity
8
0
100
AcDbLine
10
95.462554012625915
20
359.02790826779602
30
12.000000000000002
11
95.449163365919375
21
359.02790826779602
31
12.000000000000002
0
LINE
5
1014
100
AcDbEntity
8
0
100
AcDbLine
10
95.449163365919375
20
359.02790826779602
30
12.000000000000002
11
95.449163365919389
21
340.39673443501465
31
12.000000000000002
0
LINE
5
1015
100
AcDbEntity
8
0
100
AcDbLine
10
95.449163365919389
20
340.39673443501465
30
12.000000000000002
11
745.46255401262238
21
340.39673443501391
31
12.000000000000002
0
LINE
5
1016
100
AcDbEntity
8
0
100
AcDbLine
10
769.46255401262215
20
285.3967344350142
30
12.000000000000002
11
71.46255401262593
21
285.39673443501488
31
12.000000000000002
0
LINE
5
1017
100
AcDbEntity
8
0
100
AcDbLine
10
71.46255401262593
20
285.39673443501488
30
12.000000000000002
11
71.462554012625958
21
265.39673443501499
31
12.000000000000002
0
LINE
5
1018
100
AcDbEntity
8
0
100
AcDbLine
10
71.462554012625958
20
265.39673443501499
30
12.000000000000002
11
769.46255401262215
21
265.39673443501431
31
12.000000000000002
0
LINE
5
1019
100
AcDbEntity
8
0
100
AcDbLine
10
769.46255401262215
20
265.39673443501431
30
12.000000000000002
11
769.46255401262215
21
285.3967344350142
31
12.000000000000002
0
LINE
5
1020
100
AcDbEntity
8
0
100
AcDbLine
10
71.462554012625958
20
265.39673443501499
30
12.000000000000002
11
769.46255401262215
21
265.39673443501431
31
12.000000000000002
0
LINE
5
1021
100
AcDbEntity
8
0
100
AcDbLine
10
71.46255401262593
20
240.39673443501513
30
12.000000000000002
11
769.46255401262215
21
240.39673443501442
31
12.000000000000002
0
LINE
5
1022
100
AcDbEntity
8
0
100
AcDbLine
10
769.46255401262215
20
240.39673443501442
30
12.000000000000002
11
769.46255401262215
21
260.39673443501431
31
12.000000000000002
0
LINE
5
1023
100
AcDbEntity
8
0
100
AcDbLine
10
769.46255401262215
20
260.39673443501431
30
12.000000000000002
11
71.46255401262593
21
260.39673443501505
31
12.000000000000002
0
LINE
5
1024
100
AcDbEntity
8
0
100
AcDbLine
10
71.46255401262593
20
260.39673443501505
30
12.000000000000002
11
71.46255401262593
21
240.39673443501513
31
12.000000000000002
0
LINE
5
1025
100
AcDbEntity
8
0
100
AcDbLine
10
71.462554012625986
20
290.39673443501488
30
12.000000000000002
11
769.46255401262215
21
290.39673443501414
31
12.000000000000002
0
LINE
5
1026
100
AcDbEntity
8
0
100
AcDbLine
10
769.46255401262215
20
290.39673443501414
30
12.000000000000002
11
769.46255401262215
21
310.39673443501403
31
12.000000000000002
0
LINE
5
1027
100
AcDbEntity
8
0
100
AcDbLine
10
769.46255401262215
20
310.39673443501403
30
12.000000000000002
11
71.46255401262593
21
310.39673443501476
31
12.000000000000002
0
LINE
5
1028
100
AcDbEntity
8
0
100
AcDbLine
10
71.46255401262593
20
310.39673443501476
30
12.000000000000002
11
71.462554012625986
21
290.39673443501488
31
12.000000000000002
0
LWPOLYLINE
5
1029
100
AcDbEntity
8
0
100
AcDbPolyline
90
4
70
1
43
0.0
10
769.46255401262204
20
24.896734435015588
10
769.46255401262249
20
500.89673443501306
10
71.462554012626157
20
500.89673443501374
10
71.462554012625645
20
24.89673443501627
0
LINE
5
1030
100
AcDbEntity
8
0
100
AcDbLine
10
71.462554012625901
20
215.39673443501525
30
12.000000000000002
11
769.46255401262215
21
215.39673443501454
31
12.000000000000002
0
LINE
5
1031
100
AcDbEntity
8
0
100
AcDbLine
10
769.46255401262215
20
215.39673443501454
30
12.000000000000002
11
769.46255401262215
21
235.39673443501442
31
12.000000000000002
0
LINE
5
1032
100
AcDbEntity
8
0
100
AcDbLine
10
769.46255401262215
20
235.39673443501442
30
12.000000000000002
11
71.46255401262593
21
235.39673443501513
31
12.000000000000002
0
LINE
5
1033
100
AcDbEntity
8
0
100
AcDbLine
10
71.46255401262593
20
235.39673443501513
30
12.000000000000002
11
71.462554012625901
21
215.39673443501525
31
12.000000000000002
0
LINE
5
1034
100
AcDbEntity
8
0
100
AcDbLine
10
83.462554012625816
20
190.39673443501539
30
12.000000000000002
11
83.46255401262583
21
210.39673443501528
31
12.000000000000002
0
LINE
5
1035
100
AcDbEntity
8
0
100
AcDbLine
10
83.46255401262583
20
210.39673443501528
30
12.000000000000002
11
71.462554012625901
21
210.39673443501528
31
12.000000000000002
0
LINE
5
1036
100
AcDbEntity
8
0
100
AcDbLine
10
71.462554012625901
20
210.39673443501528
30
12.000000000000002
11
71.462554012625887
21
190.39673443501539
31
12.000000000000002
0
LINE
5
1037
100
AcDbEntity
8
0
100
AcDbLine
10
71.462554012625887
20
190.39673443501539
30
12.000000000000002
11
83.462554012625816
21
190.39673443501539
31
12.000000000000002
0
LINE
5
1038
100
AcDbEntity
8
0
100
AcDbLine
10
745.46255401262215
20
190.39673443501471
30
12.000000000000002
11
745.46255401262215
21
210.39673443501459
31
12.000000000000002
0
LINE
5
1039
100
AcDbEntity
8
0
100
AcDbLine
10
745.46255401262215
20
210.39673443501459
30
12.000000000000002
11
95.46255401262556
21
210.39673443501525
31
12.000000000000002
0
LINE
5
1040
100
AcDbEntity
8
0
100
AcDbLine
10
95.46255401262556
20
210.39673443501525
30
12.000000000000002
11
95.462554012625731
21
190.39673443501533
31
12.000000000000002
0
LINE
5
1041
100
AcDbEntity
8
0
100
AcDbLine
10
95.462554012625731
20
190.39673443501533
30
12.000000000000002
11
745.46255401262215
21
190.39673443501471
31
12.000000000000002
0
LINE
5
1042
100
AcDbEntity
8
0
100
AcDbLine
10
745.46255401262215
20
165.39673443501485
30
12.000000000000002
11
745.46255401262215
21
185.39673443501474
31
12.000000000000002
0
LINE
5
1043
100
AcDbEntity
8
0
100
AcDbLine
10
745.46255401262215
20
185.39673443501474
30
12.000000000000002
11
95.462554012625702
21
185.39673443501539
31
12.000000000000002
0
LINE
5
1044
100
AcDbEntity
8
0
100
AcDbLine
10
95.462554012625702
20
185.39673443501539
30
12.000000000000002
11
95.462554012625731
21
184.02790826779739
31
12.000000000000002
0
LINE
5
1045
100
AcDbEntity
8
0
100
AcDbLine
10
95.462554012625731
20
184.02790826779739
30
12.000000000000002
11
95.449163365919219
21
184.02790826779744
31
12.000000000000002
0
LINE
5
1046
100
AcDbEntity
8
0
100
AcDbLine
10
95.449163365919219
20
184.02790826779744
30
12.000000000000002
11
95.449163365919219
21
165.39673443501553
31
12.000000000000002
0
LINE
5
1047
100
AcDbEntity
8
0
100
AcDbLine
10
95.449163365919219
20
165.39673443501553
30
12.000000000000002
11
745.46255401262215
21
165.39673443501485
31
12.000000000000002
0
ARC
5
1048
100
AcDbEntity
8
0
100
AcDbCircle
10
85.407097660888752
20
127.34127808327875
30
12.000000000000002
40
2.5000000000000067
210
0
220
0
230
1
100
AcDbArc
50
231.06117612239481
51
308.93882387760448
0
LINE
5
1049
100
AcDbEntity
8
0
100
AcDbLine
10
83.835872024641688
20
125.39673443501573
30
12.000000000000002
11
83.462554012625745
21
125.39673443501573
31
12.000000000000002
0
LINE
5
1050
100
AcDbEntity
8
0
100
AcDbLine
10
83.462554012625745
20
125.39673443501573
30
12.000000000000002
11
83.462554012625745
21
125.77005244703167
31
12.000000000000002
0
ARC
5
1051
100
AcDbEntity
8
0
100
AcDbCircle
10
85.407097660888752
20
127.34127808327875
30
12.000000000000002
40
2.499999999999984
210
0
220
0
230
1
100
AcDbArc
50
141.06117612239541
51
218.93882387760561
0
LINE
5
1052
100
AcDbEntity
8
0
100
AcDbLine
10
83.462554012625745
20
128.91250371952577
30
12.000000000000002
11
83.462554012625745
21
135.39673443501567
31
12.000000000000002
0
LINE
5
1053
100
AcDbEntity
8
0
100
AcDbLine
10
83.462554012625745
20
135.39673443501567
30
12.000000000000002
11
71.46255401262583
21
135.39673443501567
31
12.000000000000002
0
LINE
5
1054
100
AcDbEntity
8
0
100
AcDbLine
10
71.46255401262583
20
135.39673443501567
30
12.000000000000002
11
71.462554012625802
21
115.39673443501582
31
12.000000000000002
0
LINE
5
1055
100
AcDbEntity
8
0
100
AcDbLine
10
71.462554012625802
20
115.39673443501582
30
12.000000000000002
11
769.46255401262204
21
115.39673443501512
31
12.000000000000002
0
LINE
5
1056
100
AcDbEntity
8
0
100
AcDbLine
10
769.46255401262204
20
115.39673443501512
30
12.000000000000002
11
769.46255401262215
21
135.39673443501499
31
12.000000000000002
0
LINE
5
1057
100
AcDbEntity
8
0
100
AcDbLine
10
769.46255401262215
20
135.39673443501499
30
12.000000000000002
11
757.46255401262215
21
135.39673443501502
31
12.000000000000002
0
LINE
5
1058
100
AcDbEntity
8
0
100
AcDbLine
10
757.46255401262215
20
135.39673443501502
30
12.000000000000002
11
757.46255401262204
21
128.91250371952512
31
12.000000000000002
0
ARC
5
1059
100
AcDbEntity
8
0
100
AcDbCircle
10
755.51801036435904
20
127.34127808327804
30
12.000000000000002
40
2.4999999999999929
210
0
220
0
230
1
100
AcDbArc
50
-38.938823877605849
51
38.938823877605827
0
LINE
5
1060
100
AcDbEntity
8
0
100
AcDbLine
10
757.46255401262204
20
125.77005244703096
30
12.000000000000002
11
757.46255401262204
21
125.39673443501506
31
12.000000000000002
0
LINE
5
1061
100
AcDbEntity
8
0
100
AcDbLine
10
757.46255401262204
20
125.39673443501506
30
12.000000000000002
11
757.08923600060621
21
125.39673443501506
31
12.000000000000002
0
ARC
5
1062
100
AcDbEntity
8
0
100
AcDbCircle
10
755.51801036435904
20
127.34127808327804
30
12.000000000000002
40
2.4999999999999876
210
0
220
0
230
1
100
AcDbArc
50
231.06117612239228
51
308.93882387760755
0
LINE
5
1063
100
AcDbEntity
8
0
100
AcDbLine
10
753.94678472811188
20
125.39673443501508
30
12.000000000000002
11
748.97832329713208
21
125.39673443501506
31
12.000000000000002
0
ARC
5
1064
100
AcDbEntity
8
0
100
AcDbCircle
10
747.40709766088514
20
127.34127808327814
30
12.000000000000002
40
2.5000000000000706
210
0
220
0
230
1
100
AcDbArc
50
231.06117612239575
51
308.93882387760209
0
LINE
5
1065
100
AcDbEntity
8
0
100
AcDbLine
10
745.83587202463809
20
125.39673443501508
30
12.000000000000002
11
745.46255401262215
21
125.39673443501506
31
12.000000000000002
0
LINE
5
1066
100
AcDbEntity
8
0
100
AcDbLine
10
745.46255401262215
20
125.39673443501506
30
12.000000000000002
11
745.46255401262215
21
125.77005244703099
31
12.000000000000002
0
ARC
5
1067
100
AcDbEntity
8
0
100
AcDbCircle
10
747.40709766088514
20
127.34127808327814
30
12.000000000000002
40
2.499999999999948
210
0
220
0
230
1
100
AcDbArc
50
141.06117612239544
51
218.93882387760712
0
LINE
5
1068
100
AcDbEntity
8
0
100
AcDbLine
10
745.46255401262215
20
128.91250371952515
30
12.000000000000002
11
745.46255401262215
21
135.39673443501502
31
12.000000000000002
0
LINE
5
1069
100
AcDbEntity
8
0
100
AcDbLine
10
745.46255401262215
20
135.39673443501502
30
12.000000000000002
11
95.462554012625702
21
135.39673443501567
31
12.000000000000002
0
LINE
5
1070
100
AcDbEntity
8
0
100
AcDbLine
10
95.462554012625702
20
135.39673443501567
30
12.000000000000002
11
95.462554012625702
21
128.91250147317572
31
12.000000000000002
0
ARC
5
1071
100
AcDbEntity
8
0
100
AcDbCircle
10
93.518010364362709
20
127.34127583692867
30
12.000000000000002
40
2.499999999999968
210
0
220
0
230
1
100
AcDbArc
50
-38.938823877605536
51
38.938823877605323
0
LINE
5
1072
100
AcDbEntity
8
0
100
AcDbLine
10
95.462554012625688
20
125.77005020068162
30
12.000000000000002
11
95.462554012625688
21
125.39673218866567
31
12.000000000000002
0
LINE
5
1073
100
AcDbEntity
8
0
100
AcDbLine
10
95.462554012625688
20
125.39673218866567
30
12.000000000000002
11
95.089238780681058
21
125.39673443501573
31
12.000000000000002
0
ARC
5
1074
100
AcDbEntity
8
0
100
AcDbCircle
10
93.518010364362709
20
127.34127583692867
30
12.000000000000002
40
2.499999999999996
210
0
220
0
230
1
100
AcDbArc
50
231.06109420782985
51
308.93890579216918
0
LINE
5
1075
100
AcDbEntity
8
0
100
AcDbLine
10
91.946781948044304
20
125.39673443501573
30
12.000000000000002
11
86.978323297135788
21
125.39673443501572
31
12.000000000000002
0
LINE
5
1076
100
AcDbEntity
8
0
100
AcDbLine
10
745.46255401262215
20
140.39673443501499
30
12.000000000000002
11
745.46255401262215
21
160.39673443501488
31
12.000000000000002
0
LINE
5
1077
100
AcDbEntity
8
0
100
AcDbLine
10
745.46255401262215
20
160.39673443501488
30
12.000000000000002
11
95.462554012625702
21
160.39673443501553
31
12.000000000000002
0
LINE
5
1078
100
AcDbEntity
8
0
100
AcDbLine
10
95.462554012625702
20
160.39673443501553
30
12.000000000000002
11
95.462554012625716
21
159.02790826779756
31
12.000000000000002
0
LINE
5
1079
100
AcDbEntity
8
0
100
AcDbLine
10
95.462554012625716
20
159.02790826779756
30
12.000000000000002
11
95.449163365919176
21
159.02790826779761
31
12.000000000000002
0
LINE
5
1080
100
AcDbEntity
8
0
100
AcDbLine
10
95.449163365919176
20
159.02790826779761
30
12.000000000000002
11
95.449163365919176
21
140.39673443501567
31
12.000000000000002
0
LINE
5
1081
100
AcDbEntity
8
0
100
AcDbLine
10
95.449163365919176
20
140.39673443501567
30
12.000000000000002
11
745.46255401262215
21
140.39673443501499
31
12.000000000000002
0
LINE
5
1082
100
AcDbEntity
8
0
100
AcDbLine
10
83.462554012625787
20
165.39673443501553
30
12.000000000000002
11
83.462554012625802
21
185.39673443501542
31
12.000000000000002
0
LINE
5
1083
100
AcDbEntity
8
0
100
AcDbLine
10
83.462554012625802
20
185.39673443501542
30
12.000000000000002
11
71.462554012625873
21
185.39673443501542
31
12.000000000000002
0
LINE
5
1084
100
AcDbEntity
8
0
100
AcDbLine
10
71.462554012625873
20
185.39673443501542
30
12.000000000000002
11
71.462554012625858
21
165.39673443501553
31
12.000000000000002
0
LINE
5
1085
100
AcDbEntity
8
0
100
AcDbLine
10
71.462554012625858
20
165.39673443501553
30
12.000000000000002
11
83.462554012625787
21
165.39673443501553
31
12.000000000000002
0
LINE
5
1086
100
AcDbEntity
8
0
100
AcDbLine
10
83.462554012625759
20
140.39673443501562
30
12.000000000000002
11
83.462554012625787
21
160.39673443501553
31
12.000000000000002
0
LINE
5
1087
100
AcDbEntity
8
0
100
AcDbLine
10
83.462554012625787
20
160.39673443501553
30
12.000000000000002
11
71.462554012625844
21
160.39673443501553
31
12.000000000000002
0
LINE
5
1088
100
AcDbEntity
8
0
100
AcDbLine
10
71.462554012625844
20
160.39673443501553
30
12.000000000000002
11
71.46255401262583
21
140.39673443501567
31
12.000000000000002
0
LINE
5
1089
100
AcDbEntity
8
0
100
AcDbLine
10
71.46255401262583
20
140.39673443501567
30
12.000000000000002
11
83.462554012625759
21
140.39673443501562
31
12.000000000000002
0
LINE
5
1090
100
AcDbEntity
8
0
100
AcDbLine
10
71.462554012625773
20
90.396734435015929
30
12.000000000000002
11
769.46255401262204
21
90.396734435015247
31
12.000000000000002
0
LINE
5
1091
100
AcDbEntity
8
0
100
AcDbLine
10
769.46255401262204
20
90.396734435015247
30
12.000000000000002
11
769.46255401262192
21
110.39673443501513
31
12.000000000000002
0
LINE
5
1092
100
AcDbEntity
8
0
100
AcDbLine
10
769.46255401262192
20
110.39673443501513
30
12.000000000000002
11
71.46255401262593
21
110.39673443501583
31
12.000000000000002
0
LINE
5
1093
100
AcDbEntity
8
0
100
AcDbLine
10
71.46255401262593
20
110.39673443501583
30
12.000000000000002
11
71.462554012625773
21
90.396734435015929
31
12.000000000000002
0
LINE
5
1094
100
AcDbEntity
8
0
100
AcDbLine
10
769.46255401262192
20
85.396734435015262
30
12.000000000000002
11
71.462554012625645
21
85.396734435015958
31
12.000000000000002
0
LINE
5
1095
100
AcDbEntity
8
0
100
AcDbLine
10
71.462554012625645
20
85.396734435015958
30
12.000000000000002
11
71.462554012625716
21
24.896734435016263
31
12.000000000000002
0
LINE
5
1096
100
AcDbEntity
8
0
100
AcDbLine
10
71.462554012625716
20
24.896734435016263
30
12.000000000000002
11
769.46255401262192
21
24.896734435015574
31
12.000000000000002
0
LINE
5
1097
100
AcDbEntity
8
0
100
AcDbLine
10
769.46255401262192
20
24.896734435015574
30
12.000000000000002
11
769.46255401262192
21
85.396734435015262
31
12.000000000000002
0
LINE
5
1098
100
AcDbEntity
8
0
100
AcDbLine
10
757.46255401262204
20
160.39673443501485
30
12.000000000000002
11
757.46255401262204
21
159.02790826779682
31
12.000000000000002
0
LINE
5
1099
100
AcDbEntity
8
0
100
AcDbLine
10
757.46255401262204
20
159.02790826779682
30
12.000000000000002
11
757.44916336591587
21
159.02790826779687
31
12.000000000000002
0
LINE
5
1100
100
AcDbEntity
8
0
100
AcDbLine
10
757.44916336591587
20
159.02790826779687
30
12.000000000000002
11
757.44916336591587
21
140.39673443501499
31
12.000000000000002
0
LINE
5
1101
100
AcDbEntity
8
0
100
AcDbLine
10
757.44916336591587
20
140.39673443501499
30
12.000000000000002
11
769.46255401262204
21
140.39673443501493
31
12.000000000000002
0
LINE
5
1102
100
AcDbEntity
8
0
100
AcDbLine
10
769.46255401262204
20
140.39673443501493
30
12.000000000000002
11
769.46255401262215
21
160.39673443501485
31
12.000000000000002
0
LINE
5
1103
100
AcDbEntity
8
0
100
AcDbLine
10
769.46255401262215
20
160.39673443501485
30
12.000000000000002
11
757.46255401262204
21
160.39673443501485
31
12.000000000000002
0
LINE
5
1104
100
AcDbEntity
8
0
100
AcDbLine
10
757.44916336591587
20
184.02790826779668
30
12.000000000000002
11
757.44916336591587
21
165.39673443501485
31
12.000000000000002
0
LINE
5
1105
100
AcDbEntity
8
0
100
AcDbLine
10
757.44916336591587
20
165.39673443501485
30
12.000000000000002
11
769.46255401262204
21
165.39673443501485
31
12.000000000000002
0
LINE
5
1106
100
AcDbEntity
8
0
100
AcDbLine
10
769.46255401262204
20
165.39673443501485
30
12.000000000000002
11
769.46255401262215
21
185.39673443501474
31
12.000000000000002
0
LINE
5
1107
100
AcDbEntity
8
0
100
AcDbLine
10
769.46255401262215
20
185.39673443501474
30
12.000000000000002
11
757.46255401262215
21
185.39673443501471
31
12.000000000000002
0
LINE
5
1108
100
AcDbEntity
8
0
100
AcDbLine
10
757.46255401262215
20
185.39673443501471
30
12.000000000000002
11
757.46255401262204
21
184.02790826779668
31
12.000000000000002
0
LINE
5
1109
100
AcDbEntity
8
0
100
AcDbLine
10
757.46255401262204
20
184.02790826779668
30
12.000000000000002
11
757.44916336591587
21
184.02790826779668
31
12.000000000000002
0
LINE
5
1110
100
AcDbEntity
8
0
100
AcDbLine
10
757.46255401262238
20
335.39673443501391
30
12.000000000000002
11
757.46255401262238
21
315.39673443501403
31
12.000000000000002
0
LINE
5
1111
100
AcDbEntity
8
0
100
AcDbLine
10
757.46255401262238
20
315.39673443501403
30
12.000000000000002
11
769.46255401262238
21
315.39673443501403
31
12.000000000000002
0
LINE
5
1112
100
AcDbEntity
8
0
100
AcDbLine
10
769.46255401262238
20
315.39673443501403
30
12.000000000000002
11
769.46255401262215
21
335.39673443501385
31
12.000000000000002
0
LINE
5
1113
100
AcDbEntity
8
0
100
AcDbLine
10
769.46255401262215
20
335.39673443501385
30
12.000000000000002
11
757.46255401262238
21
335.39673443501391
31
12.000000000000002
0
LINE
5
1114
100
AcDbEntity
8
0
100
AcDbLine
10
757.46255401262204
20
210.39673443501459
30
12.000000000000002
11
757.46255401262204
21
190.39673443501471
31
12.000000000000002
0
LINE
5
1115
100
AcDbEntity
8
0
100
AcDbLine
10
757.46255401262204
20
190.39673443501471
30
12.000000000000002
11
769.46255401262204
21
190.39673443501471
31
12.000000000000002
0
LINE
5
1116
100
AcDbEntity
8
0
100
AcDbLine
10
769.46255401262204
20
190.39673443501471
30
12.000000000000002
11
769.46255401262215
21
210.39673443501457
31
12.000000000000002
0
LINE
5
1117
100
AcDbEntity
8
0
100
AcDbLine
10
769.46255401262215
20
210.39673443501457
30
12.000000000000002
11
757.46255401262204
21
210.39673443501459
31
12.000000000000002
0
LINE
5
1118
100
AcDbEntity
8
0
100
AcDbLine
10
757.46255401262238
20
360.3967344350138
30
12.000000000000002
11
757.46255401262238
21
359.02790826779528
31
12.000000000000002
0
LINE
5
1119
100
AcDbEntity
8
0
100
AcDbLine
10
757.46255401262238
20
359.02790826779528
30
12.000000000000002
11
757.44916336591609
21
359.02790826779528
31
12.000000000000002
0
LINE
5
1120
100
AcDbEntity
8
0
100
AcDbLine
10
757.44916336591609
20
359.02790826779528
30
12.000000000000002
11
757.44916336591609
21
340.39673443501391
31
12.000000000000002
0
LINE
5
1121
100
AcDbEntity
8
0
100
AcDbLine
10
757.44916336591609
20
340.39673443501391
30
12.000000000000002
11
769.46255401262238
21
340.39673443501391
31
12.000000000000002
0
LINE
5
1122
100
AcDbEntity
8
0
100
AcDbLine
10
769.46255401262238
20
340.39673443501391
30
12.000000000000002
11
769.46255401262215
21
360.3967344350138
31
12.000000000000002
0
LINE
5
1123
100
AcDbEntity
8
0
100
AcDbLine
10
769.46255401262215
20
360.3967344350138
30
12.000000000000002
11
757.46255401262238
21
360.3967344350138
31
12.000000000000002
0
LINE
5
1124
100
AcDbEntity
8
0
100
AcDbLine
10
757.44916336591609
20
384.027908267795
30
12.000000000000002
11
757.44916336591609
21
365.39673443501374
31
12.000000000000002
0
LINE
5
1125
100
AcDbEntity
8
0
100
AcDbLine
10
757.44916336591609
20
365.39673443501374
30
12.000000000000002
11
769.46255401262238
21
365.39673443501374
31
12.000000000000002
0
LINE
5
1126
100
AcDbEntity
8
0
100
AcDbLine
10
769.46255401262238
20
365.39673443501374
30
12.000000000000002
11
769.46255401262215
21
385.39673443501357
31
12.000000000000002
0
LINE
5
1127
100
AcDbEntity
8
0
100
AcDbLine
10
769.46255401262215
20
385.39673443501357
30
12.000000000000002
11
757.46255401262249
21
385.39673443501363
31
12.000000000000002
0
LINE
5
1128
100
AcDbEntity
8
0
100
AcDbLine
10
757.46255401262249
20
385.39673443501363
30
12.000000000000002
11
757.46255401262238
21
384.027908267795
31
12.000000000000002
0
LINE
5
1129
100
AcDbEntity
8
0
100
AcDbLine
10
757.46255401262238
20
384.027908267795
30
12.000000000000002
11
757.44916336591609
21
384.027908267795
31
12.000000000000002
0
LINE
5
1130
100
AcDbEntity
8
0
100
AcDbLine
10
138.7416985939781
20
545.17788037084688
30
6.0000000000000142
11
138.7416985939781
21
533.17788037084699
31
6.0000000000000142
0
LINE
5
1131
100
AcDbEntity
8
0
100
AcDbLine
10
138.7416985939781
20
533.17788037084699
30
6.0000000000000142
11
788.74169859397057
21
533.17788037084688
31
6.0000000000000142
0
LINE
5
1132
100
AcDbEntity
8
0
100
AcDbLine
10
788.74169859397057
20
533.17788037084688
30
6.0000000000000142
11
788.74169859397057
21
545.17788037084676
31
6.0000000000000142
0
LINE
5
1133
100
AcDbEntity
8
0
100
AcDbLine
10
788.74169859397057
20
545.17788037084676
30
6.0000000000000142
11
138.7416985939781
21
545.17788037084688
31
6.0000000000000142
0
LINE
5
1134
100
AcDbEntity
8
0
100
AcDbLine
10
347.20797339088568
20
1774.3445124074542
30
5.9999999999999876
11
359.20797339088557
21
1774.3445124074542
31
5.9999999999999876
0
LINE
5
1135
100
AcDbEntity
8
0
100
AcDbLine
10
359.20797339088557
20
1774.3445124074542
30
5.9999999999999876
11
359.2079733908854
21
2424.3445124074487
31
5.9999999999999876
0
LINE
5
1136
100
AcDbEntity
8
0
100
AcDbLine
10
359.2079733908854
20
2424.3445124074487
30
5.9999999999999876
11
347.20797339088557
21
2424.3445124074487
31
5.9999999999999876
0
LINE
5
1137
100
AcDbEntity
8
0
100
AcDbLine
10
347.20797339088557
20
2424.3445124074487
30
5.9999999999999876
11
347.20797339088568
21
1774.3445124074542
31
5.9999999999999876
0
LWPOLYLINE
5
1138
100
AcDbEntity
8
0
100
AcDbPolyline
90
4
70
1
43
0.0
10
0
20
0
10
0
20
2440
10
1220
20
2440
10
1220
20
0
0
LWPOLYLINE
5
1139
100
AcDbEntity
8
0
100
AcDbPolyline
90
4
70
1
43
0.0
10
138.7416985939781
20
533.17788037084699
10
788.74169859397057
20
533.17788037084688
10
788.74169859397057
20
519.17788037084711
10
138.7416985939781
20
519.17788037084722
0
LWPOLYLINE
5
1140
100
AcDbEntity
8
0
100
AcDbPolyline
90
4
70
1
43
0.0
10
359.20797339088563
20
1774.3445124074547
10
359.20797339088546
20
2424.3445124074487
10
373.20797339088529
20
2424.3445124074487
10
373.2079733908854
20
1774.3445124074542
0
LWPOLYLINE
5
1141
100
AcDbEntity
8
0
100
AcDbPolyline
90
12
70
1
43
0.0
10
432.99948136502996
20
1031.2847288963926
10
432.99948136503019
20
1550.3447529156001
42
0.31296265436827486
10
406.99948136503065
20
1587.8147409059895
10
406.99948136503065
20
1621.8147409059886
10
446.99948136502974
20
1621.8147409059886
10
446.99948136502974
20
1615.8147409059889
10
452.99948136502962
20
1615.8147409059889
10
452.9994813650294
20
965.81474090600386
10
446.99948136502951
20
965.81474090600386
10
446.99948136502951
20
959.81474090600398
10
406.99948136503053
20
959.81474090600398
10
406.99948136503042
20
993.81474090600307
42
0.31296265436827569
0
ENDSEC
0
SECTION
2
OBJECTS
0
DICTIONARY
5
C
100
AcDbDictionary
3
ACAD_GROUP
350
D
3
ACAD_MLINESTYLE
350
17
0
DICTIONARY
5
D
100
AcDbDictionary
0
DICTIONARY
5
1A
330
C
100
AcDbDictionary
0
DICTIONARY
5
17
100
AcDbDictionary
0
ENDSEC
0
EOF
