  0
SECTION
  2
HEADER
  9
$ACADVER
  1
AC1021
  9
$ACADMAINTVER
 70
    25
  9
$DWGCODEPAGE
  3
ANSI_1252
  9
$INSBASE
 10
0.0
 20
0.0
 30
0.0
  9
$EXTMIN
 10
1.000000000000000E+20
 20
1.000000000000000E+20
 30
1.000000000000000E+20
  9
$EXTMAX
 10
-1.000000000000000E+20
 20
-1.000000000000000E+20
 30
-1.000000000000000E+20
  9
$LIMMIN
 10
0.0
 20
0.0
  9
$LIMMAX
 10
12.0
 20
9.0
  9
$ORTHOMODE
 70
     0
  9
$REGENMODE
 70
     1
  9
$FILLMODE
 70
     1
  9
$QTEXTMODE
 70
     0
  9
$MIRRTEXT
 70
     1
  9
$LTSCALE
 40
1.0
  9
$ATTMODE
 70
     1
  9
$TEXTSIZE
 40
0.2
  9
$TRACEWID
 40
0.05
  9
$TEXTSTYLE
  7
Standard
  9
$CLAYER
  8
Default
  9
$CELTYPE
  6
ByLayer
  9
$CECOLOR
 62
   256
  9
$CELTSCALE
 40
1.0
  9
$DISPSILH
 70
     0
  9
$DIMSCALE
 40
1.0
  9
$DIMASZ
 40
0.18
  9
$DIMEXO
 40
0.0625
  9
$DIMDLI
 40
0.38
  9
$DIMRND
 40
0.0
  9
$DIMDLE
 40
0.0
  9
$DIMEXE
 40
0.18
  9
$DIMTP
 40
0.0
  9
$DIMTM
 40
0.0
  9
$DIMTXT
 40
0.18
  9
$DIMCEN
 40
0.09
  9
$DIMTSZ
 40
0.0
  9
$DIMTOL
 70
     0
  9
$DIMLIM
 70
     0
  9
$DIMTIH
 70
     1
  9
$DIMTOH
 70
     1
  9
$DIMSE1
 70
     0
  9
$DIMSE2
 70
     0
  9
$DIMTAD
 70
     0
  9
$DIMZIN
 70
     0
  9
$DIMBLK
  1

  9
$DIMASO
 70
     1
  9
$DIMSHO
 70
     1
  9
$DIMPOST
  1

  9
$DIMAPOST
  1

  9
$DIMALT
 70
     0
  9
$DIMALTD
 70
     2
  9
$DIMALTF
 40
25.4
  9
$DIMLFAC
 40
1.0
  9
$DIMTOFL
 70
     0
  9
$DIMTVP
 40
0.0
  9
$DIMTIX
 70
     0
  9
$DIMSOXD
 70
     0
  9
$DIMSAH
 70
     0
  9
$DIMBLK1
  1

  9
$DIMBLK2
  1

  9
$DIMSTYLE
  2
STANDARD_ACAD
  9
$DIMCLRD
 70
     0
  9
$DIMCLRE
 70
     0
  9
$DIMCLRT
 70
     0
  9
$DIMTFAC
 40
1.0
  9
$DIMGAP
 40
0.09
  9
$DIMJUST
 70
     0
  9
$DIMSD1
 70
     0
  9
$DIMSD2
 70
     0
  9
$DIMTOLJ
 70
     1
  9
$DIMTZIN
 70
     0
  9
$DIMALTZ
 70
     0
  9
$DIMALTTZ
 70
     0
  9
$DIMUPT
 70
     0
  9
$DIMDEC
 70
     4
  9
$DIMTDEC
 70
     4
  9
$DIMALTU
 70
     2
  9
$DIMALTTD
 70
     2
  9
$DIMTXSTY
  7
Standard
  9
$DIMAUNIT
 70
     0
  9
$DIMADEC
 70
     0
  9
$DIMALTRND
 40
0.0
  9
$DIMAZIN
 70
     0
  9
$DIMDSEP
 70
    46
  9
$DIMATFIT
 70
     3
  9
$DIMFRAC
 70
     0
  9
$DIMLDRBLK
  1

  9
$DIMLUNIT
 70
     2
  9
$DIMLWD
 70
    -2
  9
$DIMLWE
 70
    -2
  9
$DIMTMOVE
 70
     2
  9
$DIMFXL
 40
1.0
  9
$DIMFXLON
 70
     0
  9
$DIMJOGANG
 40
0.7853981633974483
  9
$DIMTFILL
 70
     0
  9
$DIMTFILLCLR
 70
     0
  9
$DIMARCSYM
 70
     0
  9
$DIMLTYPE
  6

  9
$DIMLTEX1
  6

  9
$DIMLTEX2
  6

  9
$LUNITS
 70
     2
  9
$LUPREC
 70
     2
  9
$SKETCHINC
 40
0.1
  9
$FILLETRAD
 40
0.5
  9
$AUNITS
 70
     0
  9
$AUPREC
 70
     0
  9
$MENU
  1
.
  9
$ELEVATION
 40
0.0
  9
$PELEVATION
 40
0.0
  9
$THICKNESS
 40
0.0
  9
$LIMCHECK
 70
     0
  9
$CHAMFERA
 40
0.0
  9
$CHAMFERB
 40
0.0
  9
$CHAMFERC
 40
0.0
  9
$CHAMFERD
 40
0.0
  9
$SKPOLY
 70
     0
  9
$TDCREATE
 40
2459262.92049132
  9
$TDUCREATE
 40
2459262.691324653
  9
$TDUPDATE
 40
2459262.920507361
  9
$TDUUPDATE
 40
2459262.691340695
  9
$TDINDWG
 40
0.0000000116
  9
$TDUSRTIMER
 40
0.0000000116
  9
$USRTIMER
 70
     1
  9
$ANGBASE
 50
0.0
  9
$ANGDIR
 70
     0
  9
$PDMODE
 70
     0
  9
$PDSIZE
 40
0.0
  9
$PLINEWID
 40
0.0
  9
$SPLFRAME
 70
     0
  9
$SPLINETYPE
 70
     6
  9
$SPLINESEGS
 70
     8
  9
$HANDSEED
  5
4F2
  9
$SURFTAB1
 70
     6
  9
$SURFTAB2
 70
     6
  9
$SURFTYPE
 70
     6
  9
$SURFU
 70
     6
  9
$SURFV
 70
     6
  9
$UCSBASE
  2

  9
$UCSNAME
  2

  9
$UCSORG
 10
0.0
 20
0.0
 30
0.0
  9
$UCSXDIR
 10
1.0
 20
0.0
 30
0.0
  9
$UCSYDIR
 10
0.0
 20
1.0
 30
0.0
  9
$UCSORTHOREF
  2

  9
$UCSORTHOVIEW
 70
     0
  9
$UCSORGTOP
 10
0.0
 20
0.0
 30
0.0
  9
$UCSORGBOTTOM
 10
0.0
 20
0.0
 30
0.0
  9
$UCSORGLEFT
 10
0.0
 20
0.0
 30
0.0
  9
$UCSORGRIGHT
 10
0.0
 20
0.0
 30
0.0
  9
$UCSORGFRONT
 10
0.0
 20
0.0
 30
0.0
  9
$UCSORGBACK
 10
0.0
 20
0.0
 30
0.0
  9
$PUCSBASE
  2

  9
$PUCSNAME
  2

  9
$PUCSORG
 10
0.0
 20
0.0
 30
0.0
  9
$PUCSXDIR
 10
1.0
 20
0.0
 30
0.0
  9
$PUCSYDIR
 10
0.0
 20
1.0
 30
0.0
  9
$PUCSORTHOREF
  2

  9
$PUCSORTHOVIEW
 70
     0
  9
$PUCSORGTOP
 10
0.0
 20
0.0
 30
0.0
  9
$PUCSORGBOTTOM
 10
0.0
 20
0.0
 30
0.0
  9
$PUCSORGLEFT
 10
0.0
 20
0.0
 30
0.0
  9
$PUCSORGRIGHT
 10
0.0
 20
0.0
 30
0.0
  9
$PUCSORGFRONT
 10
0.0
 20
0.0
 30
0.0
  9
$PUCSORGBACK
 10
0.0
 20
0.0
 30
0.0
  9
$USERI1
 70
     0
  9
$USERI2
 70
     0
  9
$USERI3
 70
     0
  9
$USERI4
 70
     0
  9
$USERI5
 70
     0
  9
$USERR1
 40
0.0
  9
$USERR2
 40
0.0
  9
$USERR3
 40
0.0
  9
$USERR4
 40
0.0
  9
$USERR5
 40
0.0
  9
$WORLDVIEW
 70
     1
  9
$SHADEDGE
 70
     3
  9
$SHADEDIF
 70
    70
  9
$TILEMODE
 70
     1
  9
$MAXACTVP
 70
    64
  9
$PINSBASE
 10
0.0
 20
0.0
 30
0.0
  9
$PLIMCHECK
 70
     0
  9
$PEXTMIN
 10
1.000000000000000E+20
 20
1.000000000000000E+20
 30
1.000000000000000E+20
  9
$PEXTMAX
 10
-1.000000000000000E+20
 20
-1.000000000000000E+20
 30
-1.000000000000000E+20
  9
$PLIMMIN
 10
0.0
 20
0.0
  9
$PLIMMAX
 10
12.0
 20
9.0
  9
$UNITMODE
 70
     0
  9
$VISRETAIN
 70
     1
  9
$PLINEGEN
 70
     0
  9
$PSLTSCALE
 70
     1
  9
$TREEDEPTH
 70
  3020
  9
$CMLSTYLE
  2
Standard
  9
$CMLJUST
 70
     0
  9
$CMLSCALE
 40
1.0
  9
$PROXYGRAPHICS
 70
     1
  9
$MEASUREMENT
 70
     1
  9
$CELWEIGHT
370
    -1
  9
$ENDCAPS
280
     0
  9
$JOINSTYLE
280
     0
  9
$LWDISPLAY
290
     0
  9
$INSUNITS
 70
     4
  9
$HYPERLINKBASE
  1

  9
$STYLESHEET
  1

  9
$XEDIT
290
     1
  9
$CEPSNTYPE
380
     0
  9
$PSTYLEMODE
290
     1
  9
$FINGERPRINTGUID
  2
{e9c0bbb5-69bc-4a62-8821-62d6442fe21b}
  9
$VERSIONGUID
  2
{FAEB1C32-E019-11D5-929B-00C0DF256EC4}
  9
$EXTNAMES
290
     1
  9
$PSVPSCALE
 40
0.0
  9
$OLESTARTUP
290
     0
  9
$SORTENTS
280
   127
  9
$INDEXCTL
280
     0
  9
$HIDETEXT
280
     1
  9
$XCLIPFRAME
290
     0
  9
$HALOGAP
280
     0
  9
$OBSCOLOR
 70
   257
  9
$OBSLTYPE
280
     0
  9
$INTERSECTIONDISPLAY
280
     0
  9
$INTERSECTIONCOLOR
 70
   257
  9
$DIMASSOC
280
     2
  9
$PROJECTNAME
  1

  9
$CAMERADISPLAY
290
     0
  9
$LENSLENGTH
 40
50.0
  9
$CAMERAHEIGHT
 40
0.0
  9
$STEPSPERSEC
 40
2.0
  9
$STEPSIZE
 40
6.0
  9
$3DDWFPREC
 40
2.0
  9
$PSOLWIDTH
 40
0.25
  9
$PSOLHEIGHT
 40
4.0
  9
$LOFTANG1
 40
1.570796326794897
  9
$LOFTANG2
 40
1.570796326794897
  9
$LOFTMAG1
 40
0.0
  9
$LOFTMAG2
 40
0.0
  9
$LOFTPARAM
 70
     7
  9
$LOFTNORMALS
280
     1
  9
$LATITUDE
 40
37.795
  9
$LONGITUDE
 40
-122.394
  9
$NORTHDIRECTION
 40
0.0
  9
$TIMEZONE
 70
 -8000
  9
$LIGHTGLYPHDISPLAY
280
     1
  9
$TILEMODELIGHTSYNCH
280
     1
  9
$CMATERIAL
347
44
  9
$SOLIDHIST
280
     0
  9
$SHOWHIST
280
     1
  9
$DWFFRAME
280
     2
  9
$DGNFRAME
280
     2
  9
$REALWORLDSCALE
290
     1
  9
$INTERFERECOLOR
 62
   256
  9
$CSHADOW
280
     0
  9
$SHADOWPLANELOCATION
 40
0.0
  0
ENDSEC
  0
SECTION
  2
CLASSES
  0
CLASS
  1
ACDBDICTIONARYWDFLT
  2
AcDbDictionaryWithDefault
  3
ObjectDBX Classes
 90
        0
 91
        3
280
     0
281
     0
  0
CLASS
  1
VISUALSTYLE
  2
AcDbVisualStyle
  3
ObjectDBX Classes
 90
     4095
 91
        3
280
     0
281
     0
  0
CLASS
  1
MATERIAL
  2
AcDbMaterial
  3
ObjectDBX Classes
 90
     1153
 91
        3
280
     0
281
     0
  0
CLASS
  1
SCALE
  2
AcDbScale
  3
ObjectDBX Classes
 90
     1153
 91
        3
280
     0
281
     0
  0
CLASS
  1
TABLESTYLE
  2
AcDbTableStyle
  3
ObjectDBX Classes
 90
     4095
 91
        3
280
     0
281
     0
  0
CLASS
  1
MLEADERSTYLE
  2
AcDbMLeaderStyle
  3
ACDB_MLEADERSTYLE_CLASS
 90
     4095
 91
        3
280
     0
281
     0
  0
CLASS
  1
SUN
  2
AcDbSun
  3
SCENEOE
 90
     1153
 91
        3
280
     0
281
     0
  0
CLASS
  1
DICTIONARYVAR
  2
AcDbDictionaryVar
  3
ObjectDBX Classes
 90
        0
 91
        3
280
     0
281
     0
  0
CLASS
  1
CELLSTYLEMAP
  2
AcDbCellStyleMap
  3
ObjectDBX Classes
 90
     1152
 91
        3
280
     0
281
     0
  0
ENDSEC
  0
SECTION
  2
TABLES
  0
TABLE
  2
VPORT
  5
8
330
0
100
AcDbSymbolTable
 70
     1
  0
VPORT
  5
29
330
8
100
AcDbSymbolTableRecord
100
AcDbViewportTableRecord
  2
*Active
 70
     0
 10
0.0
 20
0.0
 11
1.0
 21
1.0
 12
10.42990654205607
 22
4.5
 13
0.0
 23
0.0
 14
0.5
 24
0.5
 15
0.5
 25
0.5
 16
0.0
 26
0.0
 36
1.0
 17
0.0
 27
0.0
 37
0.0
 40
9.0
 41
1.972972972850329
 42
50.0
 43
0.0
 44
0.0
 50
0.0
 51
0.0
 71
     0
 72
   100
 73
     1
 74
     3
 75
     0
 76
     0
 77
     0
 78
     0
281
     0
 65
     1
110
0.0
120
0.0
130
0.0
111
1.0
121
0.0
131
0.0
112
0.0
122
1.0
132
0.0
 79
     0
146
0.0
348
2F
 60
     3
 61
     5
292
     1
282
     1
141
0.0
142
0.0
 63
   250
361
6D
  0
ENDTAB
  0
TABLE
  2
LTYPE
  5
5
330
0
100
AcDbSymbolTable
 70
     1
  0
LTYPE
  5
14
330
5
100
AcDbSymbolTableRecord
100
AcDbLinetypeTableRecord
  2
ByBlock
 70
     0
  3

 72
    65
 73
     0
 40
0.0
  0
LTYPE
  5
15
330
5
100
AcDbSymbolTableRecord
100
AcDbLinetypeTableRecord
  2
ByLayer
 70
     0
  3

 72
    65
 73
     0
 40
0.0
  0
LTYPE
  5
16
330
5
100
AcDbSymbolTableRecord
100
AcDbLinetypeTableRecord
  2
Continuous
 70
     0
  3
Solid line
 72
    65
 73
     0
 40
0.0
  0
ENDTAB
  0
TABLE
  2
LAYER
  5
2
330
0
100
AcDbSymbolTable
 70
     2
  0
LAYER
  5
10
330
2
100
AcDbSymbolTableRecord
100
AcDbLayerTableRecord
  2
0
 70
     0
 62
     7
  6
Continuous
370
    -3
390
F
347
46
  0
LAYER
  5
6E
330
2
100
AcDbSymbolTableRecord
100
AcDbLayerTableRecord
  2
Default
 70
     0
 62
    18
420
        0
  6
Continuous
370
    -3
390
F
347
46
  0
ENDTAB
  0
TABLE
  2
STYLE
  5
3
330
0
100
AcDbSymbolTable
 70
     1
  0
STYLE
  5
11
330
3
100
AcDbSymbolTableRecord
100
AcDbTextStyleTableRecord
  2
Standard
 70
     0
 40
0.0
 41
1.0
 50
0.0
 71
     0
 42
0.2
  3
txt
  4

  0
ENDTAB
  0
TABLE
  2
VIEW
  5
6
330
0
100
AcDbSymbolTable
 70
     0
  0
ENDTAB
  0
TABLE
  2
UCS
  5
7
330
0
100
AcDbSymbolTable
 70
     0
  0
ENDTAB
  0
TABLE
  2
APPID
  5
9
330
0
100
AcDbSymbolTable
 70
     2
  0
APPID
  5
12
330
9
100
AcDbSymbolTableRecord
100
AcDbRegAppTableRecord
  2
ACAD
 70
     0
  0
APPID
  5
4EA
330
9
100
AcDbSymbolTableRecord
100
AcDbRegAppTableRecord
  2
ACAD_MLEADERVER
 70
     0
  0
ENDTAB
  0
TABLE
  2
DIMSTYLE
  5
A
330
0
100
AcDbSymbolTable
 70
     1
100
AcDbDimStyleTable
  0
DIMSTYLE
105
27
330
A
100
AcDbSymbolTableRecord
100
AcDbDimStyleTableRecord
  2
STANDARD_ACAD
 70
     0
178
     0
340
11
  0
ENDTAB
  0
TABLE
  2
BLOCK_RECORD
  5
1
330
0
100
AcDbSymbolTable
 70
     1
  0
BLOCK_RECORD
  5
1F
330
1
100
AcDbSymbolTableRecord
100
AcDbBlockTableRecord
  2
*Model_Space
340
22
 70
     0
280
     1
281
     0
  0
BLOCK_RECORD
  5
1B
330
1
100
AcDbSymbolTableRecord
100
AcDbBlockTableRecord
  2
*Paper_Space
340
1E
 70
     0
280
     1
281
     0
  0
BLOCK_RECORD
  5
23
330
1
100
AcDbSymbolTableRecord
100
AcDbBlockTableRecord
  2
*Paper_Space0
340
26
 70
     0
280
     1
281
     0
  0
ENDTAB
  0
ENDSEC
  0
SECTION
  2
BLOCKS
  0
BLOCK
  5
20
330
1F
100
AcDbEntity
  8
0
100
AcDbBlockBegin
  2
*Model_Space
 70
     0
 10
0.0
 20
0.0
 30
0.0
  3
*Model_Space
  1

  0
ENDBLK
  5
21
330
1F
100
AcDbEntity
  8
0
100
AcDbBlockEnd
  0
BLOCK
  5
1C
330
1B
100
AcDbEntity
 67
     1
  8
0
100
AcDbBlockBegin
  2
*Paper_Space
 70
     0
 10
0.0
 20
0.0
 30
0.0
  3
*Paper_Space
  1

  0
ENDBLK
  5
1D
330
1B
100
AcDbEntity
 67
     1
  8
0
100
AcDbBlockEnd
  0
BLOCK
  5
24
330
23
100
AcDbEntity
  8
0
100
AcDbBlockBegin
  2
*Paper_Space0
 70
     0
 10
0.0
 20
0.0
 30
0.0
  3
*Paper_Space0
  1

  0
ENDBLK
  5
25
330
23
100
AcDbEntity
  8
0
100
AcDbBlockEnd
  0
ENDSEC
  0
SECTION
  2
ENTITIES
  0
POLYLINE
  5
6F
330
1F
100
AcDbEntity
  8
Default
100
AcDb2dPolyline
 66
     1
 10
0.0
 20
0.0
 30
0.0
  0
VERTEX
  5
70
330
6F
100
AcDbEntity
  8
Default
100
AcDbVertex
100
AcDb2dVertex
 10
131.9677511310922
 20
17.30250231790284
 30
0.0
  0
VERTEX
  5
71
330
6F
100
AcDbEntity
  8
Default
100
AcDbVertex
100
AcDb2dVertex
 10
129.9850203454772
 20
19.44987052421506
 30
0.0
  0
SEQEND
  5
72
330
6F
100
AcDbEntity
  8
Default
  0
POLYLINE
  5
73
330
1F
100
AcDbEntity
  8
Default
100
AcDb2dPolyline
 66
     1
 10
0.0
 20
0.0
 30
0.0
  0
VERTEX
  5
74
330
73
100
AcDbEntity
  8
Default
100
AcDbVertex
100
AcDb2dVertex
 10
131.3457002125588
 20
19.45030413714775
 30
0.0
  0
VERTEX
  5
75
330
73
100
AcDbEntity
  8
Default
100
AcDbVertex
100
AcDb2dVertex
 10
129.8613228639147
 20
21.0579377845265
 30
0.0
  0
SEQEND
  5
76
330
73
100
AcDbEntity
  8
Default
  0
POLYLINE
  5
77
330
1F
100
AcDbEntity
  8
Default
100
AcDb2dPolyline
 66
     1
 10
0.0
 20
0.0
 30
0.0
  0
VERTEX
  5
78
330
77
100
AcDbEntity
  8
Default
100
AcDbVertex
100
AcDb2dVertex
 10
130.7236492940255
 20
21.59810595639271
 30
0.0
  0
VERTEX
  5
79
330
77
100
AcDbEntity
  8
Default
100
AcDbVertex
100
AcDb2dVertex
 10
129.7376253823523
 20
22.66600504483796
 30
0.0
  0
SEQEND
  5
7A
330
77
100
AcDbEntity
  8
Default
  0
POLYLINE
  5
7B
330
1F
100
AcDbEntity
  8
Default
100
AcDb2dPolyline
 66
     1
 10
0.0
 20
0.0
 30
0.0
  0
VERTEX
  5
7C
330
7B
100
AcDbEntity
  8
Default
100
AcDbVertex
100
AcDb2dVertex
 10
130.1015983754922
 20
23.74590777563772
 30
0.0
  0
VERTEX
  5
7D
330
7B
100
AcDbEntity
  8
Default
100
AcDbVertex
100
AcDb2dVertex
 10
129.6139279007899
 20
24.27407230514958
 30
0.0
  0
SEQEND
  5
7E
330
7B
100
AcDbEntity
  8
Default
  0
POLYLINE
  5
7F
330
1F
100
AcDbEntity
  8
Default
100
AcDb2dPolyline
 66
     1
 10
0.0
 20
0.0
 30
0.0
  0
VERTEX
  5
80
330
7F
100
AcDbEntity
  8
Default
100
AcDbVertex
100
AcDb2dVertex
 10
132.5898020496255
 20
15.15470049865787
 30
0.0
  0
VERTEX
  5
81
330
7F
100
AcDbEntity
  8
Default
100
AcDbVertex
100
AcDb2dVertex
 10
130.5546598558386
 20
17.35883213063177
 30
0.0
  0
SEQEND
  5
82
330
7F
100
AcDbEntity
  8
Default
  0
POLYLINE
  5
83
330
1F
100
AcDbEntity
  8
Default
100
AcDb2dPolyline
 66
     1
 10
0.0
 20
0.0
 30
0.0
  0
VERTEX
  5
84
330
83
100
AcDbEntity
  8
Default
100
AcDbVertex
100
AcDb2dVertex
 10
131.5710194634748
 20
25.10266923816228
 30
0.0
  0
VERTEX
  5
85
330
83
100
AcDbEntity
  8
Default
100
AcDbVertex
100
AcDb2dVertex
 10
129.5358772696878
 20
27.3068008701362
 30
0.0
  0
SEQEND
  5
86
330
83
100
AcDbEntity
  8
Default
  0
POLYLINE
  5
87
330
1F
100
AcDbEntity
  8
Default
100
AcDb2dPolyline
 66
     1
 10
0.0
 20
0.0
 30
0.0
  0
VERTEX
  5
88
330
87
100
AcDbEntity
  8
Default
100
AcDbVertex
100
AcDb2dVertex
 10
132.1930703820081
 20
22.95486741891736
 30
0.0
  0
VERTEX
  5
89
330
87
100
AcDbEntity
  8
Default
100
AcDbVertex
100
AcDb2dVertex
 10
130.1579281882212
 20
25.1589990508913
 30
0.0
  0
SEQEND
  5
8A
330
87
100
AcDbEntity
  8
Default
  0
POLYLINE
  5
8B
330
1F
100
AcDbEntity
  8
Default
100
AcDb2dPolyline
 66
     1
 10
0.0
 20
0.0
 30
0.0
  0
VERTEX
  5
8C
330
8B
100
AcDbEntity
  8
Default
100
AcDbVertex
100
AcDb2dVertex
 10
133.0404405514574
 20
26.45943070068691
 30
0.0
  0
VERTEX
  5
8D
330
8B
100
AcDbEntity
  8
Default
100
AcDbVertex
100
AcDb2dVertex
 10
131.0052983576704
 20
28.66356233266082
 30
0.0
  0
SEQEND
  5
8E
330
8B
100
AcDbEntity
  8
Default
  0
POLYLINE
  5
8F
330
1F
100
AcDbEntity
  8
Default
100
AcDb2dPolyline
 66
     1
 10
0.0
 20
0.0
 30
0.0
  0
VERTEX
  5
90
330
8F
100
AcDbEntity
  8
Default
100
AcDbVertex
100
AcDb2dVertex
 10
135.7539634765067
 20
23.52058852472171
 30
0.0
  0
VERTEX
  5
91
330
8F
100
AcDbEntity
  8
Default
100
AcDbVertex
100
AcDb2dVertex
 10
133.7188212827197
 20
25.72472015669562
 30
0.0
  0
SEQEND
  5
92
330
8F
100
AcDbEntity
  8
Default
  0
POLYLINE
  5
93
330
1F
100
AcDbEntity
  8
Default
100
AcDb2dPolyline
 66
     1
 10
0.0
 20
0.0
 30
0.0
  0
VERTEX
  5
94
330
93
100
AcDbEntity
  8
Default
100
AcDbVertex
100
AcDb2dVertex
 10
133.6624914699908
 20
24.31162888144199
 30
0.0
  0
VERTEX
  5
95
330
93
100
AcDbEntity
  8
Default
100
AcDbVertex
100
AcDb2dVertex
 10
131.6273492762038
 20
26.5157605134159
 30
0.0
  0
SEQEND
  5
96
330
93
100
AcDbEntity
  8
Default
  0
POLYLINE
  5
97
330
1F
100
AcDbEntity
  8
Default
100
AcDb2dPolyline
 66
     1
 10
0.0
 20
0.0
 30
0.0
  0
VERTEX
  5
98
330
97
100
AcDbEntity
  8
Default
100
AcDbVertex
100
AcDb2dVertex
 10
135.1319125579734
 20
25.66839034396668
 30
0.0
  0
VERTEX
  5
99
330
97
100
AcDbEntity
  8
Default
100
AcDbVertex
100
AcDb2dVertex
 10
133.0967703641865
 20
27.87252197594059
 30
0.0
  0
SEQEND
  5
9A
330
97
100
AcDbEntity
  8
Default
  0
POLYLINE
  5
9B
330
1F
100
AcDbEntity
  8
Default
100
AcDb2dPolyline
 66
     1
 10
0.0
 20
0.0
 30
0.0
  0
VERTEX
  5
9C
330
9B
100
AcDbEntity
  8
Default
100
AcDbVertex
100
AcDb2dVertex
 10
137.2233845644893
 20
24.87734998724637
 30
0.0
  0
VERTEX
  5
9D
330
9B
100
AcDbEntity
  8
Default
100
AcDbVertex
100
AcDb2dVertex
 10
135.1882423707023
 20
27.08148161922027
 30
0.0
  0
SEQEND
  5
9E
330
9B
100
AcDbEntity
  8
Default
  0
POLYLINE
  5
9F
330
1F
100
AcDbEntity
  8
Default
100
AcDb2dPolyline
 66
     1
 10
0.0
 20
0.0
 30
0.0
  0
VERTEX
  5
A0
330
9F
100
AcDbEntity
  8
Default
100
AcDbVertex
100
AcDb2dVertex
 10
139.3148565710052
 20
24.08630963052605
 30
0.0
  0
VERTEX
  5
A1
330
9F
100
AcDbEntity
  8
Default
100
AcDbVertex
100
AcDb2dVertex
 10
137.2797143772183
 20
26.29044126249996
 30
0.0
  0
SEQEND
  5
A2
330
9F
100
AcDbEntity
  8
Default
  0
POLYLINE
  5
A3
330
1F
100
AcDbEntity
  8
Default
100
AcDb2dPolyline
 66
     1
 10
0.0
 20
0.0
 30
0.0
  0
VERTEX
  5
A4
330
A3
100
AcDbEntity
  8
Default
100
AcDbVertex
100
AcDb2dVertex
 10
139.3711863837342
 20
25.49940090577969
 30
0.0
  0
VERTEX
  5
A5
330
A3
100
AcDbEntity
  8
Default
100
AcDbVertex
100
AcDb2dVertex
 10
141.4063285775212
 20
23.29526927380578
 30
0.0
  0
SEQEND
  5
A6
330
A3
100
AcDbEntity
  8
Default
  0
POLYLINE
  5
A7
330
1F
100
AcDbEntity
  8
Default
100
AcDb2dPolyline
 66
     1
 10
0.0
 20
0.0
 30
0.0
  0
VERTEX
  5
A8
330
A7
100
AcDbEntity
  8
Default
100
AcDbVertex
100
AcDb2dVertex
 10
141.4626583902502
 20
24.70836054905942
 30
0.0
  0
VERTEX
  5
A9
330
A7
100
AcDbEntity
  8
Default
100
AcDbVertex
100
AcDb2dVertex
 10
143.4978005840372
 20
22.50422891708551
 30
0.0
  0
SEQEND
  5
AA
330
A7
100
AcDbEntity
  8
Default
  0
POLYLINE
  5
AB
330
1F
100
AcDbEntity
  8
Default
100
AcDb2dPolyline
 66
     1
 10
0.0
 20
0.0
 30
0.0
  0
VERTEX
  5
AC
330
AB
100
AcDbEntity
  8
Default
100
AcDbVertex
100
AcDb2dVertex
 10
143.5541303967661
 20
23.9173201923391
 30
0.0
  0
VERTEX
  5
AD
330
AB
100
AcDbEntity
  8
Default
100
AcDbVertex
100
AcDb2dVertex
 10
145.5892725905531
 20
21.71318856036519
 30
0.0
  0
SEQEND
  5
AE
330
AB
100
AcDbEntity
  8
Default
  0
POLYLINE
  5
AF
330
1F
100
AcDbEntity
  8
Default
100
AcDb2dPolyline
 66
     1
 10
0.0
 20
0.0
 30
0.0
  0
VERTEX
  5
B0
330
AF
100
AcDbEntity
  8
Default
100
AcDbVertex
100
AcDb2dVertex
 10
146.2676533218154
 20
20.97847801637388
 30
0.0
  0
VERTEX
  5
B1
330
AF
100
AcDbEntity
  8
Default
100
AcDbVertex
100
AcDb2dVertex
 10
147.9148588326552
 20
19.19449565784991
 30
0.0
  0
SEQEND
  5
B2
330
AF
100
AcDbEntity
  8
Default
  0
POLYLINE
  5
B3
330
1F
100
AcDbEntity
  8
Default
100
AcDb2dPolyline
 66
     1
 10
0.0
 20
0.0
 30
0.0
  0
VERTEX
  5
B4
330
B3
100
AcDbEntity
  8
Default
100
AcDbVertex
100
AcDb2dVertex
 10
142.0847093087835
 20
22.56055872981446
 30
0.0
  0
VERTEX
  5
B5
330
B3
100
AcDbEntity
  8
Default
100
AcDbVertex
100
AcDb2dVertex
 10
144.1198515025705
 20
20.35642709784055
 30
0.0
  0
SEQEND
  5
B6
330
B3
100
AcDbEntity
  8
Default
  0
POLYLINE
  5
B7
330
1F
100
AcDbEntity
  8
Default
100
AcDb2dPolyline
 66
     1
 10
0.0
 20
0.0
 30
0.0
  0
VERTEX
  5
B8
330
B7
100
AcDbEntity
  8
Default
100
AcDbVertex
100
AcDb2dVertex
 10
149.8285464163139
 20
21.54419912217825
 30
0.0
  0
VERTEX
  5
B9
330
B7
100
AcDbEntity
  8
Default
100
AcDbVertex
100
AcDb2dVertex
 10
151.5346743420331
 20
19.69640168534455
 30
0.0
  0
SEQEND
  5
BA
330
B7
100
AcDbEntity
  8
Default
  0
POLYLINE
  5
BB
330
1F
100
AcDbEntity
  8
Default
100
AcDb2dPolyline
 66
     1
 10
0.0
 20
0.0
 30
0.0
  0
VERTEX
  5
BC
330
BB
100
AcDbEntity
  8
Default
100
AcDbVertex
100
AcDb2dVertex
 10
140.389968969885
 20
15.55143216627533
 30
0.0
  0
VERTEX
  5
BD
330
BB
100
AcDbEntity
  8
Default
100
AcDbVertex
100
AcDb2dVertex
 10
142.0371744807248
 20
13.76744980775135
 30
0.0
  0
SEQEND
  5
BE
330
BB
100
AcDbEntity
  8
Default
  0
POLYLINE
  5
BF
330
1F
100
AcDbEntity
  8
Default
100
AcDb2dPolyline
 66
     1
 10
0.0
 20
0.0
 30
0.0
  0
VERTEX
  5
C0
330
BF
100
AcDbEntity
  8
Default
100
AcDbVertex
100
AcDb2dVertex
 10
141.8593900578676
 20
16.90819362879997
 30
0.0
  0
VERTEX
  5
C1
330
BF
100
AcDbEntity
  8
Default
100
AcDbVertex
100
AcDb2dVertex
 10
143.5065955687074
 20
15.124211270276
 30
0.0
  0
SEQEND
  5
C2
330
BF
100
AcDbEntity
  8
Default
  0
POLYLINE
  5
C3
330
1F
100
AcDbEntity
  8
Default
100
AcDb2dPolyline
 66
     1
 10
0.0
 20
0.0
 30
0.0
  0
VERTEX
  5
C4
330
C3
100
AcDbEntity
  8
Default
100
AcDbVertex
100
AcDb2dVertex
 10
143.3288111458502
 20
18.26495509132462
 30
0.0
  0
VERTEX
  5
C5
330
C3
100
AcDbEntity
  8
Default
100
AcDbVertex
100
AcDb2dVertex
 10
144.97601665669
 20
16.48097273280064
 30
0.0
  0
SEQEND
  5
C6
330
C3
100
AcDbEntity
  8
Default
  0
POLYLINE
  5
C7
330
1F
100
AcDbEntity
  8
Default
100
AcDb2dPolyline
 66
     1
 10
0.0
 20
0.0
 30
0.0
  0
VERTEX
  5
C8
330
C7
100
AcDbEntity
  8
Default
100
AcDbVertex
100
AcDb2dVertex
 10
144.7982322338328
 20
19.62171655384925
 30
0.0
  0
VERTEX
  5
C9
330
C7
100
AcDbEntity
  8
Default
100
AcDbVertex
100
AcDb2dVertex
 10
146.4454377446726
 20
17.83773419532527
 30
0.0
  0
SEQEND
  5
CA
330
C7
100
AcDbEntity
  8
Default
  0
POLYLINE
  5
CB
330
1F
100
AcDbEntity
  8
Default
100
AcDb2dPolyline
 66
     1
 10
0.0
 20
0.0
 30
0.0
  0
VERTEX
  5
CC
330
CB
100
AcDbEntity
  8
Default
100
AcDbVertex
100
AcDb2dVertex
 10
148.3591253283313
 20
20.1874376596536
 30
0.0
  0
VERTEX
  5
CD
330
CB
100
AcDbEntity
  8
Default
100
AcDbVertex
100
AcDb2dVertex
 10
148.8125138716865
 20
19.69640168534455
 30
0.0
  0
SEQEND
  5
CE
330
CB
100
AcDbEntity
  8
Default
  0
POLYLINE
  5
CF
330
1F
100
AcDbEntity
  8
Default
100
AcDb2dPolyline
 66
     1
 10
0.0
 20
0.0
 30
0.0
  0
VERTEX
  5
D0
330
CF
100
AcDbEntity
  8
Default
100
AcDbVertex
100
AcDb2dVertex
 10
146.8897042403487
 20
18.83067619712896
 30
0.0
  0
VERTEX
  5
D1
330
CF
100
AcDbEntity
  8
Default
100
AcDbVertex
100
AcDb2dVertex
 10
147.1801482886639
 20
18.51611492658759
 30
0.0
  0
SEQEND
  5
D2
330
CF
100
AcDbEntity
  8
Default
  0
POLYLINE
  5
D3
330
1F
100
AcDbEntity
  8
Default
100
AcDb2dPolyline
 66
     1
 10
0.0
 20
0.0
 30
0.0
  0
VERTEX
  5
D4
330
D3
100
AcDbEntity
  8
Default
100
AcDbVertex
100
AcDb2dVertex
 10
145.4202831523662
 20
17.47391473460432
 30
0.0
  0
VERTEX
  5
D5
330
D3
100
AcDbEntity
  8
Default
100
AcDbVertex
100
AcDb2dVertex
 10
145.7107272006813
 20
17.15935346406295
 30
0.0
  0
SEQEND
  5
D6
330
D3
100
AcDbEntity
  8
Default
  0
POLYLINE
  5
D7
330
1F
100
AcDbEntity
  8
Default
100
AcDb2dPolyline
 66
     1
 10
0.0
 20
0.0
 30
0.0
  0
VERTEX
  5
D8
330
D7
100
AcDbEntity
  8
Default
100
AcDbVertex
100
AcDb2dVertex
 10
143.9508620643836
 20
16.11715327207969
 30
0.0
  0
VERTEX
  5
D9
330
D7
100
AcDbEntity
  8
Default
100
AcDbVertex
100
AcDb2dVertex
 10
144.2413061126987
 20
15.80259200153832
 30
0.0
  0
SEQEND
  5
DA
330
D7
100
AcDbEntity
  8
Default
  0
POLYLINE
  5
DB
330
1F
100
AcDbEntity
  8
Default
100
AcDb2dPolyline
 66
     1
 10
0.0
 20
0.0
 30
0.0
  0
VERTEX
  5
DC
330
DB
100
AcDbEntity
  8
Default
100
AcDbVertex
100
AcDb2dVertex
 10
142.4814409764009
 20
14.76039180955504
 30
0.0
  0
VERTEX
  5
DD
330
DB
100
AcDbEntity
  8
Default
100
AcDbVertex
100
AcDb2dVertex
 10
142.7718850247161
 20
14.44583053901368
 30
0.0
  0
SEQEND
  5
DE
330
DB
100
AcDbEntity
  8
Default
  0
POLYLINE
  5
DF
330
1F
100
AcDbEntity
  8
Default
100
AcDb2dPolyline
 66
     1
 10
0.0
 20
0.0
 30
0.0
  0
VERTEX
  5
E0
330
DF
100
AcDbEntity
  8
Default
100
AcDbVertex
100
AcDb2dVertex
 10
138.9205478819024
 20
14.19467070375069
 30
0.0
  0
VERTEX
  5
E1
330
DF
100
AcDbEntity
  8
Default
100
AcDbVertex
100
AcDb2dVertex
 10
140.5677533927421
 20
12.41068834522672
 30
0.0
  0
SEQEND
  5
E2
330
DF
100
AcDbEntity
  8
Default
  0
POLYLINE
  5
E3
330
1F
100
AcDbEntity
  8
Default
100
AcDb2dPolyline
 66
     1
 10
0.0
 20
0.0
 30
0.0
  0
VERTEX
  5
E4
330
E3
100
AcDbEntity
  8
Default
100
AcDbVertex
100
AcDb2dVertex
 10
141.0120198884183
 20
13.4036303470304
 30
0.0
  0
VERTEX
  5
E5
330
E3
100
AcDbEntity
  8
Default
100
AcDbVertex
100
AcDb2dVertex
 10
141.3024639367335
 20
13.08906907648904
 30
0.0
  0
SEQEND
  5
E6
330
E3
100
AcDbEntity
  8
Default
  0
POLYLINE
  5
E7
330
1F
100
AcDbEntity
  8
Default
100
AcDb2dPolyline
 66
     1
 10
0.0
 20
0.0
 30
0.0
  0
VERTEX
  5
E8
330
E7
100
AcDbEntity
  8
Default
100
AcDbVertex
100
AcDb2dVertex
 10
139.5425988004357
 20
12.04686888450575
 30
0.0
  0
VERTEX
  5
E9
330
E7
100
AcDbEntity
  8
Default
100
AcDbVertex
100
AcDb2dVertex
 10
139.8330428487508
 20
11.7323076139644
 30
0.0
  0
SEQEND
  5
EA
330
E7
100
AcDbEntity
  8
Default
  0
POLYLINE
  5
EB
330
1F
100
AcDbEntity
  8
Default
100
AcDb2dPolyline
 66
     1
 10
0.0
 20
0.0
 30
0.0
  0
VERTEX
  5
EC
330
EB
100
AcDbEntity
  8
Default
100
AcDbVertex
100
AcDb2dVertex
 10
138.0731777124531
 20
10.69010742198111
 30
0.0
  0
VERTEX
  5
ED
330
EB
100
AcDbEntity
  8
Default
100
AcDbVertex
100
AcDb2dVertex
 10
139.513203863678
 20
9.130507704342566
 30
0.0
  0
SEQEND
  5
EE
330
EB
100
AcDbEntity
  8
Default
  0
POLYLINE
  5
EF
330
1F
100
AcDbEntity
  8
Default
100
AcDb2dPolyline
 66
     1
 10
0.0
 20
0.0
 30
0.0
  0
VERTEX
  5
F0
330
EF
100
AcDbEntity
  8
Default
100
AcDbVertex
100
AcDb2dVertex
 10
135.9817057059371
 20
11.4811477787014
 30
0.0
  0
VERTEX
  5
F1
330
EF
100
AcDbEntity
  8
Default
100
AcDbVertex
100
AcDb2dVertex
 10
138.0168478997241
 20
9.277016146727474
 30
0.0
  0
SEQEND
  5
F2
330
EF
100
AcDbEntity
  8
Default
  0
POLYLINE
  5
F3
330
1F
100
AcDbEntity
  8
Default
100
AcDb2dPolyline
 66
     1
 10
0.0
 20
0.0
 30
0.0
  0
VERTEX
  5
F4
330
F3
100
AcDbEntity
  8
Default
100
AcDbVertex
100
AcDb2dVertex
 10
133.2681827808879
 20
14.41998995466661
 30
0.0
  0
VERTEX
  5
F5
330
F3
100
AcDbEntity
  8
Default
100
AcDbVertex
100
AcDb2dVertex
 10
135.3033249746748
 20
12.21585832269269
 30
0.0
  0
SEQEND
  5
F6
330
F3
100
AcDbEntity
  8
Default
  0
POLYLINE
  5
F7
330
1F
100
AcDbEntity
  8
Default
100
AcDb2dPolyline
 66
     1
 10
0.0
 20
0.0
 30
0.0
  0
VERTEX
  5
F8
330
F7
100
AcDbEntity
  8
Default
100
AcDbVertex
100
AcDb2dVertex
 10
147.737074409798
 20
22.33523947889853
 30
0.0
  0
VERTEX
  5
F9
330
F7
100
AcDbEntity
  8
Default
100
AcDbVertex
100
AcDb2dVertex
 10
149.772216603585
 20
20.13110784692462
 30
0.0
  0
SEQEND
  5
FA
330
F7
100
AcDbEntity
  8
Default
  0
POLYLINE
  5
FB
330
1F
100
AcDbEntity
  8
Default
100
AcDb2dPolyline
 66
     1
 10
0.0
 20
0.0
 30
0.0
  0
VERTEX
  5
FC
330
FB
100
AcDbEntity
  8
Default
100
AcDbVertex
100
AcDb2dVertex
 10
145.6456024032821
 20
23.12627983561881
 30
0.0
  0
VERTEX
  5
FD
330
FB
100
AcDbEntity
  8
Default
100
AcDbVertex
100
AcDb2dVertex
 10
147.680744597069
 20
20.92214820364491
 30
0.0
  0
SEQEND
  5
FE
330
FB
100
AcDbEntity
  8
Default
  0
POLYLINE
  5
FF
330
1F
100
AcDbEntity
  8
Default
100
AcDb2dPolyline
 66
     1
 10
0.0
 20
0.0
 30
0.0
  0
VERTEX
  5
100
330
FF
100
AcDbEntity
  8
Default
100
AcDbVertex
100
AcDb2dVertex
 10
144.1761813152995
 20
21.76951837309418
 30
0.0
  0
VERTEX
  5
101
330
FF
100
AcDbEntity
  8
Default
100
AcDbVertex
100
AcDb2dVertex
 10
146.2113235090864
 20
19.56538674112026
 30
0.0
  0
SEQEND
  5
102
330
FF
100
AcDbEntity
  8
Default
  0
POLYLINE
  5
103
330
1F
100
AcDbEntity
  8
Default
100
AcDb2dPolyline
 66
     1
 10
0.0
 20
0.0
 30
0.0
  0
VERTEX
  5
104
330
103
100
AcDbEntity
  8
Default
100
AcDbVertex
100
AcDb2dVertex
 10
142.7067602273169
 20
20.41275691056953
 30
0.0
  0
VERTEX
  5
105
330
103
100
AcDbEntity
  8
Default
100
AcDbVertex
100
AcDb2dVertex
 10
144.7419024211038
 20
18.20862527859562
 30
0.0
  0
SEQEND
  5
106
330
103
100
AcDbEntity
  8
Default
  0
POLYLINE
  5
107
330
1F
100
AcDbEntity
  8
Default
100
AcDb2dPolyline
 66
     1
 10
0.0
 20
0.0
 30
0.0
  0
VERTEX
  5
108
330
107
100
AcDbEntity
  8
Default
100
AcDbVertex
100
AcDb2dVertex
 10
142.0283794960545
 20
21.14746745456084
 30
0.0
  0
VERTEX
  5
109
330
107
100
AcDbEntity
  8
Default
100
AcDbVertex
100
AcDb2dVertex
 10
139.9932373022676
 20
23.35159908653474
 30
0.0
  0
SEQEND
  5
10A
330
107
100
AcDbEntity
  8
Default
  0
POLYLINE
  5
10B
330
1F
100
AcDbEntity
  8
Default
100
AcDb2dPolyline
 66
     1
 10
0.0
 20
0.0
 30
0.0
  0
VERTEX
  5
10C
330
10B
100
AcDbEntity
  8
Default
100
AcDbVertex
100
AcDb2dVertex
 10
139.9369074895386
 20
21.93850781128114
 30
0.0
  0
VERTEX
  5
10D
330
10B
100
AcDbEntity
  8
Default
100
AcDbVertex
100
AcDb2dVertex
 10
137.9017652957516
 20
24.14263944325505
 30
0.0
  0
SEQEND
  5
10E
330
10B
100
AcDbEntity
  8
Default
  0
POLYLINE
  5
10F
330
1F
100
AcDbEntity
  8
Default
100
AcDb2dPolyline
 66
     1
 10
0.0
 20
0.0
 30
0.0
  0
VERTEX
  5
110
330
10F
100
AcDbEntity
  8
Default
100
AcDbVertex
100
AcDb2dVertex
 10
140.6152882208009
 20
21.20379726728983
 30
0.0
  0
VERTEX
  5
111
330
10F
100
AcDbEntity
  8
Default
100
AcDbVertex
100
AcDb2dVertex
 10
142.6504304145879
 20
18.99966563531592
 30
0.0
  0
SEQEND
  5
112
330
10F
100
AcDbEntity
  8
Default
  0
POLYLINE
  5
113
330
1F
100
AcDbEntity
  8
Default
100
AcDb2dPolyline
 66
     1
 10
0.0
 20
0.0
 30
0.0
  0
VERTEX
  5
114
330
113
100
AcDbEntity
  8
Default
100
AcDbVertex
100
AcDb2dVertex
 10
141.2373391393343
 20
19.0559954480449
 30
0.0
  0
VERTEX
  5
115
330
113
100
AcDbEntity
  8
Default
100
AcDbVertex
100
AcDb2dVertex
 10
143.2724813331212
 20
16.85186381607098
 30
0.0
  0
SEQEND
  5
116
330
113
100
AcDbEntity
  8
Default
  0
POLYLINE
  5
117
330
1F
100
AcDbEntity
  8
Default
100
AcDb2dPolyline
 66
     1
 10
0.0
 20
0.0
 30
0.0
  0
VERTEX
  5
118
330
117
100
AcDbEntity
  8
Default
100
AcDbVertex
100
AcDb2dVertex
 10
140.5589584080719
 20
19.79070599203621
 30
0.0
  0
VERTEX
  5
119
330
117
100
AcDbEntity
  8
Default
100
AcDbVertex
100
AcDb2dVertex
 10
138.523816214285
 20
21.99483762401011
 30
0.0
  0
SEQEND
  5
11A
330
117
100
AcDbEntity
  8
Default
  0
POLYLINE
  5
11B
330
1F
100
AcDbEntity
  8
Default
100
AcDb2dPolyline
 66
     1
 10
0.0
 20
0.0
 30
0.0
  0
VERTEX
  5
11C
330
11B
100
AcDbEntity
  8
Default
100
AcDbVertex
100
AcDb2dVertex
 10
137.8454354830226
 20
22.72954816800143
 30
0.0
  0
VERTEX
  5
11D
330
11B
100
AcDbEntity
  8
Default
100
AcDbVertex
100
AcDb2dVertex
 10
135.8102932892357
 20
24.93367979997533
 30
0.0
  0
SEQEND
  5
11E
330
11B
100
AcDbEntity
  8
Default
  0
POLYLINE
  5
11F
330
1F
100
AcDbEntity
  8
Default
100
AcDb2dPolyline
 66
     1
 10
0.0
 20
0.0
 30
0.0
  0
VERTEX
  5
120
330
11F
100
AcDbEntity
  8
Default
100
AcDbVertex
100
AcDb2dVertex
 10
135.7539634765067
 20
23.52058852472171
 30
0.0
  0
VERTEX
  5
121
330
11F
100
AcDbEntity
  8
Default
100
AcDbVertex
100
AcDb2dVertex
 10
133.7188212827197
 20
25.72472015669562
 30
0.0
  0
SEQEND
  5
122
330
11F
100
AcDbEntity
  8
Default
  0
POLYLINE
  5
123
330
1F
100
AcDbEntity
  8
Default
100
AcDb2dPolyline
 66
     1
 10
0.0
 20
0.0
 30
0.0
  0
VERTEX
  5
124
330
123
100
AcDbEntity
  8
Default
100
AcDbVertex
100
AcDb2dVertex
 10
138.467486401556
 20
20.58174634875649
 30
0.0
  0
VERTEX
  5
125
330
123
100
AcDbEntity
  8
Default
100
AcDbVertex
100
AcDb2dVertex
 10
136.432344207769
 20
22.7858779807304
 30
0.0
  0
SEQEND
  5
126
330
123
100
AcDbEntity
  8
Default
  0
POLYLINE
  5
127
330
1F
100
AcDbEntity
  8
Default
100
AcDb2dPolyline
 66
     1
 10
0.0
 20
0.0
 30
0.0
  0
VERTEX
  5
128
330
127
100
AcDbEntity
  8
Default
100
AcDbVertex
100
AcDb2dVertex
 10
139.1458671328183
 20
19.84703580476519
 30
0.0
  0
VERTEX
  5
129
330
127
100
AcDbEntity
  8
Default
100
AcDbVertex
100
AcDb2dVertex
 10
141.1810093266052
 20
17.64290417279127
 30
0.0
  0
SEQEND
  5
12A
330
127
100
AcDbEntity
  8
Default
  0
POLYLINE
  5
12B
330
1F
100
AcDbEntity
  8
Default
100
AcDb2dPolyline
 66
     1
 10
0.0
 20
0.0
 30
0.0
  0
VERTEX
  5
12C
330
12B
100
AcDbEntity
  8
Default
100
AcDbVertex
100
AcDb2dVertex
 10
139.7679180513516
 20
17.69923398552026
 30
0.0
  0
VERTEX
  5
12D
330
12B
100
AcDbEntity
  8
Default
100
AcDbVertex
100
AcDb2dVertex
 10
141.8030602451386
 20
15.49510235354634
 30
0.0
  0
SEQEND
  5
12E
330
12B
100
AcDbEntity
  8
Default
  0
POLYLINE
  5
12F
330
1F
100
AcDbEntity
  8
Default
100
AcDb2dPolyline
 66
     1
 10
0.0
 20
0.0
 30
0.0
  0
VERTEX
  5
130
330
12F
100
AcDbEntity
  8
Default
100
AcDbVertex
100
AcDb2dVertex
 10
139.0895373200893
 20
18.43394452951156
 30
0.0
  0
VERTEX
  5
131
330
12F
100
AcDbEntity
  8
Default
100
AcDbVertex
100
AcDb2dVertex
 10
137.0543951263024
 20
20.63807616148547
 30
0.0
  0
SEQEND
  5
132
330
12F
100
AcDbEntity
  8
Default
  0
POLYLINE
  5
133
330
1F
100
AcDbEntity
  8
Default
100
AcDb2dPolyline
 66
     1
 10
0.0
 20
0.0
 30
0.0
  0
VERTEX
  5
134
330
133
100
AcDbEntity
  8
Default
100
AcDbVertex
100
AcDb2dVertex
 10
136.37601439504
 20
21.37278670547678
 30
0.0
  0
VERTEX
  5
135
330
133
100
AcDbEntity
  8
Default
100
AcDbVertex
100
AcDb2dVertex
 10
134.3408722012531
 20
23.57691833745069
 30
0.0
  0
SEQEND
  5
136
330
133
100
AcDbEntity
  8
Default
  0
POLYLINE
  5
137
330
1F
100
AcDbEntity
  8
Default
100
AcDb2dPolyline
 66
     1
 10
0.0
 20
0.0
 30
0.0
  0
VERTEX
  5
138
330
137
100
AcDbEntity
  8
Default
100
AcDbVertex
100
AcDb2dVertex
 10
134.2845423885241
 20
22.16382706219706
 30
0.0
  0
VERTEX
  5
139
330
137
100
AcDbEntity
  8
Default
100
AcDbVertex
100
AcDb2dVertex
 10
132.2494001947371
 20
24.36795869417098
 30
0.0
  0
SEQEND
  5
13A
330
137
100
AcDbEntity
  8
Default
  0
POLYLINE
  5
13B
330
1F
100
AcDbEntity
  8
Default
100
AcDb2dPolyline
 66
     1
 10
0.0
 20
0.0
 30
0.0
  0
VERTEX
  5
13C
330
13B
100
AcDbEntity
  8
Default
100
AcDbVertex
100
AcDb2dVertex
 10
136.9980653135734
 20
19.22498488623185
 30
0.0
  0
VERTEX
  5
13D
330
13B
100
AcDbEntity
  8
Default
100
AcDbVertex
100
AcDb2dVertex
 10
134.9629231197864
 20
21.42911651820576
 30
0.0
  0
SEQEND
  5
13E
330
13B
100
AcDbEntity
  8
Default
  0
POLYLINE
  5
13F
330
1F
100
AcDbEntity
  8
Default
100
AcDb2dPolyline
 66
     1
 10
0.0
 20
0.0
 30
0.0
  0
VERTEX
  5
140
330
13F
100
AcDbEntity
  8
Default
100
AcDbVertex
100
AcDb2dVertex
 10
137.6764460448357
 20
18.49027434224054
 30
0.0
  0
VERTEX
  5
141
330
13F
100
AcDbEntity
  8
Default
100
AcDbVertex
100
AcDb2dVertex
 10
139.7115882386227
 20
16.28614271026663
 30
0.0
  0
SEQEND
  5
142
330
13F
100
AcDbEntity
  8
Default
  0
POLYLINE
  5
143
330
1F
100
AcDbEntity
  8
Default
100
AcDb2dPolyline
 66
     1
 10
0.0
 20
0.0
 30
0.0
  0
VERTEX
  5
144
330
143
100
AcDbEntity
  8
Default
100
AcDbVertex
100
AcDb2dVertex
 10
138.298496963369
 20
16.34247252299561
 30
0.0
  0
VERTEX
  5
145
330
143
100
AcDbEntity
  8
Default
100
AcDbVertex
100
AcDb2dVertex
 10
140.333639157156
 20
14.1383408910217
 30
0.0
  0
SEQEND
  5
146
330
143
100
AcDbEntity
  8
Default
  0
POLYLINE
  5
147
330
1F
100
AcDbEntity
  8
Default
100
AcDb2dPolyline
 66
     1
 10
0.0
 20
0.0
 30
0.0
  0
VERTEX
  5
148
330
147
100
AcDbEntity
  8
Default
100
AcDbVertex
100
AcDb2dVertex
 10
137.6201162321067
 20
17.07718306698692
 30
0.0
  0
VERTEX
  5
149
330
147
100
AcDbEntity
  8
Default
100
AcDbVertex
100
AcDb2dVertex
 10
135.5849740383197
 20
19.28131469896082
 30
0.0
  0
SEQEND
  5
14A
330
147
100
AcDbEntity
  8
Default
  0
POLYLINE
  5
14B
330
1F
100
AcDbEntity
  8
Default
100
AcDb2dPolyline
 66
     1
 10
0.0
 20
0.0
 30
0.0
  0
VERTEX
  5
14C
330
14B
100
AcDbEntity
  8
Default
100
AcDbVertex
100
AcDb2dVertex
 10
134.9065933070574
 20
20.01602524295214
 30
0.0
  0
VERTEX
  5
14D
330
14B
100
AcDbEntity
  8
Default
100
AcDbVertex
100
AcDb2dVertex
 10
132.8714511132705
 20
22.22015687492604
 30
0.0
  0
SEQEND
  5
14E
330
14B
100
AcDbEntity
  8
Default
  0
POLYLINE
  5
14F
330
1F
100
AcDbEntity
  8
Default
100
AcDb2dPolyline
 66
     1
 10
0.0
 20
0.0
 30
0.0
  0
VERTEX
  5
150
330
14F
100
AcDbEntity
  8
Default
100
AcDbVertex
100
AcDb2dVertex
 10
132.8151213005415
 20
20.80706559967242
 30
0.0
  0
VERTEX
  5
151
330
14F
100
AcDbEntity
  8
Default
100
AcDbVertex
100
AcDb2dVertex
 10
130.7799791067545
 20
23.01119723164633
 30
0.0
  0
SEQEND
  5
152
330
14F
100
AcDbEntity
  8
Default
  0
POLYLINE
  5
153
330
1F
100
AcDbEntity
  8
Default
100
AcDb2dPolyline
 66
     1
 10
0.0
 20
0.0
 30
0.0
  0
VERTEX
  5
154
330
153
100
AcDbEntity
  8
Default
100
AcDbVertex
100
AcDb2dVertex
 10
135.5286442255908
 20
17.8682234237072
 30
0.0
  0
VERTEX
  5
155
330
153
100
AcDbEntity
  8
Default
100
AcDbVertex
100
AcDb2dVertex
 10
133.4935020318038
 20
20.07235505568111
 30
0.0
  0
SEQEND
  5
156
330
153
100
AcDbEntity
  8
Default
  0
POLYLINE
  5
157
330
1F
100
AcDbEntity
  8
Default
100
AcDb2dPolyline
 66
     1
 10
0.0
 20
0.0
 30
0.0
  0
VERTEX
  5
158
330
157
100
AcDbEntity
  8
Default
100
AcDbVertex
100
AcDb2dVertex
 10
136.2070249568531
 20
17.1335128797159
 30
0.0
  0
VERTEX
  5
159
330
157
100
AcDbEntity
  8
Default
100
AcDbVertex
100
AcDb2dVertex
 10
138.2421671506401
 20
14.92938124774198
 30
0.0
  0
SEQEND
  5
15A
330
157
100
AcDbEntity
  8
Default
  0
POLYLINE
  5
15B
330
1F
100
AcDbEntity
  8
Default
100
AcDb2dPolyline
 66
     1
 10
0.0
 20
0.0
 30
0.0
  0
VERTEX
  5
15C
330
15B
100
AcDbEntity
  8
Default
100
AcDbVertex
100
AcDb2dVertex
 10
136.8290758753864
 20
14.98571106047097
 30
0.0
  0
VERTEX
  5
15D
330
15B
100
AcDbEntity
  8
Default
100
AcDbVertex
100
AcDb2dVertex
 10
138.8642180691734
 20
12.78157942849705
 30
0.0
  0
SEQEND
  5
15E
330
15B
100
AcDbEntity
  8
Default
  0
POLYLINE
  5
15F
330
1F
100
AcDbEntity
  8
Default
100
AcDb2dPolyline
 66
     1
 10
0.0
 20
0.0
 30
0.0
  0
VERTEX
  5
160
330
15F
100
AcDbEntity
  8
Default
100
AcDbVertex
100
AcDb2dVertex
 10
136.1506951441241
 20
15.72042160446227
 30
0.0
  0
VERTEX
  5
161
330
15F
100
AcDbEntity
  8
Default
100
AcDbVertex
100
AcDb2dVertex
 10
134.1155529503371
 20
17.92455323643618
 30
0.0
  0
SEQEND
  5
162
330
15F
100
AcDbEntity
  8
Default
  0
POLYLINE
  5
163
330
1F
100
AcDbEntity
  8
Default
100
AcDb2dPolyline
 66
     1
 10
0.0
 20
0.0
 30
0.0
  0
VERTEX
  5
164
330
163
100
AcDbEntity
  8
Default
100
AcDbVertex
100
AcDb2dVertex
 10
133.4371722190748
 20
18.65926378042749
 30
0.0
  0
VERTEX
  5
165
330
163
100
AcDbEntity
  8
Default
100
AcDbVertex
100
AcDb2dVertex
 10
131.4020300252878
 20
20.8633954124014
 30
0.0
  0
SEQEND
  5
166
330
163
100
AcDbEntity
  8
Default
  0
POLYLINE
  5
167
330
1F
100
AcDbEntity
  8
Default
100
AcDb2dPolyline
 66
     1
 10
0.0
 20
0.0
 30
0.0
  0
VERTEX
  5
168
330
167
100
AcDbEntity
  8
Default
100
AcDbVertex
100
AcDb2dVertex
 10
134.0592231376082
 20
16.51146196118256
 30
0.0
  0
VERTEX
  5
169
330
167
100
AcDbEntity
  8
Default
100
AcDbVertex
100
AcDb2dVertex
 10
132.0240809438212
 20
18.71559359315647
 30
0.0
  0
SEQEND
  5
16A
330
167
100
AcDbEntity
  8
Default
  0
POLYLINE
  5
16B
330
1F
100
AcDbEntity
  8
Default
100
AcDb2dPolyline
 66
     1
 10
0.0
 20
0.0
 30
0.0
  0
VERTEX
  5
16C
330
16B
100
AcDbEntity
  8
Default
100
AcDbVertex
100
AcDb2dVertex
 10
137.4511267939198
 20
12.83790924122604
 30
0.0
  0
VERTEX
  5
16D
330
16B
100
AcDbEntity
  8
Default
100
AcDbVertex
100
AcDb2dVertex
 10
139.4862689877068
 20
10.63377760925212
 30
0.0
  0
SEQEND
  5
16E
330
16B
100
AcDbEntity
  8
Default
  0
POLYLINE
  5
16F
330
1F
100
AcDbEntity
  8
Default
100
AcDb2dPolyline
 66
     1
 10
0.0
 20
0.0
 30
0.0
  0
VERTEX
  5
170
330
16F
100
AcDbEntity
  8
Default
100
AcDbVertex
100
AcDb2dVertex
 10
134.7376038688705
 20
15.77675141719125
 30
0.0
  0
VERTEX
  5
171
330
16F
100
AcDbEntity
  8
Default
100
AcDbVertex
100
AcDb2dVertex
 10
136.7727460626575
 20
13.57261978521734
 30
0.0
  0
SEQEND
  5
172
330
16F
100
AcDbEntity
  8
Default
  0
POLYLINE
  5
173
330
1F
100
AcDbEntity
  8
Default
100
AcDb2dPolyline
 66
     1
 10
0.0
 20
0.0
 30
0.0
  0
VERTEX
  5
174
330
173
100
AcDbEntity
  8
Default
100
AcDbVertex
100
AcDb2dVertex
 10
135.3596547874038
 20
13.62894959794632
 30
0.0
  0
VERTEX
  5
175
330
173
100
AcDbEntity
  8
Default
100
AcDbVertex
100
AcDb2dVertex
 10
137.3947969811908
 20
11.42481796597241
 30
0.0
  0
SEQEND
  5
176
330
173
100
AcDbEntity
  8
Default
  0
POLYLINE
  5
177
330
1F
100
AcDbEntity
  8
Default
100
AcDb2dPolyline
 66
     1
 10
0.0
 20
0.0
 30
0.0
  0
VERTEX
  5
178
330
177
100
AcDbEntity
  8
Default
100
AcDbVertex
100
AcDb2dVertex
 10
134.6812740561415
 20
14.36366014193763
 30
0.0
  0
VERTEX
  5
179
330
177
100
AcDbEntity
  8
Default
100
AcDbVertex
100
AcDb2dVertex
 10
132.6461318623545
 20
16.56779177391153
 30
0.0
  0
SEQEND
  5
17A
330
177
100
AcDbEntity
  8
Default
  0
POLYLINE
  5
17B
330
1F
100
AcDbEntity
  8
Default
100
AcDb2dPolyline
 66
     1
 10
0.0
 20
0.0
 30
0.0
  0
VERTEX
  5
17C
330
17B
100
AcDbEntity
  8
Default
100
AcDbVertex
100
AcDb2dVertex
 10
107.5989269530475
 20
17.30250231790284
 30
0.0
  0
VERTEX
  5
17D
330
17B
100
AcDbEntity
  8
Default
100
AcDbVertex
100
AcDb2dVertex
 10
109.5816577386625
 20
19.44987052421506
 30
0.0
  0
SEQEND
  5
17E
330
17B
100
AcDbEntity
  8
Default
  0
POLYLINE
  5
17F
330
1F
100
AcDbEntity
  8
Default
100
AcDb2dPolyline
 66
     1
 10
0.0
 20
0.0
 30
0.0
  0
VERTEX
  5
180
330
17F
100
AcDbEntity
  8
Default
100
AcDbVertex
100
AcDb2dVertex
 10
108.2209778715808
 20
19.45030413714775
 30
0.0
  0
VERTEX
  5
181
330
17F
100
AcDbEntity
  8
Default
100
AcDbVertex
100
AcDb2dVertex
 10
109.7053552202249
 20
21.0579377845265
 30
0.0
  0
SEQEND
  5
182
330
17F
100
AcDbEntity
  8
Default
  0
POLYLINE
  5
183
330
1F
100
AcDbEntity
  8
Default
100
AcDb2dPolyline
 66
     1
 10
0.0
 20
0.0
 30
0.0
  0
VERTEX
  5
184
330
183
100
AcDbEntity
  8
Default
100
AcDbVertex
100
AcDb2dVertex
 10
108.8430287901142
 20
21.59810595639271
 30
0.0
  0
VERTEX
  5
185
330
183
100
AcDbEntity
  8
Default
100
AcDbVertex
100
AcDb2dVertex
 10
109.8290527017874
 20
22.66600504483796
 30
0.0
  0
SEQEND
  5
186
330
183
100
AcDbEntity
  8
Default
  0
POLYLINE
  5
187
330
1F
100
AcDbEntity
  8
Default
100
AcDb2dPolyline
 66
     1
 10
0.0
 20
0.0
 30
0.0
  0
VERTEX
  5
188
330
187
100
AcDbEntity
  8
Default
100
AcDbVertex
100
AcDb2dVertex
 10
109.4650797086475
 20
23.74590777563772
 30
0.0
  0
VERTEX
  5
189
330
187
100
AcDbEntity
  8
Default
100
AcDbVertex
100
AcDb2dVertex
 10
109.9527501833498
 20
24.27407230514958
 30
0.0
  0
SEQEND
  5
18A
330
187
100
AcDbEntity
  8
Default
  0
POLYLINE
  5
18B
330
1F
100
AcDbEntity
  8
Default
100
AcDb2dPolyline
 66
     1
 10
0.0
 20
0.0
 30
0.0
  0
VERTEX
  5
18C
330
18B
100
AcDbEntity
  8
Default
100
AcDbVertex
100
AcDb2dVertex
 10
106.9768760345141
 20
15.15470049865787
 30
0.0
  0
VERTEX
  5
18D
330
18B
100
AcDbEntity
  8
Default
100
AcDbVertex
100
AcDb2dVertex
 10
109.0120182283011
 20
17.35883213063177
 30
0.0
  0
SEQEND
  5
18E
330
18B
100
AcDbEntity
  8
Default
  0
POLYLINE
  5
18F
330
1F
100
AcDbEntity
  8
Default
100
AcDb2dPolyline
 66
     1
 10
0.0
 20
0.0
 30
0.0
  0
VERTEX
  5
190
330
18F
100
AcDbEntity
  8
Default
100
AcDbVertex
100
AcDb2dVertex
 10
107.9956586206649
 20
25.10266923816228
 30
0.0
  0
VERTEX
  5
191
330
18F
100
AcDbEntity
  8
Default
100
AcDbVertex
100
AcDb2dVertex
 10
110.0308008144518
 20
27.3068008701362
 30
0.0
  0
SEQEND
  5
192
330
18F
100
AcDbEntity
  8
Default
  0
POLYLINE
  5
193
330
1F
100
AcDbEntity
  8
Default
100
AcDb2dPolyline
 66
     1
 10
0.0
 20
0.0
 30
0.0
  0
VERTEX
  5
194
330
193
100
AcDbEntity
  8
Default
100
AcDbVertex
100
AcDb2dVertex
 10
107.3736077021315
 20
22.95486741891736
 30
0.0
  0
VERTEX
  5
195
330
193
100
AcDbEntity
  8
Default
100
AcDbVertex
100
AcDb2dVertex
 10
109.4087498959185
 20
25.1589990508913
 30
0.0
  0
SEQEND
  5
196
330
193
100
AcDbEntity
  8
Default
  0
POLYLINE
  5
197
330
1F
100
AcDbEntity
  8
Default
100
AcDb2dPolyline
 66
     1
 10
0.0
 20
0.0
 30
0.0
  0
VERTEX
  5
198
330
197
100
AcDbEntity
  8
Default
100
AcDbVertex
100
AcDb2dVertex
 10
106.5262375326823
 20
26.45943070068691
 30
0.0
  0
VERTEX
  5
199
330
197
100
AcDbEntity
  8
Default
100
AcDbVertex
100
AcDb2dVertex
 10
108.5613797264692
 20
28.66356233266082
 30
0.0
  0
SEQEND
  5
19A
330
197
100
AcDbEntity
  8
Default
  0
POLYLINE
  5
19B
330
1F
100
AcDbEntity
  8
Default
100
AcDb2dPolyline
 66
     1
 10
0.0
 20
0.0
 30
0.0
  0
VERTEX
  5
19C
330
19B
100
AcDbEntity
  8
Default
100
AcDbVertex
100
AcDb2dVertex
 10
103.812714607633
 20
23.52058852472171
 30
0.0
  0
VERTEX
  5
19D
330
19B
100
AcDbEntity
  8
Default
100
AcDbVertex
100
AcDb2dVertex
 10
105.8478568014199
 20
25.72472015669562
 30
0.0
  0
SEQEND
  5
19E
330
19B
100
AcDbEntity
  8
Default
  0
POLYLINE
  5
19F
330
1F
100
AcDbEntity
  8
Default
100
AcDb2dPolyline
 66
     1
 10
0.0
 20
0.0
 30
0.0
  0
VERTEX
  5
1A0
330
19F
100
AcDbEntity
  8
Default
100
AcDbVertex
100
AcDb2dVertex
 10
105.9041866141489
 20
24.31162888144199
 30
0.0
  0
VERTEX
  5
1A1
330
19F
100
AcDbEntity
  8
Default
100
AcDbVertex
100
AcDb2dVertex
 10
107.9393288079359
 20
26.5157605134159
 30
0.0
  0
SEQEND
  5
1A2
330
19F
100
AcDbEntity
  8
Default
  0
POLYLINE
  5
1A3
330
1F
100
AcDbEntity
  8
Default
100
AcDb2dPolyline
 66
     1
 10
0.0
 20
0.0
 30
0.0
  0
VERTEX
  5
1A4
330
1A3
100
AcDbEntity
  8
Default
100
AcDbVertex
100
AcDb2dVertex
 10
104.4347655261663
 20
25.66839034396668
 30
0.0
  0
VERTEX
  5
1A5
330
1A3
100
AcDbEntity
  8
Default
100
AcDbVertex
100
AcDb2dVertex
 10
106.4699077199532
 20
27.87252197594059
 30
0.0
  0
SEQEND
  5
1A6
330
1A3
100
AcDbEntity
  8
Default
  0
POLYLINE
  5
1A7
330
1F
100
AcDbEntity
  8
Default
100
AcDb2dPolyline
 66
     1
 10
0.0
 20
0.0
 30
0.0
  0
VERTEX
  5
1A8
330
1A7
100
AcDbEntity
  8
Default
100
AcDbVertex
100
AcDb2dVertex
 10
102.3432935196503
 20
24.87734998724637
 30
0.0
  0
VERTEX
  5
1A9
330
1A7
100
AcDbEntity
  8
Default
100
AcDbVertex
100
AcDb2dVertex
 10
104.3784357134373
 20
27.08148161922027
 30
0.0
  0
SEQEND
  5
1AA
330
1A7
100
AcDbEntity
  8
Default
  0
POLYLINE
  5
1AB
330
1F
100
AcDbEntity
  8
Default
100
AcDb2dPolyline
 66
     1
 10
0.0
 20
0.0
 30
0.0
  0
VERTEX
  5
1AC
330
1AB
100
AcDbEntity
  8
Default
100
AcDbVertex
100
AcDb2dVertex
 10
100.2518215131344
 20
24.08630963052605
 30
0.0
  0
VERTEX
  5
1AD
330
1AB
100
AcDbEntity
  8
Default
100
AcDbVertex
100
AcDb2dVertex
 10
102.2869637069214
 20
26.29044126249996
 30
0.0
  0
SEQEND
  5
1AE
330
1AB
100
AcDbEntity
  8
Default
  0
POLYLINE
  5
1AF
330
1F
100
AcDbEntity
  8
Default
100
AcDb2dPolyline
 66
     1
 10
0.0
 20
0.0
 30
0.0
  0
VERTEX
  5
1B0
330
1AF
100
AcDbEntity
  8
Default
100
AcDbVertex
100
AcDb2dVertex
 10
100.1954917004054
 20
25.49940090577969
 30
0.0
  0
VERTEX
  5
1B1
330
1AF
100
AcDbEntity
  8
Default
100
AcDbVertex
100
AcDb2dVertex
 10
98.16034950661846
 20
23.29526927380578
 30
0.0
  0
SEQEND
  5
1B2
330
1AF
100
AcDbEntity
  8
Default
  0
POLYLINE
  5
1B3
330
1F
100
AcDbEntity
  8
Default
100
AcDb2dPolyline
 66
     1
 10
0.0
 20
0.0
 30
0.0
  0
VERTEX
  5
1B4
330
1B3
100
AcDbEntity
  8
Default
100
AcDbVertex
100
AcDb2dVertex
 10
98.10401969388944
 20
24.70836054905942
 30
0.0
  0
VERTEX
  5
1B5
330
1B3
100
AcDbEntity
  8
Default
100
AcDbVertex
100
AcDb2dVertex
 10
96.06887750010247
 20
22.50422891708551
 30
0.0
  0
SEQEND
  5
1B6
330
1B3
100
AcDbEntity
  8
Default
  0
POLYLINE
  5
1B7
330
1F
100
AcDbEntity
  8
Default
100
AcDb2dPolyline
 66
     1
 10
0.0
 20
0.0
 30
0.0
  0
VERTEX
  5
1B8
330
1B7
100
AcDbEntity
  8
Default
100
AcDbVertex
100
AcDb2dVertex
 10
96.01254768737353
 20
23.9173201923391
 30
0.0
  0
VERTEX
  5
1B9
330
1B7
100
AcDbEntity
  8
Default
100
AcDbVertex
100
AcDb2dVertex
 10
93.97740549358656
 20
21.71318856036519
 30
0.0
  0
SEQEND
  5
1BA
330
1B7
100
AcDbEntity
  8
Default
  0
POLYLINE
  5
1BB
330
1F
100
AcDbEntity
  8
Default
100
AcDb2dPolyline
 66
     1
 10
0.0
 20
0.0
 30
0.0
  0
VERTEX
  5
1BC
330
1BB
100
AcDbEntity
  8
Default
100
AcDbVertex
100
AcDb2dVertex
 10
93.29902476232425
 20
20.97847801637388
 30
0.0
  0
VERTEX
  5
1BD
330
1BB
100
AcDbEntity
  8
Default
100
AcDbVertex
100
AcDb2dVertex
 10
91.65181925148445
 20
19.19449565784991
 30
0.0
  0
SEQEND
  5
1BE
330
1BB
100
AcDbEntity
  8
Default
  0
POLYLINE
  5
1BF
330
1F
100
AcDbEntity
  8
Default
100
AcDb2dPolyline
 66
     1
 10
0.0
 20
0.0
 30
0.0
  0
VERTEX
  5
1C0
330
1BF
100
AcDbEntity
  8
Default
100
AcDbVertex
100
AcDb2dVertex
 10
111.4093561135503
 20
33.44705325167558
 30
0.0
  0
VERTEX
  5
1C1
330
1BF
100
AcDbEntity
  8
Default
100
AcDbVertex
100
AcDb2dVertex
 10
111.4093561135503
 20
30.73839413517673
 30
0.0
  0
SEQEND
  5
1C2
330
1BF
100
AcDbEntity
  8
Default
  0
POLYLINE
  5
1C3
330
1F
100
AcDbEntity
  8
Default
100
AcDb2dPolyline
 66
     1
 10
0.0
 20
0.0
 30
0.0
  0
VERTEX
  5
1C4
330
1C3
100
AcDbEntity
  8
Default
100
AcDbVertex
100
AcDb2dVertex
 10
113.4093561135503
 20
33.44705325167558
 30
0.0
  0
VERTEX
  5
1C5
330
1C3
100
AcDbEntity
  8
Default
100
AcDbVertex
100
AcDb2dVertex
 10
113.4093561135503
 20
30.73839413517673
 30
0.0
  0
SEQEND
  5
1C6
330
1C3
100
AcDbEntity
  8
Default
  0
POLYLINE
  5
1C7
330
1F
100
AcDbEntity
  8
Default
100
AcDb2dPolyline
 66
     1
 10
0.0
 20
0.0
 30
0.0
  0
VERTEX
  5
1C8
330
1C7
100
AcDbEntity
  8
Default
100
AcDbVertex
100
AcDb2dVertex
 10
115.4093561135503
 20
33.44705325167558
 30
0.0
  0
VERTEX
  5
1C9
330
1C7
100
AcDbEntity
  8
Default
100
AcDbVertex
100
AcDb2dVertex
 10
115.4093561135503
 20
30.73839413517673
 30
0.0
  0
SEQEND
  5
1CA
330
1C7
100
AcDbEntity
  8
Default
  0
POLYLINE
  5
1CB
330
1F
100
AcDbEntity
  8
Default
100
AcDb2dPolyline
 66
     1
 10
0.0
 20
0.0
 30
0.0
  0
VERTEX
  5
1CC
330
1CB
100
AcDbEntity
  8
Default
100
AcDbVertex
100
AcDb2dVertex
 10
117.4093561135503
 20
33.44705325167558
 30
0.0
  0
VERTEX
  5
1CD
330
1CB
100
AcDbEntity
  8
Default
100
AcDbVertex
100
AcDb2dVertex
 10
117.4093561135503
 20
30.73839413517673
 30
0.0
  0
SEQEND
  5
1CE
330
1CB
100
AcDbEntity
  8
Default
  0
POLYLINE
  5
1CF
330
1F
100
AcDbEntity
  8
Default
100
AcDb2dPolyline
 66
     1
 10
0.0
 20
0.0
 30
0.0
  0
VERTEX
  5
1D0
330
1CF
100
AcDbEntity
  8
Default
100
AcDbVertex
100
AcDb2dVertex
 10
119.4093561135503
 20
33.44705325167558
 30
0.0
  0
VERTEX
  5
1D1
330
1CF
100
AcDbEntity
  8
Default
100
AcDbVertex
100
AcDb2dVertex
 10
119.4093561135503
 20
30.73839413517673
 30
0.0
  0
SEQEND
  5
1D2
330
1CF
100
AcDbEntity
  8
Default
  0
POLYLINE
  5
1D3
330
1F
100
AcDbEntity
  8
Default
100
AcDb2dPolyline
 66
     1
 10
0.0
 20
0.0
 30
0.0
  0
VERTEX
  5
1D4
330
1D3
100
AcDbEntity
  8
Default
100
AcDbVertex
100
AcDb2dVertex
 10
121.4093561135503
 20
33.44705325167558
 30
0.0
  0
VERTEX
  5
1D5
330
1D3
100
AcDbEntity
  8
Default
100
AcDbVertex
100
AcDb2dVertex
 10
121.4093561135503
 20
30.73839413517673
 30
0.0
  0
SEQEND
  5
1D6
330
1D3
100
AcDbEntity
  8
Default
  0
POLYLINE
  5
1D7
330
1F
100
AcDbEntity
  8
Default
100
AcDb2dPolyline
 66
     1
 10
0.0
 20
0.0
 30
0.0
  0
VERTEX
  5
1D8
330
1D7
100
AcDbEntity
  8
Default
100
AcDbVertex
100
AcDb2dVertex
 10
123.4093561135503
 20
33.44705325167558
 30
0.0
  0
VERTEX
  5
1D9
330
1D7
100
AcDbEntity
  8
Default
100
AcDbVertex
100
AcDb2dVertex
 10
123.4093561135503
 20
30.73839413517673
 30
0.0
  0
SEQEND
  5
1DA
330
1D7
100
AcDbEntity
  8
Default
  0
POLYLINE
  5
1DB
330
1F
100
AcDbEntity
  8
Default
100
AcDb2dPolyline
 66
     1
 10
0.0
 20
0.0
 30
0.0
  0
VERTEX
  5
1DC
330
1DB
100
AcDbEntity
  8
Default
100
AcDbVertex
100
AcDb2dVertex
 10
125.4093561135503
 20
33.44705325167558
 30
0.0
  0
VERTEX
  5
1DD
330
1DB
100
AcDbEntity
  8
Default
100
AcDbVertex
100
AcDb2dVertex
 10
125.4093561135503
 20
30.73839413517673
 30
0.0
  0
SEQEND
  5
1DE
330
1DB
100
AcDbEntity
  8
Default
  0
POLYLINE
  5
1DF
330
1F
100
AcDbEntity
  8
Default
100
AcDb2dPolyline
 66
     1
 10
0.0
 20
0.0
 30
0.0
  0
VERTEX
  5
1E0
330
1DF
100
AcDbEntity
  8
Default
100
AcDbVertex
100
AcDb2dVertex
 10
127.4093561135503
 20
33.44705325167558
 30
0.0
  0
VERTEX
  5
1E1
330
1DF
100
AcDbEntity
  8
Default
100
AcDbVertex
100
AcDb2dVertex
 10
127.4093561135503
 20
30.73839413517673
 30
0.0
  0
SEQEND
  5
1E2
330
1DF
100
AcDbEntity
  8
Default
  0
POLYLINE
  5
1E3
330
1F
100
AcDbEntity
  8
Default
100
AcDb2dPolyline
 66
     1
 10
0.0
 20
0.0
 30
0.0
  0
VERTEX
  5
1E4
330
1E3
100
AcDbEntity
  8
Default
100
AcDbVertex
100
AcDb2dVertex
 10
111.4093561135503
 20
-30.14573404659323
 30
0.0
  0
VERTEX
  5
1E5
330
1E3
100
AcDbEntity
  8
Default
100
AcDbVertex
100
AcDb2dVertex
 10
111.4093561135503
 20
-32.47878957416809
 30
0.0
  0
SEQEND
  5
1E6
330
1E3
100
AcDbEntity
  8
Default
  0
POLYLINE
  5
1E7
330
1F
100
AcDbEntity
  8
Default
100
AcDb2dPolyline
 66
     1
 10
0.0
 20
0.0
 30
0.0
  0
VERTEX
  5
1E8
330
1E7
100
AcDbEntity
  8
Default
100
AcDbVertex
100
AcDb2dVertex
 10
113.4093561135503
 20
-30.14573404659323
 30
0.0
  0
VERTEX
  5
1E9
330
1E7
100
AcDbEntity
  8
Default
100
AcDbVertex
100
AcDb2dVertex
 10
113.4093561135503
 20
-32.51444289759552
 30
0.0
  0
SEQEND
  5
1EA
330
1E7
100
AcDbEntity
  8
Default
  0
POLYLINE
  5
1EB
330
1F
100
AcDbEntity
  8
Default
100
AcDb2dPolyline
 66
     1
 10
0.0
 20
0.0
 30
0.0
  0
VERTEX
  5
1EC
330
1EB
100
AcDbEntity
  8
Default
100
AcDbVertex
100
AcDb2dVertex
 10
115.4093561135503
 20
-30.14573404659323
 30
0.0
  0
VERTEX
  5
1ED
330
1EB
100
AcDbEntity
  8
Default
100
AcDbVertex
100
AcDb2dVertex
 10
115.4093561135503
 20
-32.51444289759551
 30
0.0
  0
SEQEND
  5
1EE
330
1EB
100
AcDbEntity
  8
Default
  0
POLYLINE
  5
1EF
330
1F
100
AcDbEntity
  8
Default
100
AcDb2dPolyline
 66
     1
 10
0.0
 20
0.0
 30
0.0
  0
VERTEX
  5
1F0
330
1EF
100
AcDbEntity
  8
Default
100
AcDbVertex
100
AcDb2dVertex
 10
117.4093561135503
 20
-30.14573404659323
 30
0.0
  0
VERTEX
  5
1F1
330
1EF
100
AcDbEntity
  8
Default
100
AcDbVertex
100
AcDb2dVertex
 10
117.4093561135503
 20
-32.51444289759549
 30
0.0
  0
SEQEND
  5
1F2
330
1EF
100
AcDbEntity
  8
Default
  0
POLYLINE
  5
1F3
330
1F
100
AcDbEntity
  8
Default
100
AcDb2dPolyline
 66
     1
 10
0.0
 20
0.0
 30
0.0
  0
VERTEX
  5
1F4
330
1F3
100
AcDbEntity
  8
Default
100
AcDbVertex
100
AcDb2dVertex
 10
119.4093561135503
 20
-30.14573404659323
 30
0.0
  0
VERTEX
  5
1F5
330
1F3
100
AcDbEntity
  8
Default
100
AcDbVertex
100
AcDb2dVertex
 10
119.4093561135503
 20
-32.51444289759549
 30
0.0
  0
SEQEND
  5
1F6
330
1F3
100
AcDbEntity
  8
Default
  0
POLYLINE
  5
1F7
330
1F
100
AcDbEntity
  8
Default
100
AcDb2dPolyline
 66
     1
 10
0.0
 20
0.0
 30
0.0
  0
VERTEX
  5
1F8
330
1F7
100
AcDbEntity
  8
Default
100
AcDbVertex
100
AcDb2dVertex
 10
121.4093561135503
 20
-30.14573404659323
 30
0.0
  0
VERTEX
  5
1F9
330
1F7
100
AcDbEntity
  8
Default
100
AcDbVertex
100
AcDb2dVertex
 10
121.4093561135503
 20
-32.51444289759547
 30
0.0
  0
SEQEND
  5
1FA
330
1F7
100
AcDbEntity
  8
Default
  0
POLYLINE
  5
1FB
330
1F
100
AcDbEntity
  8
Default
100
AcDb2dPolyline
 66
     1
 10
0.0
 20
0.0
 30
0.0
  0
VERTEX
  5
1FC
330
1FB
100
AcDbEntity
  8
Default
100
AcDbVertex
100
AcDb2dVertex
 10
123.4093561135503
 20
-30.14573404659323
 30
0.0
  0
VERTEX
  5
1FD
330
1FB
100
AcDbEntity
  8
Default
100
AcDbVertex
100
AcDb2dVertex
 10
123.4093561135503
 20
-32.51444289759546
 30
0.0
  0
SEQEND
  5
1FE
330
1FB
100
AcDbEntity
  8
Default
  0
POLYLINE
  5
1FF
330
1F
100
AcDbEntity
  8
Default
100
AcDb2dPolyline
 66
     1
 10
0.0
 20
0.0
 30
0.0
  0
VERTEX
  5
200
330
1FF
100
AcDbEntity
  8
Default
100
AcDbVertex
100
AcDb2dVertex
 10
125.4093561135503
 20
-30.14573404659323
 30
0.0
  0
VERTEX
  5
201
330
1FF
100
AcDbEntity
  8
Default
100
AcDbVertex
100
AcDb2dVertex
 10
125.4093561135503
 20
-32.51444289759544
 30
0.0
  0
SEQEND
  5
202
330
1FF
100
AcDbEntity
  8
Default
  0
POLYLINE
  5
203
330
1F
100
AcDbEntity
  8
Default
100
AcDb2dPolyline
 66
     1
 10
0.0
 20
0.0
 30
0.0
  0
VERTEX
  5
204
330
203
100
AcDbEntity
  8
Default
100
AcDbVertex
100
AcDb2dVertex
 10
127.4093561135503
 20
-30.14573404659323
 30
0.0
  0
VERTEX
  5
205
330
203
100
AcDbEntity
  8
Default
100
AcDbVertex
100
AcDb2dVertex
 10
127.4093561135503
 20
-32.51444289759543
 30
0.0
  0
SEQEND
  5
206
330
203
100
AcDbEntity
  8
Default
  0
POLYLINE
  5
207
330
1F
100
AcDbEntity
  8
Default
100
AcDb2dPolyline
 66
     1
 10
0.0
 20
0.0
 30
0.0
  0
VERTEX
  5
208
330
207
100
AcDbEntity
  8
Default
100
AcDbVertex
100
AcDb2dVertex
 10
129.4093561135503
 20
-30.14573404659323
 30
0.0
  0
VERTEX
  5
209
330
207
100
AcDbEntity
  8
Default
100
AcDbVertex
100
AcDb2dVertex
 10
129.4093561135503
 20
-31.64410014552747
 30
0.0
  0
SEQEND
  5
20A
330
207
100
AcDbEntity
  8
Default
  0
POLYLINE
  5
20B
330
1F
100
AcDbEntity
  8
Default
100
AcDb2dPolyline
 66
     1
 10
0.0
 20
0.0
 30
0.0
  0
VERTEX
  5
20C
330
20B
100
AcDbEntity
  8
Default
100
AcDbVertex
100
AcDb2dVertex
 10
97.48196877535615
 20
22.56055872981446
 30
0.0
  0
VERTEX
  5
20D
330
20B
100
AcDbEntity
  8
Default
100
AcDbVertex
100
AcDb2dVertex
 10
95.44682658156918
 20
20.35642709784055
 30
0.0
  0
SEQEND
  5
20E
330
20B
100
AcDbEntity
  8
Default
  0
POLYLINE
  5
20F
330
1F
100
AcDbEntity
  8
Default
100
AcDb2dPolyline
 66
     1
 10
0.0
 20
0.0
 30
0.0
  0
VERTEX
  5
210
330
20F
100
AcDbEntity
  8
Default
100
AcDbVertex
100
AcDb2dVertex
 10
89.7381316678257
 20
21.54419912217825
 30
0.0
  0
VERTEX
  5
211
330
20F
100
AcDbEntity
  8
Default
100
AcDbVertex
100
AcDb2dVertex
 10
88.03200374210653
 20
19.69640168534455
 30
0.0
  0
SEQEND
  5
212
330
20F
100
AcDbEntity
  8
Default
  0
POLYLINE
  5
213
330
1F
100
AcDbEntity
  8
Default
100
AcDb2dPolyline
 66
     1
 10
0.0
 20
0.0
 30
0.0
  0
VERTEX
  5
214
330
213
100
AcDbEntity
  8
Default
100
AcDbVertex
100
AcDb2dVertex
 10
99.17670911425468
 20
15.55143216627533
 30
0.0
  0
VERTEX
  5
215
330
213
100
AcDbEntity
  8
Default
100
AcDbVertex
100
AcDb2dVertex
 10
97.5295036034149
 20
13.76744980775135
 30
0.0
  0
SEQEND
  5
216
330
213
100
AcDbEntity
  8
Default
  0
POLYLINE
  5
217
330
1F
100
AcDbEntity
  8
Default
100
AcDb2dPolyline
 66
     1
 10
0.0
 20
0.0
 30
0.0
  0
VERTEX
  5
218
330
217
100
AcDbEntity
  8
Default
100
AcDbVertex
100
AcDb2dVertex
 10
97.70728802627207
 20
16.90819362879997
 30
0.0
  0
VERTEX
  5
219
330
217
100
AcDbEntity
  8
Default
100
AcDbVertex
100
AcDb2dVertex
 10
96.06008251543227
 20
15.124211270276
 30
0.0
  0
SEQEND
  5
21A
330
217
100
AcDbEntity
  8
Default
  0
POLYLINE
  5
21B
330
1F
100
AcDbEntity
  8
Default
100
AcDb2dPolyline
 66
     1
 10
0.0
 20
0.0
 30
0.0
  0
VERTEX
  5
21C
330
21B
100
AcDbEntity
  8
Default
100
AcDbVertex
100
AcDb2dVertex
 10
96.23786693828946
 20
18.26495509132462
 30
0.0
  0
VERTEX
  5
21D
330
21B
100
AcDbEntity
  8
Default
100
AcDbVertex
100
AcDb2dVertex
 10
94.59066142744967
 20
16.48097273280064
 30
0.0
  0
SEQEND
  5
21E
330
21B
100
AcDbEntity
  8
Default
  0
POLYLINE
  5
21F
330
1F
100
AcDbEntity
  8
Default
100
AcDb2dPolyline
 66
     1
 10
0.0
 20
0.0
 30
0.0
  0
VERTEX
  5
220
330
21F
100
AcDbEntity
  8
Default
100
AcDbVertex
100
AcDb2dVertex
 10
94.76844585030686
 20
19.62171655384925
 30
0.0
  0
VERTEX
  5
221
330
21F
100
AcDbEntity
  8
Default
100
AcDbVertex
100
AcDb2dVertex
 10
93.12124033946706
 20
17.83773419532527
 30
0.0
  0
SEQEND
  5
222
330
21F
100
AcDbEntity
  8
Default
  0
POLYLINE
  5
223
330
1F
100
AcDbEntity
  8
Default
100
AcDb2dPolyline
 66
     1
 10
0.0
 20
0.0
 30
0.0
  0
VERTEX
  5
224
330
223
100
AcDbEntity
  8
Default
100
AcDbVertex
100
AcDb2dVertex
 10
91.20755275580831
 20
20.1874376596536
 30
0.0
  0
VERTEX
  5
225
330
223
100
AcDbEntity
  8
Default
100
AcDbVertex
100
AcDb2dVertex
 10
90.75416421245318
 20
19.69640168534455
 30
0.0
  0
SEQEND
  5
226
330
223
100
AcDbEntity
  8
Default
  0
POLYLINE
  5
227
330
1F
100
AcDbEntity
  8
Default
100
AcDb2dPolyline
 66
     1
 10
0.0
 20
0.0
 30
0.0
  0
VERTEX
  5
228
330
227
100
AcDbEntity
  8
Default
100
AcDbVertex
100
AcDb2dVertex
 10
92.6769738437909
 20
18.83067619712896
 30
0.0
  0
VERTEX
  5
229
330
227
100
AcDbEntity
  8
Default
100
AcDbVertex
100
AcDb2dVertex
 10
92.38652979547577
 20
18.51611492658759
 30
0.0
  0
SEQEND
  5
22A
330
227
100
AcDbEntity
  8
Default
  0
POLYLINE
  5
22B
330
1F
100
AcDbEntity
  8
Default
100
AcDb2dPolyline
 66
     1
 10
0.0
 20
0.0
 30
0.0
  0
VERTEX
  5
22C
330
22B
100
AcDbEntity
  8
Default
100
AcDbVertex
100
AcDb2dVertex
 10
94.14639493177351
 20
17.47391473460432
 30
0.0
  0
VERTEX
  5
22D
330
22B
100
AcDbEntity
  8
Default
100
AcDbVertex
100
AcDb2dVertex
 10
93.85595088345838
 20
17.15935346406295
 30
0.0
  0
SEQEND
  5
22E
330
22B
100
AcDbEntity
  8
Default
  0
POLYLINE
  5
22F
330
1F
100
AcDbEntity
  8
Default
100
AcDb2dPolyline
 66
     1
 10
0.0
 20
0.0
 30
0.0
  0
VERTEX
  5
230
330
22F
100
AcDbEntity
  8
Default
100
AcDbVertex
100
AcDb2dVertex
 10
95.61581601975611
 20
16.11715327207969
 30
0.0
  0
VERTEX
  5
231
330
22F
100
AcDbEntity
  8
Default
100
AcDbVertex
100
AcDb2dVertex
 10
95.32537197144097
 20
15.80259200153832
 30
0.0
  0
SEQEND
  5
232
330
22F
100
AcDbEntity
  8
Default
  0
POLYLINE
  5
233
330
1F
100
AcDbEntity
  8
Default
100
AcDb2dPolyline
 66
     1
 10
0.0
 20
0.0
 30
0.0
  0
VERTEX
  5
234
330
233
100
AcDbEntity
  8
Default
100
AcDbVertex
100
AcDb2dVertex
 10
97.08523710773872
 20
14.76039180955504
 30
0.0
  0
VERTEX
  5
235
330
233
100
AcDbEntity
  8
Default
100
AcDbVertex
100
AcDb2dVertex
 10
96.79479305942358
 20
14.44583053901368
 30
0.0
  0
SEQEND
  5
236
330
233
100
AcDbEntity
  8
Default
  0
POLYLINE
  5
237
330
1F
100
AcDbEntity
  8
Default
100
AcDb2dPolyline
 66
     1
 10
0.0
 20
0.0
 30
0.0
  0
VERTEX
  5
238
330
237
100
AcDbEntity
  8
Default
100
AcDbVertex
100
AcDb2dVertex
 10
100.6461302022373
 20
14.19467070375069
 30
0.0
  0
VERTEX
  5
239
330
237
100
AcDbEntity
  8
Default
100
AcDbVertex
100
AcDb2dVertex
 10
98.9989246913975
 20
12.41068834522672
 30
0.0
  0
SEQEND
  5
23A
330
237
100
AcDbEntity
  8
Default
  0
POLYLINE
  5
23B
330
1F
100
AcDbEntity
  8
Default
100
AcDb2dPolyline
 66
     1
 10
0.0
 20
0.0
 30
0.0
  0
VERTEX
  5
23C
330
23B
100
AcDbEntity
  8
Default
100
AcDbVertex
100
AcDb2dVertex
 10
98.55465819572133
 20
13.4036303470304
 30
0.0
  0
VERTEX
  5
23D
330
23B
100
AcDbEntity
  8
Default
100
AcDbVertex
100
AcDb2dVertex
 10
98.2642141474062
 20
13.08906907648904
 30
0.0
  0
SEQEND
  5
23E
330
23B
100
AcDbEntity
  8
Default
  0
POLYLINE
  5
23F
330
1F
100
AcDbEntity
  8
Default
100
AcDb2dPolyline
 66
     1
 10
0.0
 20
0.0
 30
0.0
  0
VERTEX
  5
240
330
23F
100
AcDbEntity
  8
Default
100
AcDbVertex
100
AcDb2dVertex
 10
100.0240792837039
 20
12.04686888450575
 30
0.0
  0
VERTEX
  5
241
330
23F
100
AcDbEntity
  8
Default
100
AcDbVertex
100
AcDb2dVertex
 10
99.7336352353888
 20
11.7323076139644
 30
0.0
  0
SEQEND
  5
242
330
23F
100
AcDbEntity
  8
Default
  0
POLYLINE
  5
243
330
1F
100
AcDbEntity
  8
Default
100
AcDb2dPolyline
 66
     1
 10
0.0
 20
0.0
 30
0.0
  0
VERTEX
  5
244
330
243
100
AcDbEntity
  8
Default
100
AcDbVertex
100
AcDb2dVertex
 10
101.4935003716866
 20
10.69010742198111
 30
0.0
  0
VERTEX
  5
245
330
243
100
AcDbEntity
  8
Default
100
AcDbVertex
100
AcDb2dVertex
 10
100.0534742204617
 20
9.130507704342566
 30
0.0
  0
SEQEND
  5
246
330
243
100
AcDbEntity
  8
Default
  0
POLYLINE
  5
247
330
1F
100
AcDbEntity
  8
Default
100
AcDb2dPolyline
 66
     1
 10
0.0
 20
0.0
 30
0.0
  0
VERTEX
  5
248
330
247
100
AcDbEntity
  8
Default
100
AcDbVertex
100
AcDb2dVertex
 10
129.4093561135503
 20
39.44705325167558
 30
0.0
  0
VERTEX
  5
249
330
247
100
AcDbEntity
  8
Default
100
AcDbVertex
100
AcDb2dVertex
 10
129.4093561135503
 20
38.44705325167558
 30
0.0
  0
SEQEND
  5
24A
330
247
100
AcDbEntity
  8
Default
  0
POLYLINE
  5
24B
330
1F
100
AcDbEntity
  8
Default
100
AcDb2dPolyline
 66
     1
 10
0.0
 20
0.0
 30
0.0
  0
VERTEX
  5
24C
330
24B
100
AcDbEntity
  8
Default
100
AcDbVertex
100
AcDb2dVertex
 10
127.4093561135503
 20
39.44705325167558
 30
0.0
  0
VERTEX
  5
24D
330
24B
100
AcDbEntity
  8
Default
100
AcDbVertex
100
AcDb2dVertex
 10
127.4093561135503
 20
38.44705325167558
 30
0.0
  0
SEQEND
  5
24E
330
24B
100
AcDbEntity
  8
Default
  0
POLYLINE
  5
24F
330
1F
100
AcDbEntity
  8
Default
100
AcDb2dPolyline
 66
     1
 10
0.0
 20
0.0
 30
0.0
  0
VERTEX
  5
250
330
24F
100
AcDbEntity
  8
Default
100
AcDbVertex
100
AcDb2dVertex
 10
125.4093561135503
 20
39.44705325167558
 30
0.0
  0
VERTEX
  5
251
330
24F
100
AcDbEntity
  8
Default
100
AcDbVertex
100
AcDb2dVertex
 10
125.4093561135503
 20
38.44705325167558
 30
0.0
  0
SEQEND
  5
252
330
24F
100
AcDbEntity
  8
Default
  0
POLYLINE
  5
253
330
1F
100
AcDbEntity
  8
Default
100
AcDb2dPolyline
 66
     1
 10
0.0
 20
0.0
 30
0.0
  0
VERTEX
  5
254
330
253
100
AcDbEntity
  8
Default
100
AcDbVertex
100
AcDb2dVertex
 10
123.4093561135503
 20
39.44705325167558
 30
0.0
  0
VERTEX
  5
255
330
253
100
AcDbEntity
  8
Default
100
AcDbVertex
100
AcDb2dVertex
 10
123.4093561135503
 20
38.44705325167558
 30
0.0
  0
SEQEND
  5
256
330
253
100
AcDbEntity
  8
Default
  0
POLYLINE
  5
257
330
1F
100
AcDbEntity
  8
Default
100
AcDb2dPolyline
 66
     1
 10
0.0
 20
0.0
 30
0.0
  0
VERTEX
  5
258
330
257
100
AcDbEntity
  8
Default
100
AcDbVertex
100
AcDb2dVertex
 10
121.4093561135503
 20
39.44705325167558
 30
0.0
  0
VERTEX
  5
259
330
257
100
AcDbEntity
  8
Default
100
AcDbVertex
100
AcDb2dVertex
 10
121.4093561135503
 20
38.44705325167558
 30
0.0
  0
SEQEND
  5
25A
330
257
100
AcDbEntity
  8
Default
  0
POLYLINE
  5
25B
330
1F
100
AcDbEntity
  8
Default
100
AcDb2dPolyline
 66
     1
 10
0.0
 20
0.0
 30
0.0
  0
VERTEX
  5
25C
330
25B
100
AcDbEntity
  8
Default
100
AcDbVertex
100
AcDb2dVertex
 10
119.4093561135503
 20
39.44705325167558
 30
0.0
  0
VERTEX
  5
25D
330
25B
100
AcDbEntity
  8
Default
100
AcDbVertex
100
AcDb2dVertex
 10
119.4093561135503
 20
38.44705325167558
 30
0.0
  0
SEQEND
  5
25E
330
25B
100
AcDbEntity
  8
Default
  0
POLYLINE
  5
25F
330
1F
100
AcDbEntity
  8
Default
100
AcDb2dPolyline
 66
     1
 10
0.0
 20
0.0
 30
0.0
  0
VERTEX
  5
260
330
25F
100
AcDbEntity
  8
Default
100
AcDbVertex
100
AcDb2dVertex
 10
117.4093561135503
 20
39.44705325167558
 30
0.0
  0
VERTEX
  5
261
330
25F
100
AcDbEntity
  8
Default
100
AcDbVertex
100
AcDb2dVertex
 10
117.4093561135503
 20
38.44705325167558
 30
0.0
  0
SEQEND
  5
262
330
25F
100
AcDbEntity
  8
Default
  0
POLYLINE
  5
263
330
1F
100
AcDbEntity
  8
Default
100
AcDb2dPolyline
 66
     1
 10
0.0
 20
0.0
 30
0.0
  0
VERTEX
  5
264
330
263
100
AcDbEntity
  8
Default
100
AcDbVertex
100
AcDb2dVertex
 10
115.4093561135503
 20
39.44705325167558
 30
0.0
  0
VERTEX
  5
265
330
263
100
AcDbEntity
  8
Default
100
AcDbVertex
100
AcDb2dVertex
 10
115.4093561135503
 20
38.44705325167558
 30
0.0
  0
SEQEND
  5
266
330
263
100
AcDbEntity
  8
Default
  0
POLYLINE
  5
267
330
1F
100
AcDbEntity
  8
Default
100
AcDb2dPolyline
 66
     1
 10
0.0
 20
0.0
 30
0.0
  0
VERTEX
  5
268
330
267
100
AcDbEntity
  8
Default
100
AcDbVertex
100
AcDb2dVertex
 10
113.4093561135503
 20
39.44705325167558
 30
0.0
  0
VERTEX
  5
269
330
267
100
AcDbEntity
  8
Default
100
AcDbVertex
100
AcDb2dVertex
 10
113.4093561135503
 20
38.44705325167558
 30
0.0
  0
SEQEND
  5
26A
330
267
100
AcDbEntity
  8
Default
  0
POLYLINE
  5
26B
330
1F
100
AcDbEntity
  8
Default
100
AcDb2dPolyline
 66
     1
 10
0.0
 20
0.0
 30
0.0
  0
VERTEX
  5
26C
330
26B
100
AcDbEntity
  8
Default
100
AcDbVertex
100
AcDb2dVertex
 10
111.4093561135503
 20
39.44705325167558
 30
0.0
  0
VERTEX
  5
26D
330
26B
100
AcDbEntity
  8
Default
100
AcDbVertex
100
AcDb2dVertex
 10
111.4093561135503
 20
38.44705325167558
 30
0.0
  0
SEQEND
  5
26E
330
26B
100
AcDbEntity
  8
Default
  0
POLYLINE
  5
26F
330
1F
100
AcDbEntity
  8
Default
100
AcDb2dPolyline
 66
     1
 10
0.0
 20
0.0
 30
0.0
  0
VERTEX
  5
270
330
26F
100
AcDbEntity
  8
Default
100
AcDbVertex
100
AcDb2dVertex
 10
129.4093561135503
 20
-25.14573404659323
 30
0.0
  0
VERTEX
  5
271
330
26F
100
AcDbEntity
  8
Default
100
AcDbVertex
100
AcDb2dVertex
 10
129.4093561135503
 20
-22.92827253148994
 30
0.0
  0
SEQEND
  5
272
330
26F
100
AcDbEntity
  8
Default
  0
POLYLINE
  5
273
330
1F
100
AcDbEntity
  8
Default
100
AcDb2dPolyline
 66
     1
 10
0.0
 20
0.0
 30
0.0
  0
VERTEX
  5
274
330
273
100
AcDbEntity
  8
Default
100
AcDbVertex
100
AcDb2dVertex
 10
127.4093561135503
 20
-25.14573404659323
 30
0.0
  0
VERTEX
  5
275
330
273
100
AcDbEntity
  8
Default
100
AcDbVertex
100
AcDb2dVertex
 10
127.4093561135503
 20
-22.92827253148994
 30
0.0
  0
SEQEND
  5
276
330
273
100
AcDbEntity
  8
Default
  0
POLYLINE
  5
277
330
1F
100
AcDbEntity
  8
Default
100
AcDb2dPolyline
 66
     1
 10
0.0
 20
0.0
 30
0.0
  0
VERTEX
  5
278
330
277
100
AcDbEntity
  8
Default
100
AcDbVertex
100
AcDb2dVertex
 10
125.4093561135503
 20
-25.14573404659323
 30
0.0
  0
VERTEX
  5
279
330
277
100
AcDbEntity
  8
Default
100
AcDbVertex
100
AcDb2dVertex
 10
125.4093561135503
 20
-23.84426115050296
 30
0.0
  0
SEQEND
  5
27A
330
277
100
AcDbEntity
  8
Default
  0
POLYLINE
  5
27B
330
1F
100
AcDbEntity
  8
Default
100
AcDb2dPolyline
 66
     1
 10
0.0
 20
0.0
 30
0.0
  0
VERTEX
  5
27C
330
27B
100
AcDbEntity
  8
Default
100
AcDbVertex
100
AcDb2dVertex
 10
124.4093561135503
 20
-27.14573404659323
 30
0.0
  0
VERTEX
  5
27D
330
27B
100
AcDbEntity
  8
Default
100
AcDbVertex
100
AcDb2dVertex
 10
124.4093561135503
 20
-24.51092781716962
 30
0.0
  0
SEQEND
  5
27E
330
27B
100
AcDbEntity
  8
Default
  0
POLYLINE
  5
27F
330
1F
100
AcDbEntity
  8
Default
100
AcDb2dPolyline
 66
     1
 10
0.0
 20
0.0
 30
0.0
  0
VERTEX
  5
280
330
27F
100
AcDbEntity
  8
Default
100
AcDbVertex
100
AcDb2dVertex
 10
122.4093561135503
 20
-27.14573404659323
 30
0.0
  0
VERTEX
  5
281
330
27F
100
AcDbEntity
  8
Default
100
AcDbVertex
100
AcDb2dVertex
 10
122.4093561135503
 20
-25.84426115050297
 30
0.0
  0
SEQEND
  5
282
330
27F
100
AcDbEntity
  8
Default
  0
POLYLINE
  5
283
330
1F
100
AcDbEntity
  8
Default
100
AcDb2dPolyline
 66
     1
 10
0.0
 20
0.0
 30
0.0
  0
VERTEX
  5
284
330
283
100
AcDbEntity
  8
Default
100
AcDbVertex
100
AcDb2dVertex
 10
121.4093561135503
 20
-29.14573404659323
 30
0.0
  0
VERTEX
  5
285
330
283
100
AcDbEntity
  8
Default
100
AcDbVertex
100
AcDb2dVertex
 10
121.4093561135503
 20
-26.51092781716963
 30
0.0
  0
SEQEND
  5
286
330
283
100
AcDbEntity
  8
Default
  0
POLYLINE
  5
287
330
1F
100
AcDbEntity
  8
Default
100
AcDb2dPolyline
 66
     1
 10
0.0
 20
0.0
 30
0.0
  0
VERTEX
  5
288
330
287
100
AcDbEntity
  8
Default
100
AcDbVertex
100
AcDb2dVertex
 10
119.4093561135503
 20
-29.14573404659323
 30
0.0
  0
VERTEX
  5
289
330
287
100
AcDbEntity
  8
Default
100
AcDbVertex
100
AcDb2dVertex
 10
119.4093561135503
 20
-27.34561724581025
 30
0.0
  0
SEQEND
  5
28A
330
287
100
AcDbEntity
  8
Default
  0
POLYLINE
  5
28B
330
1F
100
AcDbEntity
  8
Default
100
AcDb2dPolyline
 66
     1
 10
0.0
 20
0.0
 30
0.0
  0
VERTEX
  5
28C
330
28B
100
AcDbEntity
  8
Default
100
AcDbVertex
100
AcDb2dVertex
 10
116.4093561135503
 20
-27.14573404659323
 30
0.0
  0
VERTEX
  5
28D
330
28B
100
AcDbEntity
  8
Default
100
AcDbVertex
100
AcDb2dVertex
 10
116.4093561135503
 20
-25.34561724581026
 30
0.0
  0
SEQEND
  5
28E
330
28B
100
AcDbEntity
  8
Default
  0
POLYLINE
  5
28F
330
1F
100
AcDbEntity
  8
Default
100
AcDb2dPolyline
 66
     1
 10
0.0
 20
0.0
 30
0.0
  0
VERTEX
  5
290
330
28F
100
AcDbEntity
  8
Default
100
AcDbVertex
100
AcDb2dVertex
 10
111.4093561135503
 20
-25.14573404659323
 30
0.0
  0
VERTEX
  5
291
330
28F
100
AcDbEntity
  8
Default
100
AcDbVertex
100
AcDb2dVertex
 10
111.4093561135503
 20
-22.92827253148994
 30
0.0
  0
SEQEND
  5
292
330
28F
100
AcDbEntity
  8
Default
  0
POLYLINE
  5
293
330
1F
100
AcDbEntity
  8
Default
100
AcDb2dPolyline
 66
     1
 10
0.0
 20
0.0
 30
0.0
  0
VERTEX
  5
294
330
293
100
AcDbEntity
  8
Default
100
AcDbVertex
100
AcDb2dVertex
 10
113.4093561135503
 20
-25.14573404659323
 30
0.0
  0
VERTEX
  5
295
330
293
100
AcDbEntity
  8
Default
100
AcDbVertex
100
AcDb2dVertex
 10
113.4093561135503
 20
-23.34561724581026
 30
0.0
  0
SEQEND
  5
296
330
293
100
AcDbEntity
  8
Default
  0
POLYLINE
  5
297
330
1F
100
AcDbEntity
  8
Default
100
AcDb2dPolyline
 66
     1
 10
0.0
 20
0.0
 30
0.0
  0
VERTEX
  5
298
330
297
100
AcDbEntity
  8
Default
100
AcDbVertex
100
AcDb2dVertex
 10
126.4093561135503
 20
-27.14573404659323
 30
0.0
  0
VERTEX
  5
299
330
297
100
AcDbEntity
  8
Default
100
AcDbVertex
100
AcDb2dVertex
 10
126.4093561135503
 20
-24.14573404659323
 30
0.0
  0
SEQEND
  5
29A
330
297
100
AcDbEntity
  8
Default
  0
POLYLINE
  5
29B
330
1F
100
AcDbEntity
  8
Default
100
AcDb2dPolyline
 66
     1
 10
0.0
 20
0.0
 30
0.0
  0
VERTEX
  5
29C
330
29B
100
AcDbEntity
  8
Default
100
AcDbVertex
100
AcDb2dVertex
 10
128.4093561135503
 20
-27.14573404659323
 30
0.0
  0
VERTEX
  5
29D
330
29B
100
AcDbEntity
  8
Default
100
AcDbVertex
100
AcDb2dVertex
 10
128.4093561135503
 20
-24.14573404659323
 30
0.0
  0
SEQEND
  5
29E
330
29B
100
AcDbEntity
  8
Default
  0
POLYLINE
  5
29F
330
1F
100
AcDbEntity
  8
Default
100
AcDb2dPolyline
 66
     1
 10
0.0
 20
0.0
 30
0.0
  0
VERTEX
  5
2A0
330
29F
100
AcDbEntity
  8
Default
100
AcDbVertex
100
AcDb2dVertex
 10
114.4093561135503
 20
-27.14573404659323
 30
0.0
  0
VERTEX
  5
2A1
330
29F
100
AcDbEntity
  8
Default
100
AcDbVertex
100
AcDb2dVertex
 10
114.4093561135503
 20
-24.14573404659323
 30
0.0
  0
SEQEND
  5
2A2
330
29F
100
AcDbEntity
  8
Default
  0
POLYLINE
  5
2A3
330
1F
100
AcDbEntity
  8
Default
100
AcDb2dPolyline
 66
     1
 10
0.0
 20
0.0
 30
0.0
  0
VERTEX
  5
2A4
330
2A3
100
AcDbEntity
  8
Default
100
AcDbVertex
100
AcDb2dVertex
 10
117.4093561135503
 20
-29.14573404659323
 30
0.0
  0
VERTEX
  5
2A5
330
2A3
100
AcDbEntity
  8
Default
100
AcDbVertex
100
AcDb2dVertex
 10
117.4093561135503
 20
-26.14573404659323
 30
0.0
  0
SEQEND
  5
2A6
330
2A3
100
AcDbEntity
  8
Default
  0
POLYLINE
  5
2A7
330
1F
100
AcDbEntity
  8
Default
100
AcDb2dPolyline
 66
     1
 10
0.0
 20
0.0
 30
0.0
  0
VERTEX
  5
2A8
330
2A7
100
AcDbEntity
  8
Default
100
AcDbVertex
100
AcDb2dVertex
 10
103.5849723782025
 20
11.4811477787014
 30
0.0
  0
VERTEX
  5
2A9
330
2A7
100
AcDbEntity
  8
Default
100
AcDbVertex
100
AcDb2dVertex
 10
101.5498301844155
 20
9.277016146727474
 30
0.0
  0
SEQEND
  5
2AA
330
2A7
100
AcDbEntity
  8
Default
  0
POLYLINE
  5
2AB
330
1F
100
AcDbEntity
  8
Default
100
AcDb2dPolyline
 66
     1
 10
0.0
 20
0.0
 30
0.0
  0
VERTEX
  5
2AC
330
2AB
100
AcDbEntity
  8
Default
100
AcDbVertex
100
AcDb2dVertex
 10
106.2984953032518
 20
14.41998995466661
 30
0.0
  0
VERTEX
  5
2AD
330
2AB
100
AcDbEntity
  8
Default
100
AcDbVertex
100
AcDb2dVertex
 10
104.2633531094648
 20
12.21585832269269
 30
0.0
  0
SEQEND
  5
2AE
330
2AB
100
AcDbEntity
  8
Default
  0
POLYLINE
  5
2AF
330
1F
100
AcDbEntity
  8
Default
100
AcDb2dPolyline
 66
     1
 10
0.0
 20
0.0
 30
0.0
  0
VERTEX
  5
2B0
330
2AF
100
AcDbEntity
  8
Default
100
AcDbVertex
100
AcDb2dVertex
 10
91.82960367434164
 20
22.33523947889853
 30
0.0
  0
VERTEX
  5
2B1
330
2AF
100
AcDbEntity
  8
Default
100
AcDbVertex
100
AcDb2dVertex
 10
89.79446148055467
 20
20.13110784692462
 30
0.0
  0
SEQEND
  5
2B2
330
2AF
100
AcDbEntity
  8
Default
  0
POLYLINE
  5
2B3
330
1F
100
AcDbEntity
  8
Default
100
AcDb2dPolyline
 66
     1
 10
0.0
 20
0.0
 30
0.0
  0
VERTEX
  5
2B4
330
2B3
100
AcDbEntity
  8
Default
100
AcDbVertex
100
AcDb2dVertex
 10
93.9210756808576
 20
23.12627983561881
 30
0.0
  0
VERTEX
  5
2B5
330
2B3
100
AcDbEntity
  8
Default
100
AcDbVertex
100
AcDb2dVertex
 10
91.88593348707063
 20
20.92214820364491
 30
0.0
  0
SEQEND
  5
2B6
330
2B3
100
AcDbEntity
  8
Default
  0
POLYLINE
  5
2B7
330
1F
100
AcDbEntity
  8
Default
100
AcDb2dPolyline
 66
     1
 10
0.0
 20
0.0
 30
0.0
  0
VERTEX
  5
2B8
330
2B7
100
AcDbEntity
  8
Default
100
AcDbVertex
100
AcDb2dVertex
 10
95.3904967688402
 20
21.76951837309418
 30
0.0
  0
VERTEX
  5
2B9
330
2B7
100
AcDbEntity
  8
Default
100
AcDbVertex
100
AcDb2dVertex
 10
93.35535457505323
 20
19.56538674112026
 30
0.0
  0
SEQEND
  5
2BA
330
2B7
100
AcDbEntity
  8
Default
  0
POLYLINE
  5
2BB
330
1F
100
AcDbEntity
  8
Default
100
AcDb2dPolyline
 66
     1
 10
0.0
 20
0.0
 30
0.0
  0
VERTEX
  5
2BC
330
2BB
100
AcDbEntity
  8
Default
100
AcDbVertex
100
AcDb2dVertex
 10
96.8599178568228
 20
20.41275691056953
 30
0.0
  0
VERTEX
  5
2BD
330
2BB
100
AcDbEntity
  8
Default
100
AcDbVertex
100
AcDb2dVertex
 10
94.82477566303584
 20
18.20862527859562
 30
0.0
  0
SEQEND
  5
2BE
330
2BB
100
AcDbEntity
  8
Default
  0
POLYLINE
  5
2BF
330
1F
100
AcDbEntity
  8
Default
100
AcDb2dPolyline
 66
     1
 10
0.0
 20
0.0
 30
0.0
  0
VERTEX
  5
2C0
330
2BF
100
AcDbEntity
  8
Default
100
AcDbVertex
100
AcDb2dVertex
 10
97.53829858808513
 20
21.14746745456084
 30
0.0
  0
VERTEX
  5
2C1
330
2BF
100
AcDbEntity
  8
Default
100
AcDbVertex
100
AcDb2dVertex
 10
99.5734407818721
 20
23.35159908653474
 30
0.0
  0
SEQEND
  5
2C2
330
2BF
100
AcDbEntity
  8
Default
  0
POLYLINE
  5
2C3
330
1F
100
AcDbEntity
  8
Default
100
AcDb2dPolyline
 66
     1
 10
0.0
 20
0.0
 30
0.0
  0
VERTEX
  5
2C4
330
2C3
100
AcDbEntity
  8
Default
100
AcDbVertex
100
AcDb2dVertex
 10
99.62977059460107
 20
21.93850781128114
 30
0.0
  0
VERTEX
  5
2C5
330
2C3
100
AcDbEntity
  8
Default
100
AcDbVertex
100
AcDb2dVertex
 10
101.664912788388
 20
24.14263944325505
 30
0.0
  0
SEQEND
  5
2C6
330
2C3
100
AcDbEntity
  8
Default
  0
POLYLINE
  5
2C7
330
1F
100
AcDbEntity
  8
Default
100
AcDb2dPolyline
 66
     1
 10
0.0
 20
0.0
 30
0.0
  0
VERTEX
  5
2C8
330
2C7
100
AcDbEntity
  8
Default
100
AcDbVertex
100
AcDb2dVertex
 10
98.95138986333875
 20
21.20379726728983
 30
0.0
  0
VERTEX
  5
2C9
330
2C7
100
AcDbEntity
  8
Default
100
AcDbVertex
100
AcDb2dVertex
 10
96.91624766955178
 20
18.99966563531592
 30
0.0
  0
SEQEND
  5
2CA
330
2C7
100
AcDbEntity
  8
Default
  0
POLYLINE
  5
2CB
330
1F
100
AcDbEntity
  8
Default
100
AcDb2dPolyline
 66
     1
 10
0.0
 20
0.0
 30
0.0
  0
VERTEX
  5
2CC
330
2CB
100
AcDbEntity
  8
Default
100
AcDbVertex
100
AcDb2dVertex
 10
98.3293389448054
 20
19.0559954480449
 30
0.0
  0
VERTEX
  5
2CD
330
2CB
100
AcDbEntity
  8
Default
100
AcDbVertex
100
AcDb2dVertex
 10
96.29419675101843
 20
16.85186381607098
 30
0.0
  0
SEQEND
  5
2CE
330
2CB
100
AcDbEntity
  8
Default
  0
POLYLINE
  5
2CF
330
1F
100
AcDbEntity
  8
Default
100
AcDb2dPolyline
 66
     1
 10
0.0
 20
0.0
 30
0.0
  0
VERTEX
  5
2D0
330
2CF
100
AcDbEntity
  8
Default
100
AcDbVertex
100
AcDb2dVertex
 10
99.00771967606772
 20
19.79070599203621
 30
0.0
  0
VERTEX
  5
2D1
330
2CF
100
AcDbEntity
  8
Default
100
AcDbVertex
100
AcDb2dVertex
 10
101.0428618698547
 20
21.99483762401011
 30
0.0
  0
SEQEND
  5
2D2
330
2CF
100
AcDbEntity
  8
Default
  0
POLYLINE
  5
2D3
330
1F
100
AcDbEntity
  8
Default
100
AcDb2dPolyline
 66
     1
 10
0.0
 20
0.0
 30
0.0
  0
VERTEX
  5
2D4
330
2D3
100
AcDbEntity
  8
Default
100
AcDbVertex
100
AcDb2dVertex
 10
101.721242601117
 20
22.72954816800143
 30
0.0
  0
VERTEX
  5
2D5
330
2D3
100
AcDbEntity
  8
Default
100
AcDbVertex
100
AcDb2dVertex
 10
103.756384794904
 20
24.93367979997533
 30
0.0
  0
SEQEND
  5
2D6
330
2D3
100
AcDbEntity
  8
Default
  0
POLYLINE
  5
2D7
330
1F
100
AcDbEntity
  8
Default
100
AcDb2dPolyline
 66
     1
 10
0.0
 20
0.0
 30
0.0
  0
VERTEX
  5
2D8
330
2D7
100
AcDbEntity
  8
Default
100
AcDbVertex
100
AcDb2dVertex
 10
103.812714607633
 20
23.52058852472171
 30
0.0
  0
VERTEX
  5
2D9
330
2D7
100
AcDbEntity
  8
Default
100
AcDbVertex
100
AcDb2dVertex
 10
105.8478568014199
 20
25.72472015669562
 30
0.0
  0
SEQEND
  5
2DA
330
2D7
100
AcDbEntity
  8
Default
  0
POLYLINE
  5
2DB
330
1F
100
AcDbEntity
  8
Default
100
AcDb2dPolyline
 66
     1
 10
0.0
 20
0.0
 30
0.0
  0
VERTEX
  5
2DC
330
2DB
100
AcDbEntity
  8
Default
100
AcDbVertex
100
AcDb2dVertex
 10
101.0991916825837
 20
20.58174634875649
 30
0.0
  0
VERTEX
  5
2DD
330
2DB
100
AcDbEntity
  8
Default
100
AcDbVertex
100
AcDb2dVertex
 10
103.1343338763706
 20
22.7858779807304
 30
0.0
  0
SEQEND
  5
2DE
330
2DB
100
AcDbEntity
  8
Default
  0
POLYLINE
  5
2DF
330
1F
100
AcDbEntity
  8
Default
100
AcDb2dPolyline
 66
     1
 10
0.0
 20
0.0
 30
0.0
  0
VERTEX
  5
2E0
330
2DF
100
AcDbEntity
  8
Default
100
AcDbVertex
100
AcDb2dVertex
 10
100.4208109513214
 20
19.84703580476519
 30
0.0
  0
VERTEX
  5
2E1
330
2DF
100
AcDbEntity
  8
Default
100
AcDbVertex
100
AcDb2dVertex
 10
98.38566875753439
 20
17.64290417279127
 30
0.0
  0
SEQEND
  5
2E2
330
2DF
100
AcDbEntity
  8
Default
  0
POLYLINE
  5
2E3
330
1F
100
AcDbEntity
  8
Default
100
AcDb2dPolyline
 66
     1
 10
0.0
 20
0.0
 30
0.0
  0
VERTEX
  5
2E4
330
2E3
100
AcDbEntity
  8
Default
100
AcDbVertex
100
AcDb2dVertex
 10
99.79876003278801
 20
17.69923398552026
 30
0.0
  0
VERTEX
  5
2E5
330
2E3
100
AcDbEntity
  8
Default
100
AcDbVertex
100
AcDb2dVertex
 10
97.76361783900104
 20
15.49510235354634
 30
0.0
  0
SEQEND
  5
2E6
330
2E3
100
AcDbEntity
  8
Default
  0
POLYLINE
  5
2E7
330
1F
100
AcDbEntity
  8
Default
100
AcDb2dPolyline
 66
     1
 10
0.0
 20
0.0
 30
0.0
  0
VERTEX
  5
2E8
330
2E7
100
AcDbEntity
  8
Default
100
AcDbVertex
100
AcDb2dVertex
 10
100.4771407640503
 20
18.43394452951156
 30
0.0
  0
VERTEX
  5
2E9
330
2E7
100
AcDbEntity
  8
Default
100
AcDbVertex
100
AcDb2dVertex
 10
102.5122829578373
 20
20.63807616148547
 30
0.0
  0
SEQEND
  5
2EA
330
2E7
100
AcDbEntity
  8
Default
  0
POLYLINE
  5
2EB
330
1F
100
AcDbEntity
  8
Default
100
AcDb2dPolyline
 66
     1
 10
0.0
 20
0.0
 30
0.0
  0
VERTEX
  5
2EC
330
2EB
100
AcDbEntity
  8
Default
100
AcDbVertex
100
AcDb2dVertex
 10
103.1906636890996
 20
21.37278670547678
 30
0.0
  0
VERTEX
  5
2ED
330
2EB
100
AcDbEntity
  8
Default
100
AcDbVertex
100
AcDb2dVertex
 10
105.2258058828866
 20
23.57691833745069
 30
0.0
  0
SEQEND
  5
2EE
330
2EB
100
AcDbEntity
  8
Default
  0
POLYLINE
  5
2EF
330
1F
100
AcDbEntity
  8
Default
100
AcDb2dPolyline
 66
     1
 10
0.0
 20
0.0
 30
0.0
  0
VERTEX
  5
2F0
330
2EF
100
AcDbEntity
  8
Default
100
AcDbVertex
100
AcDb2dVertex
 10
105.2821356956156
 20
22.16382706219706
 30
0.0
  0
VERTEX
  5
2F1
330
2EF
100
AcDbEntity
  8
Default
100
AcDbVertex
100
AcDb2dVertex
 10
107.3172778894025
 20
24.36795869417098
 30
0.0
  0
SEQEND
  5
2F2
330
2EF
100
AcDbEntity
  8
Default
  0
POLYLINE
  5
2F3
330
1F
100
AcDbEntity
  8
Default
100
AcDb2dPolyline
 66
     1
 10
0.0
 20
0.0
 30
0.0
  0
VERTEX
  5
2F4
330
2F3
100
AcDbEntity
  8
Default
100
AcDbVertex
100
AcDb2dVertex
 10
102.5686127705663
 20
19.22498488623185
 30
0.0
  0
VERTEX
  5
2F5
330
2F3
100
AcDbEntity
  8
Default
100
AcDbVertex
100
AcDb2dVertex
 10
104.6037549643533
 20
21.42911651820576
 30
0.0
  0
SEQEND
  5
2F6
330
2F3
100
AcDbEntity
  8
Default
  0
POLYLINE
  5
2F7
330
1F
100
AcDbEntity
  8
Default
100
AcDb2dPolyline
 66
     1
 10
0.0
 20
0.0
 30
0.0
  0
VERTEX
  5
2F8
330
2F7
100
AcDbEntity
  8
Default
100
AcDbVertex
100
AcDb2dVertex
 10
101.890232039304
 20
18.49027434224054
 30
0.0
  0
VERTEX
  5
2F9
330
2F7
100
AcDbEntity
  8
Default
100
AcDbVertex
100
AcDb2dVertex
 10
99.855089845517
 20
16.28614271026663
 30
0.0
  0
SEQEND
  5
2FA
330
2F7
100
AcDbEntity
  8
Default
  0
POLYLINE
  5
2FB
330
1F
100
AcDbEntity
  8
Default
100
AcDb2dPolyline
 66
     1
 10
0.0
 20
0.0
 30
0.0
  0
VERTEX
  5
2FC
330
2FB
100
AcDbEntity
  8
Default
100
AcDbVertex
100
AcDb2dVertex
 10
101.2681811207706
 20
16.34247252299561
 30
0.0
  0
VERTEX
  5
2FD
330
2FB
100
AcDbEntity
  8
Default
100
AcDbVertex
100
AcDb2dVertex
 10
99.23303892698365
 20
14.1383408910217
 30
0.0
  0
SEQEND
  5
2FE
330
2FB
100
AcDbEntity
  8
Default
  0
POLYLINE
  5
2FF
330
1F
100
AcDbEntity
  8
Default
100
AcDb2dPolyline
 66
     1
 10
0.0
 20
0.0
 30
0.0
  0
VERTEX
  5
300
330
2FF
100
AcDbEntity
  8
Default
100
AcDbVertex
100
AcDb2dVertex
 10
101.9465618520329
 20
17.07718306698692
 30
0.0
  0
VERTEX
  5
301
330
2FF
100
AcDbEntity
  8
Default
100
AcDbVertex
100
AcDb2dVertex
 10
103.9817040458199
 20
19.28131469896082
 30
0.0
  0
SEQEND
  5
302
330
2FF
100
AcDbEntity
  8
Default
  0
POLYLINE
  5
303
330
1F
100
AcDbEntity
  8
Default
100
AcDb2dPolyline
 66
     1
 10
0.0
 20
0.0
 30
0.0
  0
VERTEX
  5
304
330
303
100
AcDbEntity
  8
Default
100
AcDbVertex
100
AcDb2dVertex
 10
104.6600847770822
 20
20.01602524295214
 30
0.0
  0
VERTEX
  5
305
330
303
100
AcDbEntity
  8
Default
100
AcDbVertex
100
AcDb2dVertex
 10
106.6952269708692
 20
22.22015687492604
 30
0.0
  0
SEQEND
  5
306
330
303
100
AcDbEntity
  8
Default
  0
POLYLINE
  5
307
330
1F
100
AcDbEntity
  8
Default
100
AcDb2dPolyline
 66
     1
 10
0.0
 20
0.0
 30
0.0
  0
VERTEX
  5
308
330
307
100
AcDbEntity
  8
Default
100
AcDbVertex
100
AcDb2dVertex
 10
106.7515567835982
 20
20.80706559967242
 30
0.0
  0
VERTEX
  5
309
330
307
100
AcDbEntity
  8
Default
100
AcDbVertex
100
AcDb2dVertex
 10
108.7866989773852
 20
23.01119723164633
 30
0.0
  0
SEQEND
  5
30A
330
307
100
AcDbEntity
  8
Default
  0
POLYLINE
  5
30B
330
1F
100
AcDbEntity
  8
Default
100
AcDb2dPolyline
 66
     1
 10
0.0
 20
0.0
 30
0.0
  0
VERTEX
  5
30C
330
30B
100
AcDbEntity
  8
Default
100
AcDbVertex
100
AcDb2dVertex
 10
104.0380338585489
 20
17.8682234237072
 30
0.0
  0
VERTEX
  5
30D
330
30B
100
AcDbEntity
  8
Default
100
AcDbVertex
100
AcDb2dVertex
 10
106.0731760523359
 20
20.07235505568111
 30
0.0
  0
SEQEND
  5
30E
330
30B
100
AcDbEntity
  8
Default
  0
POLYLINE
  5
30F
330
1F
100
AcDbEntity
  8
Default
100
AcDb2dPolyline
 66
     1
 10
0.0
 20
0.0
 30
0.0
  0
VERTEX
  5
310
330
30F
100
AcDbEntity
  8
Default
100
AcDbVertex
100
AcDb2dVertex
 10
103.3596531272866
 20
17.1335128797159
 30
0.0
  0
VERTEX
  5
311
330
30F
100
AcDbEntity
  8
Default
100
AcDbVertex
100
AcDb2dVertex
 10
101.3245109334996
 20
14.92938124774198
 30
0.0
  0
SEQEND
  5
312
330
30F
100
AcDbEntity
  8
Default
  0
POLYLINE
  5
313
330
1F
100
AcDbEntity
  8
Default
100
AcDb2dPolyline
 66
     1
 10
0.0
 20
0.0
 30
0.0
  0
VERTEX
  5
314
330
313
100
AcDbEntity
  8
Default
100
AcDbVertex
100
AcDb2dVertex
 10
102.7376022087532
 20
14.98571106047097
 30
0.0
  0
VERTEX
  5
315
330
313
100
AcDbEntity
  8
Default
100
AcDbVertex
100
AcDb2dVertex
 10
100.7024600149663
 20
12.78157942849705
 30
0.0
  0
SEQEND
  5
316
330
313
100
AcDbEntity
  8
Default
  0
POLYLINE
  5
317
330
1F
100
AcDbEntity
  8
Default
100
AcDb2dPolyline
 66
     1
 10
0.0
 20
0.0
 30
0.0
  0
VERTEX
  5
318
330
317
100
AcDbEntity
  8
Default
100
AcDbVertex
100
AcDb2dVertex
 10
103.4159829400156
 20
15.72042160446227
 30
0.0
  0
VERTEX
  5
319
330
317
100
AcDbEntity
  8
Default
100
AcDbVertex
100
AcDb2dVertex
 10
105.4511251338025
 20
17.92455323643618
 30
0.0
  0
SEQEND
  5
31A
330
317
100
AcDbEntity
  8
Default
  0
POLYLINE
  5
31B
330
1F
100
AcDbEntity
  8
Default
100
AcDb2dPolyline
 66
     1
 10
0.0
 20
0.0
 30
0.0
  0
VERTEX
  5
31C
330
31B
100
AcDbEntity
  8
Default
100
AcDbVertex
100
AcDb2dVertex
 10
106.1295058650648
 20
18.65926378042749
 30
0.0
  0
VERTEX
  5
31D
330
31B
100
AcDbEntity
  8
Default
100
AcDbVertex
100
AcDb2dVertex
 10
108.1646480588518
 20
20.8633954124014
 30
0.0
  0
SEQEND
  5
31E
330
31B
100
AcDbEntity
  8
Default
  0
POLYLINE
  5
31F
330
1F
100
AcDbEntity
  8
Default
100
AcDb2dPolyline
 66
     1
 10
0.0
 20
0.0
 30
0.0
  0
VERTEX
  5
320
330
31F
100
AcDbEntity
  8
Default
100
AcDbVertex
100
AcDb2dVertex
 10
105.5074549465315
 20
16.51146196118256
 30
0.0
  0
VERTEX
  5
321
330
31F
100
AcDbEntity
  8
Default
100
AcDbVertex
100
AcDb2dVertex
 10
107.5425971403185
 20
18.71559359315647
 30
0.0
  0
SEQEND
  5
322
330
31F
100
AcDbEntity
  8
Default
  0
POLYLINE
  5
323
330
1F
100
AcDbEntity
  8
Default
100
AcDb2dPolyline
 66
     1
 10
0.0
 20
0.0
 30
0.0
  0
VERTEX
  5
324
330
323
100
AcDbEntity
  8
Default
100
AcDbVertex
100
AcDb2dVertex
 10
102.1155512902199
 20
12.83790924122604
 30
0.0
  0
VERTEX
  5
325
330
323
100
AcDbEntity
  8
Default
100
AcDbVertex
100
AcDb2dVertex
 10
100.0804090964329
 20
10.63377760925212
 30
0.0
  0
SEQEND
  5
326
330
323
100
AcDbEntity
  8
Default
  0
POLYLINE
  5
327
330
1F
100
AcDbEntity
  8
Default
100
AcDb2dPolyline
 66
     1
 10
0.0
 20
0.0
 30
0.0
  0
VERTEX
  5
328
330
327
100
AcDbEntity
  8
Default
100
AcDbVertex
100
AcDb2dVertex
 10
104.8290742152692
 20
15.77675141719125
 30
0.0
  0
VERTEX
  5
329
330
327
100
AcDbEntity
  8
Default
100
AcDbVertex
100
AcDb2dVertex
 10
102.7939320214822
 20
13.57261978521734
 30
0.0
  0
SEQEND
  5
32A
330
327
100
AcDbEntity
  8
Default
  0
POLYLINE
  5
32B
330
1F
100
AcDbEntity
  8
Default
100
AcDb2dPolyline
 66
     1
 10
0.0
 20
0.0
 30
0.0
  0
VERTEX
  5
32C
330
32B
100
AcDbEntity
  8
Default
100
AcDbVertex
100
AcDb2dVertex
 10
104.2070232967358
 20
13.62894959794632
 30
0.0
  0
VERTEX
  5
32D
330
32B
100
AcDbEntity
  8
Default
100
AcDbVertex
100
AcDb2dVertex
 10
102.1718811029489
 20
11.42481796597241
 30
0.0
  0
SEQEND
  5
32E
330
32B
100
AcDbEntity
  8
Default
  0
POLYLINE
  5
32F
330
1F
100
AcDbEntity
  8
Default
100
AcDb2dPolyline
 66
     1
 10
0.0
 20
0.0
 30
0.0
  0
VERTEX
  5
330
330
32F
100
AcDbEntity
  8
Default
100
AcDbVertex
100
AcDb2dVertex
 10
104.8854040279982
 20
14.36366014193763
 30
0.0
  0
VERTEX
  5
331
330
32F
100
AcDbEntity
  8
Default
100
AcDbVertex
100
AcDb2dVertex
 10
106.9205462217851
 20
16.56779177391153
 30
0.0
  0
SEQEND
  5
332
330
32F
100
AcDbEntity
  8
Default
  0
POLYLINE
  5
333
330
1F
100
AcDbEntity
  8
Default
100
AcDb2dPolyline
 66
     1
 10
0.0
 20
0.0
 30
0.0
  0
VERTEX
  5
334
330
333
100
AcDbEntity
  8
Default
100
AcDbVertex
100
AcDb2dVertex
 10
110.4093561135503
 20
-31.14573404659323
 30
0.0
  0
VERTEX
  5
335
330
333
100
AcDbEntity
  8
Default
100
AcDbVertex
100
AcDb2dVertex
 10
110.4093561135503
 20
-28.14573404659323
 30
0.0
  0
SEQEND
  5
336
330
333
100
AcDbEntity
  8
Default
  0
POLYLINE
  5
337
330
1F
100
AcDbEntity
  8
Default
100
AcDb2dPolyline
 66
     1
 10
0.0
 20
0.0
 30
0.0
  0
VERTEX
  5
338
330
337
100
AcDbEntity
  8
Default
100
AcDbVertex
100
AcDb2dVertex
 10
110.4093561135503
 20
-27.14573404659323
 30
0.0
  0
VERTEX
  5
339
330
337
100
AcDbEntity
  8
Default
100
AcDbVertex
100
AcDb2dVertex
 10
110.4093561135503
 20
-24.14573404659323
 30
0.0
  0
SEQEND
  5
33A
330
337
100
AcDbEntity
  8
Default
  0
POLYLINE
  5
33B
330
1F
100
AcDbEntity
  8
Default
100
AcDb2dPolyline
 66
     1
 10
0.0
 20
0.0
 30
0.0
  0
VERTEX
  5
33C
330
33B
100
AcDbEntity
  8
Default
100
AcDbVertex
100
AcDb2dVertex
 10
111.4093561135503
 20
-29.14573404659323
 30
0.0
  0
VERTEX
  5
33D
330
33B
100
AcDbEntity
  8
Default
100
AcDbVertex
100
AcDb2dVertex
 10
111.4093561135503
 20
-26.14573404659323
 30
0.0
  0
SEQEND
  5
33E
330
33B
100
AcDbEntity
  8
Default
  0
POLYLINE
  5
33F
330
1F
100
AcDbEntity
  8
Default
100
AcDb2dPolyline
 66
     1
 10
0.0
 20
0.0
 30
0.0
  0
VERTEX
  5
340
330
33F
100
AcDbEntity
  8
Default
100
AcDbVertex
100
AcDb2dVertex
 10
112.4093561135503
 20
-31.14573404659323
 30
0.0
  0
VERTEX
  5
341
330
33F
100
AcDbEntity
  8
Default
100
AcDbVertex
100
AcDb2dVertex
 10
112.4093561135503
 20
-28.14573404659323
 30
0.0
  0
SEQEND
  5
342
330
33F
100
AcDbEntity
  8
Default
  0
POLYLINE
  5
343
330
1F
100
AcDbEntity
  8
Default
100
AcDb2dPolyline
 66
     1
 10
0.0
 20
0.0
 30
0.0
  0
VERTEX
  5
344
330
343
100
AcDbEntity
  8
Default
100
AcDbVertex
100
AcDb2dVertex
 10
112.4093561135503
 20
-27.14573404659323
 30
0.0
  0
VERTEX
  5
345
330
343
100
AcDbEntity
  8
Default
100
AcDbVertex
100
AcDb2dVertex
 10
112.4093561135503
 20
-24.14573404659323
 30
0.0
  0
SEQEND
  5
346
330
343
100
AcDbEntity
  8
Default
  0
POLYLINE
  5
347
330
1F
100
AcDbEntity
  8
Default
100
AcDb2dPolyline
 66
     1
 10
0.0
 20
0.0
 30
0.0
  0
VERTEX
  5
348
330
347
100
AcDbEntity
  8
Default
100
AcDbVertex
100
AcDb2dVertex
 10
113.4093561135503
 20
-29.14573404659323
 30
0.0
  0
VERTEX
  5
349
330
347
100
AcDbEntity
  8
Default
100
AcDbVertex
100
AcDb2dVertex
 10
113.4093561135503
 20
-26.14573404659323
 30
0.0
  0
SEQEND
  5
34A
330
347
100
AcDbEntity
  8
Default
  0
POLYLINE
  5
34B
330
1F
100
AcDbEntity
  8
Default
100
AcDb2dPolyline
 66
     1
 10
0.0
 20
0.0
 30
0.0
  0
VERTEX
  5
34C
330
34B
100
AcDbEntity
  8
Default
100
AcDbVertex
100
AcDb2dVertex
 10
114.4093561135503
 20
-31.14573404659323
 30
0.0
  0
VERTEX
  5
34D
330
34B
100
AcDbEntity
  8
Default
100
AcDbVertex
100
AcDb2dVertex
 10
114.4093561135503
 20
-28.14573404659323
 30
0.0
  0
SEQEND
  5
34E
330
34B
100
AcDbEntity
  8
Default
  0
POLYLINE
  5
34F
330
1F
100
AcDbEntity
  8
Default
100
AcDb2dPolyline
 66
     1
 10
0.0
 20
0.0
 30
0.0
  0
VERTEX
  5
350
330
34F
100
AcDbEntity
  8
Default
100
AcDbVertex
100
AcDb2dVertex
 10
115.4093561135503
 20
-29.14573404659323
 30
0.0
  0
VERTEX
  5
351
330
34F
100
AcDbEntity
  8
Default
100
AcDbVertex
100
AcDb2dVertex
 10
115.4093561135503
 20
-26.14573404659323
 30
0.0
  0
SEQEND
  5
352
330
34F
100
AcDbEntity
  8
Default
  0
POLYLINE
  5
353
330
1F
100
AcDbEntity
  8
Default
100
AcDb2dPolyline
 66
     1
 10
0.0
 20
0.0
 30
0.0
  0
VERTEX
  5
354
330
353
100
AcDbEntity
  8
Default
100
AcDbVertex
100
AcDb2dVertex
 10
116.4093561135503
 20
-31.14573404659323
 30
0.0
  0
VERTEX
  5
355
330
353
100
AcDbEntity
  8
Default
100
AcDbVertex
100
AcDb2dVertex
 10
116.4093561135503
 20
-28.14573404659323
 30
0.0
  0
SEQEND
  5
356
330
353
100
AcDbEntity
  8
Default
  0
POLYLINE
  5
357
330
1F
100
AcDbEntity
  8
Default
100
AcDb2dPolyline
 66
     1
 10
0.0
 20
0.0
 30
0.0
  0
VERTEX
  5
358
330
357
100
AcDbEntity
  8
Default
100
AcDbVertex
100
AcDb2dVertex
 10
118.4093561135503
 20
-31.14573404659323
 30
0.0
  0
VERTEX
  5
359
330
357
100
AcDbEntity
  8
Default
100
AcDbVertex
100
AcDb2dVertex
 10
118.4093561135503
 20
-28.14573404659323
 30
0.0
  0
SEQEND
  5
35A
330
357
100
AcDbEntity
  8
Default
  0
POLYLINE
  5
35B
330
1F
100
AcDbEntity
  8
Default
100
AcDb2dPolyline
 66
     1
 10
0.0
 20
0.0
 30
0.0
  0
VERTEX
  5
35C
330
35B
100
AcDbEntity
  8
Default
100
AcDbVertex
100
AcDb2dVertex
 10
120.4093561135503
 20
-31.14573404659323
 30
0.0
  0
VERTEX
  5
35D
330
35B
100
AcDbEntity
  8
Default
100
AcDbVertex
100
AcDb2dVertex
 10
120.4093561135503
 20
-28.14573404659323
 30
0.0
  0
SEQEND
  5
35E
330
35B
100
AcDbEntity
  8
Default
  0
POLYLINE
  5
35F
330
1F
100
AcDbEntity
  8
Default
100
AcDb2dPolyline
 66
     1
 10
0.0
 20
0.0
 30
0.0
  0
VERTEX
  5
360
330
35F
100
AcDbEntity
  8
Default
100
AcDbVertex
100
AcDb2dVertex
 10
122.4093561135503
 20
-31.14573404659323
 30
0.0
  0
VERTEX
  5
361
330
35F
100
AcDbEntity
  8
Default
100
AcDbVertex
100
AcDb2dVertex
 10
122.4093561135503
 20
-28.14573404659323
 30
0.0
  0
SEQEND
  5
362
330
35F
100
AcDbEntity
  8
Default
  0
POLYLINE
  5
363
330
1F
100
AcDbEntity
  8
Default
100
AcDb2dPolyline
 66
     1
 10
0.0
 20
0.0
 30
0.0
  0
VERTEX
  5
364
330
363
100
AcDbEntity
  8
Default
100
AcDbVertex
100
AcDb2dVertex
 10
123.4093561135503
 20
-29.14573404659323
 30
0.0
  0
VERTEX
  5
365
330
363
100
AcDbEntity
  8
Default
100
AcDbVertex
100
AcDb2dVertex
 10
123.4093561135503
 20
-26.14573404659323
 30
0.0
  0
SEQEND
  5
366
330
363
100
AcDbEntity
  8
Default
  0
POLYLINE
  5
367
330
1F
100
AcDbEntity
  8
Default
100
AcDb2dPolyline
 66
     1
 10
0.0
 20
0.0
 30
0.0
  0
VERTEX
  5
368
330
367
100
AcDbEntity
  8
Default
100
AcDbVertex
100
AcDb2dVertex
 10
124.4093561135503
 20
-31.14573404659323
 30
0.0
  0
VERTEX
  5
369
330
367
100
AcDbEntity
  8
Default
100
AcDbVertex
100
AcDb2dVertex
 10
124.4093561135503
 20
-28.14573404659323
 30
0.0
  0
SEQEND
  5
36A
330
367
100
AcDbEntity
  8
Default
  0
POLYLINE
  5
36B
330
1F
100
AcDbEntity
  8
Default
100
AcDb2dPolyline
 66
     1
 10
0.0
 20
0.0
 30
0.0
  0
VERTEX
  5
36C
330
36B
100
AcDbEntity
  8
Default
100
AcDbVertex
100
AcDb2dVertex
 10
125.4093561135503
 20
-29.14573404659323
 30
0.0
  0
VERTEX
  5
36D
330
36B
100
AcDbEntity
  8
Default
100
AcDbVertex
100
AcDb2dVertex
 10
125.4093561135503
 20
-26.14573404659323
 30
0.0
  0
SEQEND
  5
36E
330
36B
100
AcDbEntity
  8
Default
  0
POLYLINE
  5
36F
330
1F
100
AcDbEntity
  8
Default
100
AcDb2dPolyline
 66
     1
 10
0.0
 20
0.0
 30
0.0
  0
VERTEX
  5
370
330
36F
100
AcDbEntity
  8
Default
100
AcDbVertex
100
AcDb2dVertex
 10
126.4093561135503
 20
-31.14573404659323
 30
0.0
  0
VERTEX
  5
371
330
36F
100
AcDbEntity
  8
Default
100
AcDbVertex
100
AcDb2dVertex
 10
126.4093561135503
 20
-28.14573404659323
 30
0.0
  0
SEQEND
  5
372
330
36F
100
AcDbEntity
  8
Default
  0
POLYLINE
  5
373
330
1F
100
AcDbEntity
  8
Default
100
AcDb2dPolyline
 66
     1
 10
0.0
 20
0.0
 30
0.0
  0
VERTEX
  5
374
330
373
100
AcDbEntity
  8
Default
100
AcDbVertex
100
AcDb2dVertex
 10
127.4093561135503
 20
-29.14573404659323
 30
0.0
  0
VERTEX
  5
375
330
373
100
AcDbEntity
  8
Default
100
AcDbVertex
100
AcDb2dVertex
 10
127.4093561135503
 20
-26.14573404659323
 30
0.0
  0
SEQEND
  5
376
330
373
100
AcDbEntity
  8
Default
  0
POLYLINE
  5
377
330
1F
100
AcDbEntity
  8
Default
100
AcDb2dPolyline
 66
     1
 10
0.0
 20
0.0
 30
0.0
  0
VERTEX
  5
378
330
377
100
AcDbEntity
  8
Default
100
AcDbVertex
100
AcDb2dVertex
 10
128.4093561135503
 20
-31.14573404659323
 30
0.0
  0
VERTEX
  5
379
330
377
100
AcDbEntity
  8
Default
100
AcDbVertex
100
AcDb2dVertex
 10
128.4093561135503
 20
-28.14573404659323
 30
0.0
  0
SEQEND
  5
37A
330
377
100
AcDbEntity
  8
Default
  0
POLYLINE
  5
37B
330
1F
100
AcDbEntity
  8
Default
100
AcDb2dPolyline
 66
     1
 10
0.0
 20
0.0
 30
0.0
  0
VERTEX
  5
37C
330
37B
100
AcDbEntity
  8
Default
100
AcDbVertex
100
AcDb2dVertex
 10
129.4093561135503
 20
-29.14573404659323
 30
0.0
  0
VERTEX
  5
37D
330
37B
100
AcDbEntity
  8
Default
100
AcDbVertex
100
AcDb2dVertex
 10
129.4093561135503
 20
-26.14573404659323
 30
0.0
  0
SEQEND
  5
37E
330
37B
100
AcDbEntity
  8
Default
  0
POLYLINE
  5
37F
330
1F
100
AcDbEntity
  8
Default
100
AcDb2dPolyline
 66
     1
 10
0.0
 20
0.0
 30
0.0
  0
VERTEX
  5
380
330
37F
100
AcDbEntity
  8
Default
100
AcDbVertex
100
AcDb2dVertex
 10
129.4093561135503
 20
37.44705325167558
 30
0.0
  0
VERTEX
  5
381
330
37F
100
AcDbEntity
  8
Default
100
AcDbVertex
100
AcDb2dVertex
 10
129.4093561135503
 20
34.44705325167558
 30
0.0
  0
SEQEND
  5
382
330
37F
100
AcDbEntity
  8
Default
  0
POLYLINE
  5
383
330
1F
100
AcDbEntity
  8
Default
100
AcDb2dPolyline
 66
     1
 10
0.0
 20
0.0
 30
0.0
  0
VERTEX
  5
384
330
383
100
AcDbEntity
  8
Default
100
AcDbVertex
100
AcDb2dVertex
 10
128.4093561135503
 20
35.44705325167558
 30
0.0
  0
VERTEX
  5
385
330
383
100
AcDbEntity
  8
Default
100
AcDbVertex
100
AcDb2dVertex
 10
128.4093561135503
 20
32.44705325167558
 30
0.0
  0
SEQEND
  5
386
330
383
100
AcDbEntity
  8
Default
  0
POLYLINE
  5
387
330
1F
100
AcDbEntity
  8
Default
100
AcDb2dPolyline
 66
     1
 10
0.0
 20
0.0
 30
0.0
  0
VERTEX
  5
388
330
387
100
AcDbEntity
  8
Default
100
AcDbVertex
100
AcDb2dVertex
 10
128.4093561135503
 20
39.44705325167558
 30
0.0
  0
VERTEX
  5
389
330
387
100
AcDbEntity
  8
Default
100
AcDbVertex
100
AcDb2dVertex
 10
128.4093561135503
 20
36.44705325167558
 30
0.0
  0
SEQEND
  5
38A
330
387
100
AcDbEntity
  8
Default
  0
POLYLINE
  5
38B
330
1F
100
AcDbEntity
  8
Default
100
AcDb2dPolyline
 66
     1
 10
0.0
 20
0.0
 30
0.0
  0
VERTEX
  5
38C
330
38B
100
AcDbEntity
  8
Default
100
AcDbVertex
100
AcDb2dVertex
 10
127.4093561135503
 20
37.44705325167558
 30
0.0
  0
VERTEX
  5
38D
330
38B
100
AcDbEntity
  8
Default
100
AcDbVertex
100
AcDb2dVertex
 10
127.4093561135503
 20
34.44705325167558
 30
0.0
  0
SEQEND
  5
38E
330
38B
100
AcDbEntity
  8
Default
  0
POLYLINE
  5
38F
330
1F
100
AcDbEntity
  8
Default
100
AcDb2dPolyline
 66
     1
 10
0.0
 20
0.0
 30
0.0
  0
VERTEX
  5
390
330
38F
100
AcDbEntity
  8
Default
100
AcDbVertex
100
AcDb2dVertex
 10
126.4093561135503
 20
35.44705325167558
 30
0.0
  0
VERTEX
  5
391
330
38F
100
AcDbEntity
  8
Default
100
AcDbVertex
100
AcDb2dVertex
 10
126.4093561135503
 20
32.44705325167558
 30
0.0
  0
SEQEND
  5
392
330
38F
100
AcDbEntity
  8
Default
  0
POLYLINE
  5
393
330
1F
100
AcDbEntity
  8
Default
100
AcDb2dPolyline
 66
     1
 10
0.0
 20
0.0
 30
0.0
  0
VERTEX
  5
394
330
393
100
AcDbEntity
  8
Default
100
AcDbVertex
100
AcDb2dVertex
 10
126.4093561135503
 20
39.44705325167558
 30
0.0
  0
VERTEX
  5
395
330
393
100
AcDbEntity
  8
Default
100
AcDbVertex
100
AcDb2dVertex
 10
126.4093561135503
 20
36.44705325167558
 30
0.0
  0
SEQEND
  5
396
330
393
100
AcDbEntity
  8
Default
  0
POLYLINE
  5
397
330
1F
100
AcDbEntity
  8
Default
100
AcDb2dPolyline
 66
     1
 10
0.0
 20
0.0
 30
0.0
  0
VERTEX
  5
398
330
397
100
AcDbEntity
  8
Default
100
AcDbVertex
100
AcDb2dVertex
 10
125.4093561135503
 20
37.44705325167558
 30
0.0
  0
VERTEX
  5
399
330
397
100
AcDbEntity
  8
Default
100
AcDbVertex
100
AcDb2dVertex
 10
125.4093561135503
 20
34.44705325167558
 30
0.0
  0
SEQEND
  5
39A
330
397
100
AcDbEntity
  8
Default
  0
POLYLINE
  5
39B
330
1F
100
AcDbEntity
  8
Default
100
AcDb2dPolyline
 66
     1
 10
0.0
 20
0.0
 30
0.0
  0
VERTEX
  5
39C
330
39B
100
AcDbEntity
  8
Default
100
AcDbVertex
100
AcDb2dVertex
 10
124.4093561135503
 20
35.44705325167558
 30
0.0
  0
VERTEX
  5
39D
330
39B
100
AcDbEntity
  8
Default
100
AcDbVertex
100
AcDb2dVertex
 10
124.4093561135503
 20
32.44705325167558
 30
0.0
  0
SEQEND
  5
39E
330
39B
100
AcDbEntity
  8
Default
  0
POLYLINE
  5
39F
330
1F
100
AcDbEntity
  8
Default
100
AcDb2dPolyline
 66
     1
 10
0.0
 20
0.0
 30
0.0
  0
VERTEX
  5
3A0
330
39F
100
AcDbEntity
  8
Default
100
AcDbVertex
100
AcDb2dVertex
 10
124.4093561135503
 20
39.44705325167558
 30
0.0
  0
VERTEX
  5
3A1
330
39F
100
AcDbEntity
  8
Default
100
AcDbVertex
100
AcDb2dVertex
 10
124.4093561135503
 20
36.44705325167558
 30
0.0
  0
SEQEND
  5
3A2
330
39F
100
AcDbEntity
  8
Default
  0
POLYLINE
  5
3A3
330
1F
100
AcDbEntity
  8
Default
100
AcDb2dPolyline
 66
     1
 10
0.0
 20
0.0
 30
0.0
  0
VERTEX
  5
3A4
330
3A3
100
AcDbEntity
  8
Default
100
AcDbVertex
100
AcDb2dVertex
 10
123.4093561135503
 20
37.44705325167558
 30
0.0
  0
VERTEX
  5
3A5
330
3A3
100
AcDbEntity
  8
Default
100
AcDbVertex
100
AcDb2dVertex
 10
123.4093561135503
 20
34.44705325167558
 30
0.0
  0
SEQEND
  5
3A6
330
3A3
100
AcDbEntity
  8
Default
  0
POLYLINE
  5
3A7
330
1F
100
AcDbEntity
  8
Default
100
AcDb2dPolyline
 66
     1
 10
0.0
 20
0.0
 30
0.0
  0
VERTEX
  5
3A8
330
3A7
100
AcDbEntity
  8
Default
100
AcDbVertex
100
AcDb2dVertex
 10
122.4093561135503
 20
35.44705325167558
 30
0.0
  0
VERTEX
  5
3A9
330
3A7
100
AcDbEntity
  8
Default
100
AcDbVertex
100
AcDb2dVertex
 10
122.4093561135503
 20
32.44705325167558
 30
0.0
  0
SEQEND
  5
3AA
330
3A7
100
AcDbEntity
  8
Default
  0
POLYLINE
  5
3AB
330
1F
100
AcDbEntity
  8
Default
100
AcDb2dPolyline
 66
     1
 10
0.0
 20
0.0
 30
0.0
  0
VERTEX
  5
3AC
330
3AB
100
AcDbEntity
  8
Default
100
AcDbVertex
100
AcDb2dVertex
 10
122.4093561135503
 20
39.44705325167558
 30
0.0
  0
VERTEX
  5
3AD
330
3AB
100
AcDbEntity
  8
Default
100
AcDbVertex
100
AcDb2dVertex
 10
122.4093561135503
 20
36.44705325167558
 30
0.0
  0
SEQEND
  5
3AE
330
3AB
100
AcDbEntity
  8
Default
  0
POLYLINE
  5
3AF
330
1F
100
AcDbEntity
  8
Default
100
AcDb2dPolyline
 66
     1
 10
0.0
 20
0.0
 30
0.0
  0
VERTEX
  5
3B0
330
3AF
100
AcDbEntity
  8
Default
100
AcDbVertex
100
AcDb2dVertex
 10
121.4093561135503
 20
37.44705325167558
 30
0.0
  0
VERTEX
  5
3B1
330
3AF
100
AcDbEntity
  8
Default
100
AcDbVertex
100
AcDb2dVertex
 10
121.4093561135503
 20
34.44705325167558
 30
0.0
  0
SEQEND
  5
3B2
330
3AF
100
AcDbEntity
  8
Default
  0
POLYLINE
  5
3B3
330
1F
100
AcDbEntity
  8
Default
100
AcDb2dPolyline
 66
     1
 10
0.0
 20
0.0
 30
0.0
  0
VERTEX
  5
3B4
330
3B3
100
AcDbEntity
  8
Default
100
AcDbVertex
100
AcDb2dVertex
 10
120.4093561135503
 20
35.44705325167558
 30
0.0
  0
VERTEX
  5
3B5
330
3B3
100
AcDbEntity
  8
Default
100
AcDbVertex
100
AcDb2dVertex
 10
120.4093561135503
 20
32.44705325167558
 30
0.0
  0
SEQEND
  5
3B6
330
3B3
100
AcDbEntity
  8
Default
  0
POLYLINE
  5
3B7
330
1F
100
AcDbEntity
  8
Default
100
AcDb2dPolyline
 66
     1
 10
0.0
 20
0.0
 30
0.0
  0
VERTEX
  5
3B8
330
3B7
100
AcDbEntity
  8
Default
100
AcDbVertex
100
AcDb2dVertex
 10
120.4093561135503
 20
39.44705325167558
 30
0.0
  0
VERTEX
  5
3B9
330
3B7
100
AcDbEntity
  8
Default
100
AcDbVertex
100
AcDb2dVertex
 10
120.4093561135503
 20
36.44705325167558
 30
0.0
  0
SEQEND
  5
3BA
330
3B7
100
AcDbEntity
  8
Default
  0
POLYLINE
  5
3BB
330
1F
100
AcDbEntity
  8
Default
100
AcDb2dPolyline
 66
     1
 10
0.0
 20
0.0
 30
0.0
  0
VERTEX
  5
3BC
330
3BB
100
AcDbEntity
  8
Default
100
AcDbVertex
100
AcDb2dVertex
 10
119.4093561135503
 20
37.44705325167558
 30
0.0
  0
VERTEX
  5
3BD
330
3BB
100
AcDbEntity
  8
Default
100
AcDbVertex
100
AcDb2dVertex
 10
119.4093561135503
 20
34.44705325167558
 30
0.0
  0
SEQEND
  5
3BE
330
3BB
100
AcDbEntity
  8
Default
  0
POLYLINE
  5
3BF
330
1F
100
AcDbEntity
  8
Default
100
AcDb2dPolyline
 66
     1
 10
0.0
 20
0.0
 30
0.0
  0
VERTEX
  5
3C0
330
3BF
100
AcDbEntity
  8
Default
100
AcDbVertex
100
AcDb2dVertex
 10
118.4093561135503
 20
35.44705325167558
 30
0.0
  0
VERTEX
  5
3C1
330
3BF
100
AcDbEntity
  8
Default
100
AcDbVertex
100
AcDb2dVertex
 10
118.4093561135503
 20
32.44705325167558
 30
0.0
  0
SEQEND
  5
3C2
330
3BF
100
AcDbEntity
  8
Default
  0
POLYLINE
  5
3C3
330
1F
100
AcDbEntity
  8
Default
100
AcDb2dPolyline
 66
     1
 10
0.0
 20
0.0
 30
0.0
  0
VERTEX
  5
3C4
330
3C3
100
AcDbEntity
  8
Default
100
AcDbVertex
100
AcDb2dVertex
 10
118.4093561135503
 20
39.44705325167558
 30
0.0
  0
VERTEX
  5
3C5
330
3C3
100
AcDbEntity
  8
Default
100
AcDbVertex
100
AcDb2dVertex
 10
118.4093561135503
 20
36.44705325167558
 30
0.0
  0
SEQEND
  5
3C6
330
3C3
100
AcDbEntity
  8
Default
  0
POLYLINE
  5
3C7
330
1F
100
AcDbEntity
  8
Default
100
AcDb2dPolyline
 66
     1
 10
0.0
 20
0.0
 30
0.0
  0
VERTEX
  5
3C8
330
3C7
100
AcDbEntity
  8
Default
100
AcDbVertex
100
AcDb2dVertex
 10
117.4093561135503
 20
37.44705325167558
 30
0.0
  0
VERTEX
  5
3C9
330
3C7
100
AcDbEntity
  8
Default
100
AcDbVertex
100
AcDb2dVertex
 10
117.4093561135503
 20
34.44705325167558
 30
0.0
  0
SEQEND
  5
3CA
330
3C7
100
AcDbEntity
  8
Default
  0
POLYLINE
  5
3CB
330
1F
100
AcDbEntity
  8
Default
100
AcDb2dPolyline
 66
     1
 10
0.0
 20
0.0
 30
0.0
  0
VERTEX
  5
3CC
330
3CB
100
AcDbEntity
  8
Default
100
AcDbVertex
100
AcDb2dVertex
 10
116.4093561135503
 20
35.44705325167558
 30
0.0
  0
VERTEX
  5
3CD
330
3CB
100
AcDbEntity
  8
Default
100
AcDbVertex
100
AcDb2dVertex
 10
116.4093561135503
 20
32.44705325167558
 30
0.0
  0
SEQEND
  5
3CE
330
3CB
100
AcDbEntity
  8
Default
  0
POLYLINE
  5
3CF
330
1F
100
AcDbEntity
  8
Default
100
AcDb2dPolyline
 66
     1
 10
0.0
 20
0.0
 30
0.0
  0
VERTEX
  5
3D0
330
3CF
100
AcDbEntity
  8
Default
100
AcDbVertex
100
AcDb2dVertex
 10
116.4093561135503
 20
39.44705325167558
 30
0.0
  0
VERTEX
  5
3D1
330
3CF
100
AcDbEntity
  8
Default
100
AcDbVertex
100
AcDb2dVertex
 10
116.4093561135503
 20
36.44705325167558
 30
0.0
  0
SEQEND
  5
3D2
330
3CF
100
AcDbEntity
  8
Default
  0
POLYLINE
  5
3D3
330
1F
100
AcDbEntity
  8
Default
100
AcDb2dPolyline
 66
     1
 10
0.0
 20
0.0
 30
0.0
  0
VERTEX
  5
3D4
330
3D3
100
AcDbEntity
  8
Default
100
AcDbVertex
100
AcDb2dVertex
 10
115.4093561135503
 20
37.44705325167558
 30
0.0
  0
VERTEX
  5
3D5
330
3D3
100
AcDbEntity
  8
Default
100
AcDbVertex
100
AcDb2dVertex
 10
115.4093561135503
 20
34.44705325167558
 30
0.0
  0
SEQEND
  5
3D6
330
3D3
100
AcDbEntity
  8
Default
  0
POLYLINE
  5
3D7
330
1F
100
AcDbEntity
  8
Default
100
AcDb2dPolyline
 66
     1
 10
0.0
 20
0.0
 30
0.0
  0
VERTEX
  5
3D8
330
3D7
100
AcDbEntity
  8
Default
100
AcDbVertex
100
AcDb2dVertex
 10
114.4093561135503
 20
35.44705325167558
 30
0.0
  0
VERTEX
  5
3D9
330
3D7
100
AcDbEntity
  8
Default
100
AcDbVertex
100
AcDb2dVertex
 10
114.4093561135503
 20
32.44705325167558
 30
0.0
  0
SEQEND
  5
3DA
330
3D7
100
AcDbEntity
  8
Default
  0
POLYLINE
  5
3DB
330
1F
100
AcDbEntity
  8
Default
100
AcDb2dPolyline
 66
     1
 10
0.0
 20
0.0
 30
0.0
  0
VERTEX
  5
3DC
330
3DB
100
AcDbEntity
  8
Default
100
AcDbVertex
100
AcDb2dVertex
 10
114.4093561135503
 20
39.44705325167558
 30
0.0
  0
VERTEX
  5
3DD
330
3DB
100
AcDbEntity
  8
Default
100
AcDbVertex
100
AcDb2dVertex
 10
114.4093561135503
 20
36.44705325167558
 30
0.0
  0
SEQEND
  5
3DE
330
3DB
100
AcDbEntity
  8
Default
  0
POLYLINE
  5
3DF
330
1F
100
AcDbEntity
  8
Default
100
AcDb2dPolyline
 66
     1
 10
0.0
 20
0.0
 30
0.0
  0
VERTEX
  5
3E0
330
3DF
100
AcDbEntity
  8
Default
100
AcDbVertex
100
AcDb2dVertex
 10
113.4093561135503
 20
37.44705325167558
 30
0.0
  0
VERTEX
  5
3E1
330
3DF
100
AcDbEntity
  8
Default
100
AcDbVertex
100
AcDb2dVertex
 10
113.4093561135503
 20
34.44705325167558
 30
0.0
  0
SEQEND
  5
3E2
330
3DF
100
AcDbEntity
  8
Default
  0
POLYLINE
  5
3E3
330
1F
100
AcDbEntity
  8
Default
100
AcDb2dPolyline
 66
     1
 10
0.0
 20
0.0
 30
0.0
  0
VERTEX
  5
3E4
330
3E3
100
AcDbEntity
  8
Default
100
AcDbVertex
100
AcDb2dVertex
 10
112.4093561135503
 20
35.44705325167558
 30
0.0
  0
VERTEX
  5
3E5
330
3E3
100
AcDbEntity
  8
Default
100
AcDbVertex
100
AcDb2dVertex
 10
112.4093561135503
 20
32.44705325167558
 30
0.0
  0
SEQEND
  5
3E6
330
3E3
100
AcDbEntity
  8
Default
  0
POLYLINE
  5
3E7
330
1F
100
AcDbEntity
  8
Default
100
AcDb2dPolyline
 66
     1
 10
0.0
 20
0.0
 30
0.0
  0
VERTEX
  5
3E8
330
3E7
100
AcDbEntity
  8
Default
100
AcDbVertex
100
AcDb2dVertex
 10
112.4093561135503
 20
39.44705325167558
 30
0.0
  0
VERTEX
  5
3E9
330
3E7
100
AcDbEntity
  8
Default
100
AcDbVertex
100
AcDb2dVertex
 10
112.4093561135503
 20
36.44705325167558
 30
0.0
  0
SEQEND
  5
3EA
330
3E7
100
AcDbEntity
  8
Default
  0
POLYLINE
  5
3EB
330
1F
100
AcDbEntity
  8
Default
100
AcDb2dPolyline
 66
     1
 10
0.0
 20
0.0
 30
0.0
  0
VERTEX
  5
3EC
330
3EB
100
AcDbEntity
  8
Default
100
AcDbVertex
100
AcDb2dVertex
 10
111.4093561135503
 20
37.44705325167558
 30
0.0
  0
VERTEX
  5
3ED
330
3EB
100
AcDbEntity
  8
Default
100
AcDbVertex
100
AcDb2dVertex
 10
111.4093561135503
 20
34.44705325167558
 30
0.0
  0
SEQEND
  5
3EE
330
3EB
100
AcDbEntity
  8
Default
  0
POLYLINE
  5
3EF
330
1F
100
AcDbEntity
  8
Default
100
AcDb2dPolyline
 66
     1
 10
0.0
 20
0.0
 30
0.0
  0
VERTEX
  5
3F0
330
3EF
100
AcDbEntity
  8
Default
100
AcDbVertex
100
AcDb2dVertex
 10
110.4093561135503
 20
35.44705325167558
 30
0.0
  0
VERTEX
  5
3F1
330
3EF
100
AcDbEntity
  8
Default
100
AcDbVertex
100
AcDb2dVertex
 10
110.4093561135503
 20
32.44705325167558
 30
0.0
  0
SEQEND
  5
3F2
330
3EF
100
AcDbEntity
  8
Default
  0
POLYLINE
  5
3F3
330
1F
100
AcDbEntity
  8
Default
100
AcDb2dPolyline
 66
     1
 10
0.0
 20
0.0
 30
0.0
  0
VERTEX
  5
3F4
330
3F3
100
AcDbEntity
  8
Default
100
AcDbVertex
100
AcDb2dVertex
 10
110.4093561135503
 20
39.44705325167558
 30
0.0
  0
VERTEX
  5
3F5
330
3F3
100
AcDbEntity
  8
Default
100
AcDbVertex
100
AcDb2dVertex
 10
110.4093561135503
 20
36.44705325167558
 30
0.0
  0
SEQEND
  5
3F6
330
3F3
100
AcDbEntity
  8
Default
  0
POLYLINE
  5
3F7
330
1F
100
AcDbEntity
  8
Default
100
AcDb2dPolyline
 66
     1
 10
0.0
 20
0.0
 30
0.0
  0
VERTEX
  5
3F8
330
3F7
100
AcDbEntity
  8
Default
100
AcDbVertex
100
AcDb2dVertex
 10
160.981032057851
 20
32.13839413517672
 30
0.0
  0
VERTEX
  5
3F9
330
3F7
100
AcDbEntity
  8
Default
100
AcDbVertex
100
AcDb2dVertex
 10
145.7572279309587
 20
32.13839413517673
 30
0.0
  0
VERTEX
  5
3FA
330
3F7
100
AcDbEntity
  8
Default
100
AcDbVertex
100
AcDb2dVertex
 10
148.2461168198476
 20
34.00506080184339
 30
0.0
  0
VERTEX
  5
3FB
330
3F7
100
AcDbEntity
  8
Default
100
AcDbVertex
100
AcDb2dVertex
 10
162.0905612642921
 20
34.0050608018434
 30
0.0
  0
VERTEX
  5
3FC
330
3F7
100
AcDbEntity
  8
Default
100
AcDbVertex
100
AcDb2dVertex
 10
166.5443641808449
 20
30.66470861442874
 30
0.0
  0
VERTEX
  5
3FD
330
3F7
100
AcDbEntity
  8
Default
100
AcDbVertex
100
AcDb2dVertex
 10
165.3654207430888
 20
30.27172746851006
 30
0.0
  0
VERTEX
  5
3FE
330
3F7
100
AcDbEntity
  8
Default
100
AcDbVertex
100
AcDb2dVertex
 10
144.9712573410508
 20
30.27172746851006
 30
0.0
  0
VERTEX
  5
3FF
330
3F7
100
AcDbEntity
  8
Default
100
AcDbVertex
100
AcDb2dVertex
 10
141.6384677494486
 20
31.38265733237747
 30
0.0
  0
VERTEX
  5
400
330
3F7
100
AcDbEntity
  8
Default
100
AcDbVertex
100
AcDb2dVertex
 10
147.6238945976254
 20
35.87172746851006
 30
0.0
  0
VERTEX
  5
401
330
3F7
100
AcDbEntity
  8
Default
100
AcDbVertex
100
AcDb2dVertex
 10
162.7127834865143
 20
35.87172746851007
 30
0.0
  0
VERTEX
  5
402
330
3F7
100
AcDbEntity
  8
Default
100
AcDbVertex
100
AcDb2dVertex
 10
170.5144928882237
 20
30.02044541722802
 30
0.0
  0
VERTEX
  5
403
330
3F7
100
AcDbEntity
  8
Default
100
AcDbVertex
100
AcDb2dVertex
 10
165.6683390420698
 20
28.4050608018434
 30
0.0
  0
VERTEX
  5
404
330
3F7
100
AcDbEntity
  8
Default
100
AcDbVertex
100
AcDb2dVertex
 10
144.6683390420698
 20
28.4050608018434
 30
0.0
  0
VERTEX
  5
405
330
3F7
100
AcDbEntity
  8
Default
100
AcDbVertex
100
AcDb2dVertex
 10
137.6683390420698
 20
30.73839413517673
 30
0.0
  0
VERTEX
  5
406
330
3F7
100
AcDbEntity
  8
Default
100
AcDbVertex
100
AcDb2dVertex
 10
147.0016723754032
 20
37.73839413517673
 30
0.0
  0
VERTEX
  5
407
330
3F7
100
AcDbEntity
  8
Default
100
AcDbVertex
100
AcDb2dVertex
 10
163.3350057087365
 20
37.73839413517673
 30
0.0
  0
VERTEX
  5
408
330
3F7
100
AcDbEntity
  8
Default
100
AcDbVertex
100
AcDb2dVertex
 10
174.4846215956024
 20
29.37618222002729
 30
0.0
  0
VERTEX
  5
409
330
3F7
100
AcDbEntity
  8
Default
100
AcDbVertex
100
AcDb2dVertex
 10
165.9712573410508
 20
26.53839413517674
 30
0.0
  0
VERTEX
  5
40A
330
3F7
100
AcDbEntity
  8
Default
100
AcDbVertex
100
AcDb2dVertex
 10
144.3654207430889
 20
26.53839413517674
 30
0.0
  0
VERTEX
  5
40B
330
3F7
100
AcDbEntity
  8
Default
100
AcDbVertex
100
AcDb2dVertex
 10
133.6982103346911
 20
30.09413093797599
 30
0.0
  0
VERTEX
  5
40C
330
3F7
100
AcDbEntity
  8
Default
100
AcDbVertex
100
AcDb2dVertex
 10
146.379450153181
 20
39.60506080184341
 30
0.0
  0
VERTEX
  5
40D
330
3F7
100
AcDbEntity
  8
Default
100
AcDbVertex
100
AcDb2dVertex
 10
163.9572279309587
 20
39.60506080184341
 30
0.0
  0
VERTEX
  5
40E
330
3F7
100
AcDbEntity
  8
Default
100
AcDbVertex
100
AcDb2dVertex
 10
176.8547503029812
 20
29.93191902282652
 30
0.0
  0
VERTEX
  5
40F
330
3F7
100
AcDbEntity
  8
Default
100
AcDbVertex
100
AcDb2dVertex
 10
176.5573837068801
 20
28.09946349079285
 30
0.0
  0
VERTEX
  5
410
330
3F7
100
AcDbEntity
  8
Default
100
AcDbVertex
100
AcDb2dVertex
 10
166.2741756400318
 20
24.67172746851007
 30
0.0
  0
VERTEX
  5
411
330
3F7
100
AcDbEntity
  8
Default
100
AcDbVertex
100
AcDb2dVertex
 10
144.0625024441079
 20
24.67172746851007
 30
0.0
  0
VERTEX
  5
412
330
3F7
100
AcDbEntity
  8
Default
100
AcDbVertex
100
AcDb2dVertex
 10
131.6254482234133
 20
28.81741220874159
 30
0.0
  0
VERTEX
  5
413
330
3F7
100
AcDbEntity
  8
Default
100
AcDbVertex
100
AcDb2dVertex
 10
131.3280816273123
 20
30.64986774077526
 30
0.0
  0
VERTEX
  5
414
330
3F7
100
AcDbEntity
  8
Default
100
AcDbVertex
100
AcDb2dVertex
 10
145.7572279309587
 20
41.47172746851007
 30
0.0
  0
VERTEX
  5
415
330
3F7
100
AcDbEntity
  8
Default
100
AcDbVertex
100
AcDb2dVertex
 10
164.5794501531809
 20
41.47172746851007
 30
0.0
  0
VERTEX
  5
416
330
3F7
100
AcDbEntity
  8
Default
100
AcDbVertex
100
AcDb2dVertex
 10
177.1923139032945
 20
32.01207965592484
 30
0.0
  0
SEQEND
  5
417
330
3F7
100
AcDbEntity
  8
Default
  0
POLYLINE
  5
418
330
1F
100
AcDbEntity
  8
Default
100
AcDb2dPolyline
 66
     1
 10
0.0
 20
0.0
 30
0.0
 70
     1
  0
VERTEX
  5
419
330
418
100
AcDbEntity
  8
Default
100
AcDbVertex
100
AcDb2dVertex
 10
139.3475478973473
 20
11.28403526664223
 30
0.0
  0
VERTEX
  5
41A
330
418
100
AcDbEntity
  8
Default
100
AcDbVertex
100
AcDb2dVertex
 10
148.4584409739211
 20
19.69640168534455
 30
0.0
  0
VERTEX
  5
41B
330
418
100
AcDbEntity
  8
Default
100
AcDbVertex
100
AcDb2dVertex
 10
167.0815598666993
 20
19.69640168534455
 30
0.0
  0
VERTEX
  5
41C
330
418
100
AcDbEntity
  8
Default
100
AcDbVertex
100
AcDb2dVertex
 10
181.7035583264867
 20
24.57040117194038
 30
0.0
  0
VERTEX
  5
41D
330
418
100
AcDbEntity
  8
Default
100
AcDbVertex
100
AcDb2dVertex
 10
183.1903913069918
 20
33.73267883210876
 30
0.0
  0
VERTEX
  5
41E
330
418
100
AcDbEntity
  8
Default
100
AcDbVertex
100
AcDb2dVertex
 10
166.2378920809027
 20
46.4470532516756
 30
0.0
  0
VERTEX
  5
41F
330
418
100
AcDbEntity
  8
Default
100
AcDbVertex
100
AcDb2dVertex
 10
144.0987860032368
 20
46.4470532516756
 30
0.0
  0
VERTEX
  5
420
330
418
100
AcDbEntity
  8
Default
100
AcDbVertex
100
AcDb2dVertex
 10
134.7654526699035
 20
39.44705325167558
 30
0.0
  0
VERTEX
  5
421
330
418
100
AcDbEntity
  8
Default
100
AcDbVertex
100
AcDb2dVertex
 10
104.8012254142362
 20
39.44705325167558
 30
0.0
  0
VERTEX
  5
422
330
418
100
AcDbEntity
  8
Default
100
AcDbVertex
100
AcDb2dVertex
 10
95.46789208090286
 20
46.4470532516756
 30
0.0
  0
VERTEX
  5
423
330
418
100
AcDbEntity
  8
Default
100
AcDbVertex
100
AcDb2dVertex
 10
73.32878600323698
 20
46.4470532516756
 30
0.0
  0
VERTEX
  5
424
330
418
100
AcDbEntity
  8
Default
100
AcDbVertex
100
AcDb2dVertex
 10
56.37628677714788
 20
33.73267883210879
 30
0.0
  0
VERTEX
  5
425
330
418
100
AcDbEntity
  8
Default
100
AcDbVertex
100
AcDb2dVertex
 10
57.863119757653
 20
24.57040117194036
 30
0.0
  0
VERTEX
  5
426
330
418
100
AcDbEntity
  8
Default
100
AcDbVertex
100
AcDb2dVertex
 10
72.48511821744043
 20
19.69640168534455
 30
0.0
  0
VERTEX
  5
427
330
418
100
AcDbEntity
  8
Default
100
AcDbVertex
100
AcDb2dVertex
 10
91.10823711021854
 20
19.69640168534455
 30
0.0
  0
VERTEX
  5
428
330
418
100
AcDbEntity
  8
Default
100
AcDbVertex
100
AcDb2dVertex
 10
100.2191301867924
 20
11.28403526664222
 30
0.0
  0
VERTEX
  5
429
330
418
100
AcDbEntity
  8
Default
100
AcDbVertex
100
AcDb2dVertex
 10
99.6281645706111
 20
3.601482256285433
 30
0.0
  0
VERTEX
  5
42A
330
418
100
AcDbEntity
  8
Default
100
AcDbVertex
100
AcDb2dVertex
 10
93.30181258742638
 20
-4.833653721294205
 30
0.0
  0
VERTEX
  5
42B
330
418
100
AcDbEntity
  8
Default
100
AcDbVertex
100
AcDb2dVertex
 10
89.17468200503366
 20
-17.21504546847247
 30
0.0
  0
VERTEX
  5
42C
330
418
100
AcDbEntity
  8
Default
100
AcDbVertex
100
AcDb2dVertex
 10
98.78927279137791
 20
-31.63693164798879
 30
0.0
  0
VERTEX
  5
42D
330
418
100
AcDbEntity
  8
Default
100
AcDbVertex
100
AcDb2dVertex
 10
110.1465692242813
 20
-31.63693164798879
 30
0.0
  0
VERTEX
  5
42E
330
418
100
AcDbEntity
  8
Default
100
AcDbVertex
100
AcDb2dVertex
 10
111.4628360986915
 20
-32.51444289759554
 30
0.0
  0
VERTEX
  5
42F
330
418
100
AcDbEntity
  8
Default
100
AcDbVertex
100
AcDb2dVertex
 10
128.1038419854484
 20
-32.51444289759542
 30
0.0
  0
VERTEX
  5
430
330
418
100
AcDbEntity
  8
Default
100
AcDbVertex
100
AcDb2dVertex
 10
129.4201088598583
 20
-31.63693164798879
 30
0.0
  0
VERTEX
  5
431
330
418
100
AcDbEntity
  8
Default
100
AcDbVertex
100
AcDb2dVertex
 10
140.7774052927618
 20
-31.63693164798879
 30
0.0
  0
VERTEX
  5
432
330
418
100
AcDbEntity
  8
Default
100
AcDbVertex
100
AcDb2dVertex
 10
150.391996079106
 20
-17.21504546847244
 30
0.0
  0
VERTEX
  5
433
330
418
100
AcDbEntity
  8
Default
100
AcDbVertex
100
AcDb2dVertex
 10
146.2648654967132
 20
-4.833653721294183
 30
0.0
  0
VERTEX
  5
434
330
418
100
AcDbEntity
  8
Default
100
AcDbVertex
100
AcDb2dVertex
 10
139.9385135135285
 20
3.601482256285422
 30
0.0
  0
SEQEND
  5
435
330
418
100
AcDbEntity
  8
Default
  0
POLYLINE
  5
436
330
1F
100
AcDbEntity
  8
Default
100
AcDb2dPolyline
 66
     1
 10
0.0
 20
0.0
 30
0.0
  0
VERTEX
  5
437
330
436
100
AcDbEntity
  8
Default
100
AcDbVertex
100
AcDb2dVertex
 10
78.58564602628866
 20
32.13839413517672
 30
0.0
  0
VERTEX
  5
438
330
436
100
AcDbEntity
  8
Default
100
AcDbVertex
100
AcDb2dVertex
 10
93.80945015318096
 20
32.13839413517673
 30
0.0
  0
VERTEX
  5
439
330
436
100
AcDbEntity
  8
Default
100
AcDbVertex
100
AcDb2dVertex
 10
91.32056126429208
 20
34.00506080184339
 30
0.0
  0
VERTEX
  5
43A
330
436
100
AcDbEntity
  8
Default
100
AcDbVertex
100
AcDb2dVertex
 10
77.47611681984762
 20
34.0050608018434
 30
0.0
  0
VERTEX
  5
43B
330
436
100
AcDbEntity
  8
Default
100
AcDbVertex
100
AcDb2dVertex
 10
73.02231390329479
 20
30.66470861442874
 30
0.0
  0
VERTEX
  5
43C
330
436
100
AcDbEntity
  8
Default
100
AcDbVertex
100
AcDb2dVertex
 10
74.20125734105085
 20
30.27172746851006
 30
0.0
  0
VERTEX
  5
43D
330
436
100
AcDbEntity
  8
Default
100
AcDbVertex
100
AcDb2dVertex
 10
94.59542074308885
 20
30.27172746851006
 30
0.0
  0
VERTEX
  5
43E
330
436
100
AcDbEntity
  8
Default
100
AcDbVertex
100
AcDb2dVertex
 10
97.9282103346911
 20
31.38265733237747
 30
0.0
  0
VERTEX
  5
43F
330
436
100
AcDbEntity
  8
Default
100
AcDbVertex
100
AcDb2dVertex
 10
91.94278348651429
 20
35.87172746851006
 30
0.0
  0
VERTEX
  5
440
330
436
100
AcDbEntity
  8
Default
100
AcDbVertex
100
AcDb2dVertex
 10
76.85389459762541
 20
35.87172746851007
 30
0.0
  0
VERTEX
  5
441
330
436
100
AcDbEntity
  8
Default
100
AcDbVertex
100
AcDb2dVertex
 10
69.05218519591602
 20
30.02044541722802
 30
0.0
  0
VERTEX
  5
442
330
436
100
AcDbEntity
  8
Default
100
AcDbVertex
100
AcDb2dVertex
 10
73.89833904206984
 20
28.4050608018434
 30
0.0
  0
VERTEX
  5
443
330
436
100
AcDbEntity
  8
Default
100
AcDbVertex
100
AcDb2dVertex
 10
94.89833904206986
 20
28.4050608018434
 30
0.0
  0
VERTEX
  5
444
330
436
100
AcDbEntity
  8
Default
100
AcDbVertex
100
AcDb2dVertex
 10
101.8983390420699
 20
30.73839413517673
 30
0.0
  0
VERTEX
  5
445
330
436
100
AcDbEntity
  8
Default
100
AcDbVertex
100
AcDb2dVertex
 10
92.56500570873649
 20
37.73839413517673
 30
0.0
  0
VERTEX
  5
446
330
436
100
AcDbEntity
  8
Default
100
AcDbVertex
100
AcDb2dVertex
 10
76.2316723754032
 20
37.73839413517673
 30
0.0
  0
VERTEX
  5
447
330
436
100
AcDbEntity
  8
Default
100
AcDbVertex
100
AcDb2dVertex
 10
65.08205648853723
 20
29.37618222002729
 30
0.0
  0
VERTEX
  5
448
330
436
100
AcDbEntity
  8
Default
100
AcDbVertex
100
AcDb2dVertex
 10
73.5954207430889
 20
26.53839413517674
 30
0.0
  0
VERTEX
  5
449
330
436
100
AcDbEntity
  8
Default
100
AcDbVertex
100
AcDb2dVertex
 10
95.20125734105083
 20
26.53839413517674
 30
0.0
  0
VERTEX
  5
44A
330
436
100
AcDbEntity
  8
Default
100
AcDbVertex
100
AcDb2dVertex
 10
105.8684677494486
 20
30.09413093797599
 30
0.0
  0
VERTEX
  5
44B
330
436
100
AcDbEntity
  8
Default
100
AcDbVertex
100
AcDb2dVertex
 10
93.18722793095871
 20
39.60506080184341
 30
0.0
  0
VERTEX
  5
44C
330
436
100
AcDbEntity
  8
Default
100
AcDbVertex
100
AcDb2dVertex
 10
75.60945015318096
 20
39.60506080184341
 30
0.0
  0
VERTEX
  5
44D
330
436
100
AcDbEntity
  8
Default
100
AcDbVertex
100
AcDb2dVertex
 10
62.71192778115852
 20
29.93191902282652
 30
0.0
  0
VERTEX
  5
44E
330
436
100
AcDbEntity
  8
Default
100
AcDbVertex
100
AcDb2dVertex
 10
63.00929437725955
 20
28.09946349079285
 30
0.0
  0
VERTEX
  5
44F
330
436
100
AcDbEntity
  8
Default
100
AcDbVertex
100
AcDb2dVertex
 10
73.29250244410792
 20
24.67172746851007
 30
0.0
  0
VERTEX
  5
450
330
436
100
AcDbEntity
  8
Default
100
AcDbVertex
100
AcDb2dVertex
 10
95.5041756400318
 20
24.67172746851007
 30
0.0
  0
VERTEX
  5
451
330
436
100
AcDbEntity
  8
Default
100
AcDbVertex
100
AcDb2dVertex
 10
107.9412298607264
 20
28.81741220874159
 30
0.0
  0
VERTEX
  5
452
330
436
100
AcDbEntity
  8
Default
100
AcDbVertex
100
AcDb2dVertex
 10
108.2385964568274
 20
30.64986774077526
 30
0.0
  0
VERTEX
  5
453
330
436
100
AcDbEntity
  8
Default
100
AcDbVertex
100
AcDb2dVertex
 10
93.80945015318093
 20
41.47172746851007
 30
0.0
  0
VERTEX
  5
454
330
436
100
AcDbEntity
  8
Default
100
AcDbVertex
100
AcDb2dVertex
 10
74.98722793095874
 20
41.47172746851007
 30
0.0
  0
VERTEX
  5
455
330
436
100
AcDbEntity
  8
Default
100
AcDbVertex
100
AcDb2dVertex
 10
62.37436418084514
 20
32.01207965592484
 30
0.0
  0
SEQEND
  5
456
330
436
100
AcDbEntity
  8
Default
  0
POLYLINE
  5
457
330
1F
100
AcDbEntity
  8
Default
100
AcDb2dPolyline
 66
     1
 10
0.0
 20
0.0
 30
0.0
  0
VERTEX
  5
458
330
457
100
AcDbEntity
  8
Default
100
AcDbVertex
100
AcDb2dVertex
 10
119.423822216558
 20
-9.407628298839057
 30
0.0
  0
VERTEX
  5
459
330
457
100
AcDbEntity
  8
Default
100
AcDbVertex
100
AcDb2dVertex
 10
119.7833390420698
 20
-9.647306182513624
 30
0.0
  0
VERTEX
  5
45A
330
457
100
AcDbEntity
  8
Default
100
AcDbVertex
100
AcDb2dVertex
 10
120.1428558675817
 20
-9.407628298839057
 30
0.0
  0
VERTEX
  5
45B
330
457
100
AcDbEntity
  8
Default
100
AcDbVertex
100
AcDb2dVertex
 10
118.6166723754031
 20
-7.372716975934466
 30
0.0
  0
VERTEX
  5
45C
330
457
100
AcDbEntity
  8
Default
100
AcDbVertex
100
AcDb2dVertex
 10
116.7465395975247
 20
-9.866227346438926
 30
0.0
  0
VERTEX
  5
45D
330
457
100
AcDbEntity
  8
Default
100
AcDbVertex
100
AcDb2dVertex
 10
119.7833390420698
 20
-11.89076030946899
 30
0.0
  0
VERTEX
  5
45E
330
457
100
AcDbEntity
  8
Default
100
AcDbVertex
100
AcDb2dVertex
 10
122.8201384866149
 20
-9.866227346438926
 30
0.0
  0
VERTEX
  5
45F
330
457
100
AcDbEntity
  8
Default
100
AcDbVertex
100
AcDb2dVertex
 10
118.6166723754032
 20
-4.261605864823224
 30
0.0
  0
VERTEX
  5
460
330
457
100
AcDbEntity
  8
Default
100
AcDbVertex
100
AcDb2dVertex
 10
113.0166723754031
 20
-11.72827253148993
 30
0.0
  0
VERTEX
  5
461
330
457
100
AcDbEntity
  8
Default
100
AcDbVertex
100
AcDb2dVertex
 10
116.1744261846682
 20
-11.72827253148993
 30
0.0
  0
VERTEX
  5
462
330
457
100
AcDbEntity
  8
Default
100
AcDbVertex
100
AcDb2dVertex
 10
119.7833390420698
 20
-14.13421443642438
 30
0.0
  0
VERTEX
  5
463
330
457
100
AcDbEntity
  8
Default
100
AcDbVertex
100
AcDb2dVertex
 10
123.3922518994715
 20
-11.72827253148993
 30
0.0
  0
VERTEX
  5
464
330
457
100
AcDbEntity
  8
Default
100
AcDbVertex
100
AcDb2dVertex
 10
126.5500057087365
 20
-11.72827253148993
 30
0.0
  0
VERTEX
  5
465
330
457
100
AcDbEntity
  8
Default
100
AcDbVertex
100
AcDb2dVertex
 10
120.5331370907474
 20
-3.705781040837827
 30
0.0
  0
VERTEX
  5
466
330
457
100
AcDbEntity
  8
Default
100
AcDbVertex
100
AcDb2dVertex
 10
119.7833390420698
 20
6.041593591970923
 30
0.0
  0
VERTEX
  5
467
330
457
100
AcDbEntity
  8
Default
100
AcDbVertex
100
AcDb2dVertex
 10
117.9111578385244
 20
6.041593591970923
 30
0.0
  0
VERTEX
  5
468
330
457
100
AcDbEntity
  8
Default
100
AcDbVertex
100
AcDb2dVertex
 10
117.214062890394
 20
-3.020640733724285
 30
0.0
  0
VERTEX
  5
469
330
457
100
AcDbEntity
  8
Default
100
AcDbVertex
100
AcDb2dVertex
 10
109.4920939390128
 20
-13.31659933556605
 30
0.0
  0
VERTEX
  5
46A
330
457
100
AcDbEntity
  8
Default
100
AcDbVertex
100
AcDb2dVertex
 10
109.3993139848159
 20
-13.5949391981566
 30
0.0
  0
VERTEX
  5
46B
330
457
100
AcDbEntity
  8
Default
100
AcDbVertex
100
AcDb2dVertex
 10
115.6092449942351
 20
-13.5949391981566
 30
0.0
  0
VERTEX
  5
46C
330
457
100
AcDbEntity
  8
Default
100
AcDbVertex
100
AcDb2dVertex
 10
119.7833390420698
 20
-16.37766856337976
 30
0.0
  0
VERTEX
  5
46D
330
457
100
AcDbEntity
  8
Default
100
AcDbVertex
100
AcDb2dVertex
 10
123.9574330899045
 20
-13.5949391981566
 30
0.0
  0
VERTEX
  5
46E
330
457
100
AcDbEntity
  8
Default
100
AcDbVertex
100
AcDb2dVertex
 10
130.1673640993237
 20
-13.5949391981566
 30
0.0
  0
VERTEX
  5
46F
330
457
100
AcDbEntity
  8
Default
100
AcDbVertex
100
AcDb2dVertex
 10
130.0745841451269
 20
-13.31659933556602
 30
0.0
  0
VERTEX
  5
470
330
457
100
AcDbEntity
  8
Default
100
AcDbVertex
100
AcDb2dVertex
 10
122.3526151937456
 20
-3.020640733724292
 30
0.0
  0
VERTEX
  5
471
330
457
100
AcDbEntity
  8
Default
100
AcDbVertex
100
AcDb2dVertex
 10
120.473715075625
 20
21.4050608018434
 30
0.0
  0
VERTEX
  5
472
330
457
100
AcDbEntity
  8
Default
100
AcDbVertex
100
AcDb2dVertex
 10
117.2207818049692
 20
21.4050608018434
 30
0.0
  0
VERTEX
  5
473
330
457
100
AcDbEntity
  8
Default
100
AcDbVertex
100
AcDb2dVertex
 10
115.3945847873959
 20
-2.335500426610757
 30
0.0
  0
VERTEX
  5
474
330
457
100
AcDbEntity
  8
Default
100
AcDbVertex
100
AcDb2dVertex
 10
107.8170096262908
 20
-12.43893397475082
 30
0.0
  0
VERTEX
  5
475
330
457
100
AcDbEntity
  8
Default
100
AcDbVertex
100
AcDb2dVertex
 10
107.0216496993267
 20
-14.82501375564309
 30
0.0
  0
VERTEX
  5
476
330
457
100
AcDbEntity
  8
Default
100
AcDbVertex
100
AcDb2dVertex
 10
107.4460444387802
 20
-15.46160586482327
 30
0.0
  0
VERTEX
  5
477
330
457
100
AcDbEntity
  8
Default
100
AcDbVertex
100
AcDb2dVertex
 10
115.044063803802
 20
-15.46160586482327
 30
0.0
  0
VERTEX
  5
478
330
457
100
AcDbEntity
  8
Default
100
AcDbVertex
100
AcDb2dVertex
 10
119.7833390420698
 20
-18.62112269033513
 30
0.0
  0
VERTEX
  5
479
330
457
100
AcDbEntity
  8
Default
100
AcDbVertex
100
AcDb2dVertex
 10
124.5226142803376
 20
-15.46160586482327
 30
0.0
  0
VERTEX
  5
47A
330
457
100
AcDbEntity
  8
Default
100
AcDbVertex
100
AcDb2dVertex
 10
132.1206336453594
 20
-15.46160586482326
 30
0.0
  0
VERTEX
  5
47B
330
457
100
AcDbEntity
  8
Default
100
AcDbVertex
100
AcDb2dVertex
 10
132.5450283848129
 20
-14.82501375564308
 30
0.0
  0
VERTEX
  5
47C
330
457
100
AcDbEntity
  8
Default
100
AcDbVertex
100
AcDb2dVertex
 10
131.7496684578488
 20
-12.43893397475082
 30
0.0
  0
VERTEX
  5
47D
330
457
100
AcDbEntity
  8
Default
100
AcDbVertex
100
AcDb2dVertex
 10
124.1720932967438
 20
-2.335500426610757
 30
0.0
  0
VERTEX
  5
47E
330
457
100
AcDbEntity
  8
Default
100
AcDbVertex
100
AcDb2dVertex
 10
122.2023065355806
 20
23.27172746851006
 30
0.0
  0
VERTEX
  5
47F
330
457
100
AcDbEntity
  8
Default
100
AcDbVertex
100
AcDb2dVertex
 10
115.4921903450136
 20
23.27172746851006
 30
0.0
  0
VERTEX
  5
480
330
457
100
AcDbEntity
  8
Default
100
AcDbVertex
100
AcDb2dVertex
 10
113.5751066843977
 20
-1.650360119497222
 30
0.0
  0
VERTEX
  5
481
330
457
100
AcDbEntity
  8
Default
100
AcDbVertex
100
AcDb2dVertex
 10
106.1419253135689
 20
-11.56126861393559
 30
0.0
  0
VERTEX
  5
482
330
457
100
AcDbEntity
  8
Default
100
AcDbVertex
100
AcDb2dVertex
 10
104.9620720350125
 20
-15.1008284496048
 30
0.0
  0
VERTEX
  5
483
330
457
100
AcDbEntity
  8
Default
100
AcDbVertex
100
AcDb2dVertex
 10
106.4470347562693
 20
-17.32827253148994
 30
0.0
  0
VERTEX
  5
484
330
457
100
AcDbEntity
  8
Default
100
AcDbVertex
100
AcDb2dVertex
 10
114.478882613369
 20
-17.32827253148994
 30
0.0
  0
VERTEX
  5
485
330
457
100
AcDbEntity
  8
Default
100
AcDbVertex
100
AcDb2dVertex
 10
119.7833390420698
 20
-20.86457681729051
 30
0.0
  0
VERTEX
  5
486
330
457
100
AcDbEntity
  8
Default
100
AcDbVertex
100
AcDb2dVertex
 10
125.0877954707707
 20
-17.32827253148994
 30
0.0
  0
VERTEX
  5
487
330
457
100
AcDbEntity
  8
Default
100
AcDbVertex
100
AcDb2dVertex
 10
133.1196433278704
 20
-17.32827253148993
 30
0.0
  0
VERTEX
  5
488
330
457
100
AcDbEntity
  8
Default
100
AcDbVertex
100
AcDb2dVertex
 10
134.6046060491271
 20
-15.1008284496048
 30
0.0
  0
VERTEX
  5
489
330
457
100
AcDbEntity
  8
Default
100
AcDbVertex
100
AcDb2dVertex
 10
133.4247527705707
 20
-11.5612686139356
 30
0.0
  0
VERTEX
  5
48A
330
457
100
AcDbEntity
  8
Default
100
AcDbVertex
100
AcDb2dVertex
 10
125.991571399742
 20
-1.650360119497222
 30
0.0
  0
VERTEX
  5
48B
330
457
100
AcDbEntity
  8
Default
100
AcDbVertex
100
AcDb2dVertex
 10
123.9308979955362
 20
25.13839413517672
 30
0.0
  0
VERTEX
  5
48C
330
457
100
AcDbEntity
  8
Default
100
AcDbVertex
100
AcDb2dVertex
 10
113.763598885058
 20
25.13839413517674
 30
0.0
  0
VERTEX
  5
48D
330
457
100
AcDbEntity
  8
Default
100
AcDbVertex
100
AcDb2dVertex
 10
111.7556285813995
 20
-0.9652198123836797
 30
0.0
  0
VERTEX
  5
48E
330
457
100
AcDbEntity
  8
Default
100
AcDbVertex
100
AcDb2dVertex
 10
104.466841000847
 20
-10.6836032531204
 30
0.0
  0
VERTEX
  5
48F
330
457
100
AcDbEntity
  8
Default
100
AcDbVertex
100
AcDb2dVertex
 10
102.9024943706983
 20
-15.37664314356651
 30
0.0
  0
VERTEX
  5
490
330
457
100
AcDbEntity
  8
Default
100
AcDbVertex
100
AcDb2dVertex
 10
105.4480250737583
 20
-19.1949391981566
 30
0.0
  0
VERTEX
  5
491
330
457
100
AcDbEntity
  8
Default
100
AcDbVertex
100
AcDb2dVertex
 10
113.9137014229359
 20
-19.1949391981566
 30
0.0
  0
VERTEX
  5
492
330
457
100
AcDbEntity
  8
Default
100
AcDbVertex
100
AcDb2dVertex
 10
119.7833390420698
 20
-23.10803094424587
 30
0.0
  0
VERTEX
  5
493
330
457
100
AcDbEntity
  8
Default
100
AcDbVertex
100
AcDb2dVertex
 10
125.6529766612037
 20
-19.1949391981566
 30
0.0
  0
VERTEX
  5
494
330
457
100
AcDbEntity
  8
Default
100
AcDbVertex
100
AcDb2dVertex
 10
134.1186530103813
 20
-19.1949391981566
 30
0.0
  0
VERTEX
  5
495
330
457
100
AcDbEntity
  8
Default
100
AcDbVertex
100
AcDb2dVertex
 10
136.6641837134414
 20
-15.37664314356651
 30
0.0
  0
VERTEX
  5
496
330
457
100
AcDbEntity
  8
Default
100
AcDbVertex
100
AcDb2dVertex
 10
135.0998370832927
 20
-10.68360325312037
 30
0.0
  0
VERTEX
  5
497
330
457
100
AcDbEntity
  8
Default
100
AcDbVertex
100
AcDb2dVertex
 10
127.8110495027401
 20
-0.9652198123836797
 30
0.0
  0
VERTEX
  5
498
330
457
100
AcDbEntity
  8
Default
100
AcDbVertex
100
AcDb2dVertex
 10
125.6594894554919
 20
27.00506080184342
 30
0.0
  0
VERTEX
  5
499
330
457
100
AcDbEntity
  8
Default
100
AcDbVertex
100
AcDb2dVertex
 10
112.0350074251024
 20
27.0050608018434
 30
0.0
  0
VERTEX
  5
49A
330
457
100
AcDbEntity
  8
Default
100
AcDbVertex
100
AcDb2dVertex
 10
109.9361504784013
 20
-0.2800795052701446
 30
0.0
  0
VERTEX
  5
49B
330
457
100
AcDbEntity
  8
Default
100
AcDbVertex
100
AcDb2dVertex
 10
102.7917566881251
 20
-9.805937892305174
 30
0.0
  0
VERTEX
  5
49C
330
457
100
AcDbEntity
  8
Default
100
AcDbVertex
100
AcDb2dVertex
 10
100.842916706384
 20
-15.65245783752823
 30
0.0
  0
VERTEX
  5
49D
330
457
100
AcDbEntity
  8
Default
100
AcDbVertex
100
AcDb2dVertex
 10
104.4490153912474
 20
-21.06160586482328
 30
0.0
  0
VERTEX
  5
49E
330
457
100
AcDbEntity
  8
Default
100
AcDbVertex
100
AcDb2dVertex
 10
113.3485202325029
 20
-21.06160586482328
 30
0.0
  0
VERTEX
  5
49F
330
457
100
AcDbEntity
  8
Default
100
AcDbVertex
100
AcDb2dVertex
 10
119.7833390420698
 20
-25.35148507120124
 30
0.0
  0
VERTEX
  5
4A0
330
457
100
AcDbEntity
  8
Default
100
AcDbVertex
100
AcDb2dVertex
 10
126.2181578516367
 20
-21.06160586482328
 30
0.0
  0
VERTEX
  5
4A1
330
457
100
AcDbEntity
  8
Default
100
AcDbVertex
100
AcDb2dVertex
 10
135.1176626928923
 20
-21.06160586482326
 30
0.0
  0
VERTEX
  5
4A2
330
457
100
AcDbEntity
  8
Default
100
AcDbVertex
100
AcDb2dVertex
 10
138.7237613777556
 20
-15.65245783752822
 30
0.0
  0
VERTEX
  5
4A3
330
457
100
AcDbEntity
  8
Default
100
AcDbVertex
100
AcDb2dVertex
 10
136.7749213960145
 20
-9.80593789230516
 30
0.0
  0
VERTEX
  5
4A4
330
457
100
AcDbEntity
  8
Default
100
AcDbVertex
100
AcDb2dVertex
 10
129.6305276057383
 20
-0.2800795052701446
 30
0.0
  0
VERTEX
  5
4A5
330
457
100
AcDbEntity
  8
Default
100
AcDbVertex
100
AcDb2dVertex
 10
127.3880809154475
 20
28.87172746851006
 30
0.0
  0
VERTEX
  5
4A6
330
457
100
AcDbEntity
  8
Default
100
AcDbVertex
100
AcDb2dVertex
 10
110.3064159651467
 20
28.87172746851007
 30
0.0
  0
VERTEX
  5
4A7
330
457
100
AcDbEntity
  8
Default
100
AcDbVertex
100
AcDb2dVertex
 10
108.1166723754032
 20
0.4050608018433905
 30
0.0
  0
VERTEX
  5
4A8
330
457
100
AcDbEntity
  8
Default
100
AcDbVertex
100
AcDb2dVertex
 10
101.1166723754032
 20
-8.928272531489938
 30
0.0
  0
VERTEX
  5
4A9
330
457
100
AcDbEntity
  8
Default
100
AcDbVertex
100
AcDb2dVertex
 10
98.78333904206981
 20
-15.92827253148995
 30
0.0
  0
VERTEX
  5
4AA
330
457
100
AcDbEntity
  8
Default
100
AcDbVertex
100
AcDb2dVertex
 10
103.4500057087365
 20
-22.92827253148994
 30
0.0
  0
VERTEX
  5
4AB
330
457
100
AcDbEntity
  8
Default
100
AcDbVertex
100
AcDb2dVertex
 10
112.7833390420698
 20
-22.92827253148994
 30
0.0
  0
VERTEX
  5
4AC
330
457
100
AcDbEntity
  8
Default
100
AcDbVertex
100
AcDb2dVertex
 10
119.7833390420698
 20
-27.59493919815661
 30
0.0
  0
VERTEX
  5
4AD
330
457
100
AcDbEntity
  8
Default
100
AcDbVertex
100
AcDb2dVertex
 10
126.7833390420698
 20
-22.92827253148994
 30
0.0
  0
VERTEX
  5
4AE
330
457
100
AcDbEntity
  8
Default
100
AcDbVertex
100
AcDb2dVertex
 10
136.1166723754032
 20
-22.92827253148994
 30
0.0
  0
VERTEX
  5
4AF
330
457
100
AcDbEntity
  8
Default
100
AcDbVertex
100
AcDb2dVertex
 10
140.7833390420699
 20
-15.92827253148995
 30
0.0
  0
VERTEX
  5
4B0
330
457
100
AcDbEntity
  8
Default
100
AcDbVertex
100
AcDb2dVertex
 10
138.4500057087365
 20
-8.928272531489938
 30
0.0
  0
VERTEX
  5
4B1
330
457
100
AcDbEntity
  8
Default
100
AcDbVertex
100
AcDb2dVertex
 10
131.4500057087365
 20
0.4050608018433905
 30
0.0
  0
VERTEX
  5
4B2
330
457
100
AcDbEntity
  8
Default
100
AcDbVertex
100
AcDb2dVertex
 10
129.1166723754032
 20
30.73839413517673
 30
0.0
  0
VERTEX
  5
4B3
330
457
100
AcDbEntity
  8
Default
100
AcDbVertex
100
AcDb2dVertex
 10
110.4500057087365
 20
30.73839413517673
 30
0.0
  0
SEQEND
  5
4B4
330
457
100
AcDbEntity
  8
Default
  0
ENDSEC
  0
SECTION
  2
OBJECTS
  0
DICTIONARY
  5
C
330
0
100
AcDbDictionary
281
     1
  3
ACAD_DETAILVIEWSTYLE
350
4F0
  3
ACAD_GROUP
350
D
  3
ACAD_LAYOUT
350
1A
  3
ACAD_MATERIAL
350
43
  3
ACAD_MLEADERSTYLE
350
6B
  3
ACAD_MLINESTYLE
350
17
  3
ACAD_PLOTSETTINGS
350
19
  3
ACAD_PLOTSTYLENAME
350
E
  3
ACAD_SCALELIST
350
47
  3
ACAD_SECTIONVIEWSTYLE
350
4F1
  3
ACAD_TABLESTYLE
350
69
  3
ACAD_VISUALSTYLE
350
2A
  3
ACDB_RECOMPOSE_DATA
350
4ED
  3
AcDbVariableDictionary
350
4B5
  0
SUN
  5
6D
330
29
100
AcDbSun
 90
        1
290
     0
 63
     7
421
 16777215
 40
1.0
291
     1
 91
  2455826
 92
 54000000
292
     0
 70
     2
 71
   256
280
     1
  0
DICTIONARY
  5
4F0
102
{ACAD_REACTORS
330
C
102
}
330
C
100
AcDbDictionary
281
     1
  0
DICTIONARY
  5
D
102
{ACAD_REACTORS
330
C
102
}
330
C
100
AcDbDictionary
281
     1
  0
DICTIONARY
  5
1A
102
{ACAD_REACTORS
330
C
102
}
330
C
100
AcDbDictionary
281
     1
  3
Layout1
350
1E
  3
Layout2
350
26
  3
Model
350
22
  0
DICTIONARY
  5
43
102
{ACAD_REACTORS
330
C
102
}
330
C
100
AcDbDictionary
281
     1
  3
ByBlock
350
45
  3
ByLayer
350
44
  3
Global
350
46
  0
DICTIONARY
  5
6B
102
{ACAD_REACTORS
330
C
102
}
330
C
100
AcDbDictionary
281
     1
  3
Standard
350
6C
  0
DICTIONARY
  5
17
102
{ACAD_REACTORS
330
C
102
}
330
C
100
AcDbDictionary
281
     1
  3
Standard
350
18
  0
DICTIONARY
  5
19
102
{ACAD_REACTORS
330
C
102
}
330
C
100
AcDbDictionary
281
     1
  0
ACDBDICTIONARYWDFLT
  5
E
102
{ACAD_REACTORS
330
C
102
}
330
C
100
AcDbDictionary
281
     1
  3
Normal
350
F
100
AcDbDictionaryWithDefault
340
F
  0
DICTIONARY
  5
47
102
{ACAD_REACTORS
330
C
102
}
330
C
100
AcDbDictionary
281
     1
  3
A0
350
48
  3
A1
350
49
  3
A2
350
4A
  3
A3
350
4B
  3
A4
350
4C
  3
A5
350
4D
  3
A6
350
4E
  3
A7
350
4F
  3
A8
350
50
  3
A9
350
51
  3
B0
350
52
  3
B1
350
53
  3
B2
350
54
  3
B3
350
55
  3
B4
350
56
  3
B5
350
57
  3
B6
350
58
  3
B7
350
59
  3
B8
350
5A
  3
B9
350
5B
  3
C0
350
5C
  3
C1
350
5D
  3
C2
350
5E
  3
C3
350
5F
  3
C4
350
60
  3
C5
350
61
  3
C6
350
62
  3
C7
350
63
  3
C8
350
64
  3
C9
350
65
  3
D0
350
66
  3
D1
350
67
  3
D2
350
68
  0
DICTIONARY
  5
4F1
102
{ACAD_REACTORS
330
C
102
}
330
C
100
AcDbDictionary
281
     1
  0
DICTIONARY
  5
69
102
{ACAD_REACTORS
330
C
102
}
330
C
100
AcDbDictionary
281
     1
  3
Standard
350
6A
  0
DICTIONARY
  5
2A
102
{ACAD_REACTORS
330
C
102
}
330
C
100
AcDbDictionary
281
     1
  3
2dWireframe
350
2F
  3
Basic
350
32
  3
Brighten
350
36
  3
ColorChange
350
3A
  3
Conceptual
350
34
  3
Dim
350
35
  3
EdgeColorOff
350
3D
  3
Facepattern
350
39
  3
Flat
350
2B
  3
FlatWithEdges
350
2C
  3
Gouraud
350
2D
  3
GouraudWithEdges
350
2E
  3
Hidden
350
31
  3
JitterOff
350
3B
  3
Linepattern
350
38
  3
OverhangOff
350
3C
  3
Realistic
350
33
  3
Shaded
350
42
  3
Shaded with edges
350
41
  3
Shades of Gray
350
3E
  3
Sketchy
350
3F
  3
Thicken
350
37
  3
Wireframe
350
30
  3
X-Ray
350
40
  0
XRECORD
  5
4ED
102
{ACAD_REACTORS
330
C
102
}
330
C
100
AcDbXrecord
280
     1
 90
        1
330
6A
  0
DICTIONARY
  5
4B5
102
{ACAD_REACTORS
330
C
102
}
330
C
100
AcDbDictionary
281
     1
  3
CANNOSCALE
350
4B6
  3
CMLEADERSTYLE
350
4EF
  3
CTABLESTYLE
350
4EE
  3
XCLIPFRAME
350
4B7
  0
LAYOUT
  5
1E
102
{ACAD_REACTORS
330
1A
102
}
330
1A
100
AcDbPlotSettings
  1

  2
none_device
  4

  6

 40
0.0
 41
0.0
 42
0.0
 43
0.0
 44
0.0
 45
0.0
 46
0.0
 47
0.0
 48
0.0
 49
0.0
140
0.0
141
0.0
142
1.0
143
1.0
 70
   688
 72
     0
 73
     0
 74
     5
  7

 75
    16
 76
     0
 77
     2
 78
   300
147
1.0
148
0.0
149
0.0
100
AcDbLayout
  1
Layout1
 70
     1
 71
     1
 10
0.0
 20
0.0
 11
12.0
 21
9.0
 12
0.0
 22
0.0
 32
0.0
 14
1.000000000000000E+20
 24
1.000000000000000E+20
 34
1.000000000000000E+20
 15
-1.000000000000000E+20
 25
-1.000000000000000E+20
 35
-1.000000000000000E+20
146
0.0
 13
0.0
 23
0.0
 33
0.0
 16
1.0
 26
0.0
 36
0.0
 17
0.0
 27
1.0
 37
0.0
 76
     0
330
1B
  0
LAYOUT
  5
26
102
{ACAD_REACTORS
330
1A
102
}
330
1A
100
AcDbPlotSettings
  1

  2
none_device
  4

  6

 40
0.0
 41
0.0
 42
0.0
 43
0.0
 44
0.0
 45
0.0
 46
0.0
 47
0.0
 48
0.0
 49
0.0
140
0.0
141
0.0
142
1.0
143
1.0
 70
   688
 72
     0
 73
     0
 74
     5
  7

 75
    16
 76
     0
 77
     2
 78
   300
147
1.0
148
0.0
149
0.0
100
AcDbLayout
  1
Layout2
 70
     1
 71
     2
 10
0.0
 20
0.0
 11
0.0
 21
0.0
 12
0.0
 22
0.0
 32
0.0
 14
0.0
 24
0.0
 34
0.0
 15
0.0
 25
0.0
 35
0.0
146
0.0
 13
0.0
 23
0.0
 33
0.0
 16
1.0
 26
0.0
 36
0.0
 17
0.0
 27
1.0
 37
0.0
 76
     0
330
23
  0
LAYOUT
  5
22
102
{ACAD_REACTORS
330
1A
102
}
330
1A
100
AcDbPlotSettings
  1

  2
none_device
  4
Letter_(8.50_x_11.00_Inches)
  6

 40
6.35
 41
6.35
 42
6.35000508
 43
6.35000508
 44
215.9
 45
279.4
 46
0.0
 47
0.0
 48
0.0
 49
0.0
140
0.0
141
0.0
142
1.0
143
1.0
 70
  1712
 72
     0
 73
     0
 74
     0
  7

 75
     0
 76
     0
 77
     2
 78
   300
147
1.0
148
0.0
149
0.0
100
AcDbLayout
  1
Model
 70
     1
 71
     0
 10
0.0
 20
0.0
 11
12.0
 21
9.0
 12
0.0
 22
0.0
 32
0.0
 14
1.000000000000000E+20
 24
1.000000000000000E+20
 34
1.000000000000000E+20
 15
-1.000000000000000E+20
 25
-1.000000000000000E+20
 35
-1.000000000000000E+20
146
0.0
 13
0.0
 23
0.0
 33
0.0
 16
1.0
 26
0.0
 36
0.0
 17
0.0
 27
1.0
 37
0.0
 76
     0
330
1F
331
29
  0
MATERIAL
  5
45
102
{ACAD_REACTORS
330
43
102
}
330
43
100
AcDbMaterial
  1
ByBlock
 72
     1
 94
      127
  0
MATERIAL
  5
44
102
{ACAD_REACTORS
330
43
102
}
330
43
100
AcDbMaterial
  1
ByLayer
 72
     1
 94
      127
  0
MATERIAL
  5
46
102
{ACAD_REACTORS
330
43
102
}
330
43
100
AcDbMaterial
  1
Global
 72
     1
 94
      127
  0
MLEADERSTYLE
  5
6C
102
{ACAD_REACTORS
330
6B
102
}
102
{ACAD_XDICTIONARY
360
4EB
102
}
330
6B
100
AcDbMLeaderStyle
170
     2
171
     1
172
     0
 90
        2
 40
0.0
 41
0.0
173
     1
 91
-1056964608
340
14
 92
       -2
290
     1
 42
0.09
291
     1
 43
0.36
  3
Standard
341
0
 44
0.18
300

342
11
174
     1
178
     6
175
     1
176
     0
 93
-1056964608
 45
0.18
292
     0
297
     0
 46
0.18
343
0
 94
-1056964608
 47
1.0
 49
1.0
140
1.0
293
     1
141
0.0
294
     1
177
     0
142
1.0
295
     0
296
     0
143
0.125
1001
ACAD_MLEADERVER
1070
     2
  0
MLINESTYLE
  5
18
102
{ACAD_REACTORS
330
17
102
}
330
17
100
AcDbMlineStyle
  2
Standard
 70
     0
  3

 62
   256
 51
90.0
 52
90.0
 71
     2
 49
0.5
 62
   256
  6
BYLAYER
 49
-0.5
 62
   256
  6
BYLAYER
  0
ACDBPLACEHOLDER
  5
F
102
{ACAD_REACTORS
330
E
102
}
330
E
  0
SCALE
  5
48
102
{ACAD_REACTORS
330
47
102
}
330
47
100
AcDbScale
 70
     0
300
1:1
140
1.0
141
1.0
290
     1
  0
SCALE
  5
49
102
{ACAD_REACTORS
330
47
102
}
330
47
100
AcDbScale
 70
     0
300
1:2
140
1.0
141
2.0
290
     0
  0
SCALE
  5
4A
102
{ACAD_REACTORS
330
47
102
}
330
47
100
AcDbScale
 70
     0
300
1:4
140
1.0
141
4.0
290
     0
  0
SCALE
  5
4B
102
{ACAD_REACTORS
330
47
102
}
330
47
100
AcDbScale
 70
     0
300
1:5
140
1.0
141
5.0
290
     0
  0
SCALE
  5
4C
102
{ACAD_REACTORS
330
47
102
}
330
47
100
AcDbScale
 70
     0
300
1:8
140
1.0
141
8.0
290
     0
  0
SCALE
  5
4D
102
{ACAD_REACTORS
330
47
102
}
330
47
100
AcDbScale
 70
     0
300
1:10
140
1.0
141
10.0
290
     0
  0
SCALE
  5
4E
102
{ACAD_REACTORS
330
47
102
}
330
47
100
AcDbScale
 70
     0
300
1:16
140
1.0
141
16.0
290
     0
  0
SCALE
  5
4F
102
{ACAD_REACTORS
330
47
102
}
330
47
100
AcDbScale
 70
     0
300
1:20
140
1.0
141
20.0
290
     0
  0
SCALE
  5
50
102
{ACAD_REACTORS
330
47
102
}
330
47
100
AcDbScale
 70
     0
300
1:30
140
1.0
141
30.0
290
     0
  0
SCALE
  5
51
102
{ACAD_REACTORS
330
47
102
}
330
47
100
AcDbScale
 70
     0
300
1:40
140
1.0
141
40.0
290
     0
  0
SCALE
  5
52
102
{ACAD_REACTORS
330
47
102
}
330
47
100
AcDbScale
 70
     0
300
1:50
140
1.0
141
50.0
290
     0
  0
SCALE
  5
53
102
{ACAD_REACTORS
330
47
102
}
330
47
100
AcDbScale
 70
     0
300
1:100
140
1.0
141
100.0
290
     0
  0
SCALE
  5
54
102
{ACAD_REACTORS
330
47
102
}
330
47
100
AcDbScale
 70
     0
300
2:1
140
2.0
141
1.0
290
     0
  0
SCALE
  5
55
102
{ACAD_REACTORS
330
47
102
}
330
47
100
AcDbScale
 70
     0
300
4:1
140
4.0
141
1.0
290
     0
  0
SCALE
  5
56
102
{ACAD_REACTORS
330
47
102
}
330
47
100
AcDbScale
 70
     0
300
8:1
140
8.0
141
1.0
290
     0
  0
SCALE
  5
57
102
{ACAD_REACTORS
330
47
102
}
330
47
100
AcDbScale
 70
     0
300
10:1
140
10.0
141
1.0
290
     0
  0
SCALE
  5
58
102
{ACAD_REACTORS
330
47
102
}
330
47
100
AcDbScale
 70
     0
300
100:1
140
100.0
141
1.0
290
     0
  0
SCALE
  5
59
102
{ACAD_REACTORS
330
47
102
}
330
47
100
AcDbScale
 70
     0
300
1/128" = 1'-0"
140
0.0078125
141
12.0
290
     0
  0
SCALE
  5
5A
102
{ACAD_REACTORS
330
47
102
}
330
47
100
AcDbScale
 70
     0
300
1/64" = 1'-0"
140
0.015625
141
12.0
290
     0
  0
SCALE
  5
5B
102
{ACAD_REACTORS
330
47
102
}
330
47
100
AcDbScale
 70
     0
300
1/32" = 1'-0"
140
0.03125
141
12.0
290
     0
  0
SCALE
  5
5C
102
{ACAD_REACTORS
330
47
102
}
330
47
100
AcDbScale
 70
     0
300
1/16" = 1'-0"
140
0.0625
141
12.0
290
     0
  0
SCALE
  5
5D
102
{ACAD_REACTORS
330
47
102
}
330
47
100
AcDbScale
 70
     0
300
3/32" = 1'-0"
140
0.09375
141
12.0
290
     0
  0
SCALE
  5
5E
102
{ACAD_REACTORS
330
47
102
}
330
47
100
AcDbScale
 70
     0
300
1/8" = 1'-0"
140
0.125
141
12.0
290
     0
  0
SCALE
  5
5F
102
{ACAD_REACTORS
330
47
102
}
330
47
100
AcDbScale
 70
     0
300
3/16" = 1'-0"
140
0.1875
141
12.0
290
     0
  0
SCALE
  5
60
102
{ACAD_REACTORS
330
47
102
}
330
47
100
AcDbScale
 70
     0
300
1/4" = 1'-0"
140
0.25
141
12.0
290
     0
  0
SCALE
  5
61
102
{ACAD_REACTORS
330
47
102
}
330
47
100
AcDbScale
 70
     0
300
3/8" = 1'-0"
140
0.375
141
12.0
290
     0
  0
SCALE
  5
62
102
{ACAD_REACTORS
330
47
102
}
330
47
100
AcDbScale
 70
     0
300
1/2" = 1'-0"
140
0.5
141
12.0
290
     0
  0
SCALE
  5
63
102
{ACAD_REACTORS
330
47
102
}
330
47
100
AcDbScale
 70
     0
300
3/4" = 1'-0"
140
0.75
141
12.0
290
     0
  0
SCALE
  5
64
102
{ACAD_REACTORS
330
47
102
}
330
47
100
AcDbScale
 70
     0
300
1" = 1'-0"
140
1.0
141
12.0
290
     0
  0
SCALE
  5
65
102
{ACAD_REACTORS
330
47
102
}
330
47
100
AcDbScale
 70
     0
300
1-1/2" = 1'-0"
140
1.5
141
12.0
290
     0
  0
SCALE
  5
66
102
{ACAD_REACTORS
330
47
102
}
330
47
100
AcDbScale
 70
     0
300
3" = 1'-0"
140
3.0
141
12.0
290
     0
  0
SCALE
  5
67
102
{ACAD_REACTORS
330
47
102
}
330
47
100
AcDbScale
 70
     0
300
6" = 1'-0"
140
6.0
141
12.0
290
     0
  0
SCALE
  5
68
102
{ACAD_REACTORS
330
47
102
}
330
47
100
AcDbScale
 70
     0
300
1'-0" = 1'-0"
140
12.0
141
12.0
290
     0
  0
TABLESTYLE
  5
6A
102
{ACAD_REACTORS
330
69
102
}
102
{ACAD_XDICTIONARY
360
4E8
102
}
330
69
100
AcDbTableStyle
  3
Standard
 70
     0
 71
     0
 40
0.06
 41
0.06
280
     0
281
     0
  7
Standard
140
0.18
170
     2
 62
     0
 63
   257
283
     0
 90
        4
 91
        0
  1

274
    -2
284
     1
 64
     0
275
    -2
285
     1
 65
     0
276
    -2
286
     1
 66
     0
277
    -2
287
     1
 67
     0
278
    -2
288
     1
 68
     0
279
    -2
289
     1
 69
     0
  7
Standard
140
0.25
170
     5
 62
     0
 63
   257
283
     0
 90
        4
 91
        0
  1

274
    -2
284
     1
 64
     0
275
    -2
285
     1
 65
     0
276
    -2
286
     1
 66
     0
277
    -2
287
     1
 67
     0
278
    -2
288
     1
 68
     0
279
    -2
289
     1
 69
     0
  7
Standard
140
0.18
170
     5
 62
     0
 63
   257
283
     0
 90
        4
 91
        0
  1

274
    -2
284
     1
 64
     0
275
    -2
285
     1
 65
     0
276
    -2
286
     1
 66
     0
277
    -2
287
     1
 67
     0
278
    -2
288
     1
 68
     0
279
    -2
289
     1
 69
     0
  0
VISUALSTYLE
  5
2F
102
{ACAD_REACTORS
330
2A
102
}
102
{ACAD_XDICTIONARY
360
4C0
102
}
330
2A
100
AcDbVisualStyle
  2
2dWireframe
 70
     4
 71
     0
 72
     2
 73
     0
 90
        0
 40
0.6
 41
30.0
 62
     5
 63
     7
421
 16777215
 74
     1
 91
        4
 64
     7
 65
   257
 75
     1
175
     1
 42
1.0
 92
        0
 66
   257
 43
1.0
 76
     1
 77
     6
 78
     2
 67
     7
 79
     5
170
     0
171
     0
290
     0
174
     0
 93
        1
 44
0.0
173
     0
291
     0
 45
0.0
  0
VISUALSTYLE
  5
32
102
{ACAD_REACTORS
330
2A
102
}
102
{ACAD_XDICTIONARY
360
4C6
102
}
330
2A
100
AcDbVisualStyle
  2
Basic
 70
     7
 71
     1
 72
     0
 73
     1
 90
        0
 40
0.6
 41
30.0
 62
     5
 63
     7
421
 16777215
 74
     0
 91
        4
 64
     7
 65
   257
 75
     1
175
     1
 42
1.0
 92
        8
 66
     7
 43
1.0
 76
     1
 77
     6
 78
     2
 67
     7
 79
     5
170
     0
171
     0
290
     0
174
     0
 93
        1
 44
0.0
173
     0
291
     1
 45
0.0
  0
VISUALSTYLE
  5
36
102
{ACAD_REACTORS
330
2A
102
}
102
{ACAD_XDICTIONARY
360
4CE
102
}
330
2A
100
AcDbVisualStyle
  2
Brighten
 70
    12
 71
     2
 72
     2
 73
     0
 90
        0
 40
0.6
 41
30.0
 62
     5
 63
     7
421
 16777215
 74
     1
 91
        4
 64
     7
 65
   257
 75
     1
175
     1
 42
1.0
 92
        8
 66
     7
 43
1.0
 76
     1
 77
     6
 78
     2
 67
     7
 79
     5
170
     0
171
     0
290
     0
174
     0
 93
        1
 44
50.0
173
     0
291
     1
 45
0.0
  0
VISUALSTYLE
  5
3A
102
{ACAD_REACTORS
330
2A
102
}
102
{ACAD_XDICTIONARY
360
4D6
102
}
330
2A
100
AcDbVisualStyle
  2
ColorChange
 70
    16
 71
     2
 72
     2
 73
     3
 90
        0
 40
0.6
 41
30.0
 62
     5
 63
     8
421
  8421504
 74
     1
 91
        4
 64
     7
 65
   257
 75
     1
175
     1
 42
1.0
 92
        8
 66
     8
424
  8421504
 43
1.0
 76
     1
 77
     6
 78
     2
 67
     7
 79
     5
170
     0
171
     0
290
     0
174
     0
 93
        1
 44
0.0
173
     0
291
     1
 45
0.0
  0
VISUALSTYLE
  5
34
102
{ACAD_REACTORS
330
2A
102
}
102
{ACAD_XDICTIONARY
360
4CA
102
}
330
2A
100
AcDbVisualStyle
  2
Conceptual
 70
     9
 71
     3
 72
     2
 73
     0
 90
        0
 40
0.6
 41
30.0
 62
     5
 63
     7
421
 16777215
 74
     2
 91
        2
 64
     7
 65
   257
 75
     1
175
     1
 42
179.0
 92
        8
 66
     7
 43
1.0
 76
     1
 77
     6
 78
     2
 67
     7
 79
     3
170
     0
171
     0
290
     0
174
     0
 93
        1
 44
0.0
173
     0
291
     0
 45
0.0
  0
VISUALSTYLE
  5
35
102
{ACAD_REACTORS
330
2A
102
}
102
{ACAD_XDICTIONARY
360
4CC
102
}
330
2A
100
AcDbVisualStyle
  2
Dim
 70
    11
 71
     2
 72
     2
 73
     0
 90
        0
 40
0.6
 41
30.0
 62
     5
 63
     7
421
 16777215
 74
     1
 91
        4
 64
     7
 65
   257
 75
     1
175
     1
 42
1.0
 92
        8
 66
     7
 43
1.0
 76
     1
 77
     6
 78
     2
 67
     7
 79
     5
170
     0
171
     0
290
     0
174
     0
 93
        1
 44
-50.0
173
     0
291
     1
 45
0.0
  0
VISUALSTYLE
  5
3D
102
{ACAD_REACTORS
330
2A
102
}
102
{ACAD_XDICTIONARY
360
4DC
102
}
330
2A
100
AcDbVisualStyle
  2
EdgeColorOff
 70
    22
 71
     2
 72
     2
 73
     0
 90
        0
 40
0.6
 41
30.0
 62
     5
 63
     7
421
 16777215
 74
     1
 91
        4
 64
     7
 65
   257
 75
     1
175
     1
 42
1.0
 92
        8
 66
     7
 43
1.0
 76
     1
 77
     6
 78
     2
 67
     7
 79
     5
170
     0
171
     0
290
     0
174
     0
 93
        1
 44
0.0
173
     0
291
     1
 45
0.0
  0
VISUALSTYLE
  5
39
102
{ACAD_REACTORS
330
2A
102
}
102
{ACAD_XDICTIONARY
360
4D4
102
}
330
2A
100
AcDbVisualStyle
  2
Facepattern
 70
    15
 71
     2
 72
     2
 73
     0
 90
        0
 40
0.6
 41
30.0
 62
     5
 63
     7
421
 16777215
 74
     1
 91
        4
 64
     7
 65
   257
 75
     1
175
     1
 42
1.0
 92
        8
 66
     7
 43
1.0
 76
     1
 77
     6
 78
     2
 67
     7
 79
     5
170
     0
171
     0
290
     0
174
     0
 93
        1
 44
0.0
173
     0
291
     1
 45
0.0
  0
VISUALSTYLE
  5
2B
102
{ACAD_REACTORS
330
2A
102
}
102
{ACAD_XDICTIONARY
360
4B8
102
}
330
2A
100
AcDbVisualStyle
  2
Flat
 70
     0
 71
     2
 72
     1
 73
     1
 90
        2
 40
0.6
 41
30.0
 62
     5
 63
     7
421
 16777215
 74
     0
 91
        0
 64
     7
 65
   257
 75
     1
175
     1
 42
1.0
 92
        8
 66
     7
 43
1.0
 76
     1
 77
     6
 78
     2
 67
     7
 79
     5
170
     0
171
     0
290
     0
174
     0
 93
       13
 44
0.0
173
     0
291
     1
 45
0.0
  0
VISUALSTYLE
  5
2C
102
{ACAD_REACTORS
330
2A
102
}
102
{ACAD_XDICTIONARY
360
4BA
102
}
330
2A
100
AcDbVisualStyle
  2
FlatWithEdges
 70
     1
 71
     2
 72
     1
 73
     1
 90
        2
 40
0.6
 41
30.0
 62
     5
 63
     7
421
 16777215
 74
     1
 91
        0
 64
     7
 65
   257
 75
     1
175
     1
 42
1.0
 92
        0
 66
   257
 43
1.0
 76
     1
 77
     6
 78
     2
 67
     7
 79
     5
170
     0
171
     0
290
     0
174
     0
 93
       13
 44
0.0
173
     0
291
     1
 45
0.0
  0
VISUALSTYLE
  5
2D
102
{ACAD_REACTORS
330
2A
102
}
102
{ACAD_XDICTIONARY
360
4BC
102
}
330
2A
100
AcDbVisualStyle
  2
Gouraud
 70
     2
 71
     2
 72
     2
 73
     1
 90
        2
 40
0.6
 41
30.0
 62
     5
 63
     7
421
 16777215
 74
     0
 91
        0
 64
     7
 65
   257
 75
     1
175
     1
 42
1.0
 92
        0
 66
     7
 43
1.0
 76
     1
 77
     6
 78
     2
 67
     7
 79
     5
170
     0
171
     0
290
     0
174
     0
 93
       13
 44
0.0
173
     0
291
     1
 45
0.0
  0
VISUALSTYLE
  5
2E
102
{ACAD_REACTORS
330
2A
102
}
102
{ACAD_XDICTIONARY
360
4BE
102
}
330
2A
100
AcDbVisualStyle
  2
GouraudWithEdges
 70
     3
 71
     2
 72
     2
 73
     1
 90
        2
 40
0.6
 41
30.0
 62
     5
 63
     7
421
 16777215
 74
     1
 91
        0
 64
     7
 65
   257
 75
     1
175
     1
 42
1.0
 92
        0
 66
   257
 43
1.0
 76
     1
 77
     6
 78
     2
 67
     7
 79
     5
170
     0
171
     0
290
     0
174
     0
 93
       13
 44
0.0
173
     0
291
     1
 45
0.0
  0
VISUALSTYLE
  5
31
102
{ACAD_REACTORS
330
2A
102
}
102
{ACAD_XDICTIONARY
360
4C4
102
}
330
2A
100
AcDbVisualStyle
  2
Hidden
 70
     6
 71
     1
 72
     2
 73
     2
 90
        0
 40
0.6
 41
30.0
 62
     5
 63
     7
421
 16777215
 74
     2
 91
        2
 64
     7
 65
   257
 75
     2
175
     1
 42
40.0
 92
        0
 66
   257
 43
1.0
 76
     1
 77
     6
 78
     2
 67
     7
 79
     3
170
     0
171
     0
290
     0
174
     0
 93
        1
 44
0.0
173
     0
291
     0
 45
0.0
  0
VISUALSTYLE
  5
3B
102
{ACAD_REACTORS
330
2A
102
}
102
{ACAD_XDICTIONARY
360
4D8
102
}
330
2A
100
AcDbVisualStyle
  2
JitterOff
 70
    20
 71
     2
 72
     2
 73
     0
 90
        0
 40
0.6
 41
30.0
 62
     5
 63
     7
421
 16777215
 74
     1
 91
        4
 64
     7
 65
   257
 75
     1
175
     1
 42
1.0
 92
       10
 66
     7
 43
1.0
 76
     1
 77
     6
 78
     2
 67
     7
 79
     5
170
     0
171
     0
290
     0
174
     0
 93
        1
 44
0.0
173
     0
291
     1
 45
0.0
  0
VISUALSTYLE
  5
38
102
{ACAD_REACTORS
330
2A
102
}
102
{ACAD_XDICTIONARY
360
4D2
102
}
330
2A
100
AcDbVisualStyle
  2
Linepattern
 70
    14
 71
     2
 72
     2
 73
     0
 90
        0
 40
0.6
 41
30.0
 62
     5
 63
     7
421
 16777215
 74
     1
 91
        4
 64
     7
 65
   257
 75
     7
175
     7
 42
1.0
 92
        8
 66
     7
 43
1.0
 76
     1
 77
     6
 78
     2
 67
     7
 79
     5
170
     0
171
     0
290
     0
174
     0
 93
        1
 44
0.0
173
     0
291
     1
 45
0.0
  0
VISUALSTYLE
  5
3C
102
{ACAD_REACTORS
330
2A
102
}
102
{ACAD_XDICTIONARY
360
4DA
102
}
330
2A
100
AcDbVisualStyle
  2
OverhangOff
 70
    21
 71
     2
 72
     2
 73
     0
 90
        0
 40
0.6
 41
30.0
 62
     5
 63
     7
421
 16777215
 74
     1
 91
        4
 64
     7
 65
   257
 75
     1
175
     1
 42
1.0
 92
        9
 66
     7
 43
1.0
 76
     1
 77
     6
 78
     2
 67
     7
 79
     5
170
     0
171
     0
290
     0
174
     0
 93
        1
 44
0.0
173
     0
291
     1
 45
0.0
  0
VISUALSTYLE
  5
33
102
{ACAD_REACTORS
330
2A
102
}
102
{ACAD_XDICTIONARY
360
4C8
102
}
330
2A
100
AcDbVisualStyle
  2
Realistic
 70
     8
 71
     2
 72
     3
 73
     0
 90
        2
 40
0.6
 41
30.0
 62
     5
 63
     7
421
 16777215
 74
     0
 91
        0
 64
     7
 65
   257
 75
     1
175
     1
 42
1.0
 92
        8
 66
   257
 43
1.0
 76
     1
 77
     6
 78
     2
 67
     7
 79
     3
170
     0
171
     0
290
     0
174
     0
 93
       13
 44
0.0
173
     0
291
     0
 45
0.0
  0
VISUALSTYLE
  5
42
102
{ACAD_REACTORS
330
2A
102
}
102
{ACAD_XDICTIONARY
360
4E6
102
}
330
2A
100
AcDbVisualStyle
  2
Shaded
 70
    27
 71
     2
 72
     2
 73
     1
 90
        2
 40
0.6
 41
30.0
 62
     5
 63
     7
421
 16777215
 74
     0
 91
        4
 64
     7
 65
   257
 75
     1
175
     1
 42
1.0
 92
        8
 66
   257
 43
1.0
 76
     1
 77
     6
 78
     2
 67
     8
425
  7895160
 79
     3
170
     0
171
     0
290
     0
174
     0
 93
        5
 44
0.0
173
     0
291
     0
 45
0.0
  0
VISUALSTYLE
  5
41
102
{ACAD_REACTORS
330
2A
102
}
102
{ACAD_XDICTIONARY
360
4E4
102
}
330
2A
100
AcDbVisualStyle
  2
Shaded with edges
 70
    26
 71
     2
 72
     2
 73
     1
 90
        2
 40
0.6
 41
30.0
 62
     5
 63
     7
421
 16777215
 74
     1
 91
       10
 64
     7
 65
   257
 75
     2
175
     1
 42
1.0
 92
        8
 66
   257
 43
1.0
 76
     1
 77
     6
 78
     2
 67
     7
 79
     3
170
     0
171
     0
290
     0
174
     0
 93
        5
 44
0.0
173
     0
291
     0
 45
0.0
  0
VISUALSTYLE
  5
3E
102
{ACAD_REACTORS
330
2A
102
}
102
{ACAD_XDICTIONARY
360
4DE
102
}
330
2A
100
AcDbVisualStyle
  2
Shades of Gray
 70
    23
 71
     2
 72
     2
 73
     3
 90
        0
 40
0.6
 41
30.0
 62
     5
 63
     7
421
 16777215
 74
     2
 91
        2
 64
     7
 65
     7
 75
     1
175
     1
 42
40.0
 92
        8
 66
     7
 43
1.0
 76
     1
 77
     6
 78
     2
 67
     7
 79
     3
170
     0
171
     0
290
     0
174
     0
 93
        1
 44
0.0
173
     0
291
     0
 45
0.0
  0
VISUALSTYLE
  5
3F
102
{ACAD_REACTORS
330
2A
102
}
102
{ACAD_XDICTIONARY
360
4E0
102
}
330
2A
100
AcDbVisualStyle
  2
Sketchy
 70
    24
 71
     1
 72
     2
 73
     2
 90
        0
 40
0.6
 41
30.0
 62
     5
 63
     7
421
 16777215
 74
     2
 91
        2
 64
     7
 65
     7
 75
     1
175
     1
 42
40.0
 92
       11
 66
     7
 43
1.0
 76
     1
 77
     6
 78
     2
 67
     7
 79
     6
170
     0
171
     0
290
     0
174
     0
 93
        1
 44
0.0
173
     0
291
     0
 45
0.0
  0
VISUALSTYLE
  5
37
102
{ACAD_REACTORS
330
2A
102
}
102
{ACAD_XDICTIONARY
360
4D0
102
}
330
2A
100
AcDbVisualStyle
  2
Thicken
 70
    13
 71
     2
 72
     2
 73
     0
 90
        0
 40
0.6
 41
30.0
 62
     5
 63
     7
421
 16777215
 74
     1
 91
        4
 64
     7
 65
   257
 75
     1
175
     1
 42
1.0
 92
       12
 66
     7
 43
1.0
 76
     1
 77
     6
 78
     2
 67
     7
 79
     5
170
     0
171
     0
290
     0
174
     0
 93
        1
 44
0.0
173
     0
291
     1
 45
0.0
  0
VISUALSTYLE
  5
30
102
{ACAD_REACTORS
330
2A
102
}
102
{ACAD_XDICTIONARY
360
4C2
102
}
330
2A
100
AcDbVisualStyle
  2
Wireframe
 70
     5
 71
     0
 72
     2
 73
     0
 90
        0
 40
0.6
 41
30.0
 62
     5
 63
     7
421
 16777215
 74
     1
 91
        4
 64
     7
 65
   257
 75
     1
175
     1
 42
1.0
 92
        0
 66
   257
 43
1.0
 76
     1
 77
     6
 78
     2
 67
     7
 79
     3
170
     0
171
     0
290
     0
174
     0
 93
        1
 44
0.0
173
     0
291
     0
 45
0.0
  0
VISUALSTYLE
  5
40
102
{ACAD_REACTORS
330
2A
102
}
102
{ACAD_XDICTIONARY
360
4E2
102
}
330
2A
100
AcDbVisualStyle
  2
X-Ray
 70
    25
 71
     2
 72
     2
 73
     1
 90
        1
 40
0.5
 41
30.0
 62
     5
 63
     7
421
 16777215
 74
     1
 91
        0
 64
     7
 65
   257
 75
     1
175
     1
 42
1.0
 92
        8
 66
     7
 43
1.0
 76
     1
 77
     6
 78
     2
 67
     7
 79
     3
170
     0
171
     0
290
     0
174
     0
 93
       13
 44
0.0
173
     0
291
     0
 45
0.0
  0
DICTIONARYVAR
  5
4B6
102
{ACAD_REACTORS
330
4B5
102
}
330
4B5
100
DictionaryVariables
280
     0
  1
1:1
  0
DICTIONARYVAR
  5
4EF
102
{ACAD_REACTORS
330
4B5
102
}
330
4B5
100
DictionaryVariables
280
     0
  1
Standard
  0
DICTIONARYVAR
  5
4EE
102
{ACAD_REACTORS
330
4B5
102
}
330
4B5
100
DictionaryVariables
280
     0
  1
Standard
  0
DICTIONARYVAR
  5
4B7
102
{ACAD_REACTORS
330
4B5
102
}
330
4B5
100
DictionaryVariables
280
     0
  1
2
  0
DICTIONARY
  5
4EB
330
6C
100
AcDbDictionary
280
     1
281
     1
  3
ACAD_XREC_ROUNDTRIP
360
4EC
  0
DICTIONARY
  5
4E8
330
6A
100
AcDbDictionary
280
     1
281
     1
  3
ACAD_ROUNDTRIP_2008_TABLESTYLE_CELLSTYLEMAP
360
4E9
  0
DICTIONARY
  5
4C0
330
2F
100
AcDbDictionary
280
     1
281
     1
  3
ACAD_XREC_ROUNDTRIP
360
4C1
  0
DICTIONARY
  5
4C6
330
32
100
AcDbDictionary
280
     1
281
     1
  3
ACAD_XREC_ROUNDTRIP
360
4C7
  0
DICTIONARY
  5
4CE
330
36
100
AcDbDictionary
280
     1
281
     1
  3
ACAD_XREC_ROUNDTRIP
360
4CF
  0
DICTIONARY
  5
4D6
330
3A
100
AcDbDictionary
280
     1
281
     1
  3
ACAD_XREC_ROUNDTRIP
360
4D7
  0
DICTIONARY
  5
4CA
330
34
100
AcDbDictionary
280
     1
281
     1
  3
ACAD_XREC_ROUNDTRIP
360
4CB
  0
DICTIONARY
  5
4CC
330
35
100
AcDbDictionary
280
     1
281
     1
  3
ACAD_XREC_ROUNDTRIP
360
4CD
  0
DICTIONARY
  5
4DC
330
3D
100
AcDbDictionary
280
     1
281
     1
  3
ACAD_XREC_ROUNDTRIP
360
4DD
  0
DICTIONARY
  5
4D4
330
39
100
AcDbDictionary
280
     1
281
     1
  3
ACAD_XREC_ROUNDTRIP
360
4D5
  0
DICTIONARY
  5
4B8
330
2B
100
AcDbDictionary
280
     1
281
     1
  3
ACAD_XREC_ROUNDTRIP
360
4B9
  0
DICTIONARY
  5
4BA
330
2C
100
AcDbDictionary
280
     1
281
     1
  3
ACAD_XREC_ROUNDTRIP
360
4BB
  0
DICTIONARY
  5
4BC
330
2D
100
AcDbDictionary
280
     1
281
     1
  3
ACAD_XREC_ROUNDTRIP
360
4BD
  0
DICTIONARY
  5
4BE
330
2E
100
AcDbDictionary
280
     1
281
     1
  3
ACAD_XREC_ROUNDTRIP
360
4BF
  0
DICTIONARY
  5
4C4
330
31
100
AcDbDictionary
280
     1
281
     1
  3
ACAD_XREC_ROUNDTRIP
360
4C5
  0
DICTIONARY
  5
4D8
330
3B
100
AcDbDictionary
280
     1
281
     1
  3
ACAD_XREC_ROUNDTRIP
360
4D9
  0
DICTIONARY
  5
4D2
330
38
100
AcDbDictionary
280
     1
281
     1
  3
ACAD_XREC_ROUNDTRIP
360
4D3
  0
DICTIONARY
  5
4DA
330
3C
100
AcDbDictionary
280
     1
281
     1
  3
ACAD_XREC_ROUNDTRIP
360
4DB
  0
DICTIONARY
  5
4C8
330
33
100
AcDbDictionary
280
     1
281
     1
  3
ACAD_XREC_ROUNDTRIP
360
4C9
  0
DICTIONARY
  5
4E6
330
42
100
AcDbDictionary
280
     1
281
     1
  3
ACAD_XREC_ROUNDTRIP
360
4E7
  0
DICTIONARY
  5
4E4
330
41
100
AcDbDictionary
280
     1
281
     1
  3
ACAD_XREC_ROUNDTRIP
360
4E5
  0
DICTIONARY
  5
4DE
330
3E
100
AcDbDictionary
280
     1
281
     1
  3
ACAD_XREC_ROUNDTRIP
360
4DF
  0
DICTIONARY
  5
4E0
330
3F
100
AcDbDictionary
280
     1
281
     1
  3
ACAD_XREC_ROUNDTRIP
360
4E1
  0
DICTIONARY
  5
4D0
330
37
100
AcDbDictionary
280
     1
281
     1
  3
ACAD_XREC_ROUNDTRIP
360
4D1
  0
DICTIONARY
  5
4C2
330
30
100
AcDbDictionary
280
     1
281
     1
  3
ACAD_XREC_ROUNDTRIP
360
4C3
  0
DICTIONARY
  5
4E2
330
40
100
AcDbDictionary
280
     1
281
     1
  3
ACAD_XREC_ROUNDTRIP
360
4E3
  0
XRECORD
  5
4EC
102
{ACAD_REACTORS
330
4EB
102
}
330
4EB
100
AcDbXrecord
280
     1
102
ACAD_ROUNDTRIP_2010_MLEADER_STYLE
  0
CELLSTYLEMAP
  5
4E9
102
{ACAD_REACTORS
330
4E8
102
}
330
4E8
100
AcDbCellStyleMap
 90
        3
300
CELLSTYLE
  1
TABLEFORMAT_BEGIN
 90
        5
170
     1
 91
        0
 92
    32768
 62
   257
 93
        1
300
CONTENTFORMAT
  1
CONTENTFORMAT_BEGIN
 90
        0
 91
        0
 92
        4
 93
        0
300

 40
0.0
140
1.0
 94
        5
 62
     0
340
11
144
0.25
309
CONTENTFORMAT_END
171
     1
301
MARGIN
  1
CELLMARGIN_BEGIN
 40
0.06
 40
0.06
 40
0.06
 40
0.06
 40
0.06
 40
0.06
309
CELLMARGIN_END
 94
        6
 95
        1
302
GRIDFORMAT
  1
GRIDFORMAT_BEGIN
 90
        0
 91
        1
 62
     0
 92
       -2
340
14
 93
        0
 40
0.045
309
GRIDFORMAT_END
 95
        2
302
GRIDFORMAT
  1
GRIDFORMAT_BEGIN
 90
        0
 91
        1
 62
     0
 92
       -2
340
14
 93
        0
 40
0.045
309
GRIDFORMAT_END
 95
        4
302
GRIDFORMAT
  1
GRIDFORMAT_BEGIN
 90
        0
 91
        1
 62
     0
 92
       -2
340
14
 93
        0
 40
0.045
309
GRIDFORMAT_END
 95
        8
302
GRIDFORMAT
  1
GRIDFORMAT_BEGIN
 90
        0
 91
        1
 62
     0
 92
       -2
340
14
 93
        0
 40
0.045
309
GRIDFORMAT_END
 95
       16
302
GRIDFORMAT
  1
GRIDFORMAT_BEGIN
 90
        0
 91
        1
 62
     0
 92
       -2
340
14
 93
        0
 40
0.045
309
GRIDFORMAT_END
 95
       32
302
GRIDFORMAT
  1
GRIDFORMAT_BEGIN
 90
        0
 91
        1
 62
     0
 92
       -2
340
14
 93
        0
 40
0.045
309
GRIDFORMAT_END
309
TABLEFORMAT_END
  1
CELLSTYLE_BEGIN
 90
        1
 91
        1
300
_TITLE
309
CELLSTYLE_END
300
CELLSTYLE
  1
TABLEFORMAT_BEGIN
 90
        5
170
     1
 91
        0
 92
        0
 62
   257
 93
        1
300
CONTENTFORMAT
  1
CONTENTFORMAT_BEGIN
 90
        0
 91
        0
 92
        4
 93
        0
300

 40
0.0
140
1.0
 94
        5
 62
     0
340
11
144
0.18
309
CONTENTFORMAT_END
171
     1
301
MARGIN
  1
CELLMARGIN_BEGIN
 40
0.06
 40
0.06
 40
0.06
 40
0.06
 40
0.06
 40
0.06
309
CELLMARGIN_END
 94
        6
 95
        1
302
GRIDFORMAT
  1
GRIDFORMAT_BEGIN
 90
        0
 91
        1
 62
     0
 92
       -2
340
14
 93
        0
 40
0.045
309
GRIDFORMAT_END
 95
        2
302
GRIDFORMAT
  1
GRIDFORMAT_BEGIN
 90
        0
 91
        1
 62
     0
 92
       -2
340
14
 93
        0
 40
0.045
309
GRIDFORMAT_END
 95
        4
302
GRIDFORMAT
  1
GRIDFORMAT_BEGIN
 90
        0
 91
        1
 62
     0
 92
       -2
340
14
 93
        0
 40
0.045
309
GRIDFORMAT_END
 95
        8
302
GRIDFORMAT
  1
GRIDFORMAT_BEGIN
 90
        0
 91
        1
 62
     0
 92
       -2
340
14
 93
        0
 40
0.045
309
GRIDFORMAT_END
 95
       16
302
GRIDFORMAT
  1
GRIDFORMAT_BEGIN
 90
        0
 91
        1
 62
     0
 92
       -2
340
14
 93
        0
 40
0.045
309
GRIDFORMAT_END
 95
       32
302
GRIDFORMAT
  1
GRIDFORMAT_BEGIN
 90
        0
 91
        1
 62
     0
 92
       -2
340
14
 93
        0
 40
0.045
309
GRIDFORMAT_END
309
TABLEFORMAT_END
  1
CELLSTYLE_BEGIN
 90
        2
 91
        1
300
_HEADER
309
CELLSTYLE_END
300
CELLSTYLE
  1
TABLEFORMAT_BEGIN
 90
        5
170
     1
 91
        0
 92
        0
 62
   257
 93
        1
300
CONTENTFORMAT
  1
CONTENTFORMAT_BEGIN
 90
        0
 91
        0
 92
        4
 93
        0
300

 40
0.0
140
1.0
 94
        2
 62
     0
340
11
144
0.18
309
CONTENTFORMAT_END
171
     1
301
MARGIN
  1
CELLMARGIN_BEGIN
 40
0.06
 40
0.06
 40
0.06
 40
0.06
 40
0.06
 40
0.06
309
CELLMARGIN_END
 94
        6
 95
        1
302
GRIDFORMAT
  1
GRIDFORMAT_BEGIN
 90
        0
 91
        1
 62
     0
 92
       -2
340
14
 93
        0
 40
0.045
309
GRIDFORMAT_END
 95
        2
302
GRIDFORMAT
  1
GRIDFORMAT_BEGIN
 90
        0
 91
        1
 62
     0
 92
       -2
340
14
 93
        0
 40
0.045
309
GRIDFORMAT_END
 95
        4
302
GRIDFORMAT
  1
GRIDFORMAT_BEGIN
 90
        0
 91
        1
 62
     0
 92
       -2
340
14
 93
        0
 40
0.045
309
GRIDFORMAT_END
 95
        8
302
GRIDFORMAT
  1
GRIDFORMAT_BEGIN
 90
        0
 91
        1
 62
     0
 92
       -2
340
14
 93
        0
 40
0.045
309
GRIDFORMAT_END
 95
       16
302
GRIDFORMAT
  1
GRIDFORMAT_BEGIN
 90
        0
 91
        1
 62
     0
 92
       -2
340
14
 93
        0
 40
0.045
309
GRIDFORMAT_END
 95
       32
302
GRIDFORMAT
  1
GRIDFORMAT_BEGIN
 90
        0
 91
        1
 62
     0
 92
       -2
340
14
 93
        0
 40
0.045
309
GRIDFORMAT_END
309
TABLEFORMAT_END
  1
CELLSTYLE_BEGIN
 90
        3
 91
        2
300
_DATA
309
CELLSTYLE_END
  0
XRECORD
  5
4C1
102
{ACAD_REACTORS
330
4C0
102
}
330
4C0
100
AcDbXrecord
280
     1
102
RTVSPropertyOp0
 70
     1
102
RTVSPropertyOp1
 70
     1
102
RTVSPropertyOp2
 70
     1
102
RTVSPropertyOp3
 70
     1
102
RTVSPropertyOp4
 70
     1
102
RTVSPropertyOp5
 70
     1
102
RTVSPropertyOp6
 70
     1
102
RTVSPropertyOp7
 70
     1
102
RTVSPropertyOp8
 70
     1
102
RTVSPropertyOp9
 70
     1
102
RTVSPropertyOp10
 70
     1
102
RTVSPropertyOp11
 70
     1
102
RTVSPropertyOp12
 70
     1
102
RTVSPropertyOp13
 70
     1
102
RTVSPropertyOp14
 70
     1
102
RTVSPropertyOp15
 70
     1
102
RTVSPropertyOp16
 70
     1
102
RTVSPropertyOp17
 70
     1
102
RTVSPropertyOp18
 70
     1
102
RTVSPropertyOp19
 70
     1
102
RTVSPropertyOp20
 70
     1
102
RTVSPropertyOp21
 70
     1
102
RTVSPropertyOp22
 70
     1
102
RTVSPropertyOp23
 70
     1
102
RTVSPropertyOp24
 70
     1
102
RTVSPropertyOp25
 70
     1
102
RTVSPropertyOp26
 70
     1
102
RTVSPropertyOp27
 70
     1
102
RTVSPropertyOp28
 70
     1
102
RTVSPropertyOp29
 70
     1
102
RTVSPropertyOp30
 70
     1
102
RTVSPropertyOp31
 70
     1
102
RTVSPropertyOp32
 70
     1
102
RTVSPropertyOp33
 70
     1
102
RTVSPropertyOp34
 70
     1
102
RTVSPropertyOp35
 70
     1
102
RTVSPropertyOp36
 70
     1
102
RTVSPropertyOp37
 70
     1
102
RTVSPropertyOp38
 70
     1
102
RTVSPropertyOp39
 70
     1
102
RTVSPropertyOp40
 70
     1
102
RTVSPropertyOp41
 70
     1
102
RTVSPropertyOp42
 70
     1
102
RTVSPropertyOp43
 70
     1
102
RTVSPropertyOp44
 70
     1
102
RTVSPropertyOp45
 70
     1
102
RTVSPropertyOp46
 70
     1
102
RTVSPropertyOp47
 70
     1
102
RTVSPropertyOp48
 70
     1
102
RTVSPropertyOp49
 70
     1
102
RTVSPropertyOp50
 70
     1
102
RTVSPropertyOp51
 70
     0
102
RTVSPropertyOp52
 70
     0
102
RTVSPropertyOp53
 70
     1
102
RTVSPropertyOp54
 70
     1
102
RTVSPropertyOp55
 70
     1
102
RTVSPropertyOp56
 70
     1
102
RTVSPropertyOp57
 70
     1
102
RTVSPost2010Prop28
280
     1
102
RTVSPost2010PropOp28
 70
     1
102
RTVSPost2010Prop29
280
     1
102
RTVSPost2010PropOp29
 70
     1
102
RTVSPost2010Prop30
280
     0
102
RTVSPost2010PropOp30
 70
     1
102
RTVSPost2010Prop31
280
     0
102
RTVSPost2010PropOp31
 70
     1
102
RTVSPost2010Prop32
280
     0
102
RTVSPost2010PropOp32
 70
     1
102
RTVSPost2010Prop33
280
     0
102
RTVSPost2010PropOp33
 70
     1
102
RTVSPost2010Prop34
280
     0
102
RTVSPost2010PropOp34
 70
     1
102
RTVSPost2010Prop35
280
     0
102
RTVSPost2010PropOp35
 70
     1
102
RTVSPost2010Prop36
280
     0
102
RTVSPost2010PropOp36
 70
     1
102
RTVSPost2010Prop37
 90
       50
102
RTVSPost2010PropOp37
 70
     1
102
RTVSPost2010Prop38
140
0.0
102
RTVSPost2010PropOp38
 70
     1
102
RTVSPost2010Prop39
140
1.0
102
RTVSPost2010PropOp39
 70
     1
102
RTVSPost2010Prop40
 90
        0
102
RTVSPost2010PropOp40
 70
     1
102
RTVSPost2010Prop41ColorIndex
 90
       18
102
RTVSPost2010Prop41ColorRGB
 90
        0
102
RTVSPost2010PropOp41
 70
     1
102
RTVSPost2010Prop42
 90
       50
102
RTVSPost2010PropOp42
 70
     1
102
RTVSPost2010Prop43
 90
        3
102
RTVSPost2010PropOp43
 70
     1
102
RTVSPost2010Prop44ColorIndex
 90
        5
102
RTVSPost2010Prop44ColorRGB
 90
      255
102
RTVSPost2010PropOp44
 70
     1
102
RTVSPost2010Prop45
280
     0
102
RTVSPost2010PropOp45
 70
     1
102
RTVSPost2010Prop46
 90
       50
102
RTVSPost2010PropOp46
 70
     1
102
RTVSPost2010Prop47
 90
       50
102
RTVSPost2010PropOp47
 70
     1
102
RTVSPost2010Prop48
 90
       50
102
RTVSPost2010PropOp48
 70
     1
102
RTVSPost2010Prop49
280
     0
102
RTVSPost2010PropOp49
 70
     1
102
RTVSPost2010Prop50
 90
       50
102
RTVSPost2010PropOp50
 70
     1
102
RTVSPost2010Prop51ColorIndex
 90
      256
102
RTVSPost2010Prop51ColorRGB
 90
-16777216
102
RTVSPost2010PropOp51
 70
     0
102
RTVSPost2010Prop52
140
1.0
102
RTVSPost2010PropOp52
 70
     0
102
RTVSPost2010Prop53
 90
        2
102
RTVSPost2010PropOp53
 70
     1
102
RTVSPost2010Prop54
  1
strokes_ogs.tif
102
RTVSPost2010PropOp54
 70
     1
102
RTVSPost2010Prop55
280
     0
102
RTVSPost2010PropOp55
 70
     1
102
RTVSPost2010Prop56
140
1.0
102
RTVSPost2010PropOp56
 70
     1
102
RTVSPost2010Prop57
140
1.0
102
RTVSPost2010PropOp57
 70
     1
  0
XRECORD
  5
4C7
102
{ACAD_REACTORS
330
4C6
102
}
330
4C6
100
AcDbXrecord
280
     1
102
RTVSPropertyOp0
 70
     1
102
RTVSPropertyOp1
 70
     1
102
RTVSPropertyOp2
 70
     1
102
RTVSPropertyOp3
 70
     1
102
RTVSPropertyOp4
 70
     1
102
RTVSPropertyOp5
 70
     1
102
RTVSPropertyOp6
 70
     1
102
RTVSPropertyOp7
 70
     1
102
RTVSPropertyOp8
 70
     1
102
RTVSPropertyOp9
 70
     1
102
RTVSPropertyOp10
 70
     1
102
RTVSPropertyOp11
 70
     1
102
RTVSPropertyOp12
 70
     1
102
RTVSPropertyOp13
 70
     1
102
RTVSPropertyOp14
 70
     1
102
RTVSPropertyOp15
 70
     1
102
RTVSPropertyOp16
 70
     1
102
RTVSPropertyOp17
 70
     1
102
RTVSPropertyOp18
 70
     1
102
RTVSPropertyOp19
 70
     1
102
RTVSPropertyOp20
 70
     1
102
RTVSPropertyOp21
 70
     1
102
RTVSPropertyOp22
 70
     1
102
RTVSPropertyOp23
 70
     1
102
RTVSPropertyOp24
 70
     1
102
RTVSPropertyOp25
 70
     1
102
RTVSPropertyOp26
 70
     1
102
RTVSPropertyOp27
 70
     1
102
RTVSPropertyOp28
 70
     1
102
RTVSPropertyOp29
 70
     1
102
RTVSPropertyOp30
 70
     1
102
RTVSPropertyOp31
 70
     1
102
RTVSPropertyOp32
 70
     1
102
RTVSPropertyOp33
 70
     1
102
RTVSPropertyOp34
 70
     1
102
RTVSPropertyOp35
 70
     1
102
RTVSPropertyOp36
 70
     1
102
RTVSPropertyOp37
 70
     1
102
RTVSPropertyOp38
 70
     1
102
RTVSPropertyOp39
 70
     1
102
RTVSPropertyOp40
 70
     1
102
RTVSPropertyOp41
 70
     1
102
RTVSPropertyOp42
 70
     1
102
RTVSPropertyOp43
 70
     1
102
RTVSPropertyOp44
 70
     1
102
RTVSPropertyOp45
 70
     1
102
RTVSPropertyOp46
 70
     1
102
RTVSPropertyOp47
 70
     1
102
RTVSPropertyOp48
 70
     1
102
RTVSPropertyOp49
 70
     1
102
RTVSPropertyOp50
 70
     1
102
RTVSPropertyOp51
 70
     0
102
RTVSPropertyOp52
 70
     0
102
RTVSPropertyOp53
 70
     1
102
RTVSPropertyOp54
 70
     1
102
RTVSPropertyOp55
 70
     1
102
RTVSPropertyOp56
 70
     1
102
RTVSPropertyOp57
 70
     1
102
RTVSPost2010Prop28
280
     0
102
RTVSPost2010PropOp28
 70
     1
102
RTVSPost2010Prop29
280
     1
102
RTVSPost2010PropOp29
 70
     1
102
RTVSPost2010Prop30
280
     1
102
RTVSPost2010PropOp30
 70
     1
102
RTVSPost2010Prop31
280
     0
102
RTVSPost2010PropOp31
 70
     1
102
RTVSPost2010Prop32
280
     0
102
RTVSPost2010PropOp32
 70
     1
102
RTVSPost2010Prop33
280
     0
102
RTVSPost2010PropOp33
 70
     1
102
RTVSPost2010Prop34
280
     0
102
RTVSPost2010PropOp34
 70
     1
102
RTVSPost2010Prop35
280
     0
102
RTVSPost2010PropOp35
 70
     1
102
RTVSPost2010Prop36
280
     0
102
RTVSPost2010PropOp36
 70
     1
102
RTVSPost2010Prop37
 90
       50
102
RTVSPost2010PropOp37
 70
     1
102
RTVSPost2010Prop38
140
0.0
102
RTVSPost2010PropOp38
 70
     1
102
RTVSPost2010Prop39
140
1.0
102
RTVSPost2010PropOp39
 70
     1
102
RTVSPost2010Prop40
 90
        0
102
RTVSPost2010PropOp40
 70
     1
102
RTVSPost2010Prop41ColorIndex
 90
       18
102
RTVSPost2010Prop41ColorRGB
 90
        0
102
RTVSPost2010PropOp41
 70
     1
102
RTVSPost2010Prop42
 90
       50
102
RTVSPost2010PropOp42
 70
     1
102
RTVSPost2010Prop43
 90
        3
102
RTVSPost2010PropOp43
 70
     1
102
RTVSPost2010Prop44ColorIndex
 90
        5
102
RTVSPost2010Prop44ColorRGB
 90
      255
102
RTVSPost2010PropOp44
 70
     1
102
RTVSPost2010Prop45
280
     0
102
RTVSPost2010PropOp45
 70
     1
102
RTVSPost2010Prop46
 90
       50
102
RTVSPost2010PropOp46
 70
     1
102
RTVSPost2010Prop47
 90
       50
102
RTVSPost2010PropOp47
 70
     1
102
RTVSPost2010Prop48
 90
       50
102
RTVSPost2010PropOp48
 70
     1
102
RTVSPost2010Prop49
280
     0
102
RTVSPost2010PropOp49
 70
     1
102
RTVSPost2010Prop50
 90
       50
102
RTVSPost2010PropOp50
 70
     1
102
RTVSPost2010Prop51ColorIndex
 90
      256
102
RTVSPost2010Prop51ColorRGB
 90
-16777216
102
RTVSPost2010PropOp51
 70
     0
102
RTVSPost2010Prop52
140
1.0
102
RTVSPost2010PropOp52
 70
     0
102
RTVSPost2010Prop53
 90
        2
102
RTVSPost2010PropOp53
 70
     1
102
RTVSPost2010Prop54
  1
strokes_ogs.tif
102
RTVSPost2010PropOp54
 70
     1
102
RTVSPost2010Prop55
280
     0
102
RTVSPost2010PropOp55
 70
     1
102
RTVSPost2010Prop56
140
1.0
102
RTVSPost2010PropOp56
 70
     1
102
RTVSPost2010Prop57
140
1.0
102
RTVSPost2010PropOp57
 70
     1
  0
XRECORD
  5
4CF
102
{ACAD_REACTORS
330
4CE
102
}
330
4CE
100
AcDbXrecord
280
     1
102
RTVSPropertyOp0
 70
     1
102
RTVSPropertyOp1
 70
     1
102
RTVSPropertyOp2
 70
     1
102
RTVSPropertyOp3
 70
     1
102
RTVSPropertyOp4
 70
     1
102
RTVSPropertyOp5
 70
     1
102
RTVSPropertyOp6
 70
     1
102
RTVSPropertyOp7
 70
     1
102
RTVSPropertyOp8
 70
     1
102
RTVSPropertyOp9
 70
     1
102
RTVSPropertyOp10
 70
     1
102
RTVSPropertyOp11
 70
     1
102
RTVSPropertyOp12
 70
     1
102
RTVSPropertyOp13
 70
     1
102
RTVSPropertyOp14
 70
     1
102
RTVSPropertyOp15
 70
     1
102
RTVSPropertyOp16
 70
     1
102
RTVSPropertyOp17
 70
     1
102
RTVSPropertyOp18
 70
     1
102
RTVSPropertyOp19
 70
     1
102
RTVSPropertyOp20
 70
     1
102
RTVSPropertyOp21
 70
     1
102
RTVSPropertyOp22
 70
     1
102
RTVSPropertyOp23
 70
     1
102
RTVSPropertyOp24
 70
     1
102
RTVSPropertyOp25
 70
     1
102
RTVSPropertyOp26
 70
     1
102
RTVSPropertyOp27
 70
     1
102
RTVSPropertyOp28
 70
     1
102
RTVSPropertyOp29
 70
     1
102
RTVSPropertyOp30
 70
     1
102
RTVSPropertyOp31
 70
     1
102
RTVSPropertyOp32
 70
     1
102
RTVSPropertyOp33
 70
     1
102
RTVSPropertyOp34
 70
     1
102
RTVSPropertyOp35
 70
     1
102
RTVSPropertyOp36
 70
     1
102
RTVSPropertyOp37
 70
     1
102
RTVSPropertyOp38
 70
     1
102
RTVSPropertyOp39
 70
     1
102
RTVSPropertyOp40
 70
     1
102
RTVSPropertyOp41
 70
     1
102
RTVSPropertyOp42
 70
     1
102
RTVSPropertyOp43
 70
     1
102
RTVSPropertyOp44
 70
     1
102
RTVSPropertyOp45
 70
     1
102
RTVSPropertyOp46
 70
     1
102
RTVSPropertyOp47
 70
     1
102
RTVSPropertyOp48
 70
     1
102
RTVSPropertyOp49
 70
     1
102
RTVSPropertyOp50
 70
     1
102
RTVSPropertyOp51
 70
     0
102
RTVSPropertyOp52
 70
     0
102
RTVSPropertyOp53
 70
     1
102
RTVSPropertyOp54
 70
     1
102
RTVSPropertyOp55
 70
     1
102
RTVSPropertyOp56
 70
     1
102
RTVSPropertyOp57
 70
     1
102
RTVSPost2010Prop28
280
     0
102
RTVSPost2010PropOp28
 70
     1
102
RTVSPost2010Prop29
280
     1
102
RTVSPost2010PropOp29
 70
     1
102
RTVSPost2010Prop30
280
     1
102
RTVSPost2010PropOp30
 70
     1
102
RTVSPost2010Prop31
280
     0
102
RTVSPost2010PropOp31
 70
     1
102
RTVSPost2010Prop32
280
     0
102
RTVSPost2010PropOp32
 70
     1
102
RTVSPost2010Prop33
280
     0
102
RTVSPost2010PropOp33
 70
     1
102
RTVSPost2010Prop34
280
     0
102
RTVSPost2010PropOp34
 70
     1
102
RTVSPost2010Prop35
280
     0
102
RTVSPost2010PropOp35
 70
     1
102
RTVSPost2010Prop36
280
     0
102
RTVSPost2010PropOp36
 70
     1
102
RTVSPost2010Prop37
 90
       50
102
RTVSPost2010PropOp37
 70
     1
102
RTVSPost2010Prop38
140
0.0
102
RTVSPost2010PropOp38
 70
     1
102
RTVSPost2010Prop39
140
1.0
102
RTVSPost2010PropOp39
 70
     1
102
RTVSPost2010Prop40
 90
        0
102
RTVSPost2010PropOp40
 70
     1
102
RTVSPost2010Prop41ColorIndex
 90
       18
102
RTVSPost2010Prop41ColorRGB
 90
        0
102
RTVSPost2010PropOp41
 70
     1
102
RTVSPost2010Prop42
 90
       50
102
RTVSPost2010PropOp42
 70
     1
102
RTVSPost2010Prop43
 90
        3
102
RTVSPost2010PropOp43
 70
     1
102
RTVSPost2010Prop44ColorIndex
 90
        5
102
RTVSPost2010Prop44ColorRGB
 90
      255
102
RTVSPost2010PropOp44
 70
     1
102
RTVSPost2010Prop45
280
     0
102
RTVSPost2010PropOp45
 70
     1
102
RTVSPost2010Prop46
 90
       50
102
RTVSPost2010PropOp46
 70
     1
102
RTVSPost2010Prop47
 90
       50
102
RTVSPost2010PropOp47
 70
     1
102
RTVSPost2010Prop48
 90
       50
102
RTVSPost2010PropOp48
 70
     1
102
RTVSPost2010Prop49
280
     0
102
RTVSPost2010PropOp49
 70
     1
102
RTVSPost2010Prop50
 90
       50
102
RTVSPost2010PropOp50
 70
     1
102
RTVSPost2010Prop51ColorIndex
 90
      256
102
RTVSPost2010Prop51ColorRGB
 90
-16777216
102
RTVSPost2010PropOp51
 70
     0
102
RTVSPost2010Prop52
140
1.0
102
RTVSPost2010PropOp52
 70
     0
102
RTVSPost2010Prop53
 90
        2
102
RTVSPost2010PropOp53
 70
     1
102
RTVSPost2010Prop54
  1
strokes_ogs.tif
102
RTVSPost2010PropOp54
 70
     1
102
RTVSPost2010Prop55
280
     0
102
RTVSPost2010PropOp55
 70
     1
102
RTVSPost2010Prop56
140
1.0
102
RTVSPost2010PropOp56
 70
     1
102
RTVSPost2010Prop57
140
1.0
102
RTVSPost2010PropOp57
 70
     1
  0
XRECORD
  5
4D7
102
{ACAD_REACTORS
330
4D6
102
}
330
4D6
100
AcDbXrecord
280
     1
102
RTVSPropertyOp0
 70
     1
102
RTVSPropertyOp1
 70
     1
102
RTVSPropertyOp2
 70
     1
102
RTVSPropertyOp3
 70
     1
102
RTVSPropertyOp4
 70
     1
102
RTVSPropertyOp5
 70
     1
102
RTVSPropertyOp6
 70
     1
102
RTVSPropertyOp7
 70
     1
102
RTVSPropertyOp8
 70
     1
102
RTVSPropertyOp9
 70
     1
102
RTVSPropertyOp10
 70
     1
102
RTVSPropertyOp11
 70
     1
102
RTVSPropertyOp12
 70
     1
102
RTVSPropertyOp13
 70
     1
102
RTVSPropertyOp14
 70
     1
102
RTVSPropertyOp15
 70
     1
102
RTVSPropertyOp16
 70
     1
102
RTVSPropertyOp17
 70
     1
102
RTVSPropertyOp18
 70
     1
102
RTVSPropertyOp19
 70
     1
102
RTVSPropertyOp20
 70
     1
102
RTVSPropertyOp21
 70
     1
102
RTVSPropertyOp22
 70
     1
102
RTVSPropertyOp23
 70
     1
102
RTVSPropertyOp24
 70
     1
102
RTVSPropertyOp25
 70
     1
102
RTVSPropertyOp26
 70
     1
102
RTVSPropertyOp27
 70
     1
102
RTVSPropertyOp28
 70
     1
102
RTVSPropertyOp29
 70
     1
102
RTVSPropertyOp30
 70
     1
102
RTVSPropertyOp31
 70
     1
102
RTVSPropertyOp32
 70
     1
102
RTVSPropertyOp33
 70
     1
102
RTVSPropertyOp34
 70
     1
102
RTVSPropertyOp35
 70
     1
102
RTVSPropertyOp36
 70
     1
102
RTVSPropertyOp37
 70
     1
102
RTVSPropertyOp38
 70
     1
102
RTVSPropertyOp39
 70
     1
102
RTVSPropertyOp40
 70
     1
102
RTVSPropertyOp41
 70
     1
102
RTVSPropertyOp42
 70
     1
102
RTVSPropertyOp43
 70
     1
102
RTVSPropertyOp44
 70
     1
102
RTVSPropertyOp45
 70
     1
102
RTVSPropertyOp46
 70
     1
102
RTVSPropertyOp47
 70
     1
102
RTVSPropertyOp48
 70
     1
102
RTVSPropertyOp49
 70
     1
102
RTVSPropertyOp50
 70
     1
102
RTVSPropertyOp51
 70
     0
102
RTVSPropertyOp52
 70
     0
102
RTVSPropertyOp53
 70
     1
102
RTVSPropertyOp54
 70
     1
102
RTVSPropertyOp55
 70
     1
102
RTVSPropertyOp56
 70
     1
102
RTVSPropertyOp57
 70
     1
102
RTVSPost2010Prop28
280
     0
102
RTVSPost2010PropOp28
 70
     1
102
RTVSPost2010Prop29
280
     1
102
RTVSPost2010PropOp29
 70
     1
102
RTVSPost2010Prop30
280
     1
102
RTVSPost2010PropOp30
 70
     1
102
RTVSPost2010Prop31
280
     0
102
RTVSPost2010PropOp31
 70
     1
102
RTVSPost2010Prop32
280
     0
102
RTVSPost2010PropOp32
 70
     1
102
RTVSPost2010Prop33
280
     0
102
RTVSPost2010PropOp33
 70
     1
102
RTVSPost2010Prop34
280
     0
102
RTVSPost2010PropOp34
 70
     1
102
RTVSPost2010Prop35
280
     0
102
RTVSPost2010PropOp35
 70
     1
102
RTVSPost2010Prop36
280
     0
102
RTVSPost2010PropOp36
 70
     1
102
RTVSPost2010Prop37
 90
       50
102
RTVSPost2010PropOp37
 70
     1
102
RTVSPost2010Prop38
140
0.0
102
RTVSPost2010PropOp38
 70
     1
102
RTVSPost2010Prop39
140
1.0
102
RTVSPost2010PropOp39
 70
     1
102
RTVSPost2010Prop40
 90
        0
102
RTVSPost2010PropOp40
 70
     1
102
RTVSPost2010Prop41ColorIndex
 90
       18
102
RTVSPost2010Prop41ColorRGB
 90
        0
102
RTVSPost2010PropOp41
 70
     1
102
RTVSPost2010Prop42
 90
       50
102
RTVSPost2010PropOp42
 70
     1
102
RTVSPost2010Prop43
 90
        3
102
RTVSPost2010PropOp43
 70
     1
102
RTVSPost2010Prop44ColorIndex
 90
        5
102
RTVSPost2010Prop44ColorRGB
 90
      255
102
RTVSPost2010PropOp44
 70
     1
102
RTVSPost2010Prop45
280
     0
102
RTVSPost2010PropOp45
 70
     1
102
RTVSPost2010Prop46
 90
       50
102
RTVSPost2010PropOp46
 70
     1
102
RTVSPost2010Prop47
 90
       50
102
RTVSPost2010PropOp47
 70
     1
102
RTVSPost2010Prop48
 90
       50
102
RTVSPost2010PropOp48
 70
     1
102
RTVSPost2010Prop49
280
     0
102
RTVSPost2010PropOp49
 70
     1
102
RTVSPost2010Prop50
 90
       50
102
RTVSPost2010PropOp50
 70
     1
102
RTVSPost2010Prop51ColorIndex
 90
      256
102
RTVSPost2010Prop51ColorRGB
 90
-16777216
102
RTVSPost2010PropOp51
 70
     0
102
RTVSPost2010Prop52
140
1.0
102
RTVSPost2010PropOp52
 70
     0
102
RTVSPost2010Prop53
 90
        2
102
RTVSPost2010PropOp53
 70
     1
102
RTVSPost2010Prop54
  1
strokes_ogs.tif
102
RTVSPost2010PropOp54
 70
     1
102
RTVSPost2010Prop55
280
     0
102
RTVSPost2010PropOp55
 70
     1
102
RTVSPost2010Prop56
140
1.0
102
RTVSPost2010PropOp56
 70
     1
102
RTVSPost2010Prop57
140
1.0
102
RTVSPost2010PropOp57
 70
     1
  0
XRECORD
  5
4CB
102
{ACAD_REACTORS
330
4CA
102
}
330
4CA
100
AcDbXrecord
280
     1
102
RTVSPropertyOp0
 70
     1
102
RTVSPropertyOp1
 70
     1
102
RTVSPropertyOp2
 70
     1
102
RTVSPropertyOp3
 70
     1
102
RTVSPropertyOp4
 70
     1
102
RTVSPropertyOp5
 70
     1
102
RTVSPropertyOp6
 70
     1
102
RTVSPropertyOp7
 70
     1
102
RTVSPropertyOp8
 70
     1
102
RTVSPropertyOp9
 70
     1
102
RTVSPropertyOp10
 70
     1
102
RTVSPropertyOp11
 70
     1
102
RTVSPropertyOp12
 70
     1
102
RTVSPropertyOp13
 70
     1
102
RTVSPropertyOp14
 70
     1
102
RTVSPropertyOp15
 70
     1
102
RTVSPropertyOp16
 70
     1
102
RTVSPropertyOp17
 70
     1
102
RTVSPropertyOp18
 70
     1
102
RTVSPropertyOp19
 70
     1
102
RTVSPropertyOp20
 70
     1
102
RTVSPropertyOp21
 70
     1
102
RTVSPropertyOp22
 70
     1
102
RTVSPropertyOp23
 70
     1
102
RTVSPropertyOp24
 70
     1
102
RTVSPropertyOp25
 70
     1
102
RTVSPropertyOp26
 70
     1
102
RTVSPropertyOp27
 70
     1
102
RTVSPropertyOp28
 70
     1
102
RTVSPropertyOp29
 70
     1
102
RTVSPropertyOp30
 70
     1
102
RTVSPropertyOp31
 70
     1
102
RTVSPropertyOp32
 70
     1
102
RTVSPropertyOp33
 70
     1
102
RTVSPropertyOp34
 70
     1
102
RTVSPropertyOp35
 70
     1
102
RTVSPropertyOp36
 70
     1
102
RTVSPropertyOp37
 70
     1
102
RTVSPropertyOp38
 70
     1
102
RTVSPropertyOp39
 70
     1
102
RTVSPropertyOp40
 70
     1
102
RTVSPropertyOp41
 70
     1
102
RTVSPropertyOp42
 70
     1
102
RTVSPropertyOp43
 70
     1
102
RTVSPropertyOp44
 70
     1
102
RTVSPropertyOp45
 70
     1
102
RTVSPropertyOp46
 70
     1
102
RTVSPropertyOp47
 70
     1
102
RTVSPropertyOp48
 70
     1
102
RTVSPropertyOp49
 70
     1
102
RTVSPropertyOp50
 70
     1
102
RTVSPropertyOp51
 70
     0
102
RTVSPropertyOp52
 70
     0
102
RTVSPropertyOp53
 70
     1
102
RTVSPropertyOp54
 70
     1
102
RTVSPropertyOp55
 70
     1
102
RTVSPropertyOp56
 70
     1
102
RTVSPropertyOp57
 70
     1
102
RTVSPost2010Prop28
280
     0
102
RTVSPost2010PropOp28
 70
     1
102
RTVSPost2010Prop29
280
     1
102
RTVSPost2010PropOp29
 70
     1
102
RTVSPost2010Prop30
280
     1
102
RTVSPost2010PropOp30
 70
     1
102
RTVSPost2010Prop31
280
     0
102
RTVSPost2010PropOp31
 70
     1
102
RTVSPost2010Prop32
280
     0
102
RTVSPost2010PropOp32
 70
     1
102
RTVSPost2010Prop33
280
     0
102
RTVSPost2010PropOp33
 70
     1
102
RTVSPost2010Prop34
280
     0
102
RTVSPost2010PropOp34
 70
     1
102
RTVSPost2010Prop35
280
     0
102
RTVSPost2010PropOp35
 70
     1
102
RTVSPost2010Prop36
280
     0
102
RTVSPost2010PropOp36
 70
     1
102
RTVSPost2010Prop37
 90
       50
102
RTVSPost2010PropOp37
 70
     1
102
RTVSPost2010Prop38
140
0.0
102
RTVSPost2010PropOp38
 70
     1
102
RTVSPost2010Prop39
140
1.0
102
RTVSPost2010PropOp39
 70
     1
102
RTVSPost2010Prop40
 90
        0
102
RTVSPost2010PropOp40
 70
     1
102
RTVSPost2010Prop41ColorIndex
 90
       18
102
RTVSPost2010Prop41ColorRGB
 90
        0
102
RTVSPost2010PropOp41
 70
     1
102
RTVSPost2010Prop42
 90
       50
102
RTVSPost2010PropOp42
 70
     1
102
RTVSPost2010Prop43
 90
        3
102
RTVSPost2010PropOp43
 70
     1
102
RTVSPost2010Prop44ColorIndex
 90
        5
102
RTVSPost2010Prop44ColorRGB
 90
      255
102
RTVSPost2010PropOp44
 70
     1
102
RTVSPost2010Prop45
280
     0
102
RTVSPost2010PropOp45
 70
     1
102
RTVSPost2010Prop46
 90
       50
102
RTVSPost2010PropOp46
 70
     1
102
RTVSPost2010Prop47
 90
       50
102
RTVSPost2010PropOp47
 70
     1
102
RTVSPost2010Prop48
 90
       50
102
RTVSPost2010PropOp48
 70
     1
102
RTVSPost2010Prop49
280
     0
102
RTVSPost2010PropOp49
 70
     1
102
RTVSPost2010Prop50
 90
       50
102
RTVSPost2010PropOp50
 70
     1
102
RTVSPost2010Prop51ColorIndex
 90
      256
102
RTVSPost2010Prop51ColorRGB
 90
-16777216
102
RTVSPost2010PropOp51
 70
     0
102
RTVSPost2010Prop52
140
1.0
102
RTVSPost2010PropOp52
 70
     0
102
RTVSPost2010Prop53
 90
        2
102
RTVSPost2010PropOp53
 70
     1
102
RTVSPost2010Prop54
  1
strokes_ogs.tif
102
RTVSPost2010PropOp54
 70
     1
102
RTVSPost2010Prop55
280
     0
102
RTVSPost2010PropOp55
 70
     1
102
RTVSPost2010Prop56
140
1.0
102
RTVSPost2010PropOp56
 70
     1
102
RTVSPost2010Prop57
140
1.0
102
RTVSPost2010PropOp57
 70
     1
  0
XRECORD
  5
4CD
102
{ACAD_REACTORS
330
4CC
102
}
330
4CC
100
AcDbXrecord
280
     1
102
RTVSPropertyOp0
 70
     1
102
RTVSPropertyOp1
 70
     1
102
RTVSPropertyOp2
 70
     1
102
RTVSPropertyOp3
 70
     1
102
RTVSPropertyOp4
 70
     1
102
RTVSPropertyOp5
 70
     1
102
RTVSPropertyOp6
 70
     1
102
RTVSPropertyOp7
 70
     1
102
RTVSPropertyOp8
 70
     1
102
RTVSPropertyOp9
 70
     1
102
RTVSPropertyOp10
 70
     1
102
RTVSPropertyOp11
 70
     1
102
RTVSPropertyOp12
 70
     1
102
RTVSPropertyOp13
 70
     1
102
RTVSPropertyOp14
 70
     1
102
RTVSPropertyOp15
 70
     1
102
RTVSPropertyOp16
 70
     1
102
RTVSPropertyOp17
 70
     1
102
RTVSPropertyOp18
 70
     1
102
RTVSPropertyOp19
 70
     1
102
RTVSPropertyOp20
 70
     1
102
RTVSPropertyOp21
 70
     1
102
RTVSPropertyOp22
 70
     1
102
RTVSPropertyOp23
 70
     1
102
RTVSPropertyOp24
 70
     1
102
RTVSPropertyOp25
 70
     1
102
RTVSPropertyOp26
 70
     1
102
RTVSPropertyOp27
 70
     1
102
RTVSPropertyOp28
 70
     1
102
RTVSPropertyOp29
 70
     1
102
RTVSPropertyOp30
 70
     1
102
RTVSPropertyOp31
 70
     1
102
RTVSPropertyOp32
 70
     1
102
RTVSPropertyOp33
 70
     1
102
RTVSPropertyOp34
 70
     1
102
RTVSPropertyOp35
 70
     1
102
RTVSPropertyOp36
 70
     1
102
RTVSPropertyOp37
 70
     1
102
RTVSPropertyOp38
 70
     1
102
RTVSPropertyOp39
 70
     1
102
RTVSPropertyOp40
 70
     1
102
RTVSPropertyOp41
 70
     1
102
RTVSPropertyOp42
 70
     1
102
RTVSPropertyOp43
 70
     1
102
RTVSPropertyOp44
 70
     1
102
RTVSPropertyOp45
 70
     1
102
RTVSPropertyOp46
 70
     1
102
RTVSPropertyOp47
 70
     1
102
RTVSPropertyOp48
 70
     1
102
RTVSPropertyOp49
 70
     1
102
RTVSPropertyOp50
 70
     1
102
RTVSPropertyOp51
 70
     0
102
RTVSPropertyOp52
 70
     0
102
RTVSPropertyOp53
 70
     1
102
RTVSPropertyOp54
 70
     1
102
RTVSPropertyOp55
 70
     1
102
RTVSPropertyOp56
 70
     1
102
RTVSPropertyOp57
 70
     1
102
RTVSPost2010Prop28
280
     0
102
RTVSPost2010PropOp28
 70
     1
102
RTVSPost2010Prop29
280
     1
102
RTVSPost2010PropOp29
 70
     1
102
RTVSPost2010Prop30
280
     1
102
RTVSPost2010PropOp30
 70
     1
102
RTVSPost2010Prop31
280
     0
102
RTVSPost2010PropOp31
 70
     1
102
RTVSPost2010Prop32
280
     0
102
RTVSPost2010PropOp32
 70
     1
102
RTVSPost2010Prop33
280
     0
102
RTVSPost2010PropOp33
 70
     1
102
RTVSPost2010Prop34
280
     0
102
RTVSPost2010PropOp34
 70
     1
102
RTVSPost2010Prop35
280
     0
102
RTVSPost2010PropOp35
 70
     1
102
RTVSPost2010Prop36
280
     0
102
RTVSPost2010PropOp36
 70
     1
102
RTVSPost2010Prop37
 90
       50
102
RTVSPost2010PropOp37
 70
     1
102
RTVSPost2010Prop38
140
0.0
102
RTVSPost2010PropOp38
 70
     1
102
RTVSPost2010Prop39
140
1.0
102
RTVSPost2010PropOp39
 70
     1
102
RTVSPost2010Prop40
 90
        0
102
RTVSPost2010PropOp40
 70
     1
102
RTVSPost2010Prop41ColorIndex
 90
       18
102
RTVSPost2010Prop41ColorRGB
 90
        0
102
RTVSPost2010PropOp41
 70
     1
102
RTVSPost2010Prop42
 90
       50
102
RTVSPost2010PropOp42
 70
     1
102
RTVSPost2010Prop43
 90
        3
102
RTVSPost2010PropOp43
 70
     1
102
RTVSPost2010Prop44ColorIndex
 90
        5
102
RTVSPost2010Prop44ColorRGB
 90
      255
102
RTVSPost2010PropOp44
 70
     1
102
RTVSPost2010Prop45
280
     0
102
RTVSPost2010PropOp45
 70
     1
102
RTVSPost2010Prop46
 90
       50
102
RTVSPost2010PropOp46
 70
     1
102
RTVSPost2010Prop47
 90
       50
102
RTVSPost2010PropOp47
 70
     1
102
RTVSPost2010Prop48
 90
       50
102
RTVSPost2010PropOp48
 70
     1
102
RTVSPost2010Prop49
280
     0
102
RTVSPost2010PropOp49
 70
     1
102
RTVSPost2010Prop50
 90
       50
102
RTVSPost2010PropOp50
 70
     1
102
RTVSPost2010Prop51ColorIndex
 90
      256
102
RTVSPost2010Prop51ColorRGB
 90
-16777216
102
RTVSPost2010PropOp51
 70
     0
102
RTVSPost2010Prop52
140
1.0
102
RTVSPost2010PropOp52
 70
     0
102
RTVSPost2010Prop53
 90
        2
102
RTVSPost2010PropOp53
 70
     1
102
RTVSPost2010Prop54
  1
strokes_ogs.tif
102
RTVSPost2010PropOp54
 70
     1
102
RTVSPost2010Prop55
280
     0
102
RTVSPost2010PropOp55
 70
     1
102
RTVSPost2010Prop56
140
1.0
102
RTVSPost2010PropOp56
 70
     1
102
RTVSPost2010Prop57
140
1.0
102
RTVSPost2010PropOp57
 70
     1
  0
XRECORD
  5
4DD
102
{ACAD_REACTORS
330
4DC
102
}
330
4DC
100
AcDbXrecord
280
     1
102
RTVSPropertyOp0
 70
     0
102
RTVSPropertyOp1
 70
     0
102
RTVSPropertyOp2
 70
     0
102
RTVSPropertyOp3
 70
     0
102
RTVSPropertyOp4
 70
     0
102
RTVSPropertyOp5
 70
     0
102
RTVSPropertyOp6
 70
     0
102
RTVSPropertyOp7
 70
     0
102
RTVSPropertyOp8
 70
     0
102
RTVSPropertyOp9
 70
     0
102
RTVSPropertyOp10
 70
     0
102
RTVSPropertyOp11
 70
     0
102
RTVSPropertyOp12
 70
     0
102
RTVSPropertyOp13
 70
     0
102
RTVSPropertyOp14
 70
     2
102
RTVSPropertyOp15
 70
     0
102
RTVSPropertyOp16
 70
     0
102
RTVSPropertyOp17
 70
     0
102
RTVSPropertyOp18
 70
     0
102
RTVSPropertyOp19
 70
     0
102
RTVSPropertyOp20
 70
     0
102
RTVSPropertyOp21
 70
     0
102
RTVSPropertyOp22
 70
     0
102
RTVSPropertyOp23
 70
     0
102
RTVSPropertyOp24
 70
     0
102
RTVSPropertyOp25
 70
     0
102
RTVSPropertyOp26
 70
     0
102
RTVSPropertyOp27
 70
     0
102
RTVSPropertyOp28
 70
     0
102
RTVSPropertyOp29
 70
     0
102
RTVSPropertyOp30
 70
     0
102
RTVSPropertyOp31
 70
     0
102
RTVSPropertyOp32
 70
     0
102
RTVSPropertyOp33
 70
     0
102
RTVSPropertyOp34
 70
     0
102
RTVSPropertyOp35
 70
     0
102
RTVSPropertyOp36
 70
     0
102
RTVSPropertyOp37
 70
     0
102
RTVSPropertyOp38
 70
     0
102
RTVSPropertyOp39
 70
     0
102
RTVSPropertyOp40
 70
     0
102
RTVSPropertyOp41
 70
     0
102
RTVSPropertyOp42
 70
     0
102
RTVSPropertyOp43
 70
     0
102
RTVSPropertyOp44
 70
     0
102
RTVSPropertyOp45
 70
     0
102
RTVSPropertyOp46
 70
     0
102
RTVSPropertyOp47
 70
     0
102
RTVSPropertyOp48
 70
     0
102
RTVSPropertyOp49
 70
     0
102
RTVSPropertyOp50
 70
     0
102
RTVSPropertyOp51
 70
     0
102
RTVSPropertyOp52
 70
     0
102
RTVSPropertyOp53
 70
     0
102
RTVSPropertyOp54
 70
     0
102
RTVSPropertyOp55
 70
     0
102
RTVSPropertyOp56
 70
     0
102
RTVSPropertyOp57
 70
     0
102
RTVSPost2010Prop28
280
     0
102
RTVSPost2010PropOp28
 70
     0
102
RTVSPost2010Prop29
280
     1
102
RTVSPost2010PropOp29
 70
     0
102
RTVSPost2010Prop30
280
     1
102
RTVSPost2010PropOp30
 70
     0
102
RTVSPost2010Prop31
280
     0
102
RTVSPost2010PropOp31
 70
     0
102
RTVSPost2010Prop32
280
     0
102
RTVSPost2010PropOp32
 70
     0
102
RTVSPost2010Prop33
280
     0
102
RTVSPost2010PropOp33
 70
     0
102
RTVSPost2010Prop34
280
     0
102
RTVSPost2010PropOp34
 70
     0
102
RTVSPost2010Prop35
280
     0
102
RTVSPost2010PropOp35
 70
     0
102
RTVSPost2010Prop36
280
     0
102
RTVSPost2010PropOp36
 70
     0
102
RTVSPost2010Prop37
 90
       50
102
RTVSPost2010PropOp37
 70
     0
102
RTVSPost2010Prop38
140
0.0
102
RTVSPost2010PropOp38
 70
     0
102
RTVSPost2010Prop39
140
1.0
102
RTVSPost2010PropOp39
 70
     0
102
RTVSPost2010Prop40
 90
        0
102
RTVSPost2010PropOp40
 70
     0
102
RTVSPost2010Prop41ColorIndex
 90
       18
102
RTVSPost2010Prop41ColorRGB
 90
        0
102
RTVSPost2010PropOp41
 70
     0
102
RTVSPost2010Prop42
 90
       50
102
RTVSPost2010PropOp42
 70
     0
102
RTVSPost2010Prop43
 90
        3
102
RTVSPost2010PropOp43
 70
     0
102
RTVSPost2010Prop44ColorIndex
 90
        5
102
RTVSPost2010Prop44ColorRGB
 90
      255
102
RTVSPost2010PropOp44
 70
     0
102
RTVSPost2010Prop45
280
     0
102
RTVSPost2010PropOp45
 70
     0
102
RTVSPost2010Prop46
 90
       50
102
RTVSPost2010PropOp46
 70
     0
102
RTVSPost2010Prop47
 90
       50
102
RTVSPost2010PropOp47
 70
     0
102
RTVSPost2010Prop48
 90
       50
102
RTVSPost2010PropOp48
 70
     0
102
RTVSPost2010Prop49
280
     0
102
RTVSPost2010PropOp49
 70
     0
102
RTVSPost2010Prop50
 90
       50
102
RTVSPost2010PropOp50
 70
     0
102
RTVSPost2010Prop51ColorIndex
 90
      256
102
RTVSPost2010Prop51ColorRGB
 90
-16777216
102
RTVSPost2010PropOp51
 70
     0
102
RTVSPost2010Prop52
140
1.0
102
RTVSPost2010PropOp52
 70
     0
102
RTVSPost2010Prop53
 90
        2
102
RTVSPost2010PropOp53
 70
     0
102
RTVSPost2010Prop54
  1
strokes_ogs.tif
102
RTVSPost2010PropOp54
 70
     0
102
RTVSPost2010Prop55
280
     0
102
RTVSPost2010PropOp55
 70
     0
102
RTVSPost2010Prop56
140
1.0
102
RTVSPost2010PropOp56
 70
     0
102
RTVSPost2010Prop57
140
1.0
102
RTVSPost2010PropOp57
 70
     0
  0
XRECORD
  5
4D5
102
{ACAD_REACTORS
330
4D4
102
}
330
4D4
100
AcDbXrecord
280
     1
102
RTVSPropertyOp0
 70
     1
102
RTVSPropertyOp1
 70
     1
102
RTVSPropertyOp2
 70
     1
102
RTVSPropertyOp3
 70
     1
102
RTVSPropertyOp4
 70
     1
102
RTVSPropertyOp5
 70
     1
102
RTVSPropertyOp6
 70
     1
102
RTVSPropertyOp7
 70
     1
102
RTVSPropertyOp8
 70
     1
102
RTVSPropertyOp9
 70
     1
102
RTVSPropertyOp10
 70
     1
102
RTVSPropertyOp11
 70
     1
102
RTVSPropertyOp12
 70
     1
102
RTVSPropertyOp13
 70
     1
102
RTVSPropertyOp14
 70
     1
102
RTVSPropertyOp15
 70
     1
102
RTVSPropertyOp16
 70
     1
102
RTVSPropertyOp17
 70
     1
102
RTVSPropertyOp18
 70
     1
102
RTVSPropertyOp19
 70
     1
102
RTVSPropertyOp20
 70
     1
102
RTVSPropertyOp21
 70
     1
102
RTVSPropertyOp22
 70
     1
102
RTVSPropertyOp23
 70
     1
102
RTVSPropertyOp24
 70
     1
102
RTVSPropertyOp25
 70
     1
102
RTVSPropertyOp26
 70
     1
102
RTVSPropertyOp27
 70
     1
102
RTVSPropertyOp28
 70
     1
102
RTVSPropertyOp29
 70
     1
102
RTVSPropertyOp30
 70
     1
102
RTVSPropertyOp31
 70
     1
102
RTVSPropertyOp32
 70
     1
102
RTVSPropertyOp33
 70
     1
102
RTVSPropertyOp34
 70
     1
102
RTVSPropertyOp35
 70
     1
102
RTVSPropertyOp36
 70
     1
102
RTVSPropertyOp37
 70
     1
102
RTVSPropertyOp38
 70
     1
102
RTVSPropertyOp39
 70
     1
102
RTVSPropertyOp40
 70
     1
102
RTVSPropertyOp41
 70
     1
102
RTVSPropertyOp42
 70
     1
102
RTVSPropertyOp43
 70
     1
102
RTVSPropertyOp44
 70
     1
102
RTVSPropertyOp45
 70
     1
102
RTVSPropertyOp46
 70
     1
102
RTVSPropertyOp47
 70
     1
102
RTVSPropertyOp48
 70
     1
102
RTVSPropertyOp49
 70
     1
102
RTVSPropertyOp50
 70
     1
102
RTVSPropertyOp51
 70
     0
102
RTVSPropertyOp52
 70
     0
102
RTVSPropertyOp53
 70
     1
102
RTVSPropertyOp54
 70
     1
102
RTVSPropertyOp55
 70
     1
102
RTVSPropertyOp56
 70
     1
102
RTVSPropertyOp57
 70
     1
102
RTVSPost2010Prop28
280
     0
102
RTVSPost2010PropOp28
 70
     1
102
RTVSPost2010Prop29
280
     1
102
RTVSPost2010PropOp29
 70
     1
102
RTVSPost2010Prop30
280
     1
102
RTVSPost2010PropOp30
 70
     1
102
RTVSPost2010Prop31
280
     0
102
RTVSPost2010PropOp31
 70
     1
102
RTVSPost2010Prop32
280
     0
102
RTVSPost2010PropOp32
 70
     1
102
RTVSPost2010Prop33
280
     0
102
RTVSPost2010PropOp33
 70
     1
102
RTVSPost2010Prop34
280
     0
102
RTVSPost2010PropOp34
 70
     1
102
RTVSPost2010Prop35
280
     0
102
RTVSPost2010PropOp35
 70
     1
102
RTVSPost2010Prop36
280
     0
102
RTVSPost2010PropOp36
 70
     1
102
RTVSPost2010Prop37
 90
       50
102
RTVSPost2010PropOp37
 70
     1
102
RTVSPost2010Prop38
140
0.0
102
RTVSPost2010PropOp38
 70
     1
102
RTVSPost2010Prop39
140
1.0
102
RTVSPost2010PropOp39
 70
     1
102
RTVSPost2010Prop40
 90
        0
102
RTVSPost2010PropOp40
 70
     1
102
RTVSPost2010Prop41ColorIndex
 90
       18
102
RTVSPost2010Prop41ColorRGB
 90
        0
102
RTVSPost2010PropOp41
 70
     1
102
RTVSPost2010Prop42
 90
       50
102
RTVSPost2010PropOp42
 70
     1
102
RTVSPost2010Prop43
 90
        3
102
RTVSPost2010PropOp43
 70
     1
102
RTVSPost2010Prop44ColorIndex
 90
        5
102
RTVSPost2010Prop44ColorRGB
 90
      255
102
RTVSPost2010PropOp44
 70
     1
102
RTVSPost2010Prop45
280
     0
102
RTVSPost2010PropOp45
 70
     1
102
RTVSPost2010Prop46
 90
       50
102
RTVSPost2010PropOp46
 70
     1
102
RTVSPost2010Prop47
 90
       50
102
RTVSPost2010PropOp47
 70
     1
102
RTVSPost2010Prop48
 90
       50
102
RTVSPost2010PropOp48
 70
     1
102
RTVSPost2010Prop49
280
     0
102
RTVSPost2010PropOp49
 70
     1
102
RTVSPost2010Prop50
 90
       50
102
RTVSPost2010PropOp50
 70
     1
102
RTVSPost2010Prop51ColorIndex
 90
      256
102
RTVSPost2010Prop51ColorRGB
 90
-16777216
102
RTVSPost2010PropOp51
 70
     0
102
RTVSPost2010Prop52
140
1.0
102
RTVSPost2010PropOp52
 70
     0
102
RTVSPost2010Prop53
 90
        2
102
RTVSPost2010PropOp53
 70
     1
102
RTVSPost2010Prop54
  1
strokes_ogs.tif
102
RTVSPost2010PropOp54
 70
     1
102
RTVSPost2010Prop55
280
     0
102
RTVSPost2010PropOp55
 70
     1
102
RTVSPost2010Prop56
140
1.0
102
RTVSPost2010PropOp56
 70
     1
102
RTVSPost2010Prop57
140
1.0
102
RTVSPost2010PropOp57
 70
     1
  0
XRECORD
  5
4B9
102
{ACAD_REACTORS
330
4B8
102
}
330
4B8
100
AcDbXrecord
280
     1
102
RTVSPropertyOp0
 70
     1
102
RTVSPropertyOp1
 70
     1
102
RTVSPropertyOp2
 70
     1
102
RTVSPropertyOp3
 70
     1
102
RTVSPropertyOp4
 70
     1
102
RTVSPropertyOp5
 70
     1
102
RTVSPropertyOp6
 70
     1
102
RTVSPropertyOp7
 70
     1
102
RTVSPropertyOp8
 70
     1
102
RTVSPropertyOp9
 70
     1
102
RTVSPropertyOp10
 70
     1
102
RTVSPropertyOp11
 70
     1
102
RTVSPropertyOp12
 70
     1
102
RTVSPropertyOp13
 70
     1
102
RTVSPropertyOp14
 70
     1
102
RTVSPropertyOp15
 70
     1
102
RTVSPropertyOp16
 70
     1
102
RTVSPropertyOp17
 70
     1
102
RTVSPropertyOp18
 70
     1
102
RTVSPropertyOp19
 70
     1
102
RTVSPropertyOp20
 70
     1
102
RTVSPropertyOp21
 70
     1
102
RTVSPropertyOp22
 70
     1
102
RTVSPropertyOp23
 70
     1
102
RTVSPropertyOp24
 70
     1
102
RTVSPropertyOp25
 70
     1
102
RTVSPropertyOp26
 70
     1
102
RTVSPropertyOp27
 70
     1
102
RTVSPropertyOp28
 70
     1
102
RTVSPropertyOp29
 70
     1
102
RTVSPropertyOp30
 70
     1
102
RTVSPropertyOp31
 70
     1
102
RTVSPropertyOp32
 70
     1
102
RTVSPropertyOp33
 70
     1
102
RTVSPropertyOp34
 70
     1
102
RTVSPropertyOp35
 70
     1
102
RTVSPropertyOp36
 70
     1
102
RTVSPropertyOp37
 70
     1
102
RTVSPropertyOp38
 70
     1
102
RTVSPropertyOp39
 70
     1
102
RTVSPropertyOp40
 70
     1
102
RTVSPropertyOp41
 70
     1
102
RTVSPropertyOp42
 70
     1
102
RTVSPropertyOp43
 70
     1
102
RTVSPropertyOp44
 70
     1
102
RTVSPropertyOp45
 70
     1
102
RTVSPropertyOp46
 70
     1
102
RTVSPropertyOp47
 70
     1
102
RTVSPropertyOp48
 70
     1
102
RTVSPropertyOp49
 70
     1
102
RTVSPropertyOp50
 70
     1
102
RTVSPropertyOp51
 70
     0
102
RTVSPropertyOp52
 70
     0
102
RTVSPropertyOp53
 70
     1
102
RTVSPropertyOp54
 70
     1
102
RTVSPropertyOp55
 70
     1
102
RTVSPropertyOp56
 70
     1
102
RTVSPropertyOp57
 70
     1
102
RTVSPost2010Prop28
280
     0
102
RTVSPost2010PropOp28
 70
     1
102
RTVSPost2010Prop29
280
     1
102
RTVSPost2010PropOp29
 70
     1
102
RTVSPost2010Prop30
280
     1
102
RTVSPost2010PropOp30
 70
     1
102
RTVSPost2010Prop31
280
     0
102
RTVSPost2010PropOp31
 70
     1
102
RTVSPost2010Prop32
280
     0
102
RTVSPost2010PropOp32
 70
     1
102
RTVSPost2010Prop33
280
     0
102
RTVSPost2010PropOp33
 70
     1
102
RTVSPost2010Prop34
280
     0
102
RTVSPost2010PropOp34
 70
     1
102
RTVSPost2010Prop35
280
     0
102
RTVSPost2010PropOp35
 70
     1
102
RTVSPost2010Prop36
280
     0
102
RTVSPost2010PropOp36
 70
     1
102
RTVSPost2010Prop37
 90
       50
102
RTVSPost2010PropOp37
 70
     1
102
RTVSPost2010Prop38
140
0.0
102
RTVSPost2010PropOp38
 70
     1
102
RTVSPost2010Prop39
140
1.0
102
RTVSPost2010PropOp39
 70
     1
102
RTVSPost2010Prop40
 90
        0
102
RTVSPost2010PropOp40
 70
     1
102
RTVSPost2010Prop41ColorIndex
 90
       18
102
RTVSPost2010Prop41ColorRGB
 90
        0
102
RTVSPost2010PropOp41
 70
     1
102
RTVSPost2010Prop42
 90
       50
102
RTVSPost2010PropOp42
 70
     1
102
RTVSPost2010Prop43
 90
        3
102
RTVSPost2010PropOp43
 70
     1
102
RTVSPost2010Prop44ColorIndex
 90
        5
102
RTVSPost2010Prop44ColorRGB
 90
      255
102
RTVSPost2010PropOp44
 70
     1
102
RTVSPost2010Prop45
280
     0
102
RTVSPost2010PropOp45
 70
     1
102
RTVSPost2010Prop46
 90
       50
102
RTVSPost2010PropOp46
 70
     1
102
RTVSPost2010Prop47
 90
       50
102
RTVSPost2010PropOp47
 70
     1
102
RTVSPost2010Prop48
 90
       50
102
RTVSPost2010PropOp48
 70
     1
102
RTVSPost2010Prop49
280
     0
102
RTVSPost2010PropOp49
 70
     1
102
RTVSPost2010Prop50
 90
       50
102
RTVSPost2010PropOp50
 70
     1
102
RTVSPost2010Prop51ColorIndex
 90
      256
102
RTVSPost2010Prop51ColorRGB
 90
-16777216
102
RTVSPost2010PropOp51
 70
     0
102
RTVSPost2010Prop52
140
1.0
102
RTVSPost2010PropOp52
 70
     0
102
RTVSPost2010Prop53
 90
        2
102
RTVSPost2010PropOp53
 70
     1
102
RTVSPost2010Prop54
  1
strokes_ogs.tif
102
RTVSPost2010PropOp54
 70
     1
102
RTVSPost2010Prop55
280
     0
102
RTVSPost2010PropOp55
 70
     1
102
RTVSPost2010Prop56
140
1.0
102
RTVSPost2010PropOp56
 70
     1
102
RTVSPost2010Prop57
140
1.0
102
RTVSPost2010PropOp57
 70
     1
  0
XRECORD
  5
4BB
102
{ACAD_REACTORS
330
4BA
102
}
330
4BA
100
AcDbXrecord
280
     1
102
RTVSPropertyOp0
 70
     1
102
RTVSPropertyOp1
 70
     1
102
RTVSPropertyOp2
 70
     1
102
RTVSPropertyOp3
 70
     1
102
RTVSPropertyOp4
 70
     1
102
RTVSPropertyOp5
 70
     1
102
RTVSPropertyOp6
 70
     1
102
RTVSPropertyOp7
 70
     1
102
RTVSPropertyOp8
 70
     1
102
RTVSPropertyOp9
 70
     1
102
RTVSPropertyOp10
 70
     1
102
RTVSPropertyOp11
 70
     1
102
RTVSPropertyOp12
 70
     1
102
RTVSPropertyOp13
 70
     1
102
RTVSPropertyOp14
 70
     1
102
RTVSPropertyOp15
 70
     1
102
RTVSPropertyOp16
 70
     1
102
RTVSPropertyOp17
 70
     1
102
RTVSPropertyOp18
 70
     1
102
RTVSPropertyOp19
 70
     1
102
RTVSPropertyOp20
 70
     1
102
RTVSPropertyOp21
 70
     1
102
RTVSPropertyOp22
 70
     1
102
RTVSPropertyOp23
 70
     1
102
RTVSPropertyOp24
 70
     1
102
RTVSPropertyOp25
 70
     1
102
RTVSPropertyOp26
 70
     1
102
RTVSPropertyOp27
 70
     1
102
RTVSPropertyOp28
 70
     1
102
RTVSPropertyOp29
 70
     1
102
RTVSPropertyOp30
 70
     1
102
RTVSPropertyOp31
 70
     1
102
RTVSPropertyOp32
 70
     1
102
RTVSPropertyOp33
 70
     1
102
RTVSPropertyOp34
 70
     1
102
RTVSPropertyOp35
 70
     1
102
RTVSPropertyOp36
 70
     1
102
RTVSPropertyOp37
 70
     1
102
RTVSPropertyOp38
 70
     1
102
RTVSPropertyOp39
 70
     1
102
RTVSPropertyOp40
 70
     1
102
RTVSPropertyOp41
 70
     1
102
RTVSPropertyOp42
 70
     1
102
RTVSPropertyOp43
 70
     1
102
RTVSPropertyOp44
 70
     1
102
RTVSPropertyOp45
 70
     1
102
RTVSPropertyOp46
 70
     1
102
RTVSPropertyOp47
 70
     1
102
RTVSPropertyOp48
 70
     1
102
RTVSPropertyOp49
 70
     1
102
RTVSPropertyOp50
 70
     1
102
RTVSPropertyOp51
 70
     0
102
RTVSPropertyOp52
 70
     0
102
RTVSPropertyOp53
 70
     1
102
RTVSPropertyOp54
 70
     1
102
RTVSPropertyOp55
 70
     1
102
RTVSPropertyOp56
 70
     1
102
RTVSPropertyOp57
 70
     1
102
RTVSPost2010Prop28
280
     0
102
RTVSPost2010PropOp28
 70
     1
102
RTVSPost2010Prop29
280
     1
102
RTVSPost2010PropOp29
 70
     1
102
RTVSPost2010Prop30
280
     1
102
RTVSPost2010PropOp30
 70
     1
102
RTVSPost2010Prop31
280
     0
102
RTVSPost2010PropOp31
 70
     1
102
RTVSPost2010Prop32
280
     0
102
RTVSPost2010PropOp32
 70
     1
102
RTVSPost2010Prop33
280
     0
102
RTVSPost2010PropOp33
 70
     1
102
RTVSPost2010Prop34
280
     0
102
RTVSPost2010PropOp34
 70
     1
102
RTVSPost2010Prop35
280
     0
102
RTVSPost2010PropOp35
 70
     1
102
RTVSPost2010Prop36
280
     0
102
RTVSPost2010PropOp36
 70
     1
102
RTVSPost2010Prop37
 90
       50
102
RTVSPost2010PropOp37
 70
     1
102
RTVSPost2010Prop38
140
0.0
102
RTVSPost2010PropOp38
 70
     1
102
RTVSPost2010Prop39
140
1.0
102
RTVSPost2010PropOp39
 70
     1
102
RTVSPost2010Prop40
 90
        0
102
RTVSPost2010PropOp40
 70
     1
102
RTVSPost2010Prop41ColorIndex
 90
       18
102
RTVSPost2010Prop41ColorRGB
 90
        0
102
RTVSPost2010PropOp41
 70
     1
102
RTVSPost2010Prop42
 90
       50
102
RTVSPost2010PropOp42
 70
     1
102
RTVSPost2010Prop43
 90
        3
102
RTVSPost2010PropOp43
 70
     1
102
RTVSPost2010Prop44ColorIndex
 90
        5
102
RTVSPost2010Prop44ColorRGB
 90
      255
102
RTVSPost2010PropOp44
 70
     1
102
RTVSPost2010Prop45
280
     0
102
RTVSPost2010PropOp45
 70
     1
102
RTVSPost2010Prop46
 90
       50
102
RTVSPost2010PropOp46
 70
     1
102
RTVSPost2010Prop47
 90
       50
102
RTVSPost2010PropOp47
 70
     1
102
RTVSPost2010Prop48
 90
       50
102
RTVSPost2010PropOp48
 70
     1
102
RTVSPost2010Prop49
280
     0
102
RTVSPost2010PropOp49
 70
     1
102
RTVSPost2010Prop50
 90
       50
102
RTVSPost2010PropOp50
 70
     1
102
RTVSPost2010Prop51ColorIndex
 90
      256
102
RTVSPost2010Prop51ColorRGB
 90
-16777216
102
RTVSPost2010PropOp51
 70
     0
102
RTVSPost2010Prop52
140
1.0
102
RTVSPost2010PropOp52
 70
     0
102
RTVSPost2010Prop53
 90
        2
102
RTVSPost2010PropOp53
 70
     1
102
RTVSPost2010Prop54
  1
strokes_ogs.tif
102
RTVSPost2010PropOp54
 70
     1
102
RTVSPost2010Prop55
280
     0
102
RTVSPost2010PropOp55
 70
     1
102
RTVSPost2010Prop56
140
1.0
102
RTVSPost2010PropOp56
 70
     1
102
RTVSPost2010Prop57
140
1.0
102
RTVSPost2010PropOp57
 70
     1
  0
XRECORD
  5
4BD
102
{ACAD_REACTORS
330
4BC
102
}
330
4BC
100
AcDbXrecord
280
     1
102
RTVSPropertyOp0
 70
     1
102
RTVSPropertyOp1
 70
     1
102
RTVSPropertyOp2
 70
     1
102
RTVSPropertyOp3
 70
     1
102
RTVSPropertyOp4
 70
     1
102
RTVSPropertyOp5
 70
     1
102
RTVSPropertyOp6
 70
     1
102
RTVSPropertyOp7
 70
     1
102
RTVSPropertyOp8
 70
     1
102
RTVSPropertyOp9
 70
     1
102
RTVSPropertyOp10
 70
     1
102
RTVSPropertyOp11
 70
     1
102
RTVSPropertyOp12
 70
     1
102
RTVSPropertyOp13
 70
     1
102
RTVSPropertyOp14
 70
     1
102
RTVSPropertyOp15
 70
     1
102
RTVSPropertyOp16
 70
     1
102
RTVSPropertyOp17
 70
     1
102
RTVSPropertyOp18
 70
     1
102
RTVSPropertyOp19
 70
     1
102
RTVSPropertyOp20
 70
     1
102
RTVSPropertyOp21
 70
     1
102
RTVSPropertyOp22
 70
     1
102
RTVSPropertyOp23
 70
     1
102
RTVSPropertyOp24
 70
     1
102
RTVSPropertyOp25
 70
     1
102
RTVSPropertyOp26
 70
     1
102
RTVSPropertyOp27
 70
     1
102
RTVSPropertyOp28
 70
     1
102
RTVSPropertyOp29
 70
     1
102
RTVSPropertyOp30
 70
     1
102
RTVSPropertyOp31
 70
     1
102
RTVSPropertyOp32
 70
     1
102
RTVSPropertyOp33
 70
     1
102
RTVSPropertyOp34
 70
     1
102
RTVSPropertyOp35
 70
     1
102
RTVSPropertyOp36
 70
     1
102
RTVSPropertyOp37
 70
     1
102
RTVSPropertyOp38
 70
     1
102
RTVSPropertyOp39
 70
     1
102
RTVSPropertyOp40
 70
     1
102
RTVSPropertyOp41
 70
     1
102
RTVSPropertyOp42
 70
     1
102
RTVSPropertyOp43
 70
     1
102
RTVSPropertyOp44
 70
     1
102
RTVSPropertyOp45
 70
     1
102
RTVSPropertyOp46
 70
     1
102
RTVSPropertyOp47
 70
     1
102
RTVSPropertyOp48
 70
     1
102
RTVSPropertyOp49
 70
     1
102
RTVSPropertyOp50
 70
     1
102
RTVSPropertyOp51
 70
     0
102
RTVSPropertyOp52
 70
     0
102
RTVSPropertyOp53
 70
     1
102
RTVSPropertyOp54
 70
     1
102
RTVSPropertyOp55
 70
     1
102
RTVSPropertyOp56
 70
     1
102
RTVSPropertyOp57
 70
     1
102
RTVSPost2010Prop28
280
     0
102
RTVSPost2010PropOp28
 70
     1
102
RTVSPost2010Prop29
280
     1
102
RTVSPost2010PropOp29
 70
     1
102
RTVSPost2010Prop30
280
     1
102
RTVSPost2010PropOp30
 70
     1
102
RTVSPost2010Prop31
280
     0
102
RTVSPost2010PropOp31
 70
     1
102
RTVSPost2010Prop32
280
     0
102
RTVSPost2010PropOp32
 70
     1
102
RTVSPost2010Prop33
280
     0
102
RTVSPost2010PropOp33
 70
     1
102
RTVSPost2010Prop34
280
     0
102
RTVSPost2010PropOp34
 70
     1
102
RTVSPost2010Prop35
280
     0
102
RTVSPost2010PropOp35
 70
     1
102
RTVSPost2010Prop36
280
     0
102
RTVSPost2010PropOp36
 70
     1
102
RTVSPost2010Prop37
 90
       50
102
RTVSPost2010PropOp37
 70
     1
102
RTVSPost2010Prop38
140
0.0
102
RTVSPost2010PropOp38
 70
     1
102
RTVSPost2010Prop39
140
1.0
102
RTVSPost2010PropOp39
 70
     1
102
RTVSPost2010Prop40
 90
        0
102
RTVSPost2010PropOp40
 70
     1
102
RTVSPost2010Prop41ColorIndex
 90
       18
102
RTVSPost2010Prop41ColorRGB
 90
        0
102
RTVSPost2010PropOp41
 70
     1
102
RTVSPost2010Prop42
 90
       50
102
RTVSPost2010PropOp42
 70
     1
102
RTVSPost2010Prop43
 90
        3
102
RTVSPost2010PropOp43
 70
     1
102
RTVSPost2010Prop44ColorIndex
 90
        5
102
RTVSPost2010Prop44ColorRGB
 90
      255
102
RTVSPost2010PropOp44
 70
     1
102
RTVSPost2010Prop45
280
     0
102
RTVSPost2010PropOp45
 70
     1
102
RTVSPost2010Prop46
 90
       50
102
RTVSPost2010PropOp46
 70
     1
102
RTVSPost2010Prop47
 90
       50
102
RTVSPost2010PropOp47
 70
     1
102
RTVSPost2010Prop48
 90
       50
102
RTVSPost2010PropOp48
 70
     1
102
RTVSPost2010Prop49
280
     0
102
RTVSPost2010PropOp49
 70
     1
102
RTVSPost2010Prop50
 90
       50
102
RTVSPost2010PropOp50
 70
     1
102
RTVSPost2010Prop51ColorIndex
 90
      256
102
RTVSPost2010Prop51ColorRGB
 90
-16777216
102
RTVSPost2010PropOp51
 70
     0
102
RTVSPost2010Prop52
140
1.0
102
RTVSPost2010PropOp52
 70
     0
102
RTVSPost2010Prop53
 90
        2
102
RTVSPost2010PropOp53
 70
     1
102
RTVSPost2010Prop54
  1
strokes_ogs.tif
102
RTVSPost2010PropOp54
 70
     1
102
RTVSPost2010Prop55
280
     0
102
RTVSPost2010PropOp55
 70
     1
102
RTVSPost2010Prop56
140
1.0
102
RTVSPost2010PropOp56
 70
     1
102
RTVSPost2010Prop57
140
1.0
102
RTVSPost2010PropOp57
 70
     1
  0
XRECORD
  5
4BF
102
{ACAD_REACTORS
330
4BE
102
}
330
4BE
100
AcDbXrecord
280
     1
102
RTVSPropertyOp0
 70
     1
102
RTVSPropertyOp1
 70
     1
102
RTVSPropertyOp2
 70
     1
102
RTVSPropertyOp3
 70
     1
102
RTVSPropertyOp4
 70
     1
102
RTVSPropertyOp5
 70
     1
102
RTVSPropertyOp6
 70
     1
102
RTVSPropertyOp7
 70
     1
102
RTVSPropertyOp8
 70
     1
102
RTVSPropertyOp9
 70
     1
102
RTVSPropertyOp10
 70
     1
102
RTVSPropertyOp11
 70
     1
102
RTVSPropertyOp12
 70
     1
102
RTVSPropertyOp13
 70
     1
102
RTVSPropertyOp14
 70
     1
102
RTVSPropertyOp15
 70
     1
102
RTVSPropertyOp16
 70
     1
102
RTVSPropertyOp17
 70
     1
102
RTVSPropertyOp18
 70
     1
102
RTVSPropertyOp19
 70
     1
102
RTVSPropertyOp20
 70
     1
102
RTVSPropertyOp21
 70
     1
102
RTVSPropertyOp22
 70
     1
102
RTVSPropertyOp23
 70
     1
102
RTVSPropertyOp24
 70
     1
102
RTVSPropertyOp25
 70
     1
102
RTVSPropertyOp26
 70
     1
102
RTVSPropertyOp27
 70
     1
102
RTVSPropertyOp28
 70
     1
102
RTVSPropertyOp29
 70
     1
102
RTVSPropertyOp30
 70
     1
102
RTVSPropertyOp31
 70
     1
102
RTVSPropertyOp32
 70
     1
102
RTVSPropertyOp33
 70
     1
102
RTVSPropertyOp34
 70
     1
102
RTVSPropertyOp35
 70
     1
102
RTVSPropertyOp36
 70
     1
102
RTVSPropertyOp37
 70
     1
102
RTVSPropertyOp38
 70
     1
102
RTVSPropertyOp39
 70
     1
102
RTVSPropertyOp40
 70
     1
102
RTVSPropertyOp41
 70
     1
102
RTVSPropertyOp42
 70
     1
102
RTVSPropertyOp43
 70
     1
102
RTVSPropertyOp44
 70
     1
102
RTVSPropertyOp45
 70
     1
102
RTVSPropertyOp46
 70
     1
102
RTVSPropertyOp47
 70
     1
102
RTVSPropertyOp48
 70
     1
102
RTVSPropertyOp49
 70
     1
102
RTVSPropertyOp50
 70
     1
102
RTVSPropertyOp51
 70
     0
102
RTVSPropertyOp52
 70
     0
102
RTVSPropertyOp53
 70
     1
102
RTVSPropertyOp54
 70
     1
102
RTVSPropertyOp55
 70
     1
102
RTVSPropertyOp56
 70
     1
102
RTVSPropertyOp57
 70
     1
102
RTVSPost2010Prop28
280
     0
102
RTVSPost2010PropOp28
 70
     1
102
RTVSPost2010Prop29
280
     1
102
RTVSPost2010PropOp29
 70
     1
102
RTVSPost2010Prop30
280
     1
102
RTVSPost2010PropOp30
 70
     1
102
RTVSPost2010Prop31
280
     0
102
RTVSPost2010PropOp31
 70
     1
102
RTVSPost2010Prop32
280
     0
102
RTVSPost2010PropOp32
 70
     1
102
RTVSPost2010Prop33
280
     0
102
RTVSPost2010PropOp33
 70
     1
102
RTVSPost2010Prop34
280
     0
102
RTVSPost2010PropOp34
 70
     1
102
RTVSPost2010Prop35
280
     0
102
RTVSPost2010PropOp35
 70
     1
102
RTVSPost2010Prop36
280
     0
102
RTVSPost2010PropOp36
 70
     1
102
RTVSPost2010Prop37
 90
       50
102
RTVSPost2010PropOp37
 70
     1
102
RTVSPost2010Prop38
140
0.0
102
RTVSPost2010PropOp38
 70
     1
102
RTVSPost2010Prop39
140
1.0
102
RTVSPost2010PropOp39
 70
     1
102
RTVSPost2010Prop40
 90
        0
102
RTVSPost2010PropOp40
 70
     1
102
RTVSPost2010Prop41ColorIndex
 90
       18
102
RTVSPost2010Prop41ColorRGB
 90
        0
102
RTVSPost2010PropOp41
 70
     1
102
RTVSPost2010Prop42
 90
       50
102
RTVSPost2010PropOp42
 70
     1
102
RTVSPost2010Prop43
 90
        3
102
RTVSPost2010PropOp43
 70
     1
102
RTVSPost2010Prop44ColorIndex
 90
        5
102
RTVSPost2010Prop44ColorRGB
 90
      255
102
RTVSPost2010PropOp44
 70
     1
102
RTVSPost2010Prop45
280
     0
102
RTVSPost2010PropOp45
 70
     1
102
RTVSPost2010Prop46
 90
       50
102
RTVSPost2010PropOp46
 70
     1
102
RTVSPost2010Prop47
 90
       50
102
RTVSPost2010PropOp47
 70
     1
102
RTVSPost2010Prop48
 90
       50
102
RTVSPost2010PropOp48
 70
     1
102
RTVSPost2010Prop49
280
     0
102
RTVSPost2010PropOp49
 70
     1
102
RTVSPost2010Prop50
 90
       50
102
RTVSPost2010PropOp50
 70
     1
102
RTVSPost2010Prop51ColorIndex
 90
      256
102
RTVSPost2010Prop51ColorRGB
 90
-16777216
102
RTVSPost2010PropOp51
 70
     0
102
RTVSPost2010Prop52
140
1.0
102
RTVSPost2010PropOp52
 70
     0
102
RTVSPost2010Prop53
 90
        2
102
RTVSPost2010PropOp53
 70
     1
102
RTVSPost2010Prop54
  1
strokes_ogs.tif
102
RTVSPost2010PropOp54
 70
     1
102
RTVSPost2010Prop55
280
     0
102
RTVSPost2010PropOp55
 70
     1
102
RTVSPost2010Prop56
140
1.0
102
RTVSPost2010PropOp56
 70
     1
102
RTVSPost2010Prop57
140
1.0
102
RTVSPost2010PropOp57
 70
     1
  0
XRECORD
  5
4C5
102
{ACAD_REACTORS
330
4C4
102
}
330
4C4
100
AcDbXrecord
280
     1
102
RTVSPropertyOp0
 70
     1
102
RTVSPropertyOp1
 70
     1
102
RTVSPropertyOp2
 70
     1
102
RTVSPropertyOp3
 70
     1
102
RTVSPropertyOp4
 70
     1
102
RTVSPropertyOp5
 70
     1
102
RTVSPropertyOp6
 70
     1
102
RTVSPropertyOp7
 70
     1
102
RTVSPropertyOp8
 70
     1
102
RTVSPropertyOp9
 70
     1
102
RTVSPropertyOp10
 70
     1
102
RTVSPropertyOp11
 70
     1
102
RTVSPropertyOp12
 70
     1
102
RTVSPropertyOp13
 70
     1
102
RTVSPropertyOp14
 70
     1
102
RTVSPropertyOp15
 70
     1
102
RTVSPropertyOp16
 70
     1
102
RTVSPropertyOp17
 70
     1
102
RTVSPropertyOp18
 70
     1
102
RTVSPropertyOp19
 70
     1
102
RTVSPropertyOp20
 70
     1
102
RTVSPropertyOp21
 70
     1
102
RTVSPropertyOp22
 70
     1
102
RTVSPropertyOp23
 70
     1
102
RTVSPropertyOp24
 70
     1
102
RTVSPropertyOp25
 70
     1
102
RTVSPropertyOp26
 70
     1
102
RTVSPropertyOp27
 70
     1
102
RTVSPropertyOp28
 70
     1
102
RTVSPropertyOp29
 70
     1
102
RTVSPropertyOp30
 70
     1
102
RTVSPropertyOp31
 70
     1
102
RTVSPropertyOp32
 70
     1
102
RTVSPropertyOp33
 70
     1
102
RTVSPropertyOp34
 70
     1
102
RTVSPropertyOp35
 70
     1
102
RTVSPropertyOp36
 70
     1
102
RTVSPropertyOp37
 70
     1
102
RTVSPropertyOp38
 70
     1
102
RTVSPropertyOp39
 70
     1
102
RTVSPropertyOp40
 70
     1
102
RTVSPropertyOp41
 70
     1
102
RTVSPropertyOp42
 70
     1
102
RTVSPropertyOp43
 70
     1
102
RTVSPropertyOp44
 70
     1
102
RTVSPropertyOp45
 70
     1
102
RTVSPropertyOp46
 70
     1
102
RTVSPropertyOp47
 70
     1
102
RTVSPropertyOp48
 70
     1
102
RTVSPropertyOp49
 70
     1
102
RTVSPropertyOp50
 70
     1
102
RTVSPropertyOp51
 70
     0
102
RTVSPropertyOp52
 70
     0
102
RTVSPropertyOp53
 70
     1
102
RTVSPropertyOp54
 70
     1
102
RTVSPropertyOp55
 70
     1
102
RTVSPropertyOp56
 70
     1
102
RTVSPropertyOp57
 70
     1
102
RTVSPost2010Prop28
280
     0
102
RTVSPost2010PropOp28
 70
     1
102
RTVSPost2010Prop29
280
     1
102
RTVSPost2010PropOp29
 70
     1
102
RTVSPost2010Prop30
280
     1
102
RTVSPost2010PropOp30
 70
     1
102
RTVSPost2010Prop31
280
     0
102
RTVSPost2010PropOp31
 70
     1
102
RTVSPost2010Prop32
280
     0
102
RTVSPost2010PropOp32
 70
     1
102
RTVSPost2010Prop33
280
     0
102
RTVSPost2010PropOp33
 70
     1
102
RTVSPost2010Prop34
280
     0
102
RTVSPost2010PropOp34
 70
     1
102
RTVSPost2010Prop35
280
     0
102
RTVSPost2010PropOp35
 70
     1
102
RTVSPost2010Prop36
280
     0
102
RTVSPost2010PropOp36
 70
     1
102
RTVSPost2010Prop37
 90
       50
102
RTVSPost2010PropOp37
 70
     1
102
RTVSPost2010Prop38
140
0.0
102
RTVSPost2010PropOp38
 70
     1
102
RTVSPost2010Prop39
140
1.0
102
RTVSPost2010PropOp39
 70
     1
102
RTVSPost2010Prop40
 90
        0
102
RTVSPost2010PropOp40
 70
     1
102
RTVSPost2010Prop41ColorIndex
 90
       18
102
RTVSPost2010Prop41ColorRGB
 90
        0
102
RTVSPost2010PropOp41
 70
     1
102
RTVSPost2010Prop42
 90
       50
102
RTVSPost2010PropOp42
 70
     1
102
RTVSPost2010Prop43
 90
        3
102
RTVSPost2010PropOp43
 70
     1
102
RTVSPost2010Prop44ColorIndex
 90
        5
102
RTVSPost2010Prop44ColorRGB
 90
      255
102
RTVSPost2010PropOp44
 70
     1
102
RTVSPost2010Prop45
280
     0
102
RTVSPost2010PropOp45
 70
     1
102
RTVSPost2010Prop46
 90
       50
102
RTVSPost2010PropOp46
 70
     1
102
RTVSPost2010Prop47
 90
       50
102
RTVSPost2010PropOp47
 70
     1
102
RTVSPost2010Prop48
 90
       50
102
RTVSPost2010PropOp48
 70
     1
102
RTVSPost2010Prop49
280
     0
102
RTVSPost2010PropOp49
 70
     1
102
RTVSPost2010Prop50
 90
       50
102
RTVSPost2010PropOp50
 70
     1
102
RTVSPost2010Prop51ColorIndex
 90
      256
102
RTVSPost2010Prop51ColorRGB
 90
-16777216
102
RTVSPost2010PropOp51
 70
     0
102
RTVSPost2010Prop52
140
1.0
102
RTVSPost2010PropOp52
 70
     0
102
RTVSPost2010Prop53
 90
        2
102
RTVSPost2010PropOp53
 70
     1
102
RTVSPost2010Prop54
  1
strokes_ogs.tif
102
RTVSPost2010PropOp54
 70
     1
102
RTVSPost2010Prop55
280
     0
102
RTVSPost2010PropOp55
 70
     1
102
RTVSPost2010Prop56
140
1.0
102
RTVSPost2010PropOp56
 70
     1
102
RTVSPost2010Prop57
140
1.0
102
RTVSPost2010PropOp57
 70
     1
  0
XRECORD
  5
4D9
102
{ACAD_REACTORS
330
4D8
102
}
330
4D8
100
AcDbXrecord
280
     1
102
RTVSPropertyOp0
 70
     0
102
RTVSPropertyOp1
 70
     0
102
RTVSPropertyOp2
 70
     0
102
RTVSPropertyOp3
 70
     0
102
RTVSPropertyOp4
 70
     0
102
RTVSPropertyOp5
 70
     0
102
RTVSPropertyOp6
 70
     0
102
RTVSPropertyOp7
 70
     0
102
RTVSPropertyOp8
 70
     0
102
RTVSPropertyOp9
 70
     0
102
RTVSPropertyOp10
 70
     0
102
RTVSPropertyOp11
 70
     0
102
RTVSPropertyOp12
 70
     0
102
RTVSPropertyOp13
 70
     0
102
RTVSPropertyOp14
 70
     2
102
RTVSPropertyOp15
 70
     0
102
RTVSPropertyOp16
 70
     0
102
RTVSPropertyOp17
 70
     0
102
RTVSPropertyOp18
 70
     0
102
RTVSPropertyOp19
 70
     0
102
RTVSPropertyOp20
 70
     0
102
RTVSPropertyOp21
 70
     0
102
RTVSPropertyOp22
 70
     0
102
RTVSPropertyOp23
 70
     0
102
RTVSPropertyOp24
 70
     0
102
RTVSPropertyOp25
 70
     0
102
RTVSPropertyOp26
 70
     0
102
RTVSPropertyOp27
 70
     0
102
RTVSPropertyOp28
 70
     0
102
RTVSPropertyOp29
 70
     0
102
RTVSPropertyOp30
 70
     0
102
RTVSPropertyOp31
 70
     0
102
RTVSPropertyOp32
 70
     0
102
RTVSPropertyOp33
 70
     0
102
RTVSPropertyOp34
 70
     0
102
RTVSPropertyOp35
 70
     0
102
RTVSPropertyOp36
 70
     0
102
RTVSPropertyOp37
 70
     0
102
RTVSPropertyOp38
 70
     0
102
RTVSPropertyOp39
 70
     0
102
RTVSPropertyOp40
 70
     0
102
RTVSPropertyOp41
 70
     0
102
RTVSPropertyOp42
 70
     0
102
RTVSPropertyOp43
 70
     0
102
RTVSPropertyOp44
 70
     0
102
RTVSPropertyOp45
 70
     0
102
RTVSPropertyOp46
 70
     0
102
RTVSPropertyOp47
 70
     0
102
RTVSPropertyOp48
 70
     0
102
RTVSPropertyOp49
 70
     0
102
RTVSPropertyOp50
 70
     0
102
RTVSPropertyOp51
 70
     0
102
RTVSPropertyOp52
 70
     0
102
RTVSPropertyOp53
 70
     0
102
RTVSPropertyOp54
 70
     0
102
RTVSPropertyOp55
 70
     0
102
RTVSPropertyOp56
 70
     0
102
RTVSPropertyOp57
 70
     0
102
RTVSPost2010Prop28
280
     0
102
RTVSPost2010PropOp28
 70
     0
102
RTVSPost2010Prop29
280
     1
102
RTVSPost2010PropOp29
 70
     0
102
RTVSPost2010Prop30
280
     1
102
RTVSPost2010PropOp30
 70
     0
102
RTVSPost2010Prop31
280
     0
102
RTVSPost2010PropOp31
 70
     0
102
RTVSPost2010Prop32
280
     0
102
RTVSPost2010PropOp32
 70
     0
102
RTVSPost2010Prop33
280
     0
102
RTVSPost2010PropOp33
 70
     0
102
RTVSPost2010Prop34
280
     0
102
RTVSPost2010PropOp34
 70
     0
102
RTVSPost2010Prop35
280
     0
102
RTVSPost2010PropOp35
 70
     0
102
RTVSPost2010Prop36
280
     0
102
RTVSPost2010PropOp36
 70
     0
102
RTVSPost2010Prop37
 90
       50
102
RTVSPost2010PropOp37
 70
     0
102
RTVSPost2010Prop38
140
0.0
102
RTVSPost2010PropOp38
 70
     0
102
RTVSPost2010Prop39
140
1.0
102
RTVSPost2010PropOp39
 70
     0
102
RTVSPost2010Prop40
 90
        0
102
RTVSPost2010PropOp40
 70
     0
102
RTVSPost2010Prop41ColorIndex
 90
       18
102
RTVSPost2010Prop41ColorRGB
 90
        0
102
RTVSPost2010PropOp41
 70
     0
102
RTVSPost2010Prop42
 90
       50
102
RTVSPost2010PropOp42
 70
     0
102
RTVSPost2010Prop43
 90
        3
102
RTVSPost2010PropOp43
 70
     0
102
RTVSPost2010Prop44ColorIndex
 90
        5
102
RTVSPost2010Prop44ColorRGB
 90
      255
102
RTVSPost2010PropOp44
 70
     0
102
RTVSPost2010Prop45
280
     0
102
RTVSPost2010PropOp45
 70
     0
102
RTVSPost2010Prop46
 90
       50
102
RTVSPost2010PropOp46
 70
     0
102
RTVSPost2010Prop47
 90
       50
102
RTVSPost2010PropOp47
 70
     0
102
RTVSPost2010Prop48
 90
       50
102
RTVSPost2010PropOp48
 70
     0
102
RTVSPost2010Prop49
280
     0
102
RTVSPost2010PropOp49
 70
     0
102
RTVSPost2010Prop50
 90
       50
102
RTVSPost2010PropOp50
 70
     0
102
RTVSPost2010Prop51ColorIndex
 90
      256
102
RTVSPost2010Prop51ColorRGB
 90
-16777216
102
RTVSPost2010PropOp51
 70
     0
102
RTVSPost2010Prop52
140
1.0
102
RTVSPost2010PropOp52
 70
     0
102
RTVSPost2010Prop53
 90
        2
102
RTVSPost2010PropOp53
 70
     0
102
RTVSPost2010Prop54
  1
strokes_ogs.tif
102
RTVSPost2010PropOp54
 70
     0
102
RTVSPost2010Prop55
280
     0
102
RTVSPost2010PropOp55
 70
     0
102
RTVSPost2010Prop56
140
1.0
102
RTVSPost2010PropOp56
 70
     0
102
RTVSPost2010Prop57
140
1.0
102
RTVSPost2010PropOp57
 70
     0
  0
XRECORD
  5
4D3
102
{ACAD_REACTORS
330
4D2
102
}
330
4D2
100
AcDbXrecord
280
     1
102
RTVSPropertyOp0
 70
     1
102
RTVSPropertyOp1
 70
     1
102
RTVSPropertyOp2
 70
     1
102
RTVSPropertyOp3
 70
     1
102
RTVSPropertyOp4
 70
     1
102
RTVSPropertyOp5
 70
     1
102
RTVSPropertyOp6
 70
     1
102
RTVSPropertyOp7
 70
     1
102
RTVSPropertyOp8
 70
     1
102
RTVSPropertyOp9
 70
     1
102
RTVSPropertyOp10
 70
     1
102
RTVSPropertyOp11
 70
     1
102
RTVSPropertyOp12
 70
     1
102
RTVSPropertyOp13
 70
     1
102
RTVSPropertyOp14
 70
     1
102
RTVSPropertyOp15
 70
     1
102
RTVSPropertyOp16
 70
     1
102
RTVSPropertyOp17
 70
     1
102
RTVSPropertyOp18
 70
     1
102
RTVSPropertyOp19
 70
     1
102
RTVSPropertyOp20
 70
     1
102
RTVSPropertyOp21
 70
     1
102
RTVSPropertyOp22
 70
     1
102
RTVSPropertyOp23
 70
     1
102
RTVSPropertyOp24
 70
     1
102
RTVSPropertyOp25
 70
     1
102
RTVSPropertyOp26
 70
     1
102
RTVSPropertyOp27
 70
     1
102
RTVSPropertyOp28
 70
     1
102
RTVSPropertyOp29
 70
     1
102
RTVSPropertyOp30
 70
     1
102
RTVSPropertyOp31
 70
     1
102
RTVSPropertyOp32
 70
     1
102
RTVSPropertyOp33
 70
     1
102
RTVSPropertyOp34
 70
     1
102
RTVSPropertyOp35
 70
     1
102
RTVSPropertyOp36
 70
     1
102
RTVSPropertyOp37
 70
     1
102
RTVSPropertyOp38
 70
     1
102
RTVSPropertyOp39
 70
     1
102
RTVSPropertyOp40
 70
     1
102
RTVSPropertyOp41
 70
     1
102
RTVSPropertyOp42
 70
     1
102
RTVSPropertyOp43
 70
     1
102
RTVSPropertyOp44
 70
     1
102
RTVSPropertyOp45
 70
     1
102
RTVSPropertyOp46
 70
     1
102
RTVSPropertyOp47
 70
     1
102
RTVSPropertyOp48
 70
     1
102
RTVSPropertyOp49
 70
     1
102
RTVSPropertyOp50
 70
     1
102
RTVSPropertyOp51
 70
     0
102
RTVSPropertyOp52
 70
     0
102
RTVSPropertyOp53
 70
     1
102
RTVSPropertyOp54
 70
     1
102
RTVSPropertyOp55
 70
     1
102
RTVSPropertyOp56
 70
     1
102
RTVSPropertyOp57
 70
     1
102
RTVSPost2010Prop28
280
     0
102
RTVSPost2010PropOp28
 70
     1
102
RTVSPost2010Prop29
280
     1
102
RTVSPost2010PropOp29
 70
     1
102
RTVSPost2010Prop30
280
     1
102
RTVSPost2010PropOp30
 70
     1
102
RTVSPost2010Prop31
280
     0
102
RTVSPost2010PropOp31
 70
     1
102
RTVSPost2010Prop32
280
     0
102
RTVSPost2010PropOp32
 70
     1
102
RTVSPost2010Prop33
280
     0
102
RTVSPost2010PropOp33
 70
     1
102
RTVSPost2010Prop34
280
     0
102
RTVSPost2010PropOp34
 70
     1
102
RTVSPost2010Prop35
280
     0
102
RTVSPost2010PropOp35
 70
     1
102
RTVSPost2010Prop36
280
     0
102
RTVSPost2010PropOp36
 70
     1
102
RTVSPost2010Prop37
 90
       50
102
RTVSPost2010PropOp37
 70
     1
102
RTVSPost2010Prop38
140
0.0
102
RTVSPost2010PropOp38
 70
     1
102
RTVSPost2010Prop39
140
1.0
102
RTVSPost2010PropOp39
 70
     1
102
RTVSPost2010Prop40
 90
        0
102
RTVSPost2010PropOp40
 70
     1
102
RTVSPost2010Prop41ColorIndex
 90
       18
102
RTVSPost2010Prop41ColorRGB
 90
        0
102
RTVSPost2010PropOp41
 70
     1
102
RTVSPost2010Prop42
 90
       50
102
RTVSPost2010PropOp42
 70
     1
102
RTVSPost2010Prop43
 90
        3
102
RTVSPost2010PropOp43
 70
     1
102
RTVSPost2010Prop44ColorIndex
 90
        5
102
RTVSPost2010Prop44ColorRGB
 90
      255
102
RTVSPost2010PropOp44
 70
     1
102
RTVSPost2010Prop45
280
     0
102
RTVSPost2010PropOp45
 70
     1
102
RTVSPost2010Prop46
 90
       50
102
RTVSPost2010PropOp46
 70
     1
102
RTVSPost2010Prop47
 90
       50
102
RTVSPost2010PropOp47
 70
     1
102
RTVSPost2010Prop48
 90
       50
102
RTVSPost2010PropOp48
 70
     1
102
RTVSPost2010Prop49
280
     0
102
RTVSPost2010PropOp49
 70
     1
102
RTVSPost2010Prop50
 90
       50
102
RTVSPost2010PropOp50
 70
     1
102
RTVSPost2010Prop51ColorIndex
 90
      256
102
RTVSPost2010Prop51ColorRGB
 90
-16777216
102
RTVSPost2010PropOp51
 70
     0
102
RTVSPost2010Prop52
140
1.0
102
RTVSPost2010PropOp52
 70
     0
102
RTVSPost2010Prop53
 90
        2
102
RTVSPost2010PropOp53
 70
     1
102
RTVSPost2010Prop54
  1
strokes_ogs.tif
102
RTVSPost2010PropOp54
 70
     1
102
RTVSPost2010Prop55
280
     0
102
RTVSPost2010PropOp55
 70
     1
102
RTVSPost2010Prop56
140
1.0
102
RTVSPost2010PropOp56
 70
     1
102
RTVSPost2010Prop57
140
1.0
102
RTVSPost2010PropOp57
 70
     1
  0
XRECORD
  5
4DB
102
{ACAD_REACTORS
330
4DA
102
}
330
4DA
100
AcDbXrecord
280
     1
102
RTVSPropertyOp0
 70
     0
102
RTVSPropertyOp1
 70
     0
102
RTVSPropertyOp2
 70
     0
102
RTVSPropertyOp3
 70
     0
102
RTVSPropertyOp4
 70
     0
102
RTVSPropertyOp5
 70
     0
102
RTVSPropertyOp6
 70
     0
102
RTVSPropertyOp7
 70
     0
102
RTVSPropertyOp8
 70
     0
102
RTVSPropertyOp9
 70
     0
102
RTVSPropertyOp10
 70
     0
102
RTVSPropertyOp11
 70
     0
102
RTVSPropertyOp12
 70
     0
102
RTVSPropertyOp13
 70
     0
102
RTVSPropertyOp14
 70
     2
102
RTVSPropertyOp15
 70
     0
102
RTVSPropertyOp16
 70
     0
102
RTVSPropertyOp17
 70
     0
102
RTVSPropertyOp18
 70
     0
102
RTVSPropertyOp19
 70
     0
102
RTVSPropertyOp20
 70
     0
102
RTVSPropertyOp21
 70
     0
102
RTVSPropertyOp22
 70
     0
102
RTVSPropertyOp23
 70
     0
102
RTVSPropertyOp24
 70
     0
102
RTVSPropertyOp25
 70
     0
102
RTVSPropertyOp26
 70
     0
102
RTVSPropertyOp27
 70
     0
102
RTVSPropertyOp28
 70
     0
102
RTVSPropertyOp29
 70
     0
102
RTVSPropertyOp30
 70
     0
102
RTVSPropertyOp31
 70
     0
102
RTVSPropertyOp32
 70
     0
102
RTVSPropertyOp33
 70
     0
102
RTVSPropertyOp34
 70
     0
102
RTVSPropertyOp35
 70
     0
102
RTVSPropertyOp36
 70
     0
102
RTVSPropertyOp37
 70
     0
102
RTVSPropertyOp38
 70
     0
102
RTVSPropertyOp39
 70
     0
102
RTVSPropertyOp40
 70
     0
102
RTVSPropertyOp41
 70
     0
102
RTVSPropertyOp42
 70
     0
102
RTVSPropertyOp43
 70
     0
102
RTVSPropertyOp44
 70
     0
102
RTVSPropertyOp45
 70
     0
102
RTVSPropertyOp46
 70
     0
102
RTVSPropertyOp47
 70
     0
102
RTVSPropertyOp48
 70
     0
102
RTVSPropertyOp49
 70
     0
102
RTVSPropertyOp50
 70
     0
102
RTVSPropertyOp51
 70
     0
102
RTVSPropertyOp52
 70
     0
102
RTVSPropertyOp53
 70
     0
102
RTVSPropertyOp54
 70
     0
102
RTVSPropertyOp55
 70
     0
102
RTVSPropertyOp56
 70
     0
102
RTVSPropertyOp57
 70
     0
102
RTVSPost2010Prop28
280
     0
102
RTVSPost2010PropOp28
 70
     0
102
RTVSPost2010Prop29
280
     1
102
RTVSPost2010PropOp29
 70
     0
102
RTVSPost2010Prop30
280
     1
102
RTVSPost2010PropOp30
 70
     0
102
RTVSPost2010Prop31
280
     0
102
RTVSPost2010PropOp31
 70
     0
102
RTVSPost2010Prop32
280
     0
102
RTVSPost2010PropOp32
 70
     0
102
RTVSPost2010Prop33
280
     0
102
RTVSPost2010PropOp33
 70
     0
102
RTVSPost2010Prop34
280
     0
102
RTVSPost2010PropOp34
 70
     0
102
RTVSPost2010Prop35
280
     0
102
RTVSPost2010PropOp35
 70
     0
102
RTVSPost2010Prop36
280
     0
102
RTVSPost2010PropOp36
 70
     0
102
RTVSPost2010Prop37
 90
       50
102
RTVSPost2010PropOp37
 70
     0
102
RTVSPost2010Prop38
140
0.0
102
RTVSPost2010PropOp38
 70
     0
102
RTVSPost2010Prop39
140
1.0
102
RTVSPost2010PropOp39
 70
     0
102
RTVSPost2010Prop40
 90
        0
102
RTVSPost2010PropOp40
 70
     0
102
RTVSPost2010Prop41ColorIndex
 90
       18
102
RTVSPost2010Prop41ColorRGB
 90
        0
102
RTVSPost2010PropOp41
 70
     0
102
RTVSPost2010Prop42
 90
       50
102
RTVSPost2010PropOp42
 70
     0
102
RTVSPost2010Prop43
 90
        3
102
RTVSPost2010PropOp43
 70
     0
102
RTVSPost2010Prop44ColorIndex
 90
        5
102
RTVSPost2010Prop44ColorRGB
 90
      255
102
RTVSPost2010PropOp44
 70
     0
102
RTVSPost2010Prop45
280
     0
102
RTVSPost2010PropOp45
 70
     0
102
RTVSPost2010Prop46
 90
       50
102
RTVSPost2010PropOp46
 70
     0
102
RTVSPost2010Prop47
 90
       50
102
RTVSPost2010PropOp47
 70
     0
102
RTVSPost2010Prop48
 90
       50
102
RTVSPost2010PropOp48
 70
     0
102
RTVSPost2010Prop49
280
     0
102
RTVSPost2010PropOp49
 70
     0
102
RTVSPost2010Prop50
 90
       50
102
RTVSPost2010PropOp50
 70
     0
102
RTVSPost2010Prop51ColorIndex
 90
      256
102
RTVSPost2010Prop51ColorRGB
 90
-16777216
102
RTVSPost2010PropOp51
 70
     0
102
RTVSPost2010Prop52
140
1.0
102
RTVSPost2010PropOp52
 70
     0
102
RTVSPost2010Prop53
 90
        2
102
RTVSPost2010PropOp53
 70
     0
102
RTVSPost2010Prop54
  1
strokes_ogs.tif
102
RTVSPost2010PropOp54
 70
     0
102
RTVSPost2010Prop55
280
     0
102
RTVSPost2010PropOp55
 70
     0
102
RTVSPost2010Prop56
140
1.0
102
RTVSPost2010PropOp56
 70
     0
102
RTVSPost2010Prop57
140
1.0
102
RTVSPost2010PropOp57
 70
     0
  0
XRECORD
  5
4C9
102
{ACAD_REACTORS
330
4C8
102
}
330
4C8
100
AcDbXrecord
280
     1
102
RTVSPropertyOp0
 70
     1
102
RTVSPropertyOp1
 70
     1
102
RTVSPropertyOp2
 70
     1
102
RTVSPropertyOp3
 70
     1
102
RTVSPropertyOp4
 70
     1
102
RTVSPropertyOp5
 70
     1
102
RTVSPropertyOp6
 70
     1
102
RTVSPropertyOp7
 70
     1
102
RTVSPropertyOp8
 70
     1
102
RTVSPropertyOp9
 70
     1
102
RTVSPropertyOp10
 70
     1
102
RTVSPropertyOp11
 70
     1
102
RTVSPropertyOp12
 70
     1
102
RTVSPropertyOp13
 70
     1
102
RTVSPropertyOp14
 70
     1
102
RTVSPropertyOp15
 70
     1
102
RTVSPropertyOp16
 70
     1
102
RTVSPropertyOp17
 70
     1
102
RTVSPropertyOp18
 70
     1
102
RTVSPropertyOp19
 70
     1
102
RTVSPropertyOp20
 70
     1
102
RTVSPropertyOp21
 70
     1
102
RTVSPropertyOp22
 70
     1
102
RTVSPropertyOp23
 70
     1
102
RTVSPropertyOp24
 70
     1
102
RTVSPropertyOp25
 70
     1
102
RTVSPropertyOp26
 70
     1
102
RTVSPropertyOp27
 70
     1
102
RTVSPropertyOp28
 70
     1
102
RTVSPropertyOp29
 70
     1
102
RTVSPropertyOp30
 70
     1
102
RTVSPropertyOp31
 70
     1
102
RTVSPropertyOp32
 70
     1
102
RTVSPropertyOp33
 70
     1
102
RTVSPropertyOp34
 70
     1
102
RTVSPropertyOp35
 70
     1
102
RTVSPropertyOp36
 70
     1
102
RTVSPropertyOp37
 70
     1
102
RTVSPropertyOp38
 70
     1
102
RTVSPropertyOp39
 70
     1
102
RTVSPropertyOp40
 70
     1
102
RTVSPropertyOp41
 70
     1
102
RTVSPropertyOp42
 70
     1
102
RTVSPropertyOp43
 70
     1
102
RTVSPropertyOp44
 70
     1
102
RTVSPropertyOp45
 70
     1
102
RTVSPropertyOp46
 70
     1
102
RTVSPropertyOp47
 70
     1
102
RTVSPropertyOp48
 70
     1
102
RTVSPropertyOp49
 70
     1
102
RTVSPropertyOp50
 70
     1
102
RTVSPropertyOp51
 70
     0
102
RTVSPropertyOp52
 70
     0
102
RTVSPropertyOp53
 70
     1
102
RTVSPropertyOp54
 70
     1
102
RTVSPropertyOp55
 70
     1
102
RTVSPropertyOp56
 70
     1
102
RTVSPropertyOp57
 70
     1
102
RTVSPost2010Prop28
280
     0
102
RTVSPost2010PropOp28
 70
     1
102
RTVSPost2010Prop29
280
     1
102
RTVSPost2010PropOp29
 70
     1
102
RTVSPost2010Prop30
280
     1
102
RTVSPost2010PropOp30
 70
     1
102
RTVSPost2010Prop31
280
     0
102
RTVSPost2010PropOp31
 70
     1
102
RTVSPost2010Prop32
280
     0
102
RTVSPost2010PropOp32
 70
     1
102
RTVSPost2010Prop33
280
     0
102
RTVSPost2010PropOp33
 70
     1
102
RTVSPost2010Prop34
280
     0
102
RTVSPost2010PropOp34
 70
     1
102
RTVSPost2010Prop35
280
     0
102
RTVSPost2010PropOp35
 70
     1
102
RTVSPost2010Prop36
280
     0
102
RTVSPost2010PropOp36
 70
     1
102
RTVSPost2010Prop37
 90
       50
102
RTVSPost2010PropOp37
 70
     1
102
RTVSPost2010Prop38
140
0.0
102
RTVSPost2010PropOp38
 70
     1
102
RTVSPost2010Prop39
140
1.0
102
RTVSPost2010PropOp39
 70
     1
102
RTVSPost2010Prop40
 90
        0
102
RTVSPost2010PropOp40
 70
     1
102
RTVSPost2010Prop41ColorIndex
 90
       18
102
RTVSPost2010Prop41ColorRGB
 90
        0
102
RTVSPost2010PropOp41
 70
     1
102
RTVSPost2010Prop42
 90
       50
102
RTVSPost2010PropOp42
 70
     1
102
RTVSPost2010Prop43
 90
        3
102
RTVSPost2010PropOp43
 70
     1
102
RTVSPost2010Prop44ColorIndex
 90
        5
102
RTVSPost2010Prop44ColorRGB
 90
      255
102
RTVSPost2010PropOp44
 70
     1
102
RTVSPost2010Prop45
280
     0
102
RTVSPost2010PropOp45
 70
     1
102
RTVSPost2010Prop46
 90
       50
102
RTVSPost2010PropOp46
 70
     1
102
RTVSPost2010Prop47
 90
       50
102
RTVSPost2010PropOp47
 70
     1
102
RTVSPost2010Prop48
 90
       50
102
RTVSPost2010PropOp48
 70
     1
102
RTVSPost2010Prop49
280
     0
102
RTVSPost2010PropOp49
 70
     1
102
RTVSPost2010Prop50
 90
       50
102
RTVSPost2010PropOp50
 70
     1
102
RTVSPost2010Prop51ColorIndex
 90
      256
102
RTVSPost2010Prop51ColorRGB
 90
-16777216
102
RTVSPost2010PropOp51
 70
     0
102
RTVSPost2010Prop52
140
1.0
102
RTVSPost2010PropOp52
 70
     0
102
RTVSPost2010Prop53
 90
        2
102
RTVSPost2010PropOp53
 70
     1
102
RTVSPost2010Prop54
  1
strokes_ogs.tif
102
RTVSPost2010PropOp54
 70
     1
102
RTVSPost2010Prop55
280
     0
102
RTVSPost2010PropOp55
 70
     1
102
RTVSPost2010Prop56
140
1.0
102
RTVSPost2010PropOp56
 70
     1
102
RTVSPost2010Prop57
140
1.0
102
RTVSPost2010PropOp57
 70
     1
  0
XRECORD
  5
4E7
102
{ACAD_REACTORS
330
4E6
102
}
330
4E6
100
AcDbXrecord
280
     1
102
RTVSPropertyOp0
 70
     1
102
RTVSPropertyOp1
 70
     1
102
RTVSPropertyOp2
 70
     1
102
RTVSPropertyOp3
 70
     1
102
RTVSPropertyOp4
 70
     1
102
RTVSPropertyOp5
 70
     1
102
RTVSPropertyOp6
 70
     1
102
RTVSPropertyOp7
 70
     1
102
RTVSPropertyOp8
 70
     1
102
RTVSPropertyOp9
 70
     1
102
RTVSPropertyOp10
 70
     1
102
RTVSPropertyOp11
 70
     1
102
RTVSPropertyOp12
 70
     1
102
RTVSPropertyOp13
 70
     1
102
RTVSPropertyOp14
 70
     1
102
RTVSPropertyOp15
 70
     1
102
RTVSPropertyOp16
 70
     1
102
RTVSPropertyOp17
 70
     1
102
RTVSPropertyOp18
 70
     1
102
RTVSPropertyOp19
 70
     1
102
RTVSPropertyOp20
 70
     1
102
RTVSPropertyOp21
 70
     1
102
RTVSPropertyOp22
 70
     1
102
RTVSPropertyOp23
 70
     1
102
RTVSPropertyOp24
 70
     1
102
RTVSPropertyOp25
 70
     1
102
RTVSPropertyOp26
 70
     1
102
RTVSPropertyOp27
 70
     1
102
RTVSPropertyOp28
 70
     1
102
RTVSPropertyOp29
 70
     1
102
RTVSPropertyOp30
 70
     1
102
RTVSPropertyOp31
 70
     1
102
RTVSPropertyOp32
 70
     1
102
RTVSPropertyOp33
 70
     1
102
RTVSPropertyOp34
 70
     1
102
RTVSPropertyOp35
 70
     1
102
RTVSPropertyOp36
 70
     1
102
RTVSPropertyOp37
 70
     1
102
RTVSPropertyOp38
 70
     1
102
RTVSPropertyOp39
 70
     1
102
RTVSPropertyOp40
 70
     1
102
RTVSPropertyOp41
 70
     1
102
RTVSPropertyOp42
 70
     1
102
RTVSPropertyOp43
 70
     1
102
RTVSPropertyOp44
 70
     1
102
RTVSPropertyOp45
 70
     1
102
RTVSPropertyOp46
 70
     1
102
RTVSPropertyOp47
 70
     1
102
RTVSPropertyOp48
 70
     1
102
RTVSPropertyOp49
 70
     1
102
RTVSPropertyOp50
 70
     1
102
RTVSPropertyOp51
 70
     0
102
RTVSPropertyOp52
 70
     0
102
RTVSPropertyOp53
 70
     1
102
RTVSPropertyOp54
 70
     1
102
RTVSPropertyOp55
 70
     1
102
RTVSPropertyOp56
 70
     1
102
RTVSPropertyOp57
 70
     1
102
RTVSPost2010Prop28
280
     0
102
RTVSPost2010PropOp28
 70
     1
102
RTVSPost2010Prop29
280
     1
102
RTVSPost2010PropOp29
 70
     1
102
RTVSPost2010Prop30
280
     1
102
RTVSPost2010PropOp30
 70
     1
102
RTVSPost2010Prop31
280
     0
102
RTVSPost2010PropOp31
 70
     1
102
RTVSPost2010Prop32
280
     0
102
RTVSPost2010PropOp32
 70
     1
102
RTVSPost2010Prop33
280
     0
102
RTVSPost2010PropOp33
 70
     1
102
RTVSPost2010Prop34
280
     0
102
RTVSPost2010PropOp34
 70
     1
102
RTVSPost2010Prop35
280
     0
102
RTVSPost2010PropOp35
 70
     1
102
RTVSPost2010Prop36
280
     0
102
RTVSPost2010PropOp36
 70
     1
102
RTVSPost2010Prop37
 90
       50
102
RTVSPost2010PropOp37
 70
     1
102
RTVSPost2010Prop38
140
0.0
102
RTVSPost2010PropOp38
 70
     1
102
RTVSPost2010Prop39
140
1.0
102
RTVSPost2010PropOp39
 70
     1
102
RTVSPost2010Prop40
 90
        0
102
RTVSPost2010PropOp40
 70
     1
102
RTVSPost2010Prop41ColorIndex
 90
       18
102
RTVSPost2010Prop41ColorRGB
 90
        0
102
RTVSPost2010PropOp41
 70
     1
102
RTVSPost2010Prop42
 90
       50
102
RTVSPost2010PropOp42
 70
     1
102
RTVSPost2010Prop43
 90
        3
102
RTVSPost2010PropOp43
 70
     1
102
RTVSPost2010Prop44ColorIndex
 90
        5
102
RTVSPost2010Prop44ColorRGB
 90
      255
102
RTVSPost2010PropOp44
 70
     1
102
RTVSPost2010Prop45
280
     0
102
RTVSPost2010PropOp45
 70
     1
102
RTVSPost2010Prop46
 90
       50
102
RTVSPost2010PropOp46
 70
     1
102
RTVSPost2010Prop47
 90
       50
102
RTVSPost2010PropOp47
 70
     1
102
RTVSPost2010Prop48
 90
       50
102
RTVSPost2010PropOp48
 70
     1
102
RTVSPost2010Prop49
280
     0
102
RTVSPost2010PropOp49
 70
     1
102
RTVSPost2010Prop50
 90
       50
102
RTVSPost2010PropOp50
 70
     1
102
RTVSPost2010Prop51ColorIndex
 90
      256
102
RTVSPost2010Prop51ColorRGB
 90
-16777216
102
RTVSPost2010PropOp51
 70
     0
102
RTVSPost2010Prop52
140
1.0
102
RTVSPost2010PropOp52
 70
     0
102
RTVSPost2010Prop53
 90
        2
102
RTVSPost2010PropOp53
 70
     1
102
RTVSPost2010Prop54
  1
strokes_ogs.tif
102
RTVSPost2010PropOp54
 70
     1
102
RTVSPost2010Prop55
280
     0
102
RTVSPost2010PropOp55
 70
     1
102
RTVSPost2010Prop56
140
1.0
102
RTVSPost2010PropOp56
 70
     1
102
RTVSPost2010Prop57
140
1.0
102
RTVSPost2010PropOp57
 70
     1
  0
XRECORD
  5
4E5
102
{ACAD_REACTORS
330
4E4
102
}
330
4E4
100
AcDbXrecord
280
     1
102
RTVSPropertyOp0
 70
     1
102
RTVSPropertyOp1
 70
     1
102
RTVSPropertyOp2
 70
     1
102
RTVSPropertyOp3
 70
     1
102
RTVSPropertyOp4
 70
     1
102
RTVSPropertyOp5
 70
     1
102
RTVSPropertyOp6
 70
     1
102
RTVSPropertyOp7
 70
     1
102
RTVSPropertyOp8
 70
     1
102
RTVSPropertyOp9
 70
     1
102
RTVSPropertyOp10
 70
     1
102
RTVSPropertyOp11
 70
     1
102
RTVSPropertyOp12
 70
     1
102
RTVSPropertyOp13
 70
     1
102
RTVSPropertyOp14
 70
     1
102
RTVSPropertyOp15
 70
     1
102
RTVSPropertyOp16
 70
     1
102
RTVSPropertyOp17
 70
     1
102
RTVSPropertyOp18
 70
     1
102
RTVSPropertyOp19
 70
     1
102
RTVSPropertyOp20
 70
     1
102
RTVSPropertyOp21
 70
     1
102
RTVSPropertyOp22
 70
     1
102
RTVSPropertyOp23
 70
     1
102
RTVSPropertyOp24
 70
     1
102
RTVSPropertyOp25
 70
     1
102
RTVSPropertyOp26
 70
     1
102
RTVSPropertyOp27
 70
     1
102
RTVSPropertyOp28
 70
     1
102
RTVSPropertyOp29
 70
     1
102
RTVSPropertyOp30
 70
     1
102
RTVSPropertyOp31
 70
     1
102
RTVSPropertyOp32
 70
     1
102
RTVSPropertyOp33
 70
     1
102
RTVSPropertyOp34
 70
     1
102
RTVSPropertyOp35
 70
     1
102
RTVSPropertyOp36
 70
     1
102
RTVSPropertyOp37
 70
     1
102
RTVSPropertyOp38
 70
     1
102
RTVSPropertyOp39
 70
     1
102
RTVSPropertyOp40
 70
     1
102
RTVSPropertyOp41
 70
     1
102
RTVSPropertyOp42
 70
     1
102
RTVSPropertyOp43
 70
     1
102
RTVSPropertyOp44
 70
     1
102
RTVSPropertyOp45
 70
     1
102
RTVSPropertyOp46
 70
     1
102
RTVSPropertyOp47
 70
     1
102
RTVSPropertyOp48
 70
     1
102
RTVSPropertyOp49
 70
     1
102
RTVSPropertyOp50
 70
     1
102
RTVSPropertyOp51
 70
     0
102
RTVSPropertyOp52
 70
     0
102
RTVSPropertyOp53
 70
     1
102
RTVSPropertyOp54
 70
     1
102
RTVSPropertyOp55
 70
     1
102
RTVSPropertyOp56
 70
     1
102
RTVSPropertyOp57
 70
     1
102
RTVSPost2010Prop28
280
     0
102
RTVSPost2010PropOp28
 70
     1
102
RTVSPost2010Prop29
280
     1
102
RTVSPost2010PropOp29
 70
     1
102
RTVSPost2010Prop30
280
     1
102
RTVSPost2010PropOp30
 70
     1
102
RTVSPost2010Prop31
280
     0
102
RTVSPost2010PropOp31
 70
     1
102
RTVSPost2010Prop32
280
     0
102
RTVSPost2010PropOp32
 70
     1
102
RTVSPost2010Prop33
280
     0
102
RTVSPost2010PropOp33
 70
     1
102
RTVSPost2010Prop34
280
     0
102
RTVSPost2010PropOp34
 70
     1
102
RTVSPost2010Prop35
280
     0
102
RTVSPost2010PropOp35
 70
     1
102
RTVSPost2010Prop36
280
     0
102
RTVSPost2010PropOp36
 70
     1
102
RTVSPost2010Prop37
 90
       50
102
RTVSPost2010PropOp37
 70
     1
102
RTVSPost2010Prop38
140
0.0
102
RTVSPost2010PropOp38
 70
     1
102
RTVSPost2010Prop39
140
1.0
102
RTVSPost2010PropOp39
 70
     1
102
RTVSPost2010Prop40
 90
        0
102
RTVSPost2010PropOp40
 70
     1
102
RTVSPost2010Prop41ColorIndex
 90
       18
102
RTVSPost2010Prop41ColorRGB
 90
        0
102
RTVSPost2010PropOp41
 70
     1
102
RTVSPost2010Prop42
 90
       50
102
RTVSPost2010PropOp42
 70
     1
102
RTVSPost2010Prop43
 90
        3
102
RTVSPost2010PropOp43
 70
     1
102
RTVSPost2010Prop44ColorIndex
 90
        5
102
RTVSPost2010Prop44ColorRGB
 90
      255
102
RTVSPost2010PropOp44
 70
     1
102
RTVSPost2010Prop45
280
     0
102
RTVSPost2010PropOp45
 70
     1
102
RTVSPost2010Prop46
 90
       50
102
RTVSPost2010PropOp46
 70
     1
102
RTVSPost2010Prop47
 90
       50
102
RTVSPost2010PropOp47
 70
     1
102
RTVSPost2010Prop48
 90
       50
102
RTVSPost2010PropOp48
 70
     1
102
RTVSPost2010Prop49
280
     0
102
RTVSPost2010PropOp49
 70
     1
102
RTVSPost2010Prop50
 90
       50
102
RTVSPost2010PropOp50
 70
     1
102
RTVSPost2010Prop51ColorIndex
 90
      256
102
RTVSPost2010Prop51ColorRGB
 90
-16777216
102
RTVSPost2010PropOp51
 70
     0
102
RTVSPost2010Prop52
140
1.0
102
RTVSPost2010PropOp52
 70
     0
102
RTVSPost2010Prop53
 90
        2
102
RTVSPost2010PropOp53
 70
     1
102
RTVSPost2010Prop54
  1
strokes_ogs.tif
102
RTVSPost2010PropOp54
 70
     1
102
RTVSPost2010Prop55
280
     0
102
RTVSPost2010PropOp55
 70
     1
102
RTVSPost2010Prop56
140
1.0
102
RTVSPost2010PropOp56
 70
     1
102
RTVSPost2010Prop57
140
1.0
102
RTVSPost2010PropOp57
 70
     1
  0
XRECORD
  5
4DF
102
{ACAD_REACTORS
330
4DE
102
}
330
4DE
100
AcDbXrecord
280
     1
102
RTVSPropertyOp0
 70
     1
102
RTVSPropertyOp1
 70
     1
102
RTVSPropertyOp2
 70
     1
102
RTVSPropertyOp3
 70
     1
102
RTVSPropertyOp4
 70
     1
102
RTVSPropertyOp5
 70
     1
102
RTVSPropertyOp6
 70
     1
102
RTVSPropertyOp7
 70
     1
102
RTVSPropertyOp8
 70
     1
102
RTVSPropertyOp9
 70
     1
102
RTVSPropertyOp10
 70
     1
102
RTVSPropertyOp11
 70
     1
102
RTVSPropertyOp12
 70
     1
102
RTVSPropertyOp13
 70
     1
102
RTVSPropertyOp14
 70
     1
102
RTVSPropertyOp15
 70
     1
102
RTVSPropertyOp16
 70
     1
102
RTVSPropertyOp17
 70
     1
102
RTVSPropertyOp18
 70
     1
102
RTVSPropertyOp19
 70
     1
102
RTVSPropertyOp20
 70
     1
102
RTVSPropertyOp21
 70
     1
102
RTVSPropertyOp22
 70
     1
102
RTVSPropertyOp23
 70
     1
102
RTVSPropertyOp24
 70
     1
102
RTVSPropertyOp25
 70
     1
102
RTVSPropertyOp26
 70
     1
102
RTVSPropertyOp27
 70
     1
102
RTVSPropertyOp28
 70
     1
102
RTVSPropertyOp29
 70
     1
102
RTVSPropertyOp30
 70
     1
102
RTVSPropertyOp31
 70
     1
102
RTVSPropertyOp32
 70
     1
102
RTVSPropertyOp33
 70
     1
102
RTVSPropertyOp34
 70
     1
102
RTVSPropertyOp35
 70
     1
102
RTVSPropertyOp36
 70
     1
102
RTVSPropertyOp37
 70
     1
102
RTVSPropertyOp38
 70
     1
102
RTVSPropertyOp39
 70
     1
102
RTVSPropertyOp40
 70
     1
102
RTVSPropertyOp41
 70
     1
102
RTVSPropertyOp42
 70
     1
102
RTVSPropertyOp43
 70
     1
102
RTVSPropertyOp44
 70
     1
102
RTVSPropertyOp45
 70
     1
102
RTVSPropertyOp46
 70
     1
102
RTVSPropertyOp47
 70
     1
102
RTVSPropertyOp48
 70
     1
102
RTVSPropertyOp49
 70
     1
102
RTVSPropertyOp50
 70
     1
102
RTVSPropertyOp51
 70
     0
102
RTVSPropertyOp52
 70
     0
102
RTVSPropertyOp53
 70
     1
102
RTVSPropertyOp54
 70
     1
102
RTVSPropertyOp55
 70
     1
102
RTVSPropertyOp56
 70
     1
102
RTVSPropertyOp57
 70
     1
102
RTVSPost2010Prop28
280
     0
102
RTVSPost2010PropOp28
 70
     1
102
RTVSPost2010Prop29
280
     1
102
RTVSPost2010PropOp29
 70
     1
102
RTVSPost2010Prop30
280
     1
102
RTVSPost2010PropOp30
 70
     1
102
RTVSPost2010Prop31
280
     0
102
RTVSPost2010PropOp31
 70
     1
102
RTVSPost2010Prop32
280
     0
102
RTVSPost2010PropOp32
 70
     1
102
RTVSPost2010Prop33
280
     0
102
RTVSPost2010PropOp33
 70
     1
102
RTVSPost2010Prop34
280
     0
102
RTVSPost2010PropOp34
 70
     1
102
RTVSPost2010Prop35
280
     0
102
RTVSPost2010PropOp35
 70
     1
102
RTVSPost2010Prop36
280
     0
102
RTVSPost2010PropOp36
 70
     1
102
RTVSPost2010Prop37
 90
       50
102
RTVSPost2010PropOp37
 70
     1
102
RTVSPost2010Prop38
140
0.0
102
RTVSPost2010PropOp38
 70
     1
102
RTVSPost2010Prop39
140
1.0
102
RTVSPost2010PropOp39
 70
     1
102
RTVSPost2010Prop40
 90
        0
102
RTVSPost2010PropOp40
 70
     1
102
RTVSPost2010Prop41ColorIndex
 90
       18
102
RTVSPost2010Prop41ColorRGB
 90
        0
102
RTVSPost2010PropOp41
 70
     1
102
RTVSPost2010Prop42
 90
       50
102
RTVSPost2010PropOp42
 70
     1
102
RTVSPost2010Prop43
 90
        3
102
RTVSPost2010PropOp43
 70
     1
102
RTVSPost2010Prop44ColorIndex
 90
        5
102
RTVSPost2010Prop44ColorRGB
 90
      255
102
RTVSPost2010PropOp44
 70
     1
102
RTVSPost2010Prop45
280
     0
102
RTVSPost2010PropOp45
 70
     1
102
RTVSPost2010Prop46
 90
       50
102
RTVSPost2010PropOp46
 70
     1
102
RTVSPost2010Prop47
 90
       50
102
RTVSPost2010PropOp47
 70
     1
102
RTVSPost2010Prop48
 90
       50
102
RTVSPost2010PropOp48
 70
     1
102
RTVSPost2010Prop49
280
     0
102
RTVSPost2010PropOp49
 70
     1
102
RTVSPost2010Prop50
 90
       50
102
RTVSPost2010PropOp50
 70
     1
102
RTVSPost2010Prop51ColorIndex
 90
      256
102
RTVSPost2010Prop51ColorRGB
 90
-16777216
102
RTVSPost2010PropOp51
 70
     0
102
RTVSPost2010Prop52
140
1.0
102
RTVSPost2010PropOp52
 70
     0
102
RTVSPost2010Prop53
 90
        2
102
RTVSPost2010PropOp53
 70
     1
102
RTVSPost2010Prop54
  1
strokes_ogs.tif
102
RTVSPost2010PropOp54
 70
     1
102
RTVSPost2010Prop55
280
     0
102
RTVSPost2010PropOp55
 70
     1
102
RTVSPost2010Prop56
140
1.0
102
RTVSPost2010PropOp56
 70
     1
102
RTVSPost2010Prop57
140
1.0
102
RTVSPost2010PropOp57
 70
     1
  0
XRECORD
  5
4E1
102
{ACAD_REACTORS
330
4E0
102
}
330
4E0
100
AcDbXrecord
280
     1
102
RTVSPropertyOp0
 70
     1
102
RTVSPropertyOp1
 70
     1
102
RTVSPropertyOp2
 70
     1
102
RTVSPropertyOp3
 70
     1
102
RTVSPropertyOp4
 70
     1
102
RTVSPropertyOp5
 70
     1
102
RTVSPropertyOp6
 70
     1
102
RTVSPropertyOp7
 70
     1
102
RTVSPropertyOp8
 70
     1
102
RTVSPropertyOp9
 70
     1
102
RTVSPropertyOp10
 70
     1
102
RTVSPropertyOp11
 70
     1
102
RTVSPropertyOp12
 70
     1
102
RTVSPropertyOp13
 70
     1
102
RTVSPropertyOp14
 70
     1
102
RTVSPropertyOp15
 70
     1
102
RTVSPropertyOp16
 70
     1
102
RTVSPropertyOp17
 70
     1
102
RTVSPropertyOp18
 70
     1
102
RTVSPropertyOp19
 70
     1
102
RTVSPropertyOp20
 70
     1
102
RTVSPropertyOp21
 70
     1
102
RTVSPropertyOp22
 70
     1
102
RTVSPropertyOp23
 70
     1
102
RTVSPropertyOp24
 70
     1
102
RTVSPropertyOp25
 70
     1
102
RTVSPropertyOp26
 70
     1
102
RTVSPropertyOp27
 70
     1
102
RTVSPropertyOp28
 70
     1
102
RTVSPropertyOp29
 70
     1
102
RTVSPropertyOp30
 70
     1
102
RTVSPropertyOp31
 70
     1
102
RTVSPropertyOp32
 70
     1
102
RTVSPropertyOp33
 70
     1
102
RTVSPropertyOp34
 70
     1
102
RTVSPropertyOp35
 70
     1
102
RTVSPropertyOp36
 70
     1
102
RTVSPropertyOp37
 70
     1
102
RTVSPropertyOp38
 70
     1
102
RTVSPropertyOp39
 70
     1
102
RTVSPropertyOp40
 70
     1
102
RTVSPropertyOp41
 70
     1
102
RTVSPropertyOp42
 70
     1
102
RTVSPropertyOp43
 70
     1
102
RTVSPropertyOp44
 70
     1
102
RTVSPropertyOp45
 70
     1
102
RTVSPropertyOp46
 70
     1
102
RTVSPropertyOp47
 70
     1
102
RTVSPropertyOp48
 70
     1
102
RTVSPropertyOp49
 70
     1
102
RTVSPropertyOp50
 70
     1
102
RTVSPropertyOp51
 70
     0
102
RTVSPropertyOp52
 70
     0
102
RTVSPropertyOp53
 70
     1
102
RTVSPropertyOp54
 70
     1
102
RTVSPropertyOp55
 70
     1
102
RTVSPropertyOp56
 70
     1
102
RTVSPropertyOp57
 70
     1
102
RTVSPost2010Prop28
280
     0
102
RTVSPost2010PropOp28
 70
     1
102
RTVSPost2010Prop29
280
     1
102
RTVSPost2010PropOp29
 70
     1
102
RTVSPost2010Prop30
280
     1
102
RTVSPost2010PropOp30
 70
     1
102
RTVSPost2010Prop31
280
     0
102
RTVSPost2010PropOp31
 70
     1
102
RTVSPost2010Prop32
280
     0
102
RTVSPost2010PropOp32
 70
     1
102
RTVSPost2010Prop33
280
     0
102
RTVSPost2010PropOp33
 70
     1
102
RTVSPost2010Prop34
280
     0
102
RTVSPost2010PropOp34
 70
     1
102
RTVSPost2010Prop35
280
     0
102
RTVSPost2010PropOp35
 70
     1
102
RTVSPost2010Prop36
280
     0
102
RTVSPost2010PropOp36
 70
     1
102
RTVSPost2010Prop37
 90
       50
102
RTVSPost2010PropOp37
 70
     1
102
RTVSPost2010Prop38
140
0.0
102
RTVSPost2010PropOp38
 70
     1
102
RTVSPost2010Prop39
140
1.0
102
RTVSPost2010PropOp39
 70
     1
102
RTVSPost2010Prop40
 90
        0
102
RTVSPost2010PropOp40
 70
     1
102
RTVSPost2010Prop41ColorIndex
 90
       18
102
RTVSPost2010Prop41ColorRGB
 90
        0
102
RTVSPost2010PropOp41
 70
     1
102
RTVSPost2010Prop42
 90
       50
102
RTVSPost2010PropOp42
 70
     1
102
RTVSPost2010Prop43
 90
        3
102
RTVSPost2010PropOp43
 70
     1
102
RTVSPost2010Prop44ColorIndex
 90
        5
102
RTVSPost2010Prop44ColorRGB
 90
      255
102
RTVSPost2010PropOp44
 70
     1
102
RTVSPost2010Prop45
280
     0
102
RTVSPost2010PropOp45
 70
     1
102
RTVSPost2010Prop46
 90
       50
102
RTVSPost2010PropOp46
 70
     1
102
RTVSPost2010Prop47
 90
       50
102
RTVSPost2010PropOp47
 70
     1
102
RTVSPost2010Prop48
 90
       50
102
RTVSPost2010PropOp48
 70
     1
102
RTVSPost2010Prop49
280
     0
102
RTVSPost2010PropOp49
 70
     1
102
RTVSPost2010Prop50
 90
       50
102
RTVSPost2010PropOp50
 70
     1
102
RTVSPost2010Prop51ColorIndex
 90
      256
102
RTVSPost2010Prop51ColorRGB
 90
-16777216
102
RTVSPost2010PropOp51
 70
     0
102
RTVSPost2010Prop52
140
1.0
102
RTVSPost2010PropOp52
 70
     0
102
RTVSPost2010Prop53
 90
        2
102
RTVSPost2010PropOp53
 70
     1
102
RTVSPost2010Prop54
  1
strokes_ogs.tif
102
RTVSPost2010PropOp54
 70
     1
102
RTVSPost2010Prop55
280
     0
102
RTVSPost2010PropOp55
 70
     1
102
RTVSPost2010Prop56
140
1.0
102
RTVSPost2010PropOp56
 70
     1
102
RTVSPost2010Prop57
140
1.0
102
RTVSPost2010PropOp57
 70
     1
  0
XRECORD
  5
4D1
102
{ACAD_REACTORS
330
4D0
102
}
330
4D0
100
AcDbXrecord
280
     1
102
RTVSPropertyOp0
 70
     1
102
RTVSPropertyOp1
 70
     1
102
RTVSPropertyOp2
 70
     1
102
RTVSPropertyOp3
 70
     1
102
RTVSPropertyOp4
 70
     1
102
RTVSPropertyOp5
 70
     1
102
RTVSPropertyOp6
 70
     1
102
RTVSPropertyOp7
 70
     1
102
RTVSPropertyOp8
 70
     1
102
RTVSPropertyOp9
 70
     1
102
RTVSPropertyOp10
 70
     1
102
RTVSPropertyOp11
 70
     1
102
RTVSPropertyOp12
 70
     1
102
RTVSPropertyOp13
 70
     1
102
RTVSPropertyOp14
 70
     1
102
RTVSPropertyOp15
 70
     1
102
RTVSPropertyOp16
 70
     1
102
RTVSPropertyOp17
 70
     1
102
RTVSPropertyOp18
 70
     1
102
RTVSPropertyOp19
 70
     1
102
RTVSPropertyOp20
 70
     1
102
RTVSPropertyOp21
 70
     1
102
RTVSPropertyOp22
 70
     1
102
RTVSPropertyOp23
 70
     1
102
RTVSPropertyOp24
 70
     1
102
RTVSPropertyOp25
 70
     1
102
RTVSPropertyOp26
 70
     1
102
RTVSPropertyOp27
 70
     1
102
RTVSPropertyOp28
 70
     1
102
RTVSPropertyOp29
 70
     1
102
RTVSPropertyOp30
 70
     1
102
RTVSPropertyOp31
 70
     1
102
RTVSPropertyOp32
 70
     1
102
RTVSPropertyOp33
 70
     1
102
RTVSPropertyOp34
 70
     1
102
RTVSPropertyOp35
 70
     1
102
RTVSPropertyOp36
 70
     1
102
RTVSPropertyOp37
 70
     1
102
RTVSPropertyOp38
 70
     1
102
RTVSPropertyOp39
 70
     1
102
RTVSPropertyOp40
 70
     1
102
RTVSPropertyOp41
 70
     1
102
RTVSPropertyOp42
 70
     1
102
RTVSPropertyOp43
 70
     1
102
RTVSPropertyOp44
 70
     1
102
RTVSPropertyOp45
 70
     1
102
RTVSPropertyOp46
 70
     1
102
RTVSPropertyOp47
 70
     1
102
RTVSPropertyOp48
 70
     1
102
RTVSPropertyOp49
 70
     1
102
RTVSPropertyOp50
 70
     1
102
RTVSPropertyOp51
 70
     0
102
RTVSPropertyOp52
 70
     0
102
RTVSPropertyOp53
 70
     1
102
RTVSPropertyOp54
 70
     1
102
RTVSPropertyOp55
 70
     1
102
RTVSPropertyOp56
 70
     1
102
RTVSPropertyOp57
 70
     1
102
RTVSPost2010Prop28
280
     0
102
RTVSPost2010PropOp28
 70
     1
102
RTVSPost2010Prop29
280
     1
102
RTVSPost2010PropOp29
 70
     1
102
RTVSPost2010Prop30
280
     1
102
RTVSPost2010PropOp30
 70
     1
102
RTVSPost2010Prop31
280
     0
102
RTVSPost2010PropOp31
 70
     1
102
RTVSPost2010Prop32
280
     0
102
RTVSPost2010PropOp32
 70
     1
102
RTVSPost2010Prop33
280
     0
102
RTVSPost2010PropOp33
 70
     1
102
RTVSPost2010Prop34
280
     0
102
RTVSPost2010PropOp34
 70
     1
102
RTVSPost2010Prop35
280
     0
102
RTVSPost2010PropOp35
 70
     1
102
RTVSPost2010Prop36
280
     0
102
RTVSPost2010PropOp36
 70
     1
102
RTVSPost2010Prop37
 90
       50
102
RTVSPost2010PropOp37
 70
     1
102
RTVSPost2010Prop38
140
0.0
102
RTVSPost2010PropOp38
 70
     1
102
RTVSPost2010Prop39
140
1.0
102
RTVSPost2010PropOp39
 70
     1
102
RTVSPost2010Prop40
 90
        0
102
RTVSPost2010PropOp40
 70
     1
102
RTVSPost2010Prop41ColorIndex
 90
       18
102
RTVSPost2010Prop41ColorRGB
 90
        0
102
RTVSPost2010PropOp41
 70
     1
102
RTVSPost2010Prop42
 90
       50
102
RTVSPost2010PropOp42
 70
     1
102
RTVSPost2010Prop43
 90
        3
102
RTVSPost2010PropOp43
 70
     1
102
RTVSPost2010Prop44ColorIndex
 90
        5
102
RTVSPost2010Prop44ColorRGB
 90
      255
102
RTVSPost2010PropOp44
 70
     1
102
RTVSPost2010Prop45
280
     0
102
RTVSPost2010PropOp45
 70
     1
102
RTVSPost2010Prop46
 90
       50
102
RTVSPost2010PropOp46
 70
     1
102
RTVSPost2010Prop47
 90
       50
102
RTVSPost2010PropOp47
 70
     1
102
RTVSPost2010Prop48
 90
       50
102
RTVSPost2010PropOp48
 70
     1
102
RTVSPost2010Prop49
280
     0
102
RTVSPost2010PropOp49
 70
     1
102
RTVSPost2010Prop50
 90
       50
102
RTVSPost2010PropOp50
 70
     1
102
RTVSPost2010Prop51ColorIndex
 90
      256
102
RTVSPost2010Prop51ColorRGB
 90
-16777216
102
RTVSPost2010PropOp51
 70
     0
102
RTVSPost2010Prop52
140
1.0
102
RTVSPost2010PropOp52
 70
     0
102
RTVSPost2010Prop53
 90
        2
102
RTVSPost2010PropOp53
 70
     1
102
RTVSPost2010Prop54
  1
strokes_ogs.tif
102
RTVSPost2010PropOp54
 70
     1
102
RTVSPost2010Prop55
280
     0
102
RTVSPost2010PropOp55
 70
     1
102
RTVSPost2010Prop56
140
1.0
102
RTVSPost2010PropOp56
 70
     1
102
RTVSPost2010Prop57
140
1.0
102
RTVSPost2010PropOp57
 70
     1
  0
XRECORD
  5
4C3
102
{ACAD_REACTORS
330
4C2
102
}
330
4C2
100
AcDbXrecord
280
     1
102
RTVSPropertyOp0
 70
     1
102
RTVSPropertyOp1
 70
     1
102
RTVSPropertyOp2
 70
     1
102
RTVSPropertyOp3
 70
     1
102
RTVSPropertyOp4
 70
     1
102
RTVSPropertyOp5
 70
     1
102
RTVSPropertyOp6
 70
     1
102
RTVSPropertyOp7
 70
     1
102
RTVSPropertyOp8
 70
     1
102
RTVSPropertyOp9
 70
     1
102
RTVSPropertyOp10
 70
     1
102
RTVSPropertyOp11
 70
     1
102
RTVSPropertyOp12
 70
     1
102
RTVSPropertyOp13
 70
     1
102
RTVSPropertyOp14
 70
     1
102
RTVSPropertyOp15
 70
     1
102
RTVSPropertyOp16
 70
     1
102
RTVSPropertyOp17
 70
     1
102
RTVSPropertyOp18
 70
     1
102
RTVSPropertyOp19
 70
     1
102
RTVSPropertyOp20
 70
     1
102
RTVSPropertyOp21
 70
     1
102
RTVSPropertyOp22
 70
     1
102
RTVSPropertyOp23
 70
     1
102
RTVSPropertyOp24
 70
     1
102
RTVSPropertyOp25
 70
     1
102
RTVSPropertyOp26
 70
     1
102
RTVSPropertyOp27
 70
     1
102
RTVSPropertyOp28
 70
     1
102
RTVSPropertyOp29
 70
     1
102
RTVSPropertyOp30
 70
     1
102
RTVSPropertyOp31
 70
     1
102
RTVSPropertyOp32
 70
     1
102
RTVSPropertyOp33
 70
     1
102
RTVSPropertyOp34
 70
     1
102
RTVSPropertyOp35
 70
     1
102
RTVSPropertyOp36
 70
     1
102
RTVSPropertyOp37
 70
     1
102
RTVSPropertyOp38
 70
     1
102
RTVSPropertyOp39
 70
     1
102
RTVSPropertyOp40
 70
     1
102
RTVSPropertyOp41
 70
     1
102
RTVSPropertyOp42
 70
     1
102
RTVSPropertyOp43
 70
     1
102
RTVSPropertyOp44
 70
     1
102
RTVSPropertyOp45
 70
     1
102
RTVSPropertyOp46
 70
     1
102
RTVSPropertyOp47
 70
     1
102
RTVSPropertyOp48
 70
     1
102
RTVSPropertyOp49
 70
     1
102
RTVSPropertyOp50
 70
     1
102
RTVSPropertyOp51
 70
     0
102
RTVSPropertyOp52
 70
     0
102
RTVSPropertyOp53
 70
     1
102
RTVSPropertyOp54
 70
     1
102
RTVSPropertyOp55
 70
     1
102
RTVSPropertyOp56
 70
     1
102
RTVSPropertyOp57
 70
     1
102
RTVSPost2010Prop28
280
     0
102
RTVSPost2010PropOp28
 70
     1
102
RTVSPost2010Prop29
280
     1
102
RTVSPost2010PropOp29
 70
     1
102
RTVSPost2010Prop30
280
     1
102
RTVSPost2010PropOp30
 70
     1
102
RTVSPost2010Prop31
280
     0
102
RTVSPost2010PropOp31
 70
     1
102
RTVSPost2010Prop32
280
     0
102
RTVSPost2010PropOp32
 70
     1
102
RTVSPost2010Prop33
280
     0
102
RTVSPost2010PropOp33
 70
     1
102
RTVSPost2010Prop34
280
     0
102
RTVSPost2010PropOp34
 70
     1
102
RTVSPost2010Prop35
280
     0
102
RTVSPost2010PropOp35
 70
     1
102
RTVSPost2010Prop36
280
     0
102
RTVSPost2010PropOp36
 70
     1
102
RTVSPost2010Prop37
 90
       50
102
RTVSPost2010PropOp37
 70
     1
102
RTVSPost2010Prop38
140
0.0
102
RTVSPost2010PropOp38
 70
     1
102
RTVSPost2010Prop39
140
1.0
102
RTVSPost2010PropOp39
 70
     1
102
RTVSPost2010Prop40
 90
        0
102
RTVSPost2010PropOp40
 70
     1
102
RTVSPost2010Prop41ColorIndex
 90
       18
102
RTVSPost2010Prop41ColorRGB
 90
        0
102
RTVSPost2010PropOp41
 70
     1
102
RTVSPost2010Prop42
 90
       50
102
RTVSPost2010PropOp42
 70
     1
102
RTVSPost2010Prop43
 90
        3
102
RTVSPost2010PropOp43
 70
     1
102
RTVSPost2010Prop44ColorIndex
 90
        5
102
RTVSPost2010Prop44ColorRGB
 90
      255
102
RTVSPost2010PropOp44
 70
     1
102
RTVSPost2010Prop45
280
     0
102
RTVSPost2010PropOp45
 70
     1
102
RTVSPost2010Prop46
 90
       50
102
RTVSPost2010PropOp46
 70
     1
102
RTVSPost2010Prop47
 90
       50
102
RTVSPost2010PropOp47
 70
     1
102
RTVSPost2010Prop48
 90
       50
102
RTVSPost2010PropOp48
 70
     1
102
RTVSPost2010Prop49
280
     0
102
RTVSPost2010PropOp49
 70
     1
102
RTVSPost2010Prop50
 90
       50
102
RTVSPost2010PropOp50
 70
     1
102
RTVSPost2010Prop51ColorIndex
 90
      256
102
RTVSPost2010Prop51ColorRGB
 90
-16777216
102
RTVSPost2010PropOp51
 70
     0
102
RTVSPost2010Prop52
140
1.0
102
RTVSPost2010PropOp52
 70
     0
102
RTVSPost2010Prop53
 90
        2
102
RTVSPost2010PropOp53
 70
     1
102
RTVSPost2010Prop54
  1
strokes_ogs.tif
102
RTVSPost2010PropOp54
 70
     1
102
RTVSPost2010Prop55
280
     0
102
RTVSPost2010PropOp55
 70
     1
102
RTVSPost2010Prop56
140
1.0
102
RTVSPost2010PropOp56
 70
     1
102
RTVSPost2010Prop57
140
1.0
102
RTVSPost2010PropOp57
 70
     1
  0
XRECORD
  5
4E3
102
{ACAD_REACTORS
330
4E2
102
}
330
4E2
100
AcDbXrecord
280
     1
102
RTVSPropertyOp0
 70
     1
102
RTVSPropertyOp1
 70
     1
102
RTVSPropertyOp2
 70
     1
102
RTVSPropertyOp3
 70
     1
102
RTVSPropertyOp4
 70
     1
102
RTVSPropertyOp5
 70
     1
102
RTVSPropertyOp6
 70
     1
102
RTVSPropertyOp7
 70
     1
102
RTVSPropertyOp8
 70
     1
102
RTVSPropertyOp9
 70
     1
102
RTVSPropertyOp10
 70
     1
102
RTVSPropertyOp11
 70
     1
102
RTVSPropertyOp12
 70
     1
102
RTVSPropertyOp13
 70
     1
102
RTVSPropertyOp14
 70
     1
102
RTVSPropertyOp15
 70
     1
102
RTVSPropertyOp16
 70
     1
102
RTVSPropertyOp17
 70
     1
102
RTVSPropertyOp18
 70
     1
102
RTVSPropertyOp19
 70
     1
102
RTVSPropertyOp20
 70
     1
102
RTVSPropertyOp21
 70
     1
102
RTVSPropertyOp22
 70
     1
102
RTVSPropertyOp23
 70
     1
102
RTVSPropertyOp24
 70
     1
102
RTVSPropertyOp25
 70
     1
102
RTVSPropertyOp26
 70
     1
102
RTVSPropertyOp27
 70
     1
102
RTVSPropertyOp28
 70
     1
102
RTVSPropertyOp29
 70
     1
102
RTVSPropertyOp30
 70
     1
102
RTVSPropertyOp31
 70
     1
102
RTVSPropertyOp32
 70
     1
102
RTVSPropertyOp33
 70
     1
102
RTVSPropertyOp34
 70
     1
102
RTVSPropertyOp35
 70
     1
102
RTVSPropertyOp36
 70
     1
102
RTVSPropertyOp37
 70
     1
102
RTVSPropertyOp38
 70
     1
102
RTVSPropertyOp39
 70
     1
102
RTVSPropertyOp40
 70
     1
102
RTVSPropertyOp41
 70
     1
102
RTVSPropertyOp42
 70
     1
102
RTVSPropertyOp43
 70
     1
102
RTVSPropertyOp44
 70
     1
102
RTVSPropertyOp45
 70
     1
102
RTVSPropertyOp46
 70
     1
102
RTVSPropertyOp47
 70
     1
102
RTVSPropertyOp48
 70
     1
102
RTVSPropertyOp49
 70
     1
102
RTVSPropertyOp50
 70
     1
102
RTVSPropertyOp51
 70
     0
102
RTVSPropertyOp52
 70
     0
102
RTVSPropertyOp53
 70
     1
102
RTVSPropertyOp54
 70
     1
102
RTVSPropertyOp55
 70
     1
102
RTVSPropertyOp56
 70
     1
102
RTVSPropertyOp57
 70
     1
102
RTVSPost2010Prop28
280
     0
102
RTVSPost2010PropOp28
 70
     1
102
RTVSPost2010Prop29
280
     1
102
RTVSPost2010PropOp29
 70
     1
102
RTVSPost2010Prop30
280
     1
102
RTVSPost2010PropOp30
 70
     1
102
RTVSPost2010Prop31
280
     0
102
RTVSPost2010PropOp31
 70
     1
102
RTVSPost2010Prop32
280
     0
102
RTVSPost2010PropOp32
 70
     1
102
RTVSPost2010Prop33
280
     0
102
RTVSPost2010PropOp33
 70
     1
102
RTVSPost2010Prop34
280
     0
102
RTVSPost2010PropOp34
 70
     1
102
RTVSPost2010Prop35
280
     0
102
RTVSPost2010PropOp35
 70
     1
102
RTVSPost2010Prop36
280
     0
102
RTVSPost2010PropOp36
 70
     1
102
RTVSPost2010Prop37
 90
       50
102
RTVSPost2010PropOp37
 70
     1
102
RTVSPost2010Prop38
140
0.0
102
RTVSPost2010PropOp38
 70
     1
102
RTVSPost2010Prop39
140
1.0
102
RTVSPost2010PropOp39
 70
     1
102
RTVSPost2010Prop40
 90
        0
102
RTVSPost2010PropOp40
 70
     1
102
RTVSPost2010Prop41ColorIndex
 90
       18
102
RTVSPost2010Prop41ColorRGB
 90
        0
102
RTVSPost2010PropOp41
 70
     1
102
RTVSPost2010Prop42
 90
       50
102
RTVSPost2010PropOp42
 70
     1
102
RTVSPost2010Prop43
 90
        3
102
RTVSPost2010PropOp43
 70
     1
102
RTVSPost2010Prop44ColorIndex
 90
        5
102
RTVSPost2010Prop44ColorRGB
 90
      255
102
RTVSPost2010PropOp44
 70
     1
102
RTVSPost2010Prop45
280
     0
102
RTVSPost2010PropOp45
 70
     1
102
RTVSPost2010Prop46
 90
       50
102
RTVSPost2010PropOp46
 70
     1
102
RTVSPost2010Prop47
 90
       50
102
RTVSPost2010PropOp47
 70
     1
102
RTVSPost2010Prop48
 90
       50
102
RTVSPost2010PropOp48
 70
     1
102
RTVSPost2010Prop49
280
     0
102
RTVSPost2010PropOp49
 70
     1
102
RTVSPost2010Prop50
 90
       50
102
RTVSPost2010PropOp50
 70
     1
102
RTVSPost2010Prop51ColorIndex
 90
      256
102
RTVSPost2010Prop51ColorRGB
 90
-16777216
102
RTVSPost2010PropOp51
 70
     0
102
RTVSPost2010Prop52
140
1.0
102
RTVSPost2010PropOp52
 70
     0
102
RTVSPost2010Prop53
 90
        2
102
RTVSPost2010PropOp53
 70
     1
102
RTVSPost2010Prop54
  1
strokes_ogs.tif
102
RTVSPost2010PropOp54
 70
     1
102
RTVSPost2010Prop55
280
     0
102
RTVSPost2010PropOp55
 70
     1
102
RTVSPost2010Prop56
140
1.0
102
RTVSPost2010PropOp56
 70
     1
102
RTVSPost2010Prop57
140
1.0
102
RTVSPost2010PropOp57
 70
     1
  0
ENDSEC
  0
EOF
