  0
SECTION
  2
HEADER
  9
$ACADVER
  1
AC1014
  9
$HANDSEED
  5
FFFF
  9
$MEASUREMENT
 70
     1
  0
ENDSEC
  0
SECTION
  2
TABLES
  0
TABLE
  2
VPORT
  5
8
330
0
100
AcDbSymbolTable
 70
     4
  0
VPORT
  5
2E
330
8
100
AcDbSymbolTableRecord
100
AcDbViewportTableRecord
  2
*ACTIVE
 70
     0
 10
0.0
 20
0.0
 11
1.0
 21
1.0
 12
210.0
 22
148.5
 13
0.0
 23
0.0
 14
10.0
 24
10.0
 15
10.0
 25
10.0
 16
0.0
 26
0.0
 36
1.0
 17
0.0
 27
0.0
 37
0.0
 40
341.0
 41
1.24
 42
50.0
 43
0.0
 44
0.0
 50
0.0
 51
0.0
 71
     0
 72
   100
 73
     1
 74
     3
 75
     0
 76
     0
 77
     0
 78
     0
  0
ENDTAB
  0
TABLE
  2
LTYPE
  5
5
330
0
100
AcDbSymbolTable
 70
     1
  0
LTYPE
  5
14
330
5
100
AcDbSymbolTableRecord
100
AcDbLinetypeTableRecord
  2
BYBLOCK
 70
     0
  3

 72
    65
 73
     0
 40
0.0
  0
LTYPE
  5
15
330
5
100
AcDbSymbolTableRecord
100
AcDbLinetypeTableRecord
  2
BYLAYER
 70
     0
  3

 72
    65
 73
     0
 40
0.0
  0
LTYPE
  5
16
330
5
100
AcDbSymbolTableRecord
100
AcDbLinetypeTableRecord
  2
CONTINUOUS
 70
     0
  3
Solid line
 72
    65
 73
     0
 40
0.0
  0
ENDTAB
  0
TABLE
  2
LAYER
  5
2
100
AcDbSymbolTable
 70
4
  0
LAYER
  5
50
100
AcDbSymbolTableRecord
100
AcDbLayerTableRecord
  2
0
 70
0
  6
CONTINUOUS
  0
LAYER
  5
51
100
AcDbSymbolTableRecord
100
AcDbLayerTableRecord
  2
Profile
 70
0
  6
CONTINUOUS
  0
LAYER
  5
52
100
AcDbSymbolTableRecord
100
AcDbLayerTableRecord
  2
Holes
 70
0
  6
CONTINUOUS
  0
LAYER
  5
53
100
AcDbSymbolTableRecord
100
AcDbLayerTableRecord
  2
Pocket
 70
0
  6
CONTINUOUS
  0
ENDTAB
  0
TABLE
  2
STYLE
  5
3
330
0
100
AcDbSymbolTable
 70
     1
  0
STYLE
  5
11
330
3
100
AcDbSymbolTableRecord
100
AcDbTextStyleTableRecord
  2
STANDARD
 70
     0
 40
0.0
 41
1.0
 50
0.0
 71
     0
 42
2.5
  3
txt
  4

  0
ENDTAB
  0
TABLE
  2
VIEW
  5
6
330
0
100
AcDbSymbolTable
 70
     0
  0
ENDTAB
  0
TABLE
  2
UCS
  5
7
330
0
100
AcDbSymbolTable
 70
     0
  0
ENDTAB
  0
TABLE
  2
APPID
  5
9
330
0
100
AcDbSymbolTable
 70
     2
  0
APPID
  5
12
330
9
100
AcDbSymbolTableRecord
100
AcDbRegAppTableRecord
  2
ACAD
 70
     0
  0
ENDTAB
  0
TABLE
  2
DIMSTYLE
  5
A
330
0
100
AcDbSymbolTable
 70
     1
  0
DIMSTYLE
105
27
330
A
100
AcDbSymbolTableRecord
100
AcDbDimStyleTableRecord
  2
ISO-25
 70
     0
  3

  4

  5

  6

  7

 40
1.0
 41
2.5
 42
0.625
 43
3.75
 44
1.25
 45
0.0
 46
0.0
 47
0.0
 48
0.0
140
2.5
141
2.5
142
0.0
143
0.03937007874016
144
1.0
145
0.0
146
1.0
147
0.625
 71
     0
 72
     0
 73
     0
 74
     0
 75
     0
 76
     0
 77
     1
 78
     8
170
     0
171
     3
172
     1
173
     0
174
     0
175
     0
176
     0
177
     0
178
     0
270
     2
271
     2
272
     2
273
     2
274
     3
340
11
275
     0
280
     0
281
     0
282
     0
283
     0
284
     8
285
     0
286
     0
287
     3
288
     0
  0
ENDTAB
  0
TABLE
  2
BLOCK_RECORD
  5
1
330
0
100
AcDbSymbolTable
 70
     1
  0
BLOCK_RECORD
  5
1F
330
1
100
AcDbSymbolTableRecord
100
AcDbBlockTableRecord
  2
*MODEL_SPACE
  0
BLOCK_RECORD
  5
1B
330
1
100
AcDbSymbolTableRecord
100
AcDbBlockTableRecord
  2
*PAPER_SPACE
  0
ENDTAB
  0
ENDSEC
  0
SECTION
  2
BLOCKS
  0
BLOCK
  5
20
330
1F
100
AcDbEntity
  8
0
100
AcDbBlockBegin
  2
*MODEL_SPACE
 70
     0
 10
0.0
 20
0.0
 30
0.0
  3
*MODEL_SPACE
  1

  0
ENDBLK
  5
21
330
1F
100
AcDbEntity
  8
0
100
AcDbBlockEnd
  0
BLOCK
  5
1C
330
1B
100
AcDbEntity
 67
     1
  8
0
100
AcDbBlockBegin
  2
*PAPER_SPACE
  1

  0
ENDBLK
  5
1D
330
1B
100
AcDbEntity
 67
     1
  8
0
100
AcDbBlockEnd
  0
ENDSEC
  0
SECTION
  2
ENTITIES
  0
SPLINE
  5
100
100
AcDbEntity
  8
Profile
 62
7
100
AcDbSpline
 70
8
 71
3
 72
8
 73
4
 74
0
 40
0
 40
0
 40
0
 40
0
 40
1
 40
1
 40
1
 40
1
 10
1884.200209
 20
164.520673
 30
0.0
 10
1878.724991
 20
164.514820
 30
0.0
 10
1874.289551
 20
160.074636
 30
0.0
 10
1874.289551
 20
154.599414
 30
0.0
  0
SPLINE
  5
101
100
AcDbEntity
  8
Profile
 62
7
100
AcDbSpline
 70
8
 71
3
 72
8
 73
4
 74
0
 40
0
 40
0
 40
0
 40
0
 40
1
 40
1
 40
1
 40
1
 10
1874.289551
 20
154.599414
 30
0.0
 10
1874.289551
 20
149.124192
 30
0.0
 10
1878.724991
 20
144.684008
 30
0.0
 10
1884.200209
 20
144.678155
 30
0.0
  0
LWPOLYLINE
  5
102
100
AcDbEntity
  8
Profile
 62
7
100
AcDbPolyline
 90
2
 70
0
 10
1884.205879
 20
113.496968
 30
0.0
 10
1884.205879
 20
144.678155
 30
0.0
  0
LWPOLYLINE
  5
103
100
AcDbEntity
  8
Profile
 62
7
100
AcDbPolyline
 90
2
 70
0
 10
1246.410658
 20
113.426102
 30
0.0
 10
1884.205879
 20
113.497252
 30
0.0
  0
SPLINE
  5
104
100
AcDbEntity
  8
Profile
 62
7
100
AcDbSpline
 70
8
 71
3
 72
8
 73
4
 74
0
 40
0
 40
0
 40
0
 40
0
 40
1
 40
1
 40
1
 40
1
 10
2663.497081
 20
2239.567817
 30
0.0
 10
2663.424441
 20
2435.223256
 30
0.0
 10
2504.782462
 20
2593.788714
 30
0.0
 10
2309.127010
 20
2593.766958
 30
0.0
  0
SPLINE
  5
105
100
AcDbEntity
  8
Profile
 62
7
100
AcDbSpline
 70
8
 71
3
 72
8
 73
4
 74
0
 40
0
 40
0
 40
0
 40
0
 40
1
 40
1
 40
1
 40
1
 10
2309.127010
 20
2593.766958
 30
0.0
 10
2113.471558
 20
2593.745201
 30
0.0
 10
1954.864848
 20
2435.144464
 30
0.0
 10
1954.835721
 20
2239.489014
 30
0.0
  0
LWPOLYLINE
  5
106
100
AcDbEntity
  8
Profile
 62
7
100
AcDbPolyline
 90
4
 70
0
 10
1246.410658
 20
113.426102
 30
0.0
 10
1246.399319
 20
215.473342
 30
0.0
 10
1954.981876
 20
924.213553
 30
0.0
 10
1954.835608
 20
2239.489014
 30
0.0
  0
LWPOLYLINE
  5
107
100
AcDbEntity
  8
Profile
 62
7
100
AcDbPolyline
 90
4
 70
0
 10
2663.497081
 20
2239.567817
 30
0.0
 10
2663.643349
 20
924.292257
 30
0.0
 10
3372.383484
 20
215.709695
 30
0.0
 10
3372.383484
 20
113.662455
 30
0.0
  0
LWPOLYLINE
  5
108
100
AcDbEntity
  8
Profile
 62
7
100
AcDbPolyline
 90
2
 70
0
 10
2734.599516
 20
113.591589
 30
0.0
 10
3372.394822
 20
113.662172
 30
0.0
  0
SPLINE
  5
109
100
AcDbEntity
  8
Profile
 62
7
100
AcDbSpline
 70
8
 71
3
 72
8
 73
4
 74
0
 40
0
 40
0
 40
0
 40
0
 40
1
 40
1
 40
1
 40
1
 10
2734.596030
 20
144.772605
 30
0.0
 10
2740.071271
 20
144.779043
 30
0.0
 10
2744.506246
 20
149.219738
 30
0.0
 10
2744.505628
 20
154.694983
 30
0.0
  0
SPLINE
  5
10a
100
AcDbEntity
  8
Profile
 62
7
100
AcDbSpline
 70
8
 71
3
 72
8
 73
4
 74
0
 40
0
 40
0
 40
0
 40
0
 40
1
 40
1
 40
1
 40
1
 10
2744.505628
 20
154.694983
 30
0.0
 10
2744.505010
 20
160.170228
 30
0.0
 10
2740.069033
 20
164.609921
 30
0.0
 10
2734.593790
 20
164.615124
 30
0.0
  0
LWPOLYLINE
  5
10b
100
AcDbEntity
  8
Profile
 62
7
100
AcDbPolyline
 90
2
 70
0
 10
2734.596030
 20
144.772605
 30
0.0
 10
2734.598864
 20
113.591589
 30
0.0
  0
LWPOLYLINE
  5
10c
100
AcDbEntity
  8
Profile
 62
7
100
AcDbPolyline
 90
2
 70
0
 10
2334.908852
 20
164.570620
 30
0.0
 10
2734.593847
 20
164.614840
 30
0.0
  0
SPLINE
  5
10d
100
AcDbEntity
  8
Profile
 62
7
100
AcDbSpline
 70
8
 71
3
 72
8
 73
4
 74
0
 40
0
 40
0
 40
0
 40
0
 40
1
 40
1
 40
1
 40
1
 10
2334.837901
 20
802.365849
 30
0.0
 10
2338.384213
 20
802.363169
 30
0.0
 10
2341.662288
 20
804.253564
 30
0.0
 10
2343.436218
 20
807.324314
 30
0.0
  0
SPLINE
  5
10e
100
AcDbEntity
  8
Profile
 62
7
100
AcDbSpline
 70
8
 71
3
 72
8
 73
4
 74
0
 40
0
 40
0
 40
0
 40
0
 40
1
 40
1
 40
1
 40
1
 10
2343.436218
 20
807.324314
 30
0.0
 10
2345.210149
 20
810.395065
 30
0.0
 10
2345.210149
 20
814.179159
 30
0.0
 10
2343.436218
 20
817.249909
 30
0.0
  0
SPLINE
  5
10f
100
AcDbEntity
  8
Profile
 62
7
100
AcDbSpline
 70
8
 71
3
 72
8
 73
4
 74
0
 40
0
 40
0
 40
0
 40
0
 40
1
 40
1
 40
1
 40
1
 10
2343.436218
 20
817.249909
 30
0.0
 10
2341.662288
 20
820.320659
 30
0.0
 10
2338.384213
 20
822.211055
 30
0.0
 10
2334.837901
 20
822.208374
 30
0.0
  0
LWPOLYLINE
  5
110
100
AcDbEntity
  8
Profile
 62
7
100
AcDbPolyline
 90
2
 70
0
 10
2334.908852
 20
164.570620
 30
0.0
 10
2334.838270
 20
802.365849
 30
0.0
  0
SPLINE
  5
111
100
AcDbEntity
  8
Profile
 62
7
100
AcDbSpline
 70
8
 71
3
 72
8
 73
4
 74
0
 40
0
 40
0
 40
0
 40
0
 40
1
 40
1
 40
1
 40
1
 10
2283.812098
 20
822.202674
 30
0.0
 10
2280.265832
 20
822.205287
 30
0.0
 10
2276.987828
 20
820.314876
 30
0.0
 10
2275.213940
 20
817.244154
 30
0.0
  0
SPLINE
  5
112
100
AcDbEntity
  8
Profile
 62
7
100
AcDbSpline
 70
8
 71
3
 72
8
 73
4
 74
0
 40
0
 40
0
 40
0
 40
0
 40
1
 40
1
 40
1
 40
1
 10
2275.213940
 20
817.244154
 30
0.0
 10
2273.440051
 20
814.173432
 30
0.0
 10
2273.440051
 20
810.389391
 30
0.0
 10
2275.213940
 20
807.318669
 30
0.0
  0
SPLINE
  5
113
100
AcDbEntity
  8
Profile
 62
7
100
AcDbSpline
 70
8
 71
3
 72
8
 73
4
 74
0
 40
0
 40
0
 40
0
 40
0
 40
1
 40
1
 40
1
 40
1
 10
2275.213940
 20
807.318669
 30
0.0
 10
2276.987828
 20
804.247946
 30
0.0
 10
2280.265832
 20
802.357536
 30
0.0
 10
2283.812098
 20
802.360149
 30
0.0
  0
LWPOLYLINE
  5
114
100
AcDbEntity
  8
Profile
 62
7
100
AcDbPolyline
 90
2
 70
0
 10
2334.835662
 20
822.208374
 30
0.0
 10
2283.812098
 20
822.200862
 30
0.0
  0
LWPOLYLINE
  5
115
100
AcDbEntity
  8
Profile
 62
7
100
AcDbPolyline
 90
2
 70
0
 10
2283.814281
 20
802.360149
 30
0.0
 10
2283.884864
 20
164.564979
 30
0.0
  0
SPLINE
  5
116
100
AcDbEntity
  8
Profile
 62
7
100
AcDbSpline
 70
8
 71
3
 72
8
 73
4
 74
0
 40
0
 40
0
 40
0
 40
0
 40
1
 40
1
 40
1
 40
1
 10
1884.200209
 20
164.520673
 30
0.0
 10
1878.724991
 20
164.514820
 30
0.0
 10
1874.289551
 20
160.074636
 30
0.0
 10
1874.289551
 20
154.599414
 30
0.0
  0
SPLINE
  5
117
100
AcDbEntity
  8
Profile
 62
7
100
AcDbSpline
 70
8
 71
3
 72
8
 73
4
 74
0
 40
0
 40
0
 40
0
 40
0
 40
1
 40
1
 40
1
 40
1
 10
1874.289551
 20
154.599414
 30
0.0
 10
1874.289551
 20
149.124192
 30
0.0
 10
1878.724991
 20
144.684008
 30
0.0
 10
1884.200209
 20
144.678155
 30
0.0
  0
LWPOLYLINE
  5
118
100
AcDbEntity
  8
Profile
 62
7
100
AcDbPolyline
 90
2
 70
0
 10
1884.200124
 20
164.520475
 30
0.0
 10
2283.885147
 20
164.564695
 30
0.0
  0
LWPOLYLINE
  5
119
100
AcDbEntity
  8
Profile
 62
7
100
AcDbPolyline
 90
2
 70
0
 10
1884.205879
 20
113.496968
 30
0.0
 10
1884.205879
 20
144.678155
 30
0.0
  0
LWPOLYLINE
  5
11a
100
AcDbEntity
  8
Profile
 62
7
100
AcDbPolyline
 90
2
 70
0
 10
1246.410658
 20
113.426102
 30
0.0
 10
1884.205879
 20
113.497252
 30
0.0
  0
SPLINE
  5
11b
100
AcDbEntity
  8
Profile
 62
7
100
AcDbSpline
 70
8
 71
3
 72
8
 73
4
 74
0
 40
0
 40
0
 40
0
 40
0
 40
1
 40
1
 40
1
 40
1
 10
2663.497081
 20
2239.567817
 30
0.0
 10
2663.424441
 20
2435.223256
 30
0.0
 10
2504.782462
 20
2593.788714
 30
0.0
 10
2309.127010
 20
2593.766958
 30
0.0
  0
SPLINE
  5
11c
100
AcDbEntity
  8
Profile
 62
7
100
AcDbSpline
 70
8
 71
3
 72
8
 73
4
 74
0
 40
0
 40
0
 40
0
 40
0
 40
1
 40
1
 40
1
 40
1
 10
2309.127010
 20
2593.766958
 30
0.0
 10
2113.471558
 20
2593.745201
 30
0.0
 10
1954.864848
 20
2435.144464
 30
0.0
 10
1954.835721
 20
2239.489014
 30
0.0
  0
LWPOLYLINE
  5
11d
100
AcDbEntity
  8
Profile
 62
7
100
AcDbPolyline
 90
4
 70
0
 10
1246.410658
 20
113.426102
 30
0.0
 10
1246.399319
 20
215.473342
 30
0.0
 10
1954.981876
 20
924.213553
 30
0.0
 10
1954.835608
 20
2239.489014
 30
0.0
  0
LWPOLYLINE
  5
11e
100
AcDbEntity
  8
Profile
 62
7
100
AcDbPolyline
 90
4
 70
0
 10
2663.497081
 20
2239.567817
 30
0.0
 10
2663.643349
 20
924.292257
 30
0.0
 10
3372.383484
 20
215.709695
 30
0.0
 10
3372.383484
 20
113.662455
 30
0.0
  0
LWPOLYLINE
  5
11f
100
AcDbEntity
  8
Profile
 62
7
100
AcDbPolyline
 90
2
 70
0
 10
2734.599516
 20
113.591589
 30
0.0
 10
3372.394822
 20
113.662172
 30
0.0
  0
SPLINE
  5
120
100
AcDbEntity
  8
Profile
 62
7
100
AcDbSpline
 70
8
 71
3
 72
8
 73
4
 74
0
 40
0
 40
0
 40
0
 40
0
 40
1
 40
1
 40
1
 40
1
 10
2734.596030
 20
144.772605
 30
0.0
 10
2740.071271
 20
144.779043
 30
0.0
 10
2744.506246
 20
149.219738
 30
0.0
 10
2744.505628
 20
154.694983
 30
0.0
  0
SPLINE
  5
121
100
AcDbEntity
  8
Profile
 62
7
100
AcDbSpline
 70
8
 71
3
 72
8
 73
4
 74
0
 40
0
 40
0
 40
0
 40
0
 40
1
 40
1
 40
1
 40
1
 10
2744.505628
 20
154.694983
 30
0.0
 10
2744.505010
 20
160.170228
 30
0.0
 10
2740.069033
 20
164.609921
 30
0.0
 10
2734.593790
 20
164.615124
 30
0.0
  0
LWPOLYLINE
  5
122
100
AcDbEntity
  8
Profile
 62
7
100
AcDbPolyline
 90
2
 70
0
 10
2734.596030
 20
144.772605
 30
0.0
 10
2734.598864
 20
113.591589
 30
0.0
  0
LWPOLYLINE
  5
123
100
AcDbEntity
  8
Profile
 62
7
100
AcDbPolyline
 90
2
 70
0
 10
2334.908852
 20
164.570620
 30
0.0
 10
2734.593847
 20
164.614840
 30
0.0
  0
SPLINE
  5
124
100
AcDbEntity
  8
Profile
 62
7
100
AcDbSpline
 70
8
 71
3
 72
8
 73
4
 74
0
 40
0
 40
0
 40
0
 40
0
 40
1
 40
1
 40
1
 40
1
 10
2334.837901
 20
802.365849
 30
0.0
 10
2338.384213
 20
802.363169
 30
0.0
 10
2341.662288
 20
804.253564
 30
0.0
 10
2343.436218
 20
807.324314
 30
0.0
  0
SPLINE
  5
125
100
AcDbEntity
  8
Profile
 62
7
100
AcDbSpline
 70
8
 71
3
 72
8
 73
4
 74
0
 40
0
 40
0
 40
0
 40
0
 40
1
 40
1
 40
1
 40
1
 10
2343.436218
 20
807.324314
 30
0.0
 10
2345.210149
 20
810.395065
 30
0.0
 10
2345.210149
 20
814.179159
 30
0.0
 10
2343.436218
 20
817.249909
 30
0.0
  0
SPLINE
  5
126
100
AcDbEntity
  8
Profile
 62
7
100
AcDbSpline
 70
8
 71
3
 72
8
 73
4
 74
0
 40
0
 40
0
 40
0
 40
0
 40
1
 40
1
 40
1
 40
1
 10
2343.436218
 20
817.249909
 30
0.0
 10
2341.662288
 20
820.320659
 30
0.0
 10
2338.384213
 20
822.211055
 30
0.0
 10
2334.837901
 20
822.208374
 30
0.0
  0
LWPOLYLINE
  5
127
100
AcDbEntity
  8
Profile
 62
7
100
AcDbPolyline
 90
2
 70
0
 10
2334.908852
 20
164.570620
 30
0.0
 10
2334.838270
 20
802.365849
 30
0.0
  0
SPLINE
  5
128
100
AcDbEntity
  8
Profile
 62
7
100
AcDbSpline
 70
8
 71
3
 72
8
 73
4
 74
0
 40
0
 40
0
 40
0
 40
0
 40
1
 40
1
 40
1
 40
1
 10
2283.812098
 20
822.202674
 30
0.0
 10
2280.265832
 20
822.205287
 30
0.0
 10
2276.987828
 20
820.314876
 30
0.0
 10
2275.213940
 20
817.244154
 30
0.0
  0
SPLINE
  5
129
100
AcDbEntity
  8
Profile
 62
7
100
AcDbSpline
 70
8
 71
3
 72
8
 73
4
 74
0
 40
0
 40
0
 40
0
 40
0
 40
1
 40
1
 40
1
 40
1
 10
2275.213940
 20
817.244154
 30
0.0
 10
2273.440051
 20
814.173432
 30
0.0
 10
2273.440051
 20
810.389391
 30
0.0
 10
2275.213940
 20
807.318669
 30
0.0
  0
SPLINE
  5
12a
100
AcDbEntity
  8
Profile
 62
7
100
AcDbSpline
 70
8
 71
3
 72
8
 73
4
 74
0
 40
0
 40
0
 40
0
 40
0
 40
1
 40
1
 40
1
 40
1
 10
2275.213940
 20
807.318669
 30
0.0
 10
2276.987828
 20
804.247946
 30
0.0
 10
2280.265832
 20
802.357536
 30
0.0
 10
2283.812098
 20
802.360149
 30
0.0
  0
LWPOLYLINE
  5
12b
100
AcDbEntity
  8
Profile
 62
7
100
AcDbPolyline
 90
2
 70
0
 10
2334.835662
 20
822.208374
 30
0.0
 10
2283.812098
 20
822.200862
 30
0.0
  0
LWPOLYLINE
  5
12c
100
AcDbEntity
  8
Profile
 62
7
100
AcDbPolyline
 90
2
 70
0
 10
2283.814281
 20
802.360149
 30
0.0
 10
2283.884864
 20
164.564979
 30
0.0
  0
SPLINE
  5
12d
100
AcDbEntity
  8
Profile
 62
7
100
AcDbSpline
 70
8
 71
3
 72
8
 73
4
 74
0
 40
0
 40
0
 40
0
 40
0
 40
1
 40
1
 40
1
 40
1
 10
1656.373142
 20
2963.422508
 30
0.0
 10
1659.917661
 20
2963.429851
 30
0.0
 10
1663.189015
 20
2965.327614
 30
0.0
 10
1664.954916
 20
2968.400929
 30
0.0
  0
SPLINE
  5
12e
100
AcDbEntity
  8
Profile
 62
7
100
AcDbSpline
 70
8
 71
3
 72
8
 73
4
 74
0
 40
0
 40
0
 40
0
 40
0
 40
1
 40
1
 40
1
 40
1
 10
1664.954916
 20
2968.400929
 30
0.0
 10
1666.720818
 20
2971.474244
 30
0.0
 10
1666.712983
 20
2975.256201
 30
0.0
 10
1664.934365
 20
2978.322174
 30
0.0
  0
SPLINE
  5
12f
100
AcDbEntity
  8
Profile
 62
7
100
AcDbSpline
 70
8
 71
3
 72
8
 73
4
 74
0
 40
0
 40
0
 40
0
 40
0
 40
1
 40
1
 40
1
 40
1
 10
1664.934365
 20
2978.322174
 30
0.0
 10
1663.155747
 20
2981.388147
 30
0.0
 10
1659.876559
 20
2983.272341
 30
0.0
 10
1656.332039
 20
2983.264999
 30
0.0
  0
LWPOLYLINE
  5
130
100
AcDbEntity
  8
Profile
 62
7
100
AcDbPolyline
 90
2
 70
0
 10
1884.200124
 20
164.520475
 30
0.0
 10
2283.885147
 20
164.564695
 30
0.0
  0
LWPOLYLINE
  5
131
100
AcDbEntity
  8
Profile
 62
7
100
AcDbPolyline
 90
2
 70
0
 10
1656.262307
 20
3014.446128
 30
0.0
 10
1656.326370
 20
2983.264999
 30
0.0
  0
LWPOLYLINE
  5
132
100
AcDbEntity
  8
Profile
 62
7
100
AcDbPolyline
 90
2
 70
0
 10
2294.056111
 20
3015.826062
 30
0.0
 10
1656.262420
 20
3014.445845
 30
0.0
  0
SPLINE
  5
133
100
AcDbEntity
  8
Profile
 62
7
100
AcDbSpline
 70
8
 71
3
 72
8
 73
4
 74
0
 40
0
 40
0
 40
0
 40
0
 40
1
 40
1
 40
1
 40
1
 10
881.336713
 20
886.780205
 30
0.0
 10
881.798358
 20
691.116382
 30
0.0
 10
1040.769187
 20
532.862973
 30
0.0
 10
1236.433097
 20
533.286337
 30
0.0
  0
SPLINE
  5
134
100
AcDbEntity
  8
Profile
 62
7
100
AcDbSpline
 70
8
 71
3
 72
8
 73
4
 74
0
 40
0
 40
0
 40
0
 40
0
 40
1
 40
1
 40
1
 40
1
 10
1236.433097
 20
533.286337
 30
0.0
 10
1432.097006
 20
533.709702
 30
0.0
 10
1590.381514
 20
692.649567
 30
0.0
 10
1589.996429
 20
888.313556
 30
0.0
  0
LWPOLYLINE
  5
135
100
AcDbEntity
  8
Profile
 62
7
100
AcDbPolyline
 90
4
 70
0
 10
2294.056111
 20
3015.826062
 30
0.0
 10
2294.276930
 20
2913.779077
 30
0.0
 10
1587.150559
 20
2203.585960
 30
0.0
 10
1589.996543
 20
888.313553
 30
0.0
  0
LWPOLYLINE
  5
136
100
AcDbEntity
  8
Profile
 62
7
100
AcDbPolyline
 90
4
 70
0
 10
881.336713
 20
886.780205
 30
0.0
 10
878.490814
 20
2202.052728
 30
0.0
 10
168.297825
 20
2909.179071
 30
0.0
 10
168.088373
 20
3011.226084
 30
0.0
  0
LWPOLYLINE
  5
137
100
AcDbEntity
  8
Profile
 62
7
100
AcDbPolyline
 90
2
 70
0
 10
805.870795
 20
3012.606046
 30
0.0
 10
168.077031
 20
3011.226368
 30
0.0
  0
SPLINE
  5
138
100
AcDbEntity
  8
Profile
 62
7
100
AcDbSpline
 70
8
 71
3
 72
8
 73
4
 74
0
 40
0
 40
0
 40
0
 40
0
 40
1
 40
1
 40
1
 40
1
 10
805.938317
 20
2981.425087
 30
0.0
 10
800.464659
 20
2981.405190
 30
0.0
 10
796.041253
 20
2976.956025
 30
0.0
 10
796.053139
 20
2971.482344
 30
0.0
  0
SPLINE
  5
139
100
AcDbEntity
  8
Profile
 62
7
100
AcDbSpline
 70
8
 71
3
 72
8
 73
4
 74
0
 40
0
 40
0
 40
0
 40
0
 40
1
 40
1
 40
1
 40
1
 10
796.053139
 20
2971.482344
 30
0.0
 10
796.065024
 20
2966.008663
 30
0.0
 10
800.507711
 20
2961.578750
 30
0.0
 10
805.981403
 20
2961.582625
 30
0.0
  0
LWPOLYLINE
  5
13a
100
AcDbEntity
  8
Profile
 62
7
100
AcDbPolyline
 90
2
 70
0
 10
805.938317
 20
2981.425087
 30
0.0
 10
805.871419
 20
3012.606046
 30
0.0
  0
LWPOLYLINE
  5
13b
100
AcDbEntity
  8
Profile
 62
7
100
AcDbPolyline
 90
2
 70
0
 10
1205.665406
 20
2962.447475
 30
0.0
 10
805.981346
 20
2961.582908
 30
0.0
  0
SPLINE
  5
13c
100
AcDbEntity
  8
Profile
 62
7
100
AcDbSpline
 70
8
 71
3
 72
8
 73
4
 74
0
 40
0
 40
0
 40
0
 40
0
 40
1
 40
1
 40
1
 40
1
 10
1207.045425
 20
2324.653756
 30
0.0
 10
1203.500900
 20
2324.646414
 30
0.0
 10
1200.229541
 20
2322.748648
 30
0.0
 10
1198.463637
 20
2319.675329
 30
0.0
  0
SPLINE
  5
13d
100
AcDbEntity
  8
Profile
 62
7
100
AcDbSpline
 70
8
 71
3
 72
8
 73
4
 74
0
 40
0
 40
0
 40
0
 40
0
 40
1
 40
1
 40
1
 40
1
 10
1198.463637
 20
2319.675329
 30
0.0
 10
1196.697734
 20
2316.602009
 30
0.0
 10
1196.705568
 20
2312.820047
 30
0.0
 10
1198.484189
 20
2309.754070
 30
0.0
  0
SPLINE
  5
13e
100
AcDbEntity
  8
Profile
 62
7
100
AcDbSpline
 70
8
 71
3
 72
8
 73
4
 74
0
 40
0
 40
0
 40
0
 40
0
 40
1
 40
1
 40
1
 40
1
 10
1198.484189
 20
2309.754070
 30
0.0
 10
1200.262809
 20
2306.688092
 30
0.0
 10
1203.542002
 20
2304.803895
 30
0.0
 10
1207.086527
 20
2304.811238
 30
0.0
  0
LWPOLYLINE
  5
13f
100
AcDbEntity
  8
Profile
 62
7
100
AcDbPolyline
 90
2
 70
0
 10
1205.665406
 20
2962.447475
 30
0.0
 10
1207.045056
 20
2324.653756
 30
0.0
  0
SPLINE
  5
140
100
AcDbEntity
  8
Profile
 62
7
100
AcDbSpline
 70
8
 71
3
 72
8
 73
4
 74
0
 40
0
 40
0
 40
0
 40
0
 40
1
 40
1
 40
1
 40
1
 10
1258.112216
 20
2304.921704
 30
0.0
 10
1261.660528
 20
2304.923370
 30
0.0
 10
1264.937813
 20
2306.819898
 30
0.0
 10
1266.707243
 20
2309.895551
 30
0.0
  0
SPLINE
  5
141
100
AcDbEntity
  8
Profile
 62
7
100
AcDbSpline
 70
8
 71
3
 72
8
 73
4
 74
0
 40
0
 40
0
 40
0
 40
0
 40
1
 40
1
 40
1
 40
1
 10
1266.707243
 20
2309.895551
 30
0.0
 10
1268.476672
 20
2312.971204
 30
0.0
 10
1268.468829
 20
2316.757674
 30
0.0
 10
1266.686672
 20
2319.825969
 30
0.0
  0
SPLINE
  5
142
100
AcDbEntity
  8
Profile
 62
7
100
AcDbSpline
 70
8
 71
3
 72
8
 73
4
 74
0
 40
0
 40
0
 40
0
 40
0
 40
1
 40
1
 40
1
 40
1
 10
1266.686672
 20
2319.825969
 30
0.0
 10
1264.904516
 20
2322.894265
 30
0.0
 10
1261.619402
 20
2324.777200
 30
0.0
 10
1258.071114
 20
2324.764166
 30
0.0
  0
LWPOLYLINE
  5
143
100
AcDbEntity
  8
Profile
 62
7
100
AcDbPolyline
 90
2
 70
0
 10
1207.088766
 20
2304.811266
 30
0.0
 10
1258.112188
 20
2304.923518
 30
0.0
  0
LWPOLYLINE
  5
144
100
AcDbEntity
  8
Profile
 62
7
100
AcDbPolyline
 90
2
 70
0
 10
1258.068931
 20
2324.764166
 30
0.0
 10
1256.689281
 20
2962.557828
 30
0.0
  0
SPLINE
  5
145
100
AcDbEntity
  8
Profile
 62
7
100
AcDbSpline
 70
8
 71
3
 72
8
 73
4
 74
0
 40
0
 40
0
 40
0
 40
0
 40
1
 40
1
 40
1
 40
1
 10
1656.373142
 20
2963.422508
 30
0.0
 10
1659.917661
 20
2963.429851
 30
0.0
 10
1663.189015
 20
2965.327614
 30
0.0
 10
1664.954916
 20
2968.400929
 30
0.0
  0
SPLINE
  5
146
100
AcDbEntity
  8
Profile
 62
7
100
AcDbSpline
 70
8
 71
3
 72
8
 73
4
 74
0
 40
0
 40
0
 40
0
 40
0
 40
1
 40
1
 40
1
 40
1
 10
1664.954916
 20
2968.400929
 30
0.0
 10
1666.720818
 20
2971.474244
 30
0.0
 10
1666.712983
 20
2975.256201
 30
0.0
 10
1664.934365
 20
2978.322174
 30
0.0
  0
SPLINE
  5
147
100
AcDbEntity
  8
Profile
 62
7
100
AcDbSpline
 70
8
 71
3
 72
8
 73
4
 74
0
 40
0
 40
0
 40
0
 40
0
 40
1
 40
1
 40
1
 40
1
 10
1664.934365
 20
2978.322174
 30
0.0
 10
1663.155747
 20
2981.388147
 30
0.0
 10
1659.876559
 20
2983.272341
 30
0.0
 10
1656.332039
 20
2983.264999
 30
0.0
  0
LWPOLYLINE
  5
148
100
AcDbEntity
  8
Profile
 62
7
100
AcDbPolyline
 90
2
 70
0
 10
1656.373085
 20
2963.422707
 30
0.0
 10
1256.688997
 20
2962.558111
 30
0.0
  0
LWPOLYLINE
  5
149
100
AcDbEntity
  8
Profile
 62
7
100
AcDbPolyline
 90
2
 70
0
 10
1656.262307
 20
3014.446128
 30
0.0
 10
1656.326370
 20
2983.264999
 30
0.0
  0
LWPOLYLINE
  5
14a
100
AcDbEntity
  8
Profile
 62
7
100
AcDbPolyline
 90
2
 70
0
 10
2294.056111
 20
3015.826062
 30
0.0
 10
1656.262420
 20
3014.445845
 30
0.0
  0
SPLINE
  5
14b
100
AcDbEntity
  8
Profile
 62
7
100
AcDbSpline
 70
8
 71
3
 72
8
 73
4
 74
0
 40
0
 40
0
 40
0
 40
0
 40
1
 40
1
 40
1
 40
1
 10
881.336713
 20
886.780205
 30
0.0
 10
881.798358
 20
691.116382
 30
0.0
 10
1040.769187
 20
532.862973
 30
0.0
 10
1236.433097
 20
533.286337
 30
0.0
  0
SPLINE
  5
14c
100
AcDbEntity
  8
Profile
 62
7
100
AcDbSpline
 70
8
 71
3
 72
8
 73
4
 74
0
 40
0
 40
0
 40
0
 40
0
 40
1
 40
1
 40
1
 40
1
 10
1236.433097
 20
533.286337
 30
0.0
 10
1432.097006
 20
533.709702
 30
0.0
 10
1590.381514
 20
692.649567
 30
0.0
 10
1589.996429
 20
888.313556
 30
0.0
  0
LWPOLYLINE
  5
14d
100
AcDbEntity
  8
Profile
 62
7
100
AcDbPolyline
 90
4
 70
0
 10
2294.056111
 20
3015.826062
 30
0.0
 10
2294.276930
 20
2913.779077
 30
0.0
 10
1587.150559
 20
2203.585960
 30
0.0
 10
1589.996543
 20
888.313553
 30
0.0
  0
LWPOLYLINE
  5
14e
100
AcDbEntity
  8
Profile
 62
7
100
AcDbPolyline
 90
4
 70
0
 10
881.336713
 20
886.780205
 30
0.0
 10
878.490814
 20
2202.052728
 30
0.0
 10
168.297825
 20
2909.179071
 30
0.0
 10
168.088373
 20
3011.226084
 30
0.0
  0
LWPOLYLINE
  5
14f
100
AcDbEntity
  8
Profile
 62
7
100
AcDbPolyline
 90
2
 70
0
 10
805.870795
 20
3012.606046
 30
0.0
 10
168.077031
 20
3011.226368
 30
0.0
  0
SPLINE
  5
150
100
AcDbEntity
  8
Profile
 62
7
100
AcDbSpline
 70
8
 71
3
 72
8
 73
4
 74
0
 40
0
 40
0
 40
0
 40
0
 40
1
 40
1
 40
1
 40
1
 10
805.938317
 20
2981.425087
 30
0.0
 10
800.464659
 20
2981.405190
 30
0.0
 10
796.041253
 20
2976.956025
 30
0.0
 10
796.053139
 20
2971.482344
 30
0.0
  0
SPLINE
  5
151
100
AcDbEntity
  8
Profile
 62
7
100
AcDbSpline
 70
8
 71
3
 72
8
 73
4
 74
0
 40
0
 40
0
 40
0
 40
0
 40
1
 40
1
 40
1
 40
1
 10
796.053139
 20
2971.482344
 30
0.0
 10
796.065024
 20
2966.008663
 30
0.0
 10
800.507711
 20
2961.578750
 30
0.0
 10
805.981403
 20
2961.582625
 30
0.0
  0
LWPOLYLINE
  5
152
100
AcDbEntity
  8
Profile
 62
7
100
AcDbPolyline
 90
2
 70
0
 10
805.938317
 20
2981.425087
 30
0.0
 10
805.871419
 20
3012.606046
 30
0.0
  0
LWPOLYLINE
  5
153
100
AcDbEntity
  8
Profile
 62
7
100
AcDbPolyline
 90
2
 70
0
 10
1205.665406
 20
2962.447475
 30
0.0
 10
805.981346
 20
2961.582908
 30
0.0
  0
SPLINE
  5
154
100
AcDbEntity
  8
Profile
 62
7
100
AcDbSpline
 70
8
 71
3
 72
8
 73
4
 74
0
 40
0
 40
0
 40
0
 40
0
 40
1
 40
1
 40
1
 40
1
 10
1207.045425
 20
2324.653756
 30
0.0
 10
1203.500900
 20
2324.646414
 30
0.0
 10
1200.229541
 20
2322.748648
 30
0.0
 10
1198.463637
 20
2319.675329
 30
0.0
  0
SPLINE
  5
155
100
AcDbEntity
  8
Profile
 62
7
100
AcDbSpline
 70
8
 71
3
 72
8
 73
4
 74
0
 40
0
 40
0
 40
0
 40
0
 40
1
 40
1
 40
1
 40
1
 10
1198.463637
 20
2319.675329
 30
0.0
 10
1196.697734
 20
2316.602009
 30
0.0
 10
1196.705568
 20
2312.820047
 30
0.0
 10
1198.484189
 20
2309.754070
 30
0.0
  0
SPLINE
  5
156
100
AcDbEntity
  8
Profile
 62
7
100
AcDbSpline
 70
8
 71
3
 72
8
 73
4
 74
0
 40
0
 40
0
 40
0
 40
0
 40
1
 40
1
 40
1
 40
1
 10
1198.484189
 20
2309.754070
 30
0.0
 10
1200.262809
 20
2306.688092
 30
0.0
 10
1203.542002
 20
2304.803895
 30
0.0
 10
1207.086527
 20
2304.811238
 30
0.0
  0
LWPOLYLINE
  5
157
100
AcDbEntity
  8
Profile
 62
7
100
AcDbPolyline
 90
2
 70
0
 10
1205.665406
 20
2962.447475
 30
0.0
 10
1207.045056
 20
2324.653756
 30
0.0
  0
SPLINE
  5
158
100
AcDbEntity
  8
Profile
 62
7
100
AcDbSpline
 70
8
 71
3
 72
8
 73
4
 74
0
 40
0
 40
0
 40
0
 40
0
 40
1
 40
1
 40
1
 40
1
 10
1258.112216
 20
2304.921704
 30
0.0
 10
1261.660528
 20
2304.923370
 30
0.0
 10
1264.937813
 20
2306.819898
 30
0.0
 10
1266.707243
 20
2309.895551
 30
0.0
  0
SPLINE
  5
159
100
AcDbEntity
  8
Profile
 62
7
100
AcDbSpline
 70
8
 71
3
 72
8
 73
4
 74
0
 40
0
 40
0
 40
0
 40
0
 40
1
 40
1
 40
1
 40
1
 10
1266.707243
 20
2309.895551
 30
0.0
 10
1268.476672
 20
2312.971204
 30
0.0
 10
1268.468829
 20
2316.757674
 30
0.0
 10
1266.686672
 20
2319.825969
 30
0.0
  0
SPLINE
  5
15a
100
AcDbEntity
  8
Profile
 62
7
100
AcDbSpline
 70
8
 71
3
 72
8
 73
4
 74
0
 40
0
 40
0
 40
0
 40
0
 40
1
 40
1
 40
1
 40
1
 10
1266.686672
 20
2319.825969
 30
0.0
 10
1264.904516
 20
2322.894265
 30
0.0
 10
1261.619402
 20
2324.777200
 30
0.0
 10
1258.071114
 20
2324.764166
 30
0.0
  0
LWPOLYLINE
  5
15b
100
AcDbEntity
  8
Profile
 62
7
100
AcDbPolyline
 90
2
 70
0
 10
1207.088766
 20
2304.811266
 30
0.0
 10
1258.112188
 20
2304.923518
 30
0.0
  0
LWPOLYLINE
  5
15c
100
AcDbEntity
  8
Profile
 62
7
100
AcDbPolyline
 90
2
 70
0
 10
1258.068931
 20
2324.764166
 30
0.0
 10
1256.689281
 20
2962.557828
 30
0.0
  0
LWPOLYLINE
  5
15d
100
AcDbEntity
  8
Profile
 62
7
100
AcDbPolyline
 90
2
 70
0
 10
1656.373085
 20
2963.422707
 30
0.0
 10
1256.688997
 20
2962.558111
 30
0.0
  0
LWPOLYLINE
  5
15e
100
AcDbEntity
  8
Profile
 62
7
100
AcDbPolyline
 90
2
 70
0
 10
172.358936
 20
3078.146226
 30
0.0
 10
173.287056
 20
3928.539524
 30
0.0
  0
LWPOLYLINE
  5
15f
100
AcDbEntity
  8
Profile
 62
7
100
AcDbPolyline
 90
2
 70
0
 10
2298.341811
 20
3075.826069
 30
0.0
 10
172.358936
 20
3078.146226
 30
0.0
  0
LWPOLYLINE
  5
160
100
AcDbEntity
  8
Profile
 62
7
100
AcDbPolyline
 90
3
 70
0
 10
173.287056
 20
3928.539524
 30
0.0
 10
2299.269903
 20
3926.219366
 30
0.0
 10
2298.341811
 20
3075.826069
 30
0.0
  0
LWPOLYLINE
  5
161
100
AcDbEntity
  8
Profile
 62
7
100
AcDbPolyline
 90
2
 70
0
 10
681.461268
 20
2256.827894
 30
0.0
 10
629.303788
 20
2256.827894
 30
0.0
  0
LWPOLYLINE
  5
162
100
AcDbEntity
  8
Profile
 62
7
100
AcDbPolyline
 90
2
 70
0
 10
681.461268
 20
2204.670422
 30
0.0
 10
681.461268
 20
2256.827894
 30
0.0
  0
LWPOLYLINE
  5
163
100
AcDbEntity
  8
Profile
 62
7
100
AcDbPolyline
 90
2
 70
0
 10
629.303788
 20
2204.670422
 30
0.0
 10
681.461268
 20
2204.670422
 30
0.0
  0
LWPOLYLINE
  5
164
100
AcDbEntity
  8
Profile
 62
7
100
AcDbPolyline
 90
2
 70
0
 10
629.303788
 20
2256.827894
 30
0.0
 10
629.303788
 20
2204.670422
 30
0.0
  0
LWPOLYLINE
  5
165
100
AcDbEntity
  8
Profile
 62
7
100
AcDbPolyline
 90
2
 70
0
 10
181.429792
 20
2256.827894
 30
0.0
 10
129.272320
 20
2256.827894
 30
0.0
  0
LWPOLYLINE
  5
166
100
AcDbEntity
  8
Profile
 62
7
100
AcDbPolyline
 90
2
 70
0
 10
181.429792
 20
2204.670422
 30
0.0
 10
181.429792
 20
2256.827894
 30
0.0
  0
LWPOLYLINE
  5
167
100
AcDbEntity
  8
Profile
 62
7
100
AcDbPolyline
 90
2
 70
0
 10
129.272320
 20
2204.670422
 30
0.0
 10
181.429792
 20
2204.670422
 30
0.0
  0
LWPOLYLINE
  5
168
100
AcDbEntity
  8
Profile
 62
7
100
AcDbPolyline
 90
2
 70
0
 10
129.272320
 20
2256.827894
 30
0.0
 10
129.272320
 20
2204.670422
 30
0.0
  0
LWPOLYLINE
  5
169
100
AcDbEntity
  8
Profile
 62
7
100
AcDbPolyline
 90
2
 70
0
 10
181.429792
 20
130.843733
 30
0.0
 10
129.272320
 20
130.843733
 30
0.0
  0
LWPOLYLINE
  5
16a
100
AcDbEntity
  8
Profile
 62
7
100
AcDbPolyline
 90
2
 70
0
 10
181.429792
 20
78.686261
 30
0.0
 10
181.429792
 20
130.843733
 30
0.0
  0
LWPOLYLINE
  5
16b
100
AcDbEntity
  8
Profile
 62
7
100
AcDbPolyline
 90
2
 70
0
 10
129.272320
 20
78.686261
 30
0.0
 10
181.429792
 20
78.686261
 30
0.0
  0
LWPOLYLINE
  5
16c
100
AcDbEntity
  8
Profile
 62
7
100
AcDbPolyline
 90
2
 70
0
 10
129.272320
 20
130.843733
 30
0.0
 10
129.272320
 20
78.686261
 30
0.0
  0
LWPOLYLINE
  5
16d
100
AcDbEntity
  8
Profile
 62
7
100
AcDbPolyline
 90
2
 70
0
 10
681.461268
 20
130.843733
 30
0.0
 10
629.303788
 20
130.843733
 30
0.0
  0
LWPOLYLINE
  5
16e
100
AcDbEntity
  8
Profile
 62
7
100
AcDbPolyline
 90
2
 70
0
 10
681.461268
 20
78.686261
 30
0.0
 10
681.461268
 20
130.843733
 30
0.0
  0
LWPOLYLINE
  5
16f
100
AcDbEntity
  8
Profile
 62
7
100
AcDbPolyline
 90
2
 70
0
 10
629.303788
 20
78.686261
 30
0.0
 10
681.461268
 20
78.686261
 30
0.0
  0
SPLINE
  5
170
100
AcDbEntity
  8
Profile
 62
7
100
AcDbSpline
 70
8
 71
3
 72
8
 73
4
 74
0
 40
0
 40
0
 40
0
 40
0
 40
1
 40
1
 40
1
 40
1
 10
733.618742
 20
209.079979
 30
0.0
 10
730.074217
 20
209.079979
 30
0.0
 10
726.798940
 20
207.188997
 30
0.0
 10
725.026677
 20
204.119348
 30
0.0
  0
SPLINE
  5
171
100
AcDbEntity
  8
Profile
 62
7
100
AcDbSpline
 70
8
 71
3
 72
8
 73
4
 74
0
 40
0
 40
0
 40
0
 40
0
 40
1
 40
1
 40
1
 40
1
 10
725.026677
 20
204.119348
 30
0.0
 10
723.254415
 20
201.049699
 30
0.0
 10
723.254415
 20
197.267735
 30
0.0
 10
725.026677
 20
194.198086
 30
0.0
  0
SPLINE
  5
172
100
AcDbEntity
  8
Profile
 62
7
100
AcDbSpline
 70
8
 71
3
 72
8
 73
4
 74
0
 40
0
 40
0
 40
0
 40
0
 40
1
 40
1
 40
1
 40
1
 10
725.026677
 20
194.198086
 30
0.0
 10
726.798940
 20
191.128437
 30
0.0
 10
730.074217
 20
189.237455
 30
0.0
 10
733.618742
 20
189.237455
 30
0.0
  0
LWPOLYLINE
  5
173
100
AcDbEntity
  8
Profile
 62
7
100
AcDbPolyline
 90
2
 70
0
 10
629.303788
 20
130.843733
 30
0.0
 10
629.303788
 20
78.686261
 30
0.0
  0
SPLINE
  5
174
100
AcDbEntity
  8
Profile
 62
7
100
AcDbSpline
 70
8
 71
3
 72
8
 73
4
 74
0
 40
0
 40
0
 40
0
 40
0
 40
1
 40
1
 40
1
 40
1
 10
733.618742
 20
2146.276700
 30
0.0
 10
730.074217
 20
2146.276700
 30
0.0
 10
726.798940
 20
2144.385718
 30
0.0
 10
725.026677
 20
2141.316069
 30
0.0
  0
SPLINE
  5
175
100
AcDbEntity
  8
Profile
 62
7
100
AcDbSpline
 70
8
 71
3
 72
8
 73
4
 74
0
 40
0
 40
0
 40
0
 40
0
 40
1
 40
1
 40
1
 40
1
 10
725.026677
 20
2141.316069
 30
0.0
 10
723.254415
 20
2138.246420
 30
0.0
 10
723.254415
 20
2134.464456
 30
0.0
 10
725.026677
 20
2131.394807
 30
0.0
  0
SPLINE
  5
176
100
AcDbEntity
  8
Profile
 62
7
100
AcDbSpline
 70
8
 71
3
 72
8
 73
4
 74
0
 40
0
 40
0
 40
0
 40
0
 40
1
 40
1
 40
1
 40
1
 10
725.026677
 20
2131.394807
 30
0.0
 10
726.798940
 20
2128.325158
 30
0.0
 10
730.074217
 20
2126.434176
 30
0.0
 10
733.618742
 20
2126.434176
 30
0.0
  0
LWPOLYLINE
  5
177
100
AcDbEntity
  8
Profile
 62
7
100
AcDbPolyline
 90
4
 70
0
 10
733.618742
 20
209.079979
 30
0.0
 10
776.138425
 20
209.079979
 30
0.0
 10
776.138425
 20
2126.434176
 30
0.0
 10
733.618742
 20
2126.434176
 30
0.0
  0
LWPOLYLINE
  5
178
100
AcDbEntity
  8
Profile
 62
7
100
AcDbPolyline
 90
2
 70
0
 10
733.618742
 20
2282.906593
 30
0.0
 10
733.618742
 20
2146.276700
 30
0.0
  0
LWPOLYLINE
  5
179
100
AcDbEntity
  8
Profile
 62
7
100
AcDbPolyline
 90
2
 70
0
 10
77.114840
 20
2282.906593
 30
0.0
 10
733.618742
 20
2282.906593
 30
0.0
  0
LWPOLYLINE
  5
17a
100
AcDbEntity
  8
Profile
 62
7
100
AcDbPolyline
 90
2
 70
0
 10
77.114840
 20
2178.591648
 30
0.0
 10
77.114840
 20
2282.906593
 30
0.0
  0
LWPOLYLINE
  5
17b
100
AcDbEntity
  8
Profile
 62
7
100
AcDbPolyline
 90
2
 70
0
 10
629.303788
 20
1859.784740
 30
0.0
 10
77.114840
 20
2178.591648
 30
0.0
  0
LWPOLYLINE
  5
17c
100
AcDbEntity
  8
Profile
 62
7
100
AcDbPolyline
 90
2
 70
0
 10
629.303788
 20
475.729414
 30
0.0
 10
629.303788
 20
1859.784740
 30
0.0
  0
LWPOLYLINE
  5
17d
100
AcDbEntity
  8
Profile
 62
7
100
AcDbPolyline
 90
2
 70
0
 10
77.114840
 20
156.922507
 30
0.0
 10
629.303788
 20
475.729414
 30
0.0
  0
LWPOLYLINE
  5
17e
100
AcDbEntity
  8
Profile
 62
7
100
AcDbPolyline
 90
2
 70
0
 10
77.114840
 20
52.607487
 30
0.0
 10
77.114840
 20
156.922507
 30
0.0
  0
LWPOLYLINE
  5
17f
100
AcDbEntity
  8
Profile
 62
7
100
AcDbPolyline
 90
2
 70
0
 10
733.618742
 20
52.607487
 30
0.0
 10
77.114840
 20
52.607487
 30
0.0
  0
SPLINE
  5
180
100
AcDbEntity
  8
Holes
 62
7
100
AcDbSpline
 70
8
 71
3
 72
8
 73
4
 74
0
 40
0
 40
0
 40
0
 40
0
 40
1
 40
1
 40
1
 40
1
 10
2549.448632
 20
1825.696810
 30
0.0
 10
2552.486801
 20
1825.697210
 30
0.0
 10
2555.293972
 20
1827.318424
 30
0.0
 10
2556.812710
 20
1829.949755
 30
0.0
  0
SPLINE
  5
181
100
AcDbEntity
  8
Holes
 62
7
100
AcDbSpline
 70
8
 71
3
 72
8
 73
4
 74
0
 40
0
 40
0
 40
0
 40
0
 40
1
 40
1
 40
1
 40
1
 10
2556.812710
 20
1829.949755
 30
0.0
 10
2558.331448
 20
1832.581087
 30
0.0
 10
2558.331021
 20
1835.822774
 30
0.0
 10
2556.811590
 20
1838.453706
 30
0.0
  0
SPLINE
  5
182
100
AcDbEntity
  8
Holes
 62
7
100
AcDbSpline
 70
8
 71
3
 72
8
 73
4
 74
0
 40
0
 40
0
 40
0
 40
0
 40
1
 40
1
 40
1
 40
1
 10
2556.811590
 20
1838.453706
 30
0.0
 10
2555.292159
 20
1841.084637
 30
0.0
 10
2552.484562
 20
1842.705112
 30
0.0
 10
2549.446393
 20
1842.704712
 30
0.0
  0
SPLINE
  5
183
100
AcDbEntity
  8
Holes
 62
7
100
AcDbSpline
 70
8
 71
3
 72
8
 73
4
 74
0
 40
0
 40
0
 40
0
 40
0
 40
1
 40
1
 40
1
 40
1
 10
2549.446393
 20
1842.704712
 30
0.0
 10
2544.749791
 20
1842.704093
 30
0.0
 10
2540.942944
 20
1838.896243
 30
0.0
 10
2540.943562
 20
1834.199641
 30
0.0
  0
SPLINE
  5
184
100
AcDbEntity
  8
Holes
 62
7
100
AcDbSpline
 70
8
 71
3
 72
8
 73
4
 74
0
 40
0
 40
0
 40
0
 40
0
 40
1
 40
1
 40
1
 40
1
 10
2540.943562
 20
1834.199641
 30
0.0
 10
2540.944180
 20
1829.503039
 30
0.0
 10
2544.752030
 20
1825.696192
 30
0.0
 10
2549.448632
 20
1825.696810
 30
0.0
  0
LWPOLYLINE
  5
185
100
AcDbEntity
  8
Profile
 62
7
100
AcDbPolyline
 90
2
 70
0
 10
733.618742
 20
189.237455
 30
0.0
 10
733.618742
 20
52.607487
 30
0.0
  0
SPLINE
  5
186
100
AcDbEntity
  8
Holes
 62
7
100
AcDbSpline
 70
8
 71
3
 72
8
 73
4
 74
0
 40
0
 40
0
 40
0
 40
0
 40
1
 40
1
 40
1
 40
1
 10
2549.454302
 20
1777.649625
 30
0.0
 10
2552.497680
 20
1777.642183
 30
0.0
 10
2555.313024
 20
1779.261676
 30
0.0
 10
2556.836631
 20
1781.896221
 30
0.0
  0
SPLINE
  5
187
100
AcDbEntity
  8
Holes
 62
7
100
AcDbSpline
 70
8
 71
3
 72
8
 73
4
 74
0
 40
0
 40
0
 40
0
 40
0
 40
1
 40
1
 40
1
 40
1
 10
2556.836631
 20
1781.896221
 30
0.0
 10
2558.360238
 20
1784.530766
 30
0.0
 10
2558.359805
 20
1787.778675
 30
0.0
 10
2556.835496
 20
1790.412814
 30
0.0
  0
SPLINE
  5
188
100
AcDbEntity
  8
Holes
 62
7
100
AcDbSpline
 70
8
 71
3
 72
8
 73
4
 74
0
 40
0
 40
0
 40
0
 40
0
 40
1
 40
1
 40
1
 40
1
 10
2556.835496
 20
1790.412814
 30
0.0
 10
2555.311186
 20
1793.046953
 30
0.0
 10
2552.495410
 20
1794.665695
 30
0.0
 10
2549.452034
 20
1794.657441
 30
0.0
  0
SPLINE
  5
189
100
AcDbEntity
  8
Holes
 62
7
100
AcDbSpline
 70
8
 71
3
 72
8
 73
4
 74
0
 40
0
 40
0
 40
0
 40
0
 40
1
 40
1
 40
1
 40
1
 10
2549.452034
 20
1794.657441
 30
0.0
 10
2546.408656
 20
1794.664883
 30
0.0
 10
2543.593312
 20
1793.045390
 30
0.0
 10
2542.069705
 20
1790.410845
 30
0.0
  0
SPLINE
  5
18a
100
AcDbEntity
  8
Holes
 62
7
100
AcDbSpline
 70
8
 71
3
 72
8
 73
4
 74
0
 40
0
 40
0
 40
0
 40
0
 40
1
 40
1
 40
1
 40
1
 10
2542.069705
 20
1790.410845
 30
0.0
 10
2540.546097
 20
1787.776300
 30
0.0
 10
2540.546530
 20
1784.528390
 30
0.0
 10
2542.070840
 20
1781.894252
 30
0.0
  0
SPLINE
  5
18b
100
AcDbEntity
  8
Holes
 62
7
100
AcDbSpline
 70
8
 71
3
 72
8
 73
4
 74
0
 40
0
 40
0
 40
0
 40
0
 40
1
 40
1
 40
1
 40
1
 10
2542.070840
 20
1781.894252
 30
0.0
 10
2543.595150
 20
1779.260113
 30
0.0
 10
2546.410926
 20
1777.641371
 30
0.0
 10
2549.454302
 20
1777.649625
 30
0.0
  0
LWPOLYLINE
  5
18c
100
AcDbEntity
  8
Holes
 62
7
100
AcDbPolyline
 90
1
 70
1
 10
2549.448632
 20
1825.696810
 30
0.0
  0
SPLINE
  5
18d
100
AcDbEntity
  8
Holes
 62
7
100
AcDbSpline
 70
8
 71
3
 72
8
 73
4
 74
0
 40
0
 40
0
 40
0
 40
0
 40
1
 40
1
 40
1
 40
1
 10
2549.459971
 20
1729.602382
 30
0.0
 10
2552.503349
 20
1729.594935
 30
0.0
 10
2555.318696
 20
1731.214423
 30
0.0
 10
2556.842308
 20
1733.848966
 30
0.0
  0
SPLINE
  5
18e
100
AcDbEntity
  8
Holes
 62
7
100
AcDbSpline
 70
8
 71
3
 72
8
 73
4
 74
0
 40
0
 40
0
 40
0
 40
0
 40
1
 40
1
 40
1
 40
1
 10
2556.842308
 20
1733.848966
 30
0.0
 10
2558.365920
 20
1736.483508
 30
0.0
 10
2558.365492
 20
1739.731419
 30
0.0
 10
2556.841187
 20
1742.365560
 30
0.0
  0
SPLINE
  5
18f
100
AcDbEntity
  8
Holes
 62
7
100
AcDbSpline
 70
8
 71
3
 72
8
 73
4
 74
0
 40
0
 40
0
 40
0
 40
0
 40
1
 40
1
 40
1
 40
1
 10
2556.841187
 20
1742.365560
 30
0.0
 10
2555.316881
 20
1744.999701
 30
0.0
 10
2552.501108
 20
1746.618448
 30
0.0
 10
2549.457732
 20
1746.610199
 30
0.0
  0
SPLINE
  5
190
100
AcDbEntity
  8
Holes
 62
7
100
AcDbSpline
 70
8
 71
3
 72
8
 73
4
 74
0
 40
0
 40
0
 40
0
 40
0
 40
1
 40
1
 40
1
 40
1
 10
2549.457732
 20
1746.610199
 30
0.0
 10
2546.414353
 20
1746.617646
 30
0.0
 10
2543.599006
 20
1744.998158
 30
0.0
 10
2542.075395
 20
1742.363616
 30
0.0
  0
SPLINE
  5
191
100
AcDbEntity
  8
Holes
 62
7
100
AcDbSpline
 70
8
 71
3
 72
8
 73
4
 74
0
 40
0
 40
0
 40
0
 40
0
 40
1
 40
1
 40
1
 40
1
 10
2542.075395
 20
1742.363616
 30
0.0
 10
2540.551783
 20
1739.729073
 30
0.0
 10
2540.552210
 20
1736.481163
 30
0.0
 10
2542.076516
 20
1733.847022
 30
0.0
  0
SPLINE
  5
192
100
AcDbEntity
  8
Holes
 62
7
100
AcDbSpline
 70
8
 71
3
 72
8
 73
4
 74
0
 40
0
 40
0
 40
0
 40
0
 40
1
 40
1
 40
1
 40
1
 10
2542.076516
 20
1733.847022
 30
0.0
 10
2543.600821
 20
1731.212881
 30
0.0
 10
2546.416595
 20
1729.594134
 30
0.0
 10
2549.459971
 20
1729.602382
 30
0.0
  0
LWPOLYLINE
  5
193
100
AcDbEntity
  8
Holes
 62
7
100
AcDbPolyline
 90
1
 70
1
 10
2549.454302
 20
1777.649625
 30
0.0
  0
SPLINE
  5
194
100
AcDbEntity
  8
Holes
 62
7
100
AcDbSpline
 70
8
 71
3
 72
8
 73
4
 74
0
 40
0
 40
0
 40
0
 40
0
 40
1
 40
1
 40
1
 40
1
 10
2549.465640
 20
1681.555140
 30
0.0
 10
2552.509019
 20
1681.547693
 30
0.0
 10
2555.324366
 20
1683.167181
 30
0.0
 10
2556.847977
 20
1685.801724
 30
0.0
  0
SPLINE
  5
195
100
AcDbEntity
  8
Holes
 62
7
100
AcDbSpline
 70
8
 71
3
 72
8
 73
4
 74
0
 40
0
 40
0
 40
0
 40
0
 40
1
 40
1
 40
1
 40
1
 10
2556.847977
 20
1685.801724
 30
0.0
 10
2558.371589
 20
1688.436266
 30
0.0
 10
2558.371162
 20
1691.684176
 30
0.0
 10
2556.846856
 20
1694.318318
 30
0.0
  0
SPLINE
  5
196
100
AcDbEntity
  8
Holes
 62
7
100
AcDbSpline
 70
8
 71
3
 72
8
 73
4
 74
0
 40
0
 40
0
 40
0
 40
0
 40
1
 40
1
 40
1
 40
1
 10
2556.846856
 20
1694.318318
 30
0.0
 10
2555.322551
 20
1696.952459
 30
0.0
 10
2552.506777
 20
1698.571205
 30
0.0
 10
2549.463401
 20
1698.562957
 30
0.0
  0
SPLINE
  5
197
100
AcDbEntity
  8
Holes
 62
7
100
AcDbSpline
 70
8
 71
3
 72
8
 73
4
 74
0
 40
0
 40
0
 40
0
 40
0
 40
1
 40
1
 40
1
 40
1
 10
2549.463401
 20
1698.562957
 30
0.0
 10
2546.420023
 20
1698.570404
 30
0.0
 10
2543.604676
 20
1696.950916
 30
0.0
 10
2542.081064
 20
1694.316374
 30
0.0
  0
SPLINE
  5
198
100
AcDbEntity
  8
Holes
 62
7
100
AcDbSpline
 70
8
 71
3
 72
8
 73
4
 74
0
 40
0
 40
0
 40
0
 40
0
 40
1
 40
1
 40
1
 40
1
 10
2542.081064
 20
1694.316374
 30
0.0
 10
2540.557452
 20
1691.681831
 30
0.0
 10
2540.557880
 20
1688.433921
 30
0.0
 10
2542.082185
 20
1685.799780
 30
0.0
  0
SPLINE
  5
199
100
AcDbEntity
  8
Holes
 62
7
100
AcDbSpline
 70
8
 71
3
 72
8
 73
4
 74
0
 40
0
 40
0
 40
0
 40
0
 40
1
 40
1
 40
1
 40
1
 10
2542.082185
 20
1685.799780
 30
0.0
 10
2543.606491
 20
1683.165638
 30
0.0
 10
2546.422264
 20
1681.546892
 30
0.0
 10
2549.465640
 20
1681.555140
 30
0.0
  0
LWPOLYLINE
  5
19a
100
AcDbEntity
  8
Holes
 62
7
100
AcDbPolyline
 90
1
 70
1
 10
2549.459971
 20
1729.602382
 30
0.0
  0
SPLINE
  5
19b
100
AcDbEntity
  8
Holes
 62
7
100
AcDbSpline
 70
8
 71
3
 72
8
 73
4
 74
0
 40
0
 40
0
 40
0
 40
0
 40
1
 40
1
 40
1
 40
1
 10
2549.471310
 20
1633.507898
 30
0.0
 10
2552.514688
 20
1633.500457
 30
0.0
 10
2555.330032
 20
1635.119949
 30
0.0
 10
2556.853639
 20
1637.754494
 30
0.0
  0
SPLINE
  5
19c
100
AcDbEntity
  8
Holes
 62
7
100
AcDbSpline
 70
8
 71
3
 72
8
 73
4
 74
0
 40
0
 40
0
 40
0
 40
0
 40
1
 40
1
 40
1
 40
1
 10
2556.853639
 20
1637.754494
 30
0.0
 10
2558.377246
 20
1640.389039
 30
0.0
 10
2558.376813
 20
1643.636949
 30
0.0
 10
2556.852504
 20
1646.271088
 30
0.0
  0
SPLINE
  5
19d
100
AcDbEntity
  8
Holes
 62
7
100
AcDbSpline
 70
8
 71
3
 72
8
 73
4
 74
0
 40
0
 40
0
 40
0
 40
0
 40
1
 40
1
 40
1
 40
1
 10
2556.852504
 20
1646.271088
 30
0.0
 10
2555.328194
 20
1648.905226
 30
0.0
 10
2552.512418
 20
1650.523968
 30
0.0
 10
2549.469042
 20
1650.515715
 30
0.0
  0
SPLINE
  5
19e
100
AcDbEntity
  8
Holes
 62
7
100
AcDbSpline
 70
8
 71
3
 72
8
 73
4
 74
0
 40
0
 40
0
 40
0
 40
0
 40
1
 40
1
 40
1
 40
1
 10
2549.469042
 20
1650.515715
 30
0.0
 10
2546.425664
 20
1650.523157
 30
0.0
 10
2543.610320
 20
1648.903664
 30
0.0
 10
2542.086712
 20
1646.269119
 30
0.0
  0
SPLINE
  5
19f
100
AcDbEntity
  8
Holes
 62
7
100
AcDbSpline
 70
8
 71
3
 72
8
 73
4
 74
0
 40
0
 40
0
 40
0
 40
0
 40
1
 40
1
 40
1
 40
1
 10
2542.086712
 20
1646.269119
 30
0.0
 10
2540.563105
 20
1643.634574
 30
0.0
 10
2540.563538
 20
1640.386664
 30
0.0
 10
2542.087848
 20
1637.752525
 30
0.0
  0
SPLINE
  5
1a0
100
AcDbEntity
  8
Holes
 62
7
100
AcDbSpline
 70
8
 71
3
 72
8
 73
4
 74
0
 40
0
 40
0
 40
0
 40
0
 40
1
 40
1
 40
1
 40
1
 10
2542.087848
 20
1637.752525
 30
0.0
 10
2543.612158
 20
1635.118387
 30
0.0
 10
2546.427934
 20
1633.499645
 30
0.0
 10
2549.471310
 20
1633.507898
 30
0.0
  0
LWPOLYLINE
  5
1a1
100
AcDbEntity
  8
Holes
 62
7
100
AcDbPolyline
 90
1
 70
1
 10
2549.465640
 20
1681.555140
 30
0.0
  0
SPLINE
  5
1a2
100
AcDbEntity
  8
Holes
 62
7
100
AcDbSpline
 70
8
 71
3
 72
8
 73
4
 74
0
 40
0
 40
0
 40
0
 40
0
 40
1
 40
1
 40
1
 40
1
 10
2549.476979
 20
1585.460628
 30
0.0
 10
2552.515153
 20
1585.461028
 30
0.0
 10
2555.322328
 20
1587.082244
 30
0.0
 10
2556.841069
 20
1589.713580
 30
0.0
  0
SPLINE
  5
1a3
100
AcDbEntity
  8
Holes
 62
7
100
AcDbSpline
 70
8
 71
3
 72
8
 73
4
 74
0
 40
0
 40
0
 40
0
 40
0
 40
1
 40
1
 40
1
 40
1
 10
2556.841069
 20
1589.713580
 30
0.0
 10
2558.359809
 20
1592.344916
 30
0.0
 10
2558.359383
 20
1595.586609
 30
0.0
 10
2556.839949
 20
1598.217545
 30
0.0
  0
SPLINE
  5
1a4
100
AcDbEntity
  8
Holes
 62
7
100
AcDbSpline
 70
8
 71
3
 72
8
 73
4
 74
0
 40
0
 40
0
 40
0
 40
0
 40
1
 40
1
 40
1
 40
1
 10
2556.839949
 20
1598.217545
 30
0.0
 10
2555.320516
 20
1600.848481
 30
0.0
 10
2552.512914
 20
1602.468958
 30
0.0
 10
2549.474740
 20
1602.468558
 30
0.0
  0
SPLINE
  5
1a5
100
AcDbEntity
  8
Holes
 62
7
100
AcDbSpline
 70
8
 71
3
 72
8
 73
4
 74
0
 40
0
 40
0
 40
0
 40
0
 40
1
 40
1
 40
1
 40
1
 10
2549.474740
 20
1602.468558
 30
0.0
 10
2546.436565
 20
1602.468158
 30
0.0
 10
2543.629390
 20
1600.846941
 30
0.0
 10
2542.110650
 20
1598.215606
 30
0.0
  0
SPLINE
  5
1a6
100
AcDbEntity
  8
Holes
 62
7
100
AcDbSpline
 70
8
 71
3
 72
8
 73
4
 74
0
 40
0
 40
0
 40
0
 40
0
 40
1
 40
1
 40
1
 40
1
 10
2542.110650
 20
1598.215606
 30
0.0
 10
2540.591909
 20
1595.584270
 30
0.0
 10
2540.592336
 20
1592.342576
 30
0.0
 10
2542.111769
 20
1589.711641
 30
0.0
  0
SPLINE
  5
1a7
100
AcDbEntity
  8
Holes
 62
7
100
AcDbSpline
 70
8
 71
3
 72
8
 73
4
 74
0
 40
0
 40
0
 40
0
 40
0
 40
1
 40
1
 40
1
 40
1
 10
2542.111769
 20
1589.711641
 30
0.0
 10
2543.631203
 20
1587.080705
 30
0.0
 10
2546.438805
 20
1585.460228
 30
0.0
 10
2549.476979
 20
1585.460628
 30
0.0
  0
LWPOLYLINE
  5
1a8
100
AcDbEntity
  8
Holes
 62
7
100
AcDbPolyline
 90
1
 70
1
 10
2549.471310
 20
1633.507898
 30
0.0
  0
SPLINE
  5
1a9
100
AcDbEntity
  8
Holes
 62
7
100
AcDbSpline
 70
8
 71
3
 72
8
 73
4
 74
0
 40
0
 40
0
 40
0
 40
0
 40
1
 40
1
 40
1
 40
1
 10
2549.482648
 20
1537.413386
 30
0.0
 10
2554.179251
 20
1537.414004
 30
0.0
 10
2557.986098
 20
1541.221854
 30
0.0
 10
2557.985479
 20
1545.918456
 30
0.0
  0
SPLINE
  5
1aa
100
AcDbEntity
  8
Holes
 62
7
100
AcDbSpline
 70
8
 71
3
 72
8
 73
4
 74
0
 40
0
 40
0
 40
0
 40
0
 40
1
 40
1
 40
1
 40
1
 10
2557.985479
 20
1545.918456
 30
0.0
 10
2557.984861
 20
1550.615058
 30
0.0
 10
2554.177011
 20
1554.421906
 30
0.0
 10
2549.480409
 20
1554.421287
 30
0.0
  0
SPLINE
  5
1ab
100
AcDbEntity
  8
Holes
 62
7
100
AcDbSpline
 70
8
 71
3
 72
8
 73
4
 74
0
 40
0
 40
0
 40
0
 40
0
 40
1
 40
1
 40
1
 40
1
 10
2549.480409
 20
1554.421287
 30
0.0
 10
2546.442240
 20
1554.420887
 30
0.0
 10
2543.635069
 20
1552.799674
 30
0.0
 10
2542.116331
 20
1550.168342
 30
0.0
  0
SPLINE
  5
1ac
100
AcDbEntity
  8
Holes
 62
7
100
AcDbSpline
 70
8
 71
3
 72
8
 73
4
 74
0
 40
0
 40
0
 40
0
 40
0
 40
1
 40
1
 40
1
 40
1
 10
2542.116331
 20
1550.168342
 30
0.0
 10
2540.597593
 20
1547.537011
 30
0.0
 10
2540.598020
 20
1544.295323
 30
0.0
 10
2542.117451
 20
1541.664391
 30
0.0
  0
SPLINE
  5
1ad
100
AcDbEntity
  8
Holes
 62
7
100
AcDbSpline
 70
8
 71
3
 72
8
 73
4
 74
0
 40
0
 40
0
 40
0
 40
0
 40
1
 40
1
 40
1
 40
1
 10
2542.117451
 20
1541.664391
 30
0.0
 10
2543.636882
 20
1539.033460
 30
0.0
 10
2546.444479
 20
1537.412986
 30
0.0
 10
2549.482648
 20
1537.413386
 30
0.0
  0
LWPOLYLINE
  5
1ae
100
AcDbEntity
  8
Holes
 62
7
100
AcDbPolyline
 90
1
 70
1
 10
2549.476979
 20
1585.460628
 30
0.0
  0
SPLINE
  5
1af
100
AcDbEntity
  8
Holes
 62
7
100
AcDbSpline
 70
8
 71
3
 72
8
 73
4
 74
0
 40
0
 40
0
 40
0
 40
0
 40
1
 40
1
 40
1
 40
1
 10
2549.488317
 20
1489.366144
 30
0.0
 10
2552.526486
 20
1489.366549
 30
0.0
 10
2555.333654
 20
1490.987767
 30
0.0
 10
2556.852388
 20
1493.619101
 30
0.0
  0
SPLINE
  5
1b0
100
AcDbEntity
  8
Holes
 62
7
100
AcDbSpline
 70
8
 71
3
 72
8
 73
4
 74
0
 40
0
 40
0
 40
0
 40
0
 40
1
 40
1
 40
1
 40
1
 10
2556.852388
 20
1493.619101
 30
0.0
 10
2558.371122
 20
1496.250435
 30
0.0
 10
2558.370689
 20
1499.492123
 30
0.0
 10
2556.851254
 20
1502.123052
 30
0.0
  0
SPLINE
  5
1b1
100
AcDbEntity
  8
Holes
 62
7
100
AcDbSpline
 70
8
 71
3
 72
8
 73
4
 74
0
 40
0
 40
0
 40
0
 40
0
 40
1
 40
1
 40
1
 40
1
 10
2556.851254
 20
1502.123052
 30
0.0
 10
2555.331819
 20
1504.753981
 30
0.0
 10
2552.524219
 20
1506.374450
 30
0.0
 10
2549.486050
 20
1506.374045
 30
0.0
  0
SPLINE
  5
1b2
100
AcDbEntity
  8
Holes
 62
7
100
AcDbSpline
 70
8
 71
3
 72
8
 73
4
 74
0
 40
0
 40
0
 40
0
 40
0
 40
1
 40
1
 40
1
 40
1
 10
2549.486050
 20
1506.374045
 30
0.0
 10
2546.447881
 20
1506.373640
 30
0.0
 10
2543.640713
 20
1504.752422
 30
0.0
 10
2542.121979
 20
1502.121088
 30
0.0
  0
SPLINE
  5
1b3
100
AcDbEntity
  8
Holes
 62
7
100
AcDbSpline
 70
8
 71
3
 72
8
 73
4
 74
0
 40
0
 40
0
 40
0
 40
0
 40
1
 40
1
 40
1
 40
1
 10
2542.121979
 20
1502.121088
 30
0.0
 10
2540.603246
 20
1499.489754
 30
0.0
 10
2540.603678
 20
1496.248066
 30
0.0
 10
2542.123113
 20
1493.617137
 30
0.0
  0
SPLINE
  5
1b4
100
AcDbEntity
  8
Holes
 62
7
100
AcDbSpline
 70
8
 71
3
 72
8
 73
4
 74
0
 40
0
 40
0
 40
0
 40
0
 40
1
 40
1
 40
1
 40
1
 10
2542.123113
 20
1493.617137
 30
0.0
 10
2543.642548
 20
1490.986208
 30
0.0
 10
2546.450149
 20
1489.365738
 30
0.0
 10
2549.488317
 20
1489.366144
 30
0.0
  0
LWPOLYLINE
  5
1b5
100
AcDbEntity
  8
Holes
 62
7
100
AcDbPolyline
 90
1
 70
1
 10
2549.482648
 20
1537.413386
 30
0.0
  0
SPLINE
  5
1b6
100
AcDbEntity
  8
Holes
 62
7
100
AcDbSpline
 70
8
 71
3
 72
8
 73
4
 74
0
 40
0
 40
0
 40
0
 40
0
 40
1
 40
1
 40
1
 40
1
 10
2549.493987
 20
1441.318901
 30
0.0
 10
2552.532156
 20
1441.319301
 30
0.0
 10
2555.339326
 20
1442.940515
 30
0.0
 10
2556.858064
 20
1445.571847
 30
0.0
  0
SPLINE
  5
1b7
100
AcDbEntity
  8
Holes
 62
7
100
AcDbSpline
 70
8
 71
3
 72
8
 73
4
 74
0
 40
0
 40
0
 40
0
 40
0
 40
1
 40
1
 40
1
 40
1
 10
2556.858064
 20
1445.571847
 30
0.0
 10
2558.376802
 20
1448.203178
 30
0.0
 10
2558.376376
 20
1451.444866
 30
0.0
 10
2556.856945
 20
1454.075797
 30
0.0
  0
SPLINE
  5
1b8
100
AcDbEntity
  8
Holes
 62
7
100
AcDbSpline
 70
8
 71
3
 72
8
 73
4
 74
0
 40
0
 40
0
 40
0
 40
0
 40
1
 40
1
 40
1
 40
1
 10
2556.856945
 20
1454.075797
 30
0.0
 10
2555.337514
 20
1456.706729
 30
0.0
 10
2552.529916
 20
1458.327203
 30
0.0
 10
2549.491747
 20
1458.326803
 30
0.0
  0
SPLINE
  5
1b9
100
AcDbEntity
  8
Holes
 62
7
100
AcDbSpline
 70
8
 71
3
 72
8
 73
4
 74
0
 40
0
 40
0
 40
0
 40
0
 40
1
 40
1
 40
1
 40
1
 10
2549.491747
 20
1458.326803
 30
0.0
 10
2544.795145
 20
1458.326185
 30
0.0
 10
2540.988298
 20
1454.518335
 30
0.0
 10
2540.988916
 20
1449.821732
 30
0.0
  0
SPLINE
  5
1ba
100
AcDbEntity
  8
Holes
 62
7
100
AcDbSpline
 70
8
 71
3
 72
8
 73
4
 74
0
 40
0
 40
0
 40
0
 40
0
 40
1
 40
1
 40
1
 40
1
 10
2540.988916
 20
1449.821732
 30
0.0
 10
2540.989535
 20
1445.125130
 30
0.0
 10
2544.797384
 20
1441.318283
 30
0.0
 10
2549.493987
 20
1441.318901
 30
0.0
  0
LWPOLYLINE
  5
1bb
100
AcDbEntity
  8
Holes
 62
7
100
AcDbPolyline
 90
1
 70
1
 10
2549.488317
 20
1489.366144
 30
0.0
  0
SPLINE
  5
1bc
100
AcDbEntity
  8
Holes
 62
7
100
AcDbSpline
 70
8
 71
3
 72
8
 73
4
 74
0
 40
0
 40
0
 40
0
 40
0
 40
1
 40
1
 40
1
 40
1
 10
2549.499656
 20
1393.271659
 30
0.0
 10
2554.196258
 20
1393.272286
 30
0.0
 10
2558.003099
 20
1397.080142
 30
0.0
 10
2558.002473
 20
1401.776744
 30
0.0
  0
SPLINE
  5
1bd
100
AcDbEntity
  8
Holes
 62
7
100
AcDbSpline
 70
8
 71
3
 72
8
 73
4
 74
0
 40
0
 40
0
 40
0
 40
0
 40
1
 40
1
 40
1
 40
1
 10
2558.002473
 20
1401.776744
 30
0.0
 10
2558.001847
 20
1406.473346
 30
0.0
 10
2554.193991
 20
1410.280187
 30
0.0
 10
2549.497388
 20
1410.279561
 30
0.0
  0
SPLINE
  5
1be
100
AcDbEntity
  8
Holes
 62
7
100
AcDbSpline
 70
8
 71
3
 72
8
 73
4
 74
0
 40
0
 40
0
 40
0
 40
0
 40
1
 40
1
 40
1
 40
1
 10
2549.497388
 20
1410.279561
 30
0.0
 10
2546.459219
 20
1410.279156
 30
0.0
 10
2543.652052
 20
1408.657938
 30
0.0
 10
2542.133318
 20
1406.026603
 30
0.0
  0
SPLINE
  5
1bf
100
AcDbEntity
  8
Holes
 62
7
100
AcDbSpline
 70
8
 71
3
 72
8
 73
4
 74
0
 40
0
 40
0
 40
0
 40
0
 40
1
 40
1
 40
1
 40
1
 10
2542.133318
 20
1406.026603
 30
0.0
 10
2540.614584
 20
1403.395269
 30
0.0
 10
2540.615016
 20
1400.153582
 30
0.0
 10
2542.134452
 20
1397.522653
 30
0.0
  0
SPLINE
  5
1c0
100
AcDbEntity
  8
Holes
 62
7
100
AcDbSpline
 70
8
 71
3
 72
8
 73
4
 74
0
 40
0
 40
0
 40
0
 40
0
 40
1
 40
1
 40
1
 40
1
 10
2542.134452
 20
1397.522653
 30
0.0
 10
2543.653887
 20
1394.891724
 30
0.0
 10
2546.461487
 20
1393.271254
 30
0.0
 10
2549.499656
 20
1393.271659
 30
0.0
  0
LWPOLYLINE
  5
1c1
100
AcDbEntity
  8
Holes
 62
7
100
AcDbPolyline
 90
1
 70
1
 10
2549.493987
 20
1441.318901
 30
0.0
  0
SPLINE
  5
1c2
100
AcDbEntity
  8
Holes
 62
7
100
AcDbSpline
 70
8
 71
3
 72
8
 73
4
 74
0
 40
0
 40
0
 40
0
 40
0
 40
1
 40
1
 40
1
 40
1
 10
2549.505325
 20
1345.224389
 30
0.0
 10
2552.545933
 20
1345.221129
 30
0.0
 10
2555.356925
 20
1346.841542
 30
0.0
 10
2556.877940
 20
1349.474377
 30
0.0
  0
SPLINE
  5
1c3
100
AcDbEntity
  8
Holes
 62
7
100
AcDbSpline
 70
8
 71
3
 72
8
 73
4
 74
0
 40
0
 40
0
 40
0
 40
0
 40
1
 40
1
 40
1
 40
1
 10
2556.877940
 20
1349.474377
 30
0.0
 10
2558.398954
 20
1352.107212
 30
0.0
 10
2558.398527
 20
1355.351809
 30
0.0
 10
2556.876819
 20
1357.984244
 30
0.0
  0
SPLINE
  5
1c4
100
AcDbEntity
  8
Holes
 62
7
100
AcDbSpline
 70
8
 71
3
 72
8
 73
4
 74
0
 40
0
 40
0
 40
0
 40
0
 40
1
 40
1
 40
1
 40
1
 10
2556.876819
 20
1357.984244
 30
0.0
 10
2555.355111
 20
1360.616679
 30
0.0
 10
2552.543693
 20
1362.236351
 30
0.0
 10
2549.503086
 20
1362.232290
 30
0.0
  0
SPLINE
  5
1c5
100
AcDbEntity
  8
Holes
 62
7
100
AcDbSpline
 70
8
 71
3
 72
8
 73
4
 74
0
 40
0
 40
0
 40
0
 40
0
 40
1
 40
1
 40
1
 40
1
 10
2549.503086
 20
1362.232290
 30
0.0
 10
2546.462478
 20
1362.235551
 30
0.0
 10
2543.651487
 20
1360.615138
 30
0.0
 10
2542.130472
 20
1357.982302
 30
0.0
  0
SPLINE
  5
1c6
100
AcDbEntity
  8
Holes
 62
7
100
AcDbSpline
 70
8
 71
3
 72
8
 73
4
 74
0
 40
0
 40
0
 40
0
 40
0
 40
1
 40
1
 40
1
 40
1
 10
2542.130472
 20
1357.982302
 30
0.0
 10
2540.609457
 20
1355.349467
 30
0.0
 10
2540.609884
 20
1352.104870
 30
0.0
 10
2542.131592
 20
1349.472435
 30
0.0
  0
SPLINE
  5
1c7
100
AcDbEntity
  8
Holes
 62
7
100
AcDbSpline
 70
8
 71
3
 72
8
 73
4
 74
0
 40
0
 40
0
 40
0
 40
0
 40
1
 40
1
 40
1
 40
1
 10
2542.131592
 20
1349.472435
 30
0.0
 10
2543.653300
 20
1346.840001
 30
0.0
 10
2546.464718
 20
1345.220328
 30
0.0
 10
2549.505325
 20
1345.224389
 30
0.0
  0
LWPOLYLINE
  5
1c8
100
AcDbEntity
  8
Holes
 62
7
100
AcDbPolyline
 90
1
 70
1
 10
2549.499656
 20
1393.271659
 30
0.0
  0
SPLINE
  5
1c9
100
AcDbEntity
  8
Holes
 62
7
100
AcDbSpline
 70
8
 71
3
 72
8
 73
4
 74
0
 40
0
 40
0
 40
0
 40
0
 40
1
 40
1
 40
1
 40
1
 10
2549.510995
 20
1297.177147
 30
0.0
 10
2552.551929
 20
1297.173412
 30
0.0
 10
2555.363425
 20
1298.793726
 30
0.0
 10
2556.884740
 20
1301.426765
 30
0.0
  0
SPLINE
  5
1ca
100
AcDbEntity
  8
Holes
 62
7
100
AcDbSpline
 70
8
 71
3
 72
8
 73
4
 74
0
 40
0
 40
0
 40
0
 40
0
 40
1
 40
1
 40
1
 40
1
 10
2556.884740
 20
1301.426765
 30
0.0
 10
2558.406056
 20
1304.059804
 30
0.0
 10
2558.405628
 20
1307.304790
 30
0.0
 10
2556.883620
 20
1309.937428
 30
0.0
  0
SPLINE
  5
1cb
100
AcDbEntity
  8
Holes
 62
7
100
AcDbSpline
 70
8
 71
3
 72
8
 73
4
 74
0
 40
0
 40
0
 40
0
 40
0
 40
1
 40
1
 40
1
 40
1
 10
2556.883620
 20
1309.937428
 30
0.0
 10
2555.361611
 20
1312.570067
 30
0.0
 10
2552.549688
 20
1314.189641
 30
0.0
 10
2549.508755
 20
1314.185105
 30
0.0
  0
SPLINE
  5
1cc
100
AcDbEntity
  8
Holes
 62
7
100
AcDbSpline
 70
8
 71
3
 72
8
 73
4
 74
0
 40
0
 40
0
 40
0
 40
0
 40
1
 40
1
 40
1
 40
1
 10
2549.508755
 20
1314.185105
 30
0.0
 10
2546.467821
 20
1314.188840
 30
0.0
 10
2543.656325
 20
1312.568526
 30
0.0
 10
2542.135010
 20
1309.935486
 30
0.0
  0
SPLINE
  5
1cd
100
AcDbEntity
  8
Holes
 62
7
100
AcDbSpline
 70
8
 71
3
 72
8
 73
4
 74
0
 40
0
 40
0
 40
0
 40
0
 40
1
 40
1
 40
1
 40
1
 10
2542.135010
 20
1309.935486
 30
0.0
 10
2540.613694
 20
1307.302447
 30
0.0
 10
2540.614122
 20
1304.057462
 30
0.0
 10
2542.136130
 20
1301.424823
 30
0.0
  0
SPLINE
  5
1ce
100
AcDbEntity
  8
Holes
 62
7
100
AcDbSpline
 70
8
 71
3
 72
8
 73
4
 74
0
 40
0
 40
0
 40
0
 40
0
 40
1
 40
1
 40
1
 40
1
 10
2542.136130
 20
1301.424823
 30
0.0
 10
2543.658139
 20
1298.792185
 30
0.0
 10
2546.470061
 20
1297.172611
 30
0.0
 10
2549.510995
 20
1297.177147
 30
0.0
  0
LWPOLYLINE
  5
1cf
100
AcDbEntity
  8
Holes
 62
7
100
AcDbPolyline
 90
1
 70
1
 10
2549.505325
 20
1345.224389
 30
0.0
  0
SPLINE
  5
1d0
100
AcDbEntity
  8
Holes
 62
7
100
AcDbSpline
 70
8
 71
3
 72
8
 73
4
 74
0
 40
0
 40
0
 40
0
 40
0
 40
1
 40
1
 40
1
 40
1
 10
2549.516664
 20
1249.129961
 30
0.0
 10
2552.561111
 20
1249.120910
 30
0.0
 10
2555.378135
 20
1250.740050
 30
0.0
 10
2556.902743
 20
1253.375257
 30
0.0
  0
SPLINE
  5
1d1
100
AcDbEntity
  8
Holes
 62
7
100
AcDbSpline
 70
8
 71
3
 72
8
 73
4
 74
0
 40
0
 40
0
 40
0
 40
0
 40
1
 40
1
 40
1
 40
1
 10
2556.902743
 20
1253.375257
 30
0.0
 10
2558.427351
 20
1256.010463
 30
0.0
 10
2558.426918
 20
1259.259653
 30
0.0
 10
2556.901607
 20
1261.894452
 30
0.0
  0
SPLINE
  5
1d2
100
AcDbEntity
  8
Holes
 62
7
100
AcDbSpline
 70
8
 71
3
 72
8
 73
4
 74
0
 40
0
 40
0
 40
0
 40
0
 40
1
 40
1
 40
1
 40
1
 10
2556.901607
 20
1261.894452
 30
0.0
 10
2555.376296
 20
1264.529252
 30
0.0
 10
2552.558841
 20
1266.147641
 30
0.0
 10
2549.514396
 20
1266.137778
 30
0.0
  0
SPLINE
  5
1d3
100
AcDbEntity
  8
Holes
 62
7
100
AcDbSpline
 70
8
 71
3
 72
8
 73
4
 74
0
 40
0
 40
0
 40
0
 40
0
 40
1
 40
1
 40
1
 40
1
 10
2549.514396
 20
1266.137778
 30
0.0
 10
2546.469949
 20
1266.146829
 30
0.0
 10
2543.652925
 20
1264.527689
 30
0.0
 10
2542.128317
 20
1261.892483
 30
0.0
  0
SPLINE
  5
1d4
100
AcDbEntity
  8
Holes
 62
7
100
AcDbSpline
 70
8
 71
3
 72
8
 73
4
 74
0
 40
0
 40
0
 40
0
 40
0
 40
1
 40
1
 40
1
 40
1
 10
2542.128317
 20
1261.892483
 30
0.0
 10
2540.603709
 20
1259.257276
 30
0.0
 10
2540.604142
 20
1256.008086
 30
0.0
 10
2542.129453
 20
1253.373287
 30
0.0
  0
SPLINE
  5
1d5
100
AcDbEntity
  8
Holes
 62
7
100
AcDbSpline
 70
8
 71
3
 72
8
 73
4
 74
0
 40
0
 40
0
 40
0
 40
0
 40
1
 40
1
 40
1
 40
1
 10
2542.129453
 20
1253.373287
 30
0.0
 10
2543.654764
 20
1250.738487
 30
0.0
 10
2546.472219
 20
1249.120098
 30
0.0
 10
2549.516664
 20
1249.129961
 30
0.0
  0
LWPOLYLINE
  5
1d6
100
AcDbEntity
  8
Holes
 62
7
100
AcDbPolyline
 90
1
 70
1
 10
2549.510995
 20
1297.177147
 30
0.0
  0
SPLINE
  5
1d7
100
AcDbEntity
  8
Holes
 62
7
100
AcDbSpline
 70
8
 71
3
 72
8
 73
4
 74
0
 40
0
 40
0
 40
0
 40
0
 40
1
 40
1
 40
1
 40
1
 10
2309.175061
 20
2197.008732
 30
0.0
 10
2324.374084
 20
2196.997935
 30
0.0
 10
2338.423021
 20
2205.100849
 30
0.0
 10
2346.024774
 20
2218.262299
 30
0.0
  0
SPLINE
  5
1d8
100
AcDbEntity
  8
Holes
 62
7
100
AcDbSpline
 70
8
 71
3
 72
8
 73
4
 74
0
 40
0
 40
0
 40
0
 40
0
 40
1
 40
1
 40
1
 40
1
 10
2346.024774
 20
2218.262299
 30
0.0
 10
2353.626526
 20
2231.423749
 30
0.0
 10
2353.624904
 20
2247.641944
 30
0.0
 10
2346.020520
 20
2260.801873
 30
0.0
  0
SPLINE
  5
1d9
100
AcDbEntity
  8
Holes
 62
7
100
AcDbSpline
 70
8
 71
3
 72
8
 73
4
 74
0
 40
0
 40
0
 40
0
 40
0
 40
1
 40
1
 40
1
 40
1
 10
2346.020520
 20
2260.801873
 30
0.0
 10
2338.416135
 20
2273.961803
 30
0.0
 10
2324.365578
 20
2282.061906
 30
0.0
 10
2309.166557
 20
2282.048070
 30
0.0
  0
SPLINE
  5
1da
100
AcDbEntity
  8
Holes
 62
7
100
AcDbSpline
 70
8
 71
3
 72
8
 73
4
 74
0
 40
0
 40
0
 40
0
 40
0
 40
1
 40
1
 40
1
 40
1
 10
2309.166557
 20
2282.048070
 30
0.0
 10
2293.967534
 20
2282.058867
 30
0.0
 10
2279.918597
 20
2273.955953
 30
0.0
 10
2272.316845
 20
2260.794503
 30
0.0
  0
SPLINE
  5
1db
100
AcDbEntity
  8
Holes
 62
7
100
AcDbSpline
 70
8
 71
3
 72
8
 73
4
 74
0
 40
0
 40
0
 40
0
 40
0
 40
1
 40
1
 40
1
 40
1
 10
2272.316845
 20
2260.794503
 30
0.0
 10
2264.715092
 20
2247.633053
 30
0.0
 10
2264.716714
 20
2231.414858
 30
0.0
 10
2272.321099
 20
2218.254928
 30
0.0
  0
SPLINE
  5
1dc
100
AcDbEntity
  8
Holes
 62
7
100
AcDbSpline
 70
8
 71
3
 72
8
 73
4
 74
0
 40
0
 40
0
 40
0
 40
0
 40
1
 40
1
 40
1
 40
1
 10
2272.321099
 20
2218.254928
 30
0.0
 10
2279.925483
 20
2205.094999
 30
0.0
 10
2293.976041
 20
2196.994895
 30
0.0
 10
2309.175061
 20
2197.008732
 30
0.0
  0
LWPOLYLINE
  5
1dd
100
AcDbEntity
  8
Holes
 62
7
100
AcDbPolyline
 90
1
 70
1
 10
2549.516664
 20
1249.129961
 30
0.0
  0
SPLINE
  5
1de
100
AcDbEntity
  8
Holes
 62
7
100
AcDbSpline
 70
8
 71
3
 72
8
 73
4
 74
0
 40
0
 40
0
 40
0
 40
0
 40
1
 40
1
 40
1
 40
1
 10
2549.521993
 20
1201.082634
 30
0.0
 10
2552.562601
 20
1201.079380
 30
0.0
 10
2555.373589
 20
1202.699797
 30
0.0
 10
2556.894599
 20
1205.332635
 30
0.0
  0
SPLINE
  5
1df
100
AcDbEntity
  8
Holes
 62
7
100
AcDbSpline
 70
8
 71
3
 72
8
 73
4
 74
0
 40
0
 40
0
 40
0
 40
0
 40
1
 40
1
 40
1
 40
1
 10
2556.894599
 20
1205.332635
 30
0.0
 10
2558.415609
 20
1207.965473
 30
0.0
 10
2558.415176
 20
1211.210069
 30
0.0
 10
2556.893464
 20
1213.842501
 30
0.0
  0
SPLINE
  5
1e0
100
AcDbEntity
  8
Holes
 62
7
100
AcDbSpline
 70
8
 71
3
 72
8
 73
4
 74
0
 40
0
 40
0
 40
0
 40
0
 40
1
 40
1
 40
1
 40
1
 10
2556.893464
 20
1213.842501
 30
0.0
 10
2555.371752
 20
1216.474933
 30
0.0
 10
2552.560332
 20
1218.094601
 30
0.0
 10
2549.519725
 20
1218.090536
 30
0.0
  0
SPLINE
  5
1e1
100
AcDbEntity
  8
Holes
 62
7
100
AcDbSpline
 70
8
 71
3
 72
8
 73
4
 74
0
 40
0
 40
0
 40
0
 40
0
 40
1
 40
1
 40
1
 40
1
 10
2549.519725
 20
1218.090536
 30
0.0
 10
2546.479118
 20
1218.093790
 30
0.0
 10
2543.668130
 20
1216.473372
 30
0.0
 10
2542.147120
 20
1213.840535
 30
0.0
  0
SPLINE
  5
1e2
100
AcDbEntity
  8
Holes
 62
7
100
AcDbSpline
 70
8
 71
3
 72
8
 73
4
 74
0
 40
0
 40
0
 40
0
 40
0
 40
1
 40
1
 40
1
 40
1
 10
2542.147120
 20
1213.840535
 30
0.0
 10
2540.626109
 20
1211.207697
 30
0.0
 10
2540.626542
 20
1207.963101
 30
0.0
 10
2542.148254
 20
1205.330669
 30
0.0
  0
SPLINE
  5
1e3
100
AcDbEntity
  8
Holes
 62
7
100
AcDbSpline
 70
8
 71
3
 72
8
 73
4
 74
0
 40
0
 40
0
 40
0
 40
0
 40
1
 40
1
 40
1
 40
1
 10
2542.148254
 20
1205.330669
 30
0.0
 10
2543.669966
 20
1202.698237
 30
0.0
 10
2546.481386
 20
1201.078569
 30
0.0
 10
2549.521993
 20
1201.082634
 30
0.0
  0
LWPOLYLINE
  5
1e4
100
AcDbEntity
  8
Holes
 62
7
100
AcDbPolyline
 90
1
 70
1
 10
2309.175061
 20
2197.008732
 30
0.0
  0
SPLINE
  5
1e5
100
AcDbEntity
  8
Holes
 62
7
100
AcDbSpline
 70
8
 71
3
 72
8
 73
4
 74
0
 40
0
 40
0
 40
0
 40
0
 40
1
 40
1
 40
1
 40
1
 10
2549.527662
 20
1153.035477
 30
0.0
 10
2554.224265
 20
1153.036103
 30
0.0
 10
2558.031105
 20
1156.843959
 30
0.0
 10
2558.030479
 20
1161.540562
 30
0.0
  0
SPLINE
  5
1e6
100
AcDbEntity
  8
Holes
 62
7
100
AcDbSpline
 70
8
 71
3
 72
8
 73
4
 74
0
 40
0
 40
0
 40
0
 40
0
 40
1
 40
1
 40
1
 40
1
 10
2558.030479
 20
1161.540562
 30
0.0
 10
2558.029853
 20
1166.237164
 30
0.0
 10
2554.221997
 20
1170.044005
 30
0.0
 10
2549.525395
 20
1170.043379
 30
0.0
  0
SPLINE
  5
1e7
100
AcDbEntity
  8
Holes
 62
7
100
AcDbSpline
 70
8
 71
3
 72
8
 73
4
 74
0
 40
0
 40
0
 40
0
 40
0
 40
1
 40
1
 40
1
 40
1
 10
2549.525395
 20
1170.043379
 30
0.0
 10
2546.487226
 20
1170.042973
 30
0.0
 10
2543.680058
 20
1168.421755
 30
0.0
 10
2542.161324
 20
1165.790421
 30
0.0
  0
SPLINE
  5
1e8
100
AcDbEntity
  8
Holes
 62
7
100
AcDbSpline
 70
8
 71
3
 72
8
 73
4
 74
0
 40
0
 40
0
 40
0
 40
0
 40
1
 40
1
 40
1
 40
1
 10
2542.161324
 20
1165.790421
 30
0.0
 10
2540.642591
 20
1163.159087
 30
0.0
 10
2540.643023
 20
1159.917399
 30
0.0
 10
2542.162458
 20
1157.286470
 30
0.0
  0
SPLINE
  5
1e9
100
AcDbEntity
  8
Holes
 62
7
100
AcDbSpline
 70
8
 71
3
 72
8
 73
4
 74
0
 40
0
 40
0
 40
0
 40
0
 40
1
 40
1
 40
1
 40
1
 10
2542.162458
 20
1157.286470
 30
0.0
 10
2543.681893
 20
1154.655541
 30
0.0
 10
2546.489493
 20
1153.035072
 30
0.0
 10
2549.527662
 20
1153.035477
 30
0.0
  0
LWPOLYLINE
  5
1ea
100
AcDbEntity
  8
Holes
 62
7
100
AcDbPolyline
 90
1
 70
1
 10
2549.521993
 20
1201.082634
 30
0.0
  0
SPLINE
  5
1eb
100
AcDbEntity
  8
Holes
 62
7
100
AcDbSpline
 70
8
 71
3
 72
8
 73
4
 74
0
 40
0
 40
0
 40
0
 40
0
 40
1
 40
1
 40
1
 40
1
 10
2549.533332
 20
1104.988294
 30
0.0
 10
2552.579228
 20
1104.977037
 30
0.0
 10
2555.398540
 20
1106.595683
 30
0.0
 10
2556.924516
 20
1109.231781
 30
0.0
  0
SPLINE
  5
1ec
100
AcDbEntity
  8
Holes
 62
7
100
AcDbSpline
 70
8
 71
3
 72
8
 73
4
 74
0
 40
0
 40
0
 40
0
 40
0
 40
1
 40
1
 40
1
 40
1
 10
2556.924516
 20
1109.231781
 30
0.0
 10
2558.450492
 20
1111.867879
 30
0.0
 10
2558.450064
 20
1115.118807
 30
0.0
 10
2556.923394
 20
1117.754503
 30
0.0
  0
SPLINE
  5
1ed
100
AcDbEntity
  8
Holes
 62
7
100
AcDbSpline
 70
8
 71
3
 72
8
 73
4
 74
0
 40
0
 40
0
 40
0
 40
0
 40
1
 40
1
 40
1
 40
1
 10
2556.923394
 20
1117.754503
 30
0.0
 10
2555.396724
 20
1120.390198
 30
0.0
 10
2552.576986
 20
1122.008102
 30
0.0
 10
2549.531092
 20
1121.996043
 30
0.0
  0
SPLINE
  5
1ee
100
AcDbEntity
  8
Holes
 62
7
100
AcDbSpline
 70
8
 71
3
 72
8
 73
4
 74
0
 40
0
 40
0
 40
0
 40
0
 40
1
 40
1
 40
1
 40
1
 10
2549.531092
 20
1121.996043
 30
0.0
 10
2546.485196
 20
1122.007300
 30
0.0
 10
2543.665884
 20
1120.388654
 30
0.0
 10
2542.139908
 20
1117.752556
 30
0.0
  0
SPLINE
  5
1ef
100
AcDbEntity
  8
Holes
 62
7
100
AcDbSpline
 70
8
 71
3
 72
8
 73
4
 74
0
 40
0
 40
0
 40
0
 40
0
 40
1
 40
1
 40
1
 40
1
 10
2542.139908
 20
1117.752556
 30
0.0
 10
2540.613932
 20
1115.116458
 30
0.0
 10
2540.614360
 20
1111.865531
 30
0.0
 10
2542.141030
 20
1109.229835
 30
0.0
  0
SPLINE
  5
1f0
100
AcDbEntity
  8
Holes
 62
7
100
AcDbSpline
 70
8
 71
3
 72
8
 73
4
 74
0
 40
0
 40
0
 40
0
 40
0
 40
1
 40
1
 40
1
 40
1
 10
2542.141030
 20
1109.229835
 30
0.0
 10
2543.667700
 20
1106.594139
 30
0.0
 10
2546.487438
 20
1104.976235
 30
0.0
 10
2549.533332
 20
1104.988294
 30
0.0
  0
LWPOLYLINE
  5
1f1
100
AcDbEntity
  8
Holes
 62
7
100
AcDbPolyline
 90
1
 70
1
 10
2549.527662
 20
1153.035477
 30
0.0
  0
SPLINE
  5
1f2
100
AcDbEntity
  8
Holes
 62
7
100
AcDbSpline
 70
8
 71
3
 72
8
 73
4
 74
0
 40
0
 40
0
 40
0
 40
0
 40
1
 40
1
 40
1
 40
1
 10
2549.539001
 20
1056.940970
 30
0.0
 10
2552.581972
 20
1056.934138
 30
0.0
 10
2555.396678
 20
1058.553762
 30
0.0
 10
2556.919908
 20
1061.188053
 30
0.0
  0
SPLINE
  5
1f3
100
AcDbEntity
  8
Holes
 62
7
100
AcDbSpline
 70
8
 71
3
 72
8
 73
4
 74
0
 40
0
 40
0
 40
0
 40
0
 40
1
 40
1
 40
1
 40
1
 10
2556.919908
 20
1061.188053
 30
0.0
 10
2558.443138
 20
1063.822344
 30
0.0
 10
2558.442711
 20
1067.069766
 30
0.0
 10
2556.918787
 20
1069.703656
 30
0.0
  0
SPLINE
  5
1f4
100
AcDbEntity
  8
Holes
 62
7
100
AcDbSpline
 70
8
 71
3
 72
8
 73
4
 74
0
 40
0
 40
0
 40
0
 40
0
 40
1
 40
1
 40
1
 40
1
 10
2556.918787
 20
1069.703656
 30
0.0
 10
2555.394864
 20
1072.337546
 30
0.0
 10
2552.579731
 20
1073.956428
 30
0.0
 10
2549.536762
 20
1073.948795
 30
0.0
  0
SPLINE
  5
1f5
100
AcDbEntity
  8
Holes
 62
7
100
AcDbSpline
 70
8
 71
3
 72
8
 73
4
 74
0
 40
0
 40
0
 40
0
 40
0
 40
1
 40
1
 40
1
 40
1
 10
2549.536762
 20
1073.948795
 30
0.0
 10
2546.493791
 20
1073.955627
 30
0.0
 10
2543.679084
 20
1072.336004
 30
0.0
 10
2542.155854
 20
1069.701713
 30
0.0
  0
SPLINE
  5
1f6
100
AcDbEntity
  8
Holes
 62
7
100
AcDbSpline
 70
8
 71
3
 72
8
 73
4
 74
0
 40
0
 40
0
 40
0
 40
0
 40
1
 40
1
 40
1
 40
1
 10
2542.155854
 20
1069.701713
 30
0.0
 10
2540.632624
 20
1067.067421
 30
0.0
 10
2540.633052
 20
1063.819999
 30
0.0
 10
2542.156975
 20
1061.186109
 30
0.0
  0
SPLINE
  5
1f7
100
AcDbEntity
  8
Holes
 62
7
100
AcDbSpline
 70
8
 71
3
 72
8
 73
4
 74
0
 40
0
 40
0
 40
0
 40
0
 40
1
 40
1
 40
1
 40
1
 10
2542.156975
 20
1061.186109
 30
0.0
 10
2543.680899
 20
1058.552219
 30
0.0
 10
2546.496032
 20
1056.933337
 30
0.0
 10
2549.539001
 20
1056.940970
 30
0.0
  0
LWPOLYLINE
  5
1f8
100
AcDbEntity
  8
Holes
 62
7
100
AcDbPolyline
 90
1
 70
1
 10
2549.533332
 20
1104.988294
 30
0.0
  0
SPLINE
  5
1f9
100
AcDbEntity
  8
Holes
 62
7
100
AcDbSpline
 70
8
 71
3
 72
8
 73
4
 74
0
 40
0
 40
0
 40
0
 40
0
 40
1
 40
1
 40
1
 40
1
 10
2549.544670
 20
1008.893799
 30
0.0
 10
2552.587641
 20
1008.886967
 30
0.0
 10
2555.402348
 20
1010.506590
 30
0.0
 10
2556.925578
 20
1013.140881
 30
0.0
  0
SPLINE
  5
1fa
100
AcDbEntity
  8
Holes
 62
7
100
AcDbSpline
 70
8
 71
3
 72
8
 73
4
 74
0
 40
0
 40
0
 40
0
 40
0
 40
1
 40
1
 40
1
 40
1
 10
2556.925578
 20
1013.140881
 30
0.0
 10
2558.448808
 20
1015.775173
 30
0.0
 10
2558.448380
 20
1019.022595
 30
0.0
 10
2556.924456
 20
1021.656485
 30
0.0
  0
SPLINE
  5
1fb
100
AcDbEntity
  8
Holes
 62
7
100
AcDbSpline
 70
8
 71
3
 72
8
 73
4
 74
0
 40
0
 40
0
 40
0
 40
0
 40
1
 40
1
 40
1
 40
1
 10
2556.924456
 20
1021.656485
 30
0.0
 10
2555.400533
 20
1024.290375
 30
0.0
 10
2552.585400
 20
1025.909257
 30
0.0
 10
2549.542431
 20
1025.901624
 30
0.0
  0
SPLINE
  5
1fc
100
AcDbEntity
  8
Holes
 62
7
100
AcDbSpline
 70
8
 71
3
 72
8
 73
4
 74
0
 40
0
 40
0
 40
0
 40
0
 40
1
 40
1
 40
1
 40
1
 10
2549.542431
 20
1025.901624
 30
0.0
 10
2546.499460
 20
1025.908456
 30
0.0
 10
2543.684753
 20
1024.288832
 30
0.0
 10
2542.161523
 20
1021.654541
 30
0.0
  0
SPLINE
  5
1fd
100
AcDbEntity
  8
Holes
 62
7
100
AcDbSpline
 70
8
 71
3
 72
8
 73
4
 74
0
 40
0
 40
0
 40
0
 40
0
 40
1
 40
1
 40
1
 40
1
 10
2542.161523
 20
1021.654541
 30
0.0
 10
2540.638294
 20
1019.020250
 30
0.0
 10
2540.638721
 20
1015.772828
 30
0.0
 10
2542.162645
 20
1013.138938
 30
0.0
  0
SPLINE
  5
1fe
100
AcDbEntity
  8
Holes
 62
7
100
AcDbSpline
 70
8
 71
3
 72
8
 73
4
 74
0
 40
0
 40
0
 40
0
 40
0
 40
1
 40
1
 40
1
 40
1
 10
2542.162645
 20
1013.138938
 30
0.0
 10
2543.686568
 20
1010.505048
 30
0.0
 10
2546.501701
 20
1008.886166
 30
0.0
 10
2549.544670
 20
1008.893799
 30
0.0
  0
LWPOLYLINE
  5
1ff
100
AcDbEntity
  8
Holes
 62
7
100
AcDbPolyline
 90
1
 70
1
 10
2549.539001
 20
1056.940970
 30
0.0
  0
SPLINE
  5
200
100
AcDbEntity
  8
Holes
 62
7
100
AcDbSpline
 70
8
 71
3
 72
8
 73
4
 74
0
 40
0
 40
0
 40
0
 40
0
 40
1
 40
1
 40
1
 40
1
 10
2549.550340
 20
960.846551
 30
0.0
 10
2552.594454
 20
960.837999
 30
0.0
 10
2555.410955
 20
962.457246
 30
0.0
 10
2556.935255
 20
965.092244
 30
0.0
  0
SPLINE
  5
201
100
AcDbEntity
  8
Holes
 62
7
100
AcDbSpline
 70
8
 71
3
 72
8
 73
4
 74
0
 40
0
 40
0
 40
0
 40
0
 40
1
 40
1
 40
1
 40
1
 10
2556.935255
 20
965.092244
 30
0.0
 10
2558.459555
 20
967.727241
 30
0.0
 10
2558.459127
 20
970.976032
 30
0.0
 10
2556.934133
 20
973.610628
 30
0.0
  0
SPLINE
  5
202
100
AcDbEntity
  8
Holes
 62
7
100
AcDbSpline
 70
8
 71
3
 72
8
 73
4
 74
0
 40
0
 40
0
 40
0
 40
0
 40
1
 40
1
 40
1
 40
1
 10
2556.934133
 20
973.610628
 30
0.0
 10
2555.409140
 20
976.245225
 30
0.0
 10
2552.592212
 20
977.863730
 30
0.0
 10
2549.548100
 20
977.854376
 30
0.0
  0
SPLINE
  5
203
100
AcDbEntity
  8
Holes
 62
7
100
AcDbSpline
 70
8
 71
3
 72
8
 73
4
 74
0
 40
0
 40
0
 40
0
 40
0
 40
1
 40
1
 40
1
 40
1
 10
2549.548100
 20
977.854376
 30
0.0
 10
2546.503986
 20
977.862928
 30
0.0
 10
2543.687485
 20
976.243681
 30
0.0
 10
2542.163185
 20
973.608684
 30
0.0
  0
SPLINE
  5
204
100
AcDbEntity
  8
Holes
 62
7
100
AcDbSpline
 70
8
 71
3
 72
8
 73
4
 74
0
 40
0
 40
0
 40
0
 40
0
 40
1
 40
1
 40
1
 40
1
 10
2542.163185
 20
973.608684
 30
0.0
 10
2540.638885
 20
970.973686
 30
0.0
 10
2540.639313
 20
967.724895
 30
0.0
 10
2542.164306
 20
965.090299
 30
0.0
  0
SPLINE
  5
205
100
AcDbEntity
  8
Holes
 62
7
100
AcDbSpline
 70
8
 71
3
 72
8
 73
4
 74
0
 40
0
 40
0
 40
0
 40
0
 40
1
 40
1
 40
1
 40
1
 10
2542.164306
 20
965.090299
 30
0.0
 10
2543.689300
 20
962.455702
 30
0.0
 10
2546.506228
 20
960.837198
 30
0.0
 10
2549.550340
 20
960.846551
 30
0.0
  0
LWPOLYLINE
  5
206
100
AcDbEntity
  8
Holes
 62
7
100
AcDbPolyline
 90
1
 70
1
 10
2549.544670
 20
1008.893799
 30
0.0
  0
SPLINE
  5
207
100
AcDbEntity
  8
Holes
 62
7
100
AcDbSpline
 70
8
 71
3
 72
8
 73
4
 74
0
 40
0
 40
0
 40
0
 40
0
 40
1
 40
1
 40
1
 40
1
 10
2549.556009
 20
912.799230
 30
0.0
 10
2552.596882
 20
912.795570
 30
0.0
 10
2555.408290
 20
914.415895
 30
0.0
 10
2556.929553
 20
917.048894
 30
0.0
  0
SPLINE
  5
208
100
AcDbEntity
  8
Holes
 62
7
100
AcDbSpline
 70
8
 71
3
 72
8
 73
4
 74
0
 40
0
 40
0
 40
0
 40
0
 40
1
 40
1
 40
1
 40
1
 10
2556.929553
 20
917.048894
 30
0.0
 10
2558.450816
 20
919.681893
 30
0.0
 10
2558.450389
 20
922.926807
 30
0.0
 10
2556.928433
 20
925.559406
 30
0.0
  0
SPLINE
  5
209
100
AcDbEntity
  8
Holes
 62
7
100
AcDbSpline
 70
8
 71
3
 72
8
 73
4
 74
0
 40
0
 40
0
 40
0
 40
0
 40
1
 40
1
 40
1
 40
1
 10
2556.928433
 20
925.559406
 30
0.0
 10
2555.406476
 20
928.192004
 30
0.0
 10
2552.594642
 20
929.811589
 30
0.0
 10
2549.553769
 20
929.807128
 30
0.0
  0
SPLINE
  5
20a
100
AcDbEntity
  8
Holes
 62
7
100
AcDbSpline
 70
8
 71
3
 72
8
 73
4
 74
0
 40
0
 40
0
 40
0
 40
0
 40
1
 40
1
 40
1
 40
1
 10
2549.553769
 20
929.807128
 30
0.0
 10
2546.512896
 20
929.810788
 30
0.0
 10
2543.701488
 20
928.190463
 30
0.0
 10
2542.180225
 20
925.557464
 30
0.0
  0
SPLINE
  5
20b
100
AcDbEntity
  8
Holes
 62
7
100
AcDbSpline
 70
8
 71
3
 72
8
 73
4
 74
0
 40
0
 40
0
 40
0
 40
0
 40
1
 40
1
 40
1
 40
1
 10
2542.180225
 20
925.557464
 30
0.0
 10
2540.658962
 20
922.924465
 30
0.0
 10
2540.659389
 20
919.679551
 30
0.0
 10
2542.181346
 20
917.046952
 30
0.0
  0
SPLINE
  5
20c
100
AcDbEntity
  8
Holes
 62
7
100
AcDbSpline
 70
8
 71
3
 72
8
 73
4
 74
0
 40
0
 40
0
 40
0
 40
0
 40
1
 40
1
 40
1
 40
1
 10
2542.181346
 20
917.046952
 30
0.0
 10
2543.703302
 20
914.414354
 30
0.0
 10
2546.515136
 20
912.794769
 30
0.0
 10
2549.556009
 20
912.799230
 30
0.0
  0
LWPOLYLINE
  5
20d
100
AcDbEntity
  8
Holes
 62
7
100
AcDbPolyline
 90
1
 70
1
 10
2549.550340
 20
960.846551
 30
0.0
  0
SPLINE
  5
20e
100
AcDbEntity
  8
Holes
 62
7
100
AcDbSpline
 70
8
 71
3
 72
8
 73
4
 74
0
 40
0
 40
0
 40
0
 40
0
 40
1
 40
1
 40
1
 40
1
 10
2549.561678
 20
864.752057
 30
0.0
 10
2552.602395
 20
864.748637
 30
0.0
 10
2555.413555
 20
866.369019
 30
0.0
 10
2556.934668
 20
869.001924
 30
0.0
  0
SPLINE
  5
20f
100
AcDbEntity
  8
Holes
 62
7
100
AcDbSpline
 70
8
 71
3
 72
8
 73
4
 74
0
 40
0
 40
0
 40
0
 40
0
 40
1
 40
1
 40
1
 40
1
 10
2556.934668
 20
869.001924
 30
0.0
 10
2558.455780
 20
871.634829
 30
0.0
 10
2558.455348
 20
874.879557
 30
0.0
 10
2556.933533
 20
877.512056
 30
0.0
  0
SPLINE
  5
210
100
AcDbEntity
  8
Holes
 62
7
100
AcDbSpline
 70
8
 71
3
 72
8
 73
4
 74
0
 40
0
 40
0
 40
0
 40
0
 40
1
 40
1
 40
1
 40
1
 10
2556.933533
 20
877.512056
 30
0.0
 10
2555.411719
 20
880.144555
 30
0.0
 10
2552.600127
 20
881.764187
 30
0.0
 10
2549.559410
 20
881.759957
 30
0.0
  0
SPLINE
  5
211
100
AcDbEntity
  8
Holes
 62
7
100
AcDbSpline
 70
8
 71
3
 72
8
 73
4
 74
0
 40
0
 40
0
 40
0
 40
0
 40
1
 40
1
 40
1
 40
1
 10
2549.559410
 20
881.759957
 30
0.0
 10
2546.518693
 20
881.763376
 30
0.0
 10
2543.707533
 20
880.142995
 30
0.0
 10
2542.186421
 20
877.510090
 30
0.0
  0
SPLINE
  5
212
100
AcDbEntity
  8
Holes
 62
7
100
AcDbSpline
 70
8
 71
3
 72
8
 73
4
 74
0
 40
0
 40
0
 40
0
 40
0
 40
1
 40
1
 40
1
 40
1
 10
2542.186421
 20
877.510090
 30
0.0
 10
2540.665308
 20
874.877185
 30
0.0
 10
2540.665741
 20
871.632457
 30
0.0
 10
2542.187555
 20
868.999958
 30
0.0
  0
SPLINE
  5
213
100
AcDbEntity
  8
Holes
 62
7
100
AcDbSpline
 70
8
 71
3
 72
8
 73
4
 74
0
 40
0
 40
0
 40
0
 40
0
 40
1
 40
1
 40
1
 40
1
 10
2542.187555
 20
868.999958
 30
0.0
 10
2543.709370
 20
866.367458
 30
0.0
 10
2546.520962
 20
864.747826
 30
0.0
 10
2549.561678
 20
864.752057
 30
0.0
  0
LWPOLYLINE
  5
214
100
AcDbEntity
  8
Holes
 62
7
100
AcDbPolyline
 90
1
 70
1
 10
2549.556009
 20
912.799230
 30
0.0
  0
SPLINE
  5
215
100
AcDbEntity
  8
Holes
 62
7
100
AcDbSpline
 70
8
 71
3
 72
8
 73
4
 74
0
 40
0
 40
0
 40
0
 40
0
 40
1
 40
1
 40
1
 40
1
 10
2068.976296
 20
1825.643405
 30
0.0
 10
2072.014465
 20
1825.643405
 30
0.0
 10
2074.821849
 20
1827.264249
 30
0.0
 10
2076.340934
 20
1829.895381
 30
0.0
  0
SPLINE
  5
216
100
AcDbEntity
  8
Holes
 62
7
100
AcDbSpline
 70
8
 71
3
 72
8
 73
4
 74
0
 40
0
 40
0
 40
0
 40
0
 40
1
 40
1
 40
1
 40
1
 10
2076.340934
 20
1829.895381
 30
0.0
 10
2077.860018
 20
1832.526512
 30
0.0
 10
2077.860018
 20
1835.768200
 30
0.0
 10
2076.340934
 20
1838.399332
 30
0.0
  0
SPLINE
  5
217
100
AcDbEntity
  8
Holes
 62
7
100
AcDbSpline
 70
8
 71
3
 72
8
 73
4
 74
0
 40
0
 40
0
 40
0
 40
0
 40
1
 40
1
 40
1
 40
1
 10
2076.340934
 20
1838.399332
 30
0.0
 10
2074.821849
 20
1841.030463
 30
0.0
 10
2072.014465
 20
1842.651307
 30
0.0
 10
2068.976296
 20
1842.651307
 30
0.0
  0
SPLINE
  5
218
100
AcDbEntity
  8
Holes
 62
7
100
AcDbSpline
 70
8
 71
3
 72
8
 73
4
 74
0
 40
0
 40
0
 40
0
 40
0
 40
1
 40
1
 40
1
 40
1
 10
2068.976296
 20
1842.651307
 30
0.0
 10
2065.938127
 20
1842.651307
 30
0.0
 10
2063.130743
 20
1841.030463
 30
0.0
 10
2061.611659
 20
1838.399332
 30
0.0
  0
SPLINE
  5
219
100
AcDbEntity
  8
Holes
 62
7
100
AcDbSpline
 70
8
 71
3
 72
8
 73
4
 74
0
 40
0
 40
0
 40
0
 40
0
 40
1
 40
1
 40
1
 40
1
 10
2061.611659
 20
1838.399332
 30
0.0
 10
2060.092574
 20
1835.768200
 30
0.0
 10
2060.092574
 20
1832.526512
 30
0.0
 10
2061.611659
 20
1829.895381
 30
0.0
  0
SPLINE
  5
21a
100
AcDbEntity
  8
Holes
 62
7
100
AcDbSpline
 70
8
 71
3
 72
8
 73
4
 74
0
 40
0
 40
0
 40
0
 40
0
 40
1
 40
1
 40
1
 40
1
 10
2061.611659
 20
1829.895381
 30
0.0
 10
2063.130743
 20
1827.264249
 30
0.0
 10
2065.938127
 20
1825.643405
 30
0.0
 10
2068.976296
 20
1825.643405
 30
0.0
  0
LWPOLYLINE
  5
21b
100
AcDbEntity
  8
Holes
 62
7
100
AcDbPolyline
 90
1
 70
1
 10
2549.561678
 20
864.752057
 30
0.0
  0
SPLINE
  5
21c
100
AcDbEntity
  8
Holes
 62
7
100
AcDbSpline
 70
8
 71
3
 72
8
 73
4
 74
0
 40
0
 40
0
 40
0
 40
0
 40
1
 40
1
 40
1
 40
1
 10
2068.981966
 20
1777.596220
 30
0.0
 10
2072.023823
 20
1777.590666
 30
0.0
 10
2074.836994
 20
1779.210289
 30
0.0
 10
2076.359528
 20
1781.843693
 30
0.0
  0
SPLINE
  5
21d
100
AcDbEntity
  8
Holes
 62
7
100
AcDbSpline
 70
8
 71
3
 72
8
 73
4
 74
0
 40
0
 40
0
 40
0
 40
0
 40
1
 40
1
 40
1
 40
1
 10
2076.359528
 20
1781.843693
 30
0.0
 10
2077.882062
 20
1784.477097
 30
0.0
 10
2077.882062
 20
1787.723188
 30
0.0
 10
2076.359528
 20
1790.356592
 30
0.0
  0
SPLINE
  5
21e
100
AcDbEntity
  8
Holes
 62
7
100
AcDbSpline
 70
8
 71
3
 72
8
 73
4
 74
0
 40
0
 40
0
 40
0
 40
0
 40
1
 40
1
 40
1
 40
1
 10
2076.359528
 20
1790.356592
 30
0.0
 10
2074.836994
 20
1792.989996
 30
0.0
 10
2072.023823
 20
1794.609619
 30
0.0
 10
2068.981966
 20
1794.604065
 30
0.0
  0
SPLINE
  5
21f
100
AcDbEntity
  8
Holes
 62
7
100
AcDbSpline
 70
8
 71
3
 72
8
 73
4
 74
0
 40
0
 40
0
 40
0
 40
0
 40
1
 40
1
 40
1
 40
1
 10
2068.981966
 20
1794.604065
 30
0.0
 10
2065.940108
 20
1794.609619
 30
0.0
 10
2063.126937
 20
1792.989996
 30
0.0
 10
2061.604403
 20
1790.356592
 30
0.0
  0
SPLINE
  5
220
100
AcDbEntity
  8
Holes
 62
7
100
AcDbSpline
 70
8
 71
3
 72
8
 73
4
 74
0
 40
0
 40
0
 40
0
 40
0
 40
1
 40
1
 40
1
 40
1
 10
2061.604403
 20
1790.356592
 30
0.0
 10
2060.081869
 20
1787.723188
 30
0.0
 10
2060.081869
 20
1784.477097
 30
0.0
 10
2061.604403
 20
1781.843693
 30
0.0
  0
SPLINE
  5
221
100
AcDbEntity
  8
Holes
 62
7
100
AcDbSpline
 70
8
 71
3
 72
8
 73
4
 74
0
 40
0
 40
0
 40
0
 40
0
 40
1
 40
1
 40
1
 40
1
 10
2061.604403
 20
1781.843693
 30
0.0
 10
2063.126937
 20
1779.210289
 30
0.0
 10
2065.940108
 20
1777.590666
 30
0.0
 10
2068.981966
 20
1777.596220
 30
0.0
  0
LWPOLYLINE
  5
222
100
AcDbEntity
  8
Holes
 62
7
100
AcDbPolyline
 90
1
 70
1
 10
2068.976296
 20
1825.643405
 30
0.0
  0
SPLINE
  5
223
100
AcDbEntity
  8
Holes
 62
7
100
AcDbSpline
 70
8
 71
3
 72
8
 73
4
 74
0
 40
0
 40
0
 40
0
 40
0
 40
1
 40
1
 40
1
 40
1
 10
2068.987635
 20
1729.548978
 30
0.0
 10
2072.031019
 20
1729.541120
 30
0.0
 10
2074.846590
 20
1731.160235
 30
0.0
 10
2076.370555
 20
1733.794581
 30
0.0
  0
SPLINE
  5
224
100
AcDbEntity
  8
Holes
 62
7
100
AcDbSpline
 70
8
 71
3
 72
8
 73
4
 74
0
 40
0
 40
0
 40
0
 40
0
 40
1
 40
1
 40
1
 40
1
 10
2076.370555
 20
1733.794581
 30
0.0
 10
2077.894520
 20
1736.428927
 30
0.0
 10
2077.894520
 20
1739.676845
 30
0.0
 10
2076.370555
 20
1742.311191
 30
0.0
  0
SPLINE
  5
225
100
AcDbEntity
  8
Holes
 62
7
100
AcDbSpline
 70
8
 71
3
 72
8
 73
4
 74
0
 40
0
 40
0
 40
0
 40
0
 40
1
 40
1
 40
1
 40
1
 10
2076.370555
 20
1742.311191
 30
0.0
 10
2074.846590
 20
1744.945537
 30
0.0
 10
2072.031019
 20
1746.564652
 30
0.0
 10
2068.987635
 20
1746.556794
 30
0.0
  0
SPLINE
  5
226
100
AcDbEntity
  8
Holes
 62
7
100
AcDbSpline
 70
8
 71
3
 72
8
 73
4
 74
0
 40
0
 40
0
 40
0
 40
0
 40
1
 40
1
 40
1
 40
1
 10
2068.987635
 20
1746.556794
 30
0.0
 10
2065.944251
 20
1746.564652
 30
0.0
 10
2063.128680
 20
1744.945537
 30
0.0
 10
2061.604715
 20
1742.311191
 30
0.0
  0
SPLINE
  5
227
100
AcDbEntity
  8
Holes
 62
7
100
AcDbSpline
 70
8
 71
3
 72
8
 73
4
 74
0
 40
0
 40
0
 40
0
 40
0
 40
1
 40
1
 40
1
 40
1
 10
2061.604715
 20
1742.311191
 30
0.0
 10
2060.080750
 20
1739.676845
 30
0.0
 10
2060.080750
 20
1736.428927
 30
0.0
 10
2061.604715
 20
1733.794581
 30
0.0
  0
SPLINE
  5
228
100
AcDbEntity
  8
Holes
 62
7
100
AcDbSpline
 70
8
 71
3
 72
8
 73
4
 74
0
 40
0
 40
0
 40
0
 40
0
 40
1
 40
1
 40
1
 40
1
 10
2061.604715
 20
1733.794581
 30
0.0
 10
2063.128680
 20
1731.160235
 30
0.0
 10
2065.944251
 20
1729.541120
 30
0.0
 10
2068.987635
 20
1729.548978
 30
0.0
  0
LWPOLYLINE
  5
229
100
AcDbEntity
  8
Holes
 62
7
100
AcDbPolyline
 90
1
 70
1
 10
2068.981966
 20
1777.596220
 30
0.0
  0
SPLINE
  5
22a
100
AcDbEntity
  8
Holes
 62
7
100
AcDbSpline
 70
8
 71
3
 72
8
 73
4
 74
0
 40
0
 40
0
 40
0
 40
0
 40
1
 40
1
 40
1
 40
1
 10
2068.993304
 20
1681.501736
 30
0.0
 10
2072.035161
 20
1681.496182
 30
0.0
 10
2074.848332
 20
1683.115805
 30
0.0
 10
2076.370866
 20
1685.749209
 30
0.0
  0
SPLINE
  5
22b
100
AcDbEntity
  8
Holes
 62
7
100
AcDbSpline
 70
8
 71
3
 72
8
 73
4
 74
0
 40
0
 40
0
 40
0
 40
0
 40
1
 40
1
 40
1
 40
1
 10
2076.370866
 20
1685.749209
 30
0.0
 10
2077.893400
 20
1688.382612
 30
0.0
 10
2077.893400
 20
1691.628704
 30
0.0
 10
2076.370866
 20
1694.262108
 30
0.0
  0
SPLINE
  5
22c
100
AcDbEntity
  8
Holes
 62
7
100
AcDbSpline
 70
8
 71
3
 72
8
 73
4
 74
0
 40
0
 40
0
 40
0
 40
0
 40
1
 40
1
 40
1
 40
1
 10
2076.370866
 20
1694.262108
 30
0.0
 10
2074.848332
 20
1696.895511
 30
0.0
 10
2072.035161
 20
1698.515134
 30
0.0
 10
2068.993304
 20
1698.509581
 30
0.0
  0
SPLINE
  5
22d
100
AcDbEntity
  8
Holes
 62
7
100
AcDbSpline
 70
8
 71
3
 72
8
 73
4
 74
0
 40
0
 40
0
 40
0
 40
0
 40
1
 40
1
 40
1
 40
1
 10
2068.993304
 20
1698.509581
 30
0.0
 10
2065.951447
 20
1698.515134
 30
0.0
 10
2063.138276
 20
1696.895511
 30
0.0
 10
2061.615742
 20
1694.262108
 30
0.0
  0
SPLINE
  5
22e
100
AcDbEntity
  8
Holes
 62
7
100
AcDbSpline
 70
8
 71
3
 72
8
 73
4
 74
0
 40
0
 40
0
 40
0
 40
0
 40
1
 40
1
 40
1
 40
1
 10
2061.615742
 20
1694.262108
 30
0.0
 10
2060.093208
 20
1691.628704
 30
0.0
 10
2060.093208
 20
1688.382612
 30
0.0
 10
2061.615742
 20
1685.749209
 30
0.0
  0
SPLINE
  5
22f
100
AcDbEntity
  8
Holes
 62
7
100
AcDbSpline
 70
8
 71
3
 72
8
 73
4
 74
0
 40
0
 40
0
 40
0
 40
0
 40
1
 40
1
 40
1
 40
1
 10
2061.615742
 20
1685.749209
 30
0.0
 10
2063.138276
 20
1683.115805
 30
0.0
 10
2065.951447
 20
1681.496182
 30
0.0
 10
2068.993304
 20
1681.501736
 30
0.0
  0
LWPOLYLINE
  5
230
100
AcDbEntity
  8
Holes
 62
7
100
AcDbPolyline
 90
1
 70
1
 10
2068.987635
 20
1729.548978
 30
0.0
  0
SPLINE
  5
231
100
AcDbEntity
  8
Holes
 62
7
100
AcDbSpline
 70
8
 71
3
 72
8
 73
4
 74
0
 40
0
 40
0
 40
0
 40
0
 40
1
 40
1
 40
1
 40
1
 10
2068.998973
 20
1633.454494
 30
0.0
 10
2072.042357
 20
1633.446636
 30
0.0
 10
2074.857928
 20
1635.065751
 30
0.0
 10
2076.381893
 20
1637.700097
 30
0.0
  0
SPLINE
  5
232
100
AcDbEntity
  8
Holes
 62
7
100
AcDbSpline
 70
8
 71
3
 72
8
 73
4
 74
0
 40
0
 40
0
 40
0
 40
0
 40
1
 40
1
 40
1
 40
1
 10
2076.381893
 20
1637.700097
 30
0.0
 10
2077.905858
 20
1640.334443
 30
0.0
 10
2077.905858
 20
1643.582361
 30
0.0
 10
2076.381893
 20
1646.216707
 30
0.0
  0
SPLINE
  5
233
100
AcDbEntity
  8
Holes
 62
7
100
AcDbSpline
 70
8
 71
3
 72
8
 73
4
 74
0
 40
0
 40
0
 40
0
 40
0
 40
1
 40
1
 40
1
 40
1
 10
2076.381893
 20
1646.216707
 30
0.0
 10
2074.857928
 20
1648.851053
 30
0.0
 10
2072.042357
 20
1650.470168
 30
0.0
 10
2068.998973
 20
1650.462310
 30
0.0
  0
SPLINE
  5
234
100
AcDbEntity
  8
Holes
 62
7
100
AcDbSpline
 70
8
 71
3
 72
8
 73
4
 74
0
 40
0
 40
0
 40
0
 40
0
 40
1
 40
1
 40
1
 40
1
 10
2068.998973
 20
1650.462310
 30
0.0
 10
2065.955589
 20
1650.470168
 30
0.0
 10
2063.140018
 20
1648.851053
 30
0.0
 10
2061.616053
 20
1646.216707
 30
0.0
  0
SPLINE
  5
235
100
AcDbEntity
  8
Holes
 62
7
100
AcDbSpline
 70
8
 71
3
 72
8
 73
4
 74
0
 40
0
 40
0
 40
0
 40
0
 40
1
 40
1
 40
1
 40
1
 10
2061.616053
 20
1646.216707
 30
0.0
 10
2060.092088
 20
1643.582361
 30
0.0
 10
2060.092088
 20
1640.334443
 30
0.0
 10
2061.616053
 20
1637.700097
 30
0.0
  0
SPLINE
  5
236
100
AcDbEntity
  8
Holes
 62
7
100
AcDbSpline
 70
8
 71
3
 72
8
 73
4
 74
0
 40
0
 40
0
 40
0
 40
0
 40
1
 40
1
 40
1
 40
1
 10
2061.616053
 20
1637.700097
 30
0.0
 10
2063.140018
 20
1635.065751
 30
0.0
 10
2065.955589
 20
1633.446636
 30
0.0
 10
2068.998973
 20
1633.454494
 30
0.0
  0
LWPOLYLINE
  5
237
100
AcDbEntity
  8
Holes
 62
7
100
AcDbPolyline
 90
1
 70
1
 10
2068.993304
 20
1681.501736
 30
0.0
  0
SPLINE
  5
238
100
AcDbEntity
  8
Holes
 62
7
100
AcDbSpline
 70
8
 71
3
 72
8
 73
4
 74
0
 40
0
 40
0
 40
0
 40
0
 40
1
 40
1
 40
1
 40
1
 10
2069.004643
 20
1585.407251
 30
0.0
 10
2072.042812
 20
1585.407251
 30
0.0
 10
2074.850196
 20
1587.028095
 30
0.0
 10
2076.369280
 20
1589.659227
 30
0.0
  0
SPLINE
  5
239
100
AcDbEntity
  8
Holes
 62
7
100
AcDbSpline
 70
8
 71
3
 72
8
 73
4
 74
0
 40
0
 40
0
 40
0
 40
0
 40
1
 40
1
 40
1
 40
1
 10
2076.369280
 20
1589.659227
 30
0.0
 10
2077.888365
 20
1592.290358
 30
0.0
 10
2077.888365
 20
1595.532046
 30
0.0
 10
2076.369280
 20
1598.163178
 30
0.0
  0
SPLINE
  5
23a
100
AcDbEntity
  8
Holes
 62
7
100
AcDbSpline
 70
8
 71
3
 72
8
 73
4
 74
0
 40
0
 40
0
 40
0
 40
0
 40
1
 40
1
 40
1
 40
1
 10
2076.369280
 20
1598.163178
 30
0.0
 10
2074.850196
 20
1600.794309
 30
0.0
 10
2072.042812
 20
1602.415153
 30
0.0
 10
2069.004643
 20
1602.415153
 30
0.0
  0
SPLINE
  5
23b
100
AcDbEntity
  8
Holes
 62
7
100
AcDbSpline
 70
8
 71
3
 72
8
 73
4
 74
0
 40
0
 40
0
 40
0
 40
0
 40
1
 40
1
 40
1
 40
1
 10
2069.004643
 20
1602.415153
 30
0.0
 10
2065.966474
 20
1602.415153
 30
0.0
 10
2063.159090
 20
1600.794309
 30
0.0
 10
2061.640005
 20
1598.163178
 30
0.0
  0
SPLINE
  5
23c
100
AcDbEntity
  8
Holes
 62
7
100
AcDbSpline
 70
8
 71
3
 72
8
 73
4
 74
0
 40
0
 40
0
 40
0
 40
0
 40
1
 40
1
 40
1
 40
1
 10
2061.640005
 20
1598.163178
 30
0.0
 10
2060.120921
 20
1595.532046
 30
0.0
 10
2060.120921
 20
1592.290358
 30
0.0
 10
2061.640005
 20
1589.659227
 30
0.0
  0
SPLINE
  5
23d
100
AcDbEntity
  8
Holes
 62
7
100
AcDbSpline
 70
8
 71
3
 72
8
 73
4
 74
0
 40
0
 40
0
 40
0
 40
0
 40
1
 40
1
 40
1
 40
1
 10
2061.640005
 20
1589.659227
 30
0.0
 10
2063.159090
 20
1587.028095
 30
0.0
 10
2065.966474
 20
1585.407251
 30
0.0
 10
2069.004643
 20
1585.407251
 30
0.0
  0
LWPOLYLINE
  5
23e
100
AcDbEntity
  8
Holes
 62
7
100
AcDbPolyline
 90
1
 70
1
 10
2068.998973
 20
1633.454494
 30
0.0
  0
SPLINE
  5
23f
100
AcDbEntity
  8
Holes
 62
7
100
AcDbSpline
 70
8
 71
3
 72
8
 73
4
 74
0
 40
0
 40
0
 40
0
 40
0
 40
1
 40
1
 40
1
 40
1
 10
2069.010312
 20
1537.359981
 30
0.0
 10
2072.048481
 20
1537.359981
 30
0.0
 10
2074.855865
 20
1538.980825
 30
0.0
 10
2076.374949
 20
1541.611956
 30
0.0
  0
SPLINE
  5
240
100
AcDbEntity
  8
Holes
 62
7
100
AcDbSpline
 70
8
 71
3
 72
8
 73
4
 74
0
 40
0
 40
0
 40
0
 40
0
 40
1
 40
1
 40
1
 40
1
 10
2076.374949
 20
1541.611956
 30
0.0
 10
2077.894034
 20
1544.243088
 30
0.0
 10
2077.894034
 20
1547.484776
 30
0.0
 10
2076.374949
 20
1550.115907
 30
0.0
  0
SPLINE
  5
241
100
AcDbEntity
  8
Holes
 62
7
100
AcDbSpline
 70
8
 71
3
 72
8
 73
4
 74
0
 40
0
 40
0
 40
0
 40
0
 40
1
 40
1
 40
1
 40
1
 10
2076.374949
 20
1550.115907
 30
0.0
 10
2074.855865
 20
1552.747039
 30
0.0
 10
2072.048481
 20
1554.367883
 30
0.0
 10
2069.010312
 20
1554.367883
 30
0.0
  0
SPLINE
  5
242
100
AcDbEntity
  8
Holes
 62
7
100
AcDbSpline
 70
8
 71
3
 72
8
 73
4
 74
0
 40
0
 40
0
 40
0
 40
0
 40
1
 40
1
 40
1
 40
1
 10
2069.010312
 20
1554.367883
 30
0.0
 10
2065.972143
 20
1554.367883
 30
0.0
 10
2063.164759
 20
1552.747039
 30
0.0
 10
2061.645675
 20
1550.115907
 30
0.0
  0
SPLINE
  5
243
100
AcDbEntity
  8
Holes
 62
7
100
AcDbSpline
 70
8
 71
3
 72
8
 73
4
 74
0
 40
0
 40
0
 40
0
 40
0
 40
1
 40
1
 40
1
 40
1
 10
2061.645675
 20
1550.115907
 30
0.0
 10
2060.126590
 20
1547.484776
 30
0.0
 10
2060.126590
 20
1544.243088
 30
0.0
 10
2061.645675
 20
1541.611956
 30
0.0
  0
SPLINE
  5
244
100
AcDbEntity
  8
Holes
 62
7
100
AcDbSpline
 70
8
 71
3
 72
8
 73
4
 74
0
 40
0
 40
0
 40
0
 40
0
 40
1
 40
1
 40
1
 40
1
 10
2061.645675
 20
1541.611956
 30
0.0
 10
2063.164759
 20
1538.980825
 30
0.0
 10
2065.972143
 20
1537.359981
 30
0.0
 10
2069.010312
 20
1537.359981
 30
0.0
  0
LWPOLYLINE
  5
245
100
AcDbEntity
  8
Holes
 62
7
100
AcDbPolyline
 90
1
 70
1
 10
2069.004643
 20
1585.407251
 30
0.0
  0
SPLINE
  5
246
100
AcDbEntity
  8
Holes
 62
7
100
AcDbSpline
 70
8
 71
3
 72
8
 73
4
 74
0
 40
0
 40
0
 40
0
 40
0
 40
1
 40
1
 40
1
 40
1
 10
2069.015981
 20
1489.312767
 30
0.0
 10
2072.057769
 20
1489.307326
 30
0.0
 10
2074.870827
 20
1490.926976
 30
0.0
 10
2076.393294
 20
1493.560338
 30
0.0
  0
SPLINE
  5
247
100
AcDbEntity
  8
Holes
 62
7
100
AcDbSpline
 70
8
 71
3
 72
8
 73
4
 74
0
 40
0
 40
0
 40
0
 40
0
 40
1
 40
1
 40
1
 40
1
 10
2076.393294
 20
1493.560338
 30
0.0
 10
2077.915761
 20
1496.193700
 30
0.0
 10
2077.915761
 20
1499.439708
 30
0.0
 10
2076.393294
 20
1502.073070
 30
0.0
  0
SPLINE
  5
248
100
AcDbEntity
  8
Holes
 62
7
100
AcDbSpline
 70
8
 71
3
 72
8
 73
4
 74
0
 40
0
 40
0
 40
0
 40
0
 40
1
 40
1
 40
1
 40
1
 10
2076.393294
 20
1502.073070
 30
0.0
 10
2074.870827
 20
1504.706432
 30
0.0
 10
2072.057769
 20
1506.326082
 30
0.0
 10
2069.015981
 20
1506.320640
 30
0.0
  0
SPLINE
  5
249
100
AcDbEntity
  8
Holes
 62
7
100
AcDbSpline
 70
8
 71
3
 72
8
 73
4
 74
0
 40
0
 40
0
 40
0
 40
0
 40
1
 40
1
 40
1
 40
1
 10
2069.015981
 20
1506.320640
 30
0.0
 10
2065.974194
 20
1506.326082
 30
0.0
 10
2063.161135
 20
1504.706432
 30
0.0
 10
2061.638669
 20
1502.073070
 30
0.0
  0
SPLINE
  5
24a
100
AcDbEntity
  8
Holes
 62
7
100
AcDbSpline
 70
8
 71
3
 72
8
 73
4
 74
0
 40
0
 40
0
 40
0
 40
0
 40
1
 40
1
 40
1
 40
1
 10
2061.638669
 20
1502.073070
 30
0.0
 10
2060.116202
 20
1499.439708
 30
0.0
 10
2060.116202
 20
1496.193700
 30
0.0
 10
2061.638669
 20
1493.560338
 30
0.0
  0
SPLINE
  5
24b
100
AcDbEntity
  8
Holes
 62
7
100
AcDbSpline
 70
8
 71
3
 72
8
 73
4
 74
0
 40
0
 40
0
 40
0
 40
0
 40
1
 40
1
 40
1
 40
1
 10
2061.638669
 20
1493.560338
 30
0.0
 10
2063.161135
 20
1490.926976
 30
0.0
 10
2065.974194
 20
1489.307326
 30
0.0
 10
2069.015981
 20
1489.312767
 30
0.0
  0
LWPOLYLINE
  5
24c
100
AcDbEntity
  8
Holes
 62
7
100
AcDbPolyline
 90
1
 70
1
 10
2069.010312
 20
1537.359981
 30
0.0
  0
SPLINE
  5
24d
100
AcDbEntity
  8
Holes
 62
7
100
AcDbSpline
 70
8
 71
3
 72
8
 73
4
 74
0
 40
0
 40
0
 40
0
 40
0
 40
1
 40
1
 40
1
 40
1
 10
2069.021651
 20
1441.265497
 30
0.0
 10
2072.059820
 20
1441.265497
 30
0.0
 10
2074.867204
 20
1442.886341
 30
0.0
 10
2076.386288
 20
1445.517472
 30
0.0
  0
SPLINE
  5
24e
100
AcDbEntity
  8
Holes
 62
7
100
AcDbSpline
 70
8
 71
3
 72
8
 73
4
 74
0
 40
0
 40
0
 40
0
 40
0
 40
1
 40
1
 40
1
 40
1
 10
2076.386288
 20
1445.517472
 30
0.0
 10
2077.905373
 20
1448.148604
 30
0.0
 10
2077.905373
 20
1451.390291
 30
0.0
 10
2076.386288
 20
1454.021423
 30
0.0
  0
SPLINE
  5
24f
100
AcDbEntity
  8
Holes
 62
7
100
AcDbSpline
 70
8
 71
3
 72
8
 73
4
 74
0
 40
0
 40
0
 40
0
 40
0
 40
1
 40
1
 40
1
 40
1
 10
2076.386288
 20
1454.021423
 30
0.0
 10
2074.867204
 20
1456.652554
 30
0.0
 10
2072.059820
 20
1458.273398
 30
0.0
 10
2069.021651
 20
1458.273398
 30
0.0
  0
SPLINE
  5
250
100
AcDbEntity
  8
Holes
 62
7
100
AcDbSpline
 70
8
 71
3
 72
8
 73
4
 74
0
 40
0
 40
0
 40
0
 40
0
 40
1
 40
1
 40
1
 40
1
 10
2069.021651
 20
1458.273398
 30
0.0
 10
2065.983482
 20
1458.273398
 30
0.0
 10
2063.176098
 20
1456.652554
 30
0.0
 10
2061.657013
 20
1454.021423
 30
0.0
  0
SPLINE
  5
251
100
AcDbEntity
  8
Holes
 62
7
100
AcDbSpline
 70
8
 71
3
 72
8
 73
4
 74
0
 40
0
 40
0
 40
0
 40
0
 40
1
 40
1
 40
1
 40
1
 10
2061.657013
 20
1454.021423
 30
0.0
 10
2060.137929
 20
1451.390291
 30
0.0
 10
2060.137929
 20
1448.148604
 30
0.0
 10
2061.657013
 20
1445.517472
 30
0.0
  0
SPLINE
  5
252
100
AcDbEntity
  8
Holes
 62
7
100
AcDbSpline
 70
8
 71
3
 72
8
 73
4
 74
0
 40
0
 40
0
 40
0
 40
0
 40
1
 40
1
 40
1
 40
1
 10
2061.657013
 20
1445.517472
 30
0.0
 10
2063.176098
 20
1442.886341
 30
0.0
 10
2065.983482
 20
1441.265497
 30
0.0
 10
2069.021651
 20
1441.265497
 30
0.0
  0
LWPOLYLINE
  5
253
100
AcDbEntity
  8
Holes
 62
7
100
AcDbPolyline
 90
1
 70
1
 10
2069.015981
 20
1489.312767
 30
0.0
  0
SPLINE
  5
254
100
AcDbEntity
  8
Holes
 62
7
100
AcDbSpline
 70
8
 71
3
 72
8
 73
4
 74
0
 40
0
 40
0
 40
0
 40
0
 40
1
 40
1
 40
1
 40
1
 10
2069.027320
 20
1393.218255
 30
0.0
 10
2072.065489
 20
1393.218255
 30
0.0
 10
2074.872873
 20
1394.839098
 30
0.0
 10
2076.391957
 20
1397.470230
 30
0.0
  0
SPLINE
  5
255
100
AcDbEntity
  8
Holes
 62
7
100
AcDbSpline
 70
8
 71
3
 72
8
 73
4
 74
0
 40
0
 40
0
 40
0
 40
0
 40
1
 40
1
 40
1
 40
1
 10
2076.391957
 20
1397.470230
 30
0.0
 10
2077.911042
 20
1400.101361
 30
0.0
 10
2077.911042
 20
1403.343049
 30
0.0
 10
2076.391957
 20
1405.974181
 30
0.0
  0
SPLINE
  5
256
100
AcDbEntity
  8
Holes
 62
7
100
AcDbSpline
 70
8
 71
3
 72
8
 73
4
 74
0
 40
0
 40
0
 40
0
 40
0
 40
1
 40
1
 40
1
 40
1
 10
2076.391957
 20
1405.974181
 30
0.0
 10
2074.872873
 20
1408.605312
 30
0.0
 10
2072.065489
 20
1410.226156
 30
0.0
 10
2069.027320
 20
1410.226156
 30
0.0
  0
SPLINE
  5
257
100
AcDbEntity
  8
Holes
 62
7
100
AcDbSpline
 70
8
 71
3
 72
8
 73
4
 74
0
 40
0
 40
0
 40
0
 40
0
 40
1
 40
1
 40
1
 40
1
 10
2069.027320
 20
1410.226156
 30
0.0
 10
2065.989151
 20
1410.226156
 30
0.0
 10
2063.181767
 20
1408.605312
 30
0.0
 10
2061.662682
 20
1405.974181
 30
0.0
  0
SPLINE
  5
258
100
AcDbEntity
  8
Holes
 62
7
100
AcDbSpline
 70
8
 71
3
 72
8
 73
4
 74
0
 40
0
 40
0
 40
0
 40
0
 40
1
 40
1
 40
1
 40
1
 10
2061.662682
 20
1405.974181
 30
0.0
 10
2060.143598
 20
1403.343049
 30
0.0
 10
2060.143598
 20
1400.101361
 30
0.0
 10
2061.662682
 20
1397.470230
 30
0.0
  0
SPLINE
  5
259
100
AcDbEntity
  8
Holes
 62
7
100
AcDbSpline
 70
8
 71
3
 72
8
 73
4
 74
0
 40
0
 40
0
 40
0
 40
0
 40
1
 40
1
 40
1
 40
1
 10
2061.662682
 20
1397.470230
 30
0.0
 10
2063.181767
 20
1394.839098
 30
0.0
 10
2065.989151
 20
1393.218255
 30
0.0
 10
2069.027320
 20
1393.218255
 30
0.0
  0
LWPOLYLINE
  5
25a
100
AcDbEntity
  8
Holes
 62
7
100
AcDbPolyline
 90
1
 70
1
 10
2069.021651
 20
1441.265497
 30
0.0
  0
SPLINE
  5
25b
100
AcDbEntity
  8
Holes
 62
7
100
AcDbSpline
 70
8
 71
3
 72
8
 73
4
 74
0
 40
0
 40
0
 40
0
 40
0
 40
1
 40
1
 40
1
 40
1
 10
2069.032989
 20
1345.171069
 30
0.0
 10
2072.075683
 20
1345.164265
 30
0.0
 10
2074.890163
 20
1346.783617
 30
0.0
 10
2076.413477
 20
1349.417539
 30
0.0
  0
SPLINE
  5
25c
100
AcDbEntity
  8
Holes
 62
7
100
AcDbSpline
 70
8
 71
3
 72
8
 73
4
 74
0
 40
0
 40
0
 40
0
 40
0
 40
1
 40
1
 40
1
 40
1
 10
2076.413477
 20
1349.417539
 30
0.0
 10
2077.936791
 20
1352.051460
 30
0.0
 10
2077.936791
 20
1355.298551
 30
0.0
 10
2076.413477
 20
1357.932473
 30
0.0
  0
SPLINE
  5
25d
100
AcDbEntity
  8
Holes
 62
7
100
AcDbSpline
 70
8
 71
3
 72
8
 73
4
 74
0
 40
0
 40
0
 40
0
 40
0
 40
1
 40
1
 40
1
 40
1
 10
2076.413477
 20
1357.932473
 30
0.0
 10
2074.890163
 20
1360.566395
 30
0.0
 10
2072.075683
 20
1362.185746
 30
0.0
 10
2069.032989
 20
1362.178942
 30
0.0
  0
SPLINE
  5
25e
100
AcDbEntity
  8
Holes
 62
7
100
AcDbSpline
 70
8
 71
3
 72
8
 73
4
 74
0
 40
0
 40
0
 40
0
 40
0
 40
1
 40
1
 40
1
 40
1
 10
2069.032989
 20
1362.178942
 30
0.0
 10
2065.990296
 20
1362.185746
 30
0.0
 10
2063.175816
 20
1360.566395
 30
0.0
 10
2061.652501
 20
1357.932473
 30
0.0
  0
SPLINE
  5
25f
100
AcDbEntity
  8
Holes
 62
7
100
AcDbSpline
 70
8
 71
3
 72
8
 73
4
 74
0
 40
0
 40
0
 40
0
 40
0
 40
1
 40
1
 40
1
 40
1
 10
2061.652501
 20
1357.932473
 30
0.0
 10
2060.129187
 20
1355.298551
 30
0.0
 10
2060.129187
 20
1352.051460
 30
0.0
 10
2061.652501
 20
1349.417539
 30
0.0
  0
SPLINE
  5
260
100
AcDbEntity
  8
Holes
 62
7
100
AcDbSpline
 70
8
 71
3
 72
8
 73
4
 74
0
 40
0
 40
0
 40
0
 40
0
 40
1
 40
1
 40
1
 40
1
 10
2061.652501
 20
1349.417539
 30
0.0
 10
2063.175816
 20
1346.783617
 30
0.0
 10
2065.990296
 20
1345.164265
 30
0.0
 10
2069.032989
 20
1345.171069
 30
0.0
  0
LWPOLYLINE
  5
261
100
AcDbEntity
  8
Holes
 62
7
100
AcDbPolyline
 90
1
 70
1
 10
2069.027320
 20
1393.218255
 30
0.0
  0
SPLINE
  5
262
100
AcDbEntity
  8
Holes
 62
7
100
AcDbSpline
 70
8
 71
3
 72
8
 73
4
 74
0
 40
0
 40
0
 40
0
 40
0
 40
1
 40
1
 40
1
 40
1
 10
2069.038658
 20
1297.123742
 30
0.0
 10
2072.079442
 20
1297.119816
 30
0.0
 10
2074.890924
 20
1298.739801
 30
0.0
 10
2076.412450
 20
1301.372545
 30
0.0
  0
SPLINE
  5
263
100
AcDbEntity
  8
Holes
 62
7
100
AcDbSpline
 70
8
 71
3
 72
8
 73
4
 74
0
 40
0
 40
0
 40
0
 40
0
 40
1
 40
1
 40
1
 40
1
 10
2076.412450
 20
1301.372545
 30
0.0
 10
2077.933977
 20
1304.005289
 30
0.0
 10
2077.933977
 20
1307.250097
 30
0.0
 10
2076.412450
 20
1309.882841
 30
0.0
  0
SPLINE
  5
264
100
AcDbEntity
  8
Holes
 62
7
100
AcDbSpline
 70
8
 71
3
 72
8
 73
4
 74
0
 40
0
 40
0
 40
0
 40
0
 40
1
 40
1
 40
1
 40
1
 10
2076.412450
 20
1309.882841
 30
0.0
 10
2074.890924
 20
1312.515584
 30
0.0
 10
2072.079442
 20
1314.135569
 30
0.0
 10
2069.038658
 20
1314.131644
 30
0.0
  0
SPLINE
  5
265
100
AcDbEntity
  8
Holes
 62
7
100
AcDbSpline
 70
8
 71
3
 72
8
 73
4
 74
0
 40
0
 40
0
 40
0
 40
0
 40
1
 40
1
 40
1
 40
1
 10
2069.038658
 20
1314.131644
 30
0.0
 10
2065.997874
 20
1314.135569
 30
0.0
 10
2063.186393
 20
1312.515584
 30
0.0
 10
2061.664867
 20
1309.882841
 30
0.0
  0
SPLINE
  5
266
100
AcDbEntity
  8
Holes
 62
7
100
AcDbSpline
 70
8
 71
3
 72
8
 73
4
 74
0
 40
0
 40
0
 40
0
 40
0
 40
1
 40
1
 40
1
 40
1
 10
2061.664867
 20
1309.882841
 30
0.0
 10
2060.143340
 20
1307.250097
 30
0.0
 10
2060.143340
 20
1304.005289
 30
0.0
 10
2061.664867
 20
1301.372545
 30
0.0
  0
SPLINE
  5
267
100
AcDbEntity
  8
Holes
 62
7
100
AcDbSpline
 70
8
 71
3
 72
8
 73
4
 74
0
 40
0
 40
0
 40
0
 40
0
 40
1
 40
1
 40
1
 40
1
 10
2061.664867
 20
1301.372545
 30
0.0
 10
2063.186393
 20
1298.739801
 30
0.0
 10
2065.997874
 20
1297.119816
 30
0.0
 10
2069.038658
 20
1297.123742
 30
0.0
  0
LWPOLYLINE
  5
268
100
AcDbEntity
  8
Holes
 62
7
100
AcDbPolyline
 90
1
 70
1
 10
2069.032989
 20
1345.171069
 30
0.0
  0
SPLINE
  5
269
100
AcDbEntity
  8
Holes
 62
7
100
AcDbSpline
 70
8
 71
3
 72
8
 73
4
 74
0
 40
0
 40
0
 40
0
 40
0
 40
1
 40
1
 40
1
 40
1
 10
2069.044328
 20
1249.076500
 30
0.0
 10
2072.085274
 20
1249.072345
 30
0.0
 10
2074.897004
 20
1250.692285
 30
0.0
 10
2076.418678
 20
1253.325132
 30
0.0
  0
SPLINE
  5
26a
100
AcDbEntity
  8
Holes
 62
7
100
AcDbSpline
 70
8
 71
3
 72
8
 73
4
 74
0
 40
0
 40
0
 40
0
 40
0
 40
1
 40
1
 40
1
 40
1
 10
2076.418678
 20
1253.325132
 30
0.0
 10
2077.940352
 20
1255.957979
 30
0.0
 10
2077.940352
 20
1259.202979
 30
0.0
 10
2076.418678
 20
1261.835826
 30
0.0
  0
SPLINE
  5
26b
100
AcDbEntity
  8
Holes
 62
7
100
AcDbSpline
 70
8
 71
3
 72
8
 73
4
 74
0
 40
0
 40
0
 40
0
 40
0
 40
1
 40
1
 40
1
 40
1
 10
2076.418678
 20
1261.835826
 30
0.0
 10
2074.897004
 20
1264.468673
 30
0.0
 10
2072.085274
 20
1266.088613
 30
0.0
 10
2069.044328
 20
1266.084458
 30
0.0
  0
SPLINE
  5
26c
100
AcDbEntity
  8
Holes
 62
7
100
AcDbSpline
 70
8
 71
3
 72
8
 73
4
 74
0
 40
0
 40
0
 40
0
 40
0
 40
1
 40
1
 40
1
 40
1
 10
2069.044328
 20
1266.084458
 30
0.0
 10
2066.003381
 20
1266.088613
 30
0.0
 10
2063.191651
 20
1264.468673
 30
0.0
 10
2061.669977
 20
1261.835826
 30
0.0
  0
SPLINE
  5
26d
100
AcDbEntity
  8
Holes
 62
7
100
AcDbSpline
 70
8
 71
3
 72
8
 73
4
 74
0
 40
0
 40
0
 40
0
 40
0
 40
1
 40
1
 40
1
 40
1
 10
2061.669977
 20
1261.835826
 30
0.0
 10
2060.148304
 20
1259.202979
 30
0.0
 10
2060.148304
 20
1255.957979
 30
0.0
 10
2061.669977
 20
1253.325132
 30
0.0
  0
SPLINE
  5
26e
100
AcDbEntity
  8
Holes
 62
7
100
AcDbSpline
 70
8
 71
3
 72
8
 73
4
 74
0
 40
0
 40
0
 40
0
 40
0
 40
1
 40
1
 40
1
 40
1
 10
2061.669977
 20
1253.325132
 30
0.0
 10
2063.191651
 20
1250.692285
 30
0.0
 10
2066.003381
 20
1249.072345
 30
0.0
 10
2069.044328
 20
1249.076500
 30
0.0
  0
LWPOLYLINE
  5
26f
100
AcDbEntity
  8
Holes
 62
7
100
AcDbPolyline
 90
1
 70
1
 10
2069.038658
 20
1297.123742
 30
0.0
  0
SPLINE
  5
270
100
AcDbEntity
  8
Holes
 62
7
100
AcDbSpline
 70
8
 71
3
 72
8
 73
4
 74
0
 40
0
 40
0
 40
0
 40
0
 40
1
 40
1
 40
1
 40
1
 10
2069.049997
 20
1201.029314
 30
0.0
 10
2072.090619
 20
1201.025632
 30
0.0
 10
2074.901847
 20
1202.645670
 30
0.0
 10
2076.423222
 20
1205.278314
 30
0.0
  0
SPLINE
  5
271
100
AcDbEntity
  8
Holes
 62
7
100
AcDbSpline
 70
8
 71
3
 72
8
 73
4
 74
0
 40
0
 40
0
 40
0
 40
0
 40
1
 40
1
 40
1
 40
1
 10
2076.423222
 20
1205.278314
 30
0.0
 10
2077.944597
 20
1207.910958
 30
0.0
 10
2077.944597
 20
1211.155572
 30
0.0
 10
2076.423222
 20
1213.788216
 30
0.0
  0
SPLINE
  5
272
100
AcDbEntity
  8
Holes
 62
7
100
AcDbSpline
 70
8
 71
3
 72
8
 73
4
 74
0
 40
0
 40
0
 40
0
 40
0
 40
1
 40
1
 40
1
 40
1
 10
2076.423222
 20
1213.788216
 30
0.0
 10
2074.901847
 20
1216.420860
 30
0.0
 10
2072.090619
 20
1218.040898
 30
0.0
 10
2069.049997
 20
1218.037216
 30
0.0
  0
SPLINE
  5
273
100
AcDbEntity
  8
Holes
 62
7
100
AcDbSpline
 70
8
 71
3
 72
8
 73
4
 74
0
 40
0
 40
0
 40
0
 40
0
 40
1
 40
1
 40
1
 40
1
 10
2069.049997
 20
1218.037216
 30
0.0
 10
2066.009375
 20
1218.040898
 30
0.0
 10
2063.198147
 20
1216.420860
 30
0.0
 10
2061.676772
 20
1213.788216
 30
0.0
  0
SPLINE
  5
274
100
AcDbEntity
  8
Holes
 62
7
100
AcDbSpline
 70
8
 71
3
 72
8
 73
4
 74
0
 40
0
 40
0
 40
0
 40
0
 40
1
 40
1
 40
1
 40
1
 10
2061.676772
 20
1213.788216
 30
0.0
 10
2060.155397
 20
1211.155572
 30
0.0
 10
2060.155397
 20
1207.910958
 30
0.0
 10
2061.676772
 20
1205.278314
 30
0.0
  0
SPLINE
  5
275
100
AcDbEntity
  8
Holes
 62
7
100
AcDbSpline
 70
8
 71
3
 72
8
 73
4
 74
0
 40
0
 40
0
 40
0
 40
0
 40
1
 40
1
 40
1
 40
1
 10
2061.676772
 20
1205.278314
 30
0.0
 10
2063.198147
 20
1202.645670
 30
0.0
 10
2066.009375
 20
1201.025632
 30
0.0
 10
2069.049997
 20
1201.029314
 30
0.0
  0
LWPOLYLINE
  5
276
100
AcDbEntity
  8
Holes
 62
7
100
AcDbPolyline
 90
1
 70
1
 10
2069.044328
 20
1249.076500
 30
0.0
  0
SPLINE
  5
277
100
AcDbEntity
  8
Holes
 62
7
100
AcDbSpline
 70
8
 71
3
 72
8
 73
4
 74
0
 40
0
 40
0
 40
0
 40
0
 40
1
 40
1
 40
1
 40
1
 10
2069.055666
 20
1152.982072
 30
0.0
 10
2072.099050
 20
1152.974214
 30
0.0
 10
2074.914621
 20
1154.593329
 30
0.0
 10
2076.438586
 20
1157.227675
 30
0.0
  0
SPLINE
  5
278
100
AcDbEntity
  8
Holes
 62
7
100
AcDbSpline
 70
8
 71
3
 72
8
 73
4
 74
0
 40
0
 40
0
 40
0
 40
0
 40
1
 40
1
 40
1
 40
1
 10
2076.438586
 20
1157.227675
 30
0.0
 10
2077.962551
 20
1159.862021
 30
0.0
 10
2077.962551
 20
1163.109940
 30
0.0
 10
2076.438586
 20
1165.744286
 30
0.0
  0
SPLINE
  5
279
100
AcDbEntity
  8
Holes
 62
7
100
AcDbSpline
 70
8
 71
3
 72
8
 73
4
 74
0
 40
0
 40
0
 40
0
 40
0
 40
1
 40
1
 40
1
 40
1
 10
2076.438586
 20
1165.744286
 30
0.0
 10
2074.914621
 20
1168.378632
 30
0.0
 10
2072.099050
 20
1169.997747
 30
0.0
 10
2069.055666
 20
1169.989889
 30
0.0
  0
SPLINE
  5
27a
100
AcDbEntity
  8
Holes
 62
7
100
AcDbSpline
 70
8
 71
3
 72
8
 73
4
 74
0
 40
0
 40
0
 40
0
 40
0
 40
1
 40
1
 40
1
 40
1
 10
2069.055666
 20
1169.989889
 30
0.0
 10
2066.012282
 20
1169.997747
 30
0.0
 10
2063.196711
 20
1168.378632
 30
0.0
 10
2061.672746
 20
1165.744286
 30
0.0
  0
SPLINE
  5
27b
100
AcDbEntity
  8
Holes
 62
7
100
AcDbSpline
 70
8
 71
3
 72
8
 73
4
 74
0
 40
0
 40
0
 40
0
 40
0
 40
1
 40
1
 40
1
 40
1
 10
2061.672746
 20
1165.744286
 30
0.0
 10
2060.148781
 20
1163.109940
 30
0.0
 10
2060.148781
 20
1159.862021
 30
0.0
 10
2061.672746
 20
1157.227675
 30
0.0
  0
SPLINE
  5
27c
100
AcDbEntity
  8
Holes
 62
7
100
AcDbSpline
 70
8
 71
3
 72
8
 73
4
 74
0
 40
0
 40
0
 40
0
 40
0
 40
1
 40
1
 40
1
 40
1
 10
2061.672746
 20
1157.227675
 30
0.0
 10
2063.196711
 20
1154.593329
 30
0.0
 10
2066.012282
 20
1152.974214
 30
0.0
 10
2069.055666
 20
1152.982072
 30
0.0
  0
LWPOLYLINE
  5
27d
100
AcDbEntity
  8
Holes
 62
7
100
AcDbPolyline
 90
1
 70
1
 10
2069.049997
 20
1201.029314
 30
0.0
  0
SPLINE
  5
27e
100
AcDbEntity
  8
Holes
 62
7
100
AcDbSpline
 70
8
 71
3
 72
8
 73
4
 74
0
 40
0
 40
0
 40
0
 40
0
 40
1
 40
1
 40
1
 40
1
 10
2069.061336
 20
1104.934819
 30
0.0
 10
2072.099504
 20
1104.934819
 30
0.0
 10
2074.906888
 20
1106.555662
 30
0.0
 10
2076.425972
 20
1109.186794
 30
0.0
  0
SPLINE
  5
27f
100
AcDbEntity
  8
Holes
 62
7
100
AcDbSpline
 70
8
 71
3
 72
8
 73
4
 74
0
 40
0
 40
0
 40
0
 40
0
 40
1
 40
1
 40
1
 40
1
 10
2076.425972
 20
1109.186794
 30
0.0
 10
2077.945056
 20
1111.817925
 30
0.0
 10
2077.945056
 20
1115.059612
 30
0.0
 10
2076.425972
 20
1117.690743
 30
0.0
  0
SPLINE
  5
280
100
AcDbEntity
  8
Holes
 62
7
100
AcDbSpline
 70
8
 71
3
 72
8
 73
4
 74
0
 40
0
 40
0
 40
0
 40
0
 40
1
 40
1
 40
1
 40
1
 10
2076.425972
 20
1117.690743
 30
0.0
 10
2074.906888
 20
1120.321874
 30
0.0
 10
2072.099504
 20
1121.942718
 30
0.0
 10
2069.061336
 20
1121.942718
 30
0.0
  0
SPLINE
  5
281
100
AcDbEntity
  8
Holes
 62
7
100
AcDbSpline
 70
8
 71
3
 72
8
 73
4
 74
0
 40
0
 40
0
 40
0
 40
0
 40
1
 40
1
 40
1
 40
1
 10
2069.061336
 20
1121.942718
 30
0.0
 10
2066.023167
 20
1121.942718
 30
0.0
 10
2063.215784
 20
1120.321874
 30
0.0
 10
2061.696699
 20
1117.690743
 30
0.0
  0
SPLINE
  5
282
100
AcDbEntity
  8
Holes
 62
7
100
AcDbSpline
 70
8
 71
3
 72
8
 73
4
 74
0
 40
0
 40
0
 40
0
 40
0
 40
1
 40
1
 40
1
 40
1
 10
2061.696699
 20
1117.690743
 30
0.0
 10
2060.177615
 20
1115.059612
 30
0.0
 10
2060.177615
 20
1111.817925
 30
0.0
 10
2061.696699
 20
1109.186794
 30
0.0
  0
SPLINE
  5
283
100
AcDbEntity
  8
Holes
 62
7
100
AcDbSpline
 70
8
 71
3
 72
8
 73
4
 74
0
 40
0
 40
0
 40
0
 40
0
 40
1
 40
1
 40
1
 40
1
 10
2061.696699
 20
1109.186794
 30
0.0
 10
2063.215784
 20
1106.555662
 30
0.0
 10
2066.023167
 20
1104.934819
 30
0.0
 10
2069.061336
 20
1104.934819
 30
0.0
  0
LWPOLYLINE
  5
284
100
AcDbEntity
  8
Holes
 62
7
100
AcDbPolyline
 90
1
 70
1
 10
2069.055666
 20
1152.982072
 30
0.0
  0
SPLINE
  5
285
100
AcDbEntity
  8
Holes
 62
7
100
AcDbSpline
 70
8
 71
3
 72
8
 73
4
 74
0
 40
0
 40
0
 40
0
 40
0
 40
1
 40
1
 40
1
 40
1
 10
2069.067005
 20
1056.887648
 30
0.0
 10
2072.110122
 20
1056.880193
 30
0.0
 10
2074.925272
 20
1058.499398
 30
0.0
 10
2076.448986
 20
1061.133579
 30
0.0
  0
SPLINE
  5
286
100
AcDbEntity
  8
Holes
 62
7
100
AcDbSpline
 70
8
 71
3
 72
8
 73
4
 74
0
 40
0
 40
0
 40
0
 40
0
 40
1
 40
1
 40
1
 40
1
 10
2076.448986
 20
1061.133579
 30
0.0
 10
2077.972700
 20
1063.767760
 30
0.0
 10
2077.972700
 20
1067.015358
 30
0.0
 10
2076.448986
 20
1069.649539
 30
0.0
  0
SPLINE
  5
287
100
AcDbEntity
  8
Holes
 62
7
100
AcDbSpline
 70
8
 71
3
 72
8
 73
4
 74
0
 40
0
 40
0
 40
0
 40
0
 40
1
 40
1
 40
1
 40
1
 10
2076.448986
 20
1069.649539
 30
0.0
 10
2074.925272
 20
1072.283720
 30
0.0
 10
2072.110122
 20
1073.902924
 30
0.0
 10
2069.067005
 20
1073.895470
 30
0.0
  0
SPLINE
  5
288
100
AcDbEntity
  8
Holes
 62
7
100
AcDbSpline
 70
8
 71
3
 72
8
 73
4
 74
0
 40
0
 40
0
 40
0
 40
0
 40
1
 40
1
 40
1
 40
1
 10
2069.067005
 20
1073.895470
 30
0.0
 10
2066.023888
 20
1073.902924
 30
0.0
 10
2063.208738
 20
1072.283720
 30
0.0
 10
2061.685024
 20
1069.649539
 30
0.0
  0
SPLINE
  5
289
100
AcDbEntity
  8
Holes
 62
7
100
AcDbSpline
 70
8
 71
3
 72
8
 73
4
 74
0
 40
0
 40
0
 40
0
 40
0
 40
1
 40
1
 40
1
 40
1
 10
2061.685024
 20
1069.649539
 30
0.0
 10
2060.161309
 20
1067.015358
 30
0.0
 10
2060.161309
 20
1063.767760
 30
0.0
 10
2061.685024
 20
1061.133579
 30
0.0
  0
SPLINE
  5
28a
100
AcDbEntity
  8
Holes
 62
7
100
AcDbSpline
 70
8
 71
3
 72
8
 73
4
 74
0
 40
0
 40
0
 40
0
 40
0
 40
1
 40
1
 40
1
 40
1
 10
2061.685024
 20
1061.133579
 30
0.0
 10
2063.208738
 20
1058.499398
 30
0.0
 10
2066.023888
 20
1056.880193
 30
0.0
 10
2069.067005
 20
1056.887648
 30
0.0
  0
LWPOLYLINE
  5
28b
100
AcDbEntity
  8
Holes
 62
7
100
AcDbPolyline
 90
1
 70
1
 10
2069.061336
 20
1104.934819
 30
0.0
  0
SPLINE
  5
28c
100
AcDbEntity
  8
Holes
 62
7
100
AcDbSpline
 70
8
 71
3
 72
8
 73
4
 74
0
 40
0
 40
0
 40
0
 40
0
 40
1
 40
1
 40
1
 40
1
 10
2069.072674
 20
1008.840323
 30
0.0
 10
2072.115652
 20
1008.833079
 30
0.0
 10
2074.930583
 20
1010.452330
 30
0.0
 10
2076.454167
 20
1013.086425
 30
0.0
  0
SPLINE
  5
28d
100
AcDbEntity
  8
Holes
 62
7
100
AcDbSpline
 70
8
 71
3
 72
8
 73
4
 74
0
 40
0
 40
0
 40
0
 40
0
 40
1
 40
1
 40
1
 40
1
 10
2076.454167
 20
1013.086425
 30
0.0
 10
2077.977750
 20
1015.720520
 30
0.0
 10
2077.977750
 20
1018.967952
 30
0.0
 10
2076.454167
 20
1021.602047
 30
0.0
  0
SPLINE
  5
28e
100
AcDbEntity
  8
Holes
 62
7
100
AcDbSpline
 70
8
 71
3
 72
8
 73
4
 74
0
 40
0
 40
0
 40
0
 40
0
 40
1
 40
1
 40
1
 40
1
 10
2076.454167
 20
1021.602047
 30
0.0
 10
2074.930583
 20
1024.236142
 30
0.0
 10
2072.115652
 20
1025.855392
 30
0.0
 10
2069.072674
 20
1025.848148
 30
0.0
  0
SPLINE
  5
28f
100
AcDbEntity
  8
Holes
 62
7
100
AcDbSpline
 70
8
 71
3
 72
8
 73
4
 74
0
 40
0
 40
0
 40
0
 40
0
 40
1
 40
1
 40
1
 40
1
 10
2069.072674
 20
1025.848148
 30
0.0
 10
2066.029697
 20
1025.855392
 30
0.0
 10
2063.214765
 20
1024.236142
 30
0.0
 10
2061.691182
 20
1021.602047
 30
0.0
  0
SPLINE
  5
290
100
AcDbEntity
  8
Holes
 62
7
100
AcDbSpline
 70
8
 71
3
 72
8
 73
4
 74
0
 40
0
 40
0
 40
0
 40
0
 40
1
 40
1
 40
1
 40
1
 10
2061.691182
 20
1021.602047
 30
0.0
 10
2060.167598
 20
1018.967952
 30
0.0
 10
2060.167598
 20
1015.720520
 30
0.0
 10
2061.691182
 20
1013.086425
 30
0.0
  0
SPLINE
  5
291
100
AcDbEntity
  8
Holes
 62
7
100
AcDbSpline
 70
8
 71
3
 72
8
 73
4
 74
0
 40
0
 40
0
 40
0
 40
0
 40
1
 40
1
 40
1
 40
1
 10
2061.691182
 20
1013.086425
 30
0.0
 10
2063.214765
 20
1010.452330
 30
0.0
 10
2066.029697
 20
1008.833079
 30
0.0
 10
2069.072674
 20
1008.840323
 30
0.0
  0
LWPOLYLINE
  5
292
100
AcDbEntity
  8
Holes
 62
7
100
AcDbPolyline
 90
1
 70
1
 10
2069.067005
 20
1056.887648
 30
0.0
  0
SPLINE
  5
293
100
AcDbEntity
  8
Holes
 62
7
100
AcDbSpline
 70
8
 71
3
 72
8
 73
4
 74
0
 40
0
 40
0
 40
0
 40
0
 40
1
 40
1
 40
1
 40
1
 10
2069.078343
 20
960.793075
 30
0.0
 10
2072.116526
 20
960.793075
 30
0.0
 10
2074.923922
 20
962.413926
 30
0.0
 10
2076.443013
 20
965.045069
 30
0.0
  0
SPLINE
  5
294
100
AcDbEntity
  8
Holes
 62
7
100
AcDbSpline
 70
8
 71
3
 72
8
 73
4
 74
0
 40
0
 40
0
 40
0
 40
0
 40
1
 40
1
 40
1
 40
1
 10
2076.443013
 20
965.045069
 30
0.0
 10
2077.962104
 20
967.676212
 30
0.0
 10
2077.962104
 20
970.917914
 30
0.0
 10
2076.443013
 20
973.549057
 30
0.0
  0
SPLINE
  5
295
100
AcDbEntity
  8
Holes
 62
7
100
AcDbSpline
 70
8
 71
3
 72
8
 73
4
 74
0
 40
0
 40
0
 40
0
 40
0
 40
1
 40
1
 40
1
 40
1
 10
2076.443013
 20
973.549057
 30
0.0
 10
2074.923922
 20
976.180200
 30
0.0
 10
2072.116526
 20
977.801051
 30
0.0
 10
2069.078343
 20
977.801051
 30
0.0
  0
SPLINE
  5
296
100
AcDbEntity
  8
Holes
 62
7
100
AcDbSpline
 70
8
 71
3
 72
8
 73
4
 74
0
 40
0
 40
0
 40
0
 40
0
 40
1
 40
1
 40
1
 40
1
 10
2069.078343
 20
977.801051
 30
0.0
 10
2066.040161
 20
977.801051
 30
0.0
 10
2063.232765
 20
976.180200
 30
0.0
 10
2061.713674
 20
973.549057
 30
0.0
  0
SPLINE
  5
297
100
AcDbEntity
  8
Holes
 62
7
100
AcDbSpline
 70
8
 71
3
 72
8
 73
4
 74
0
 40
0
 40
0
 40
0
 40
0
 40
1
 40
1
 40
1
 40
1
 10
2061.713674
 20
973.549057
 30
0.0
 10
2060.194583
 20
970.917914
 30
0.0
 10
2060.194583
 20
967.676212
 30
0.0
 10
2061.713674
 20
965.045069
 30
0.0
  0
SPLINE
  5
298
100
AcDbEntity
  8
Holes
 62
7
100
AcDbSpline
 70
8
 71
3
 72
8
 73
4
 74
0
 40
0
 40
0
 40
0
 40
0
 40
1
 40
1
 40
1
 40
1
 10
2061.713674
 20
965.045069
 30
0.0
 10
2063.232765
 20
962.413926
 30
0.0
 10
2066.040161
 20
960.793075
 30
0.0
 10
2069.078343
 20
960.793075
 30
0.0
  0
LWPOLYLINE
  5
299
100
AcDbEntity
  8
Holes
 62
7
100
AcDbPolyline
 90
1
 70
1
 10
2069.072674
 20
1008.840323
 30
0.0
  0
SPLINE
  5
29a
100
AcDbEntity
  8
Holes
 62
7
100
AcDbSpline
 70
8
 71
3
 72
8
 73
4
 74
0
 40
0
 40
0
 40
0
 40
0
 40
1
 40
1
 40
1
 40
1
 10
2069.084013
 20
912.745904
 30
0.0
 10
2072.128132
 20
912.736942
 30
0.0
 10
2074.944856
 20
914.355816
 30
0.0
 10
2076.469508
 20
916.990617
 30
0.0
  0
SPLINE
  5
29b
100
AcDbEntity
  8
Holes
 62
7
100
AcDbSpline
 70
8
 71
3
 72
8
 73
4
 74
0
 40
0
 40
0
 40
0
 40
0
 40
1
 40
1
 40
1
 40
1
 10
2076.469508
 20
916.990617
 30
0.0
 10
2077.994160
 20
919.625418
 30
0.0
 10
2077.994160
 20
922.874216
 30
0.0
 10
2076.469508
 20
925.509016
 30
0.0
  0
SPLINE
  5
29c
100
AcDbEntity
  8
Holes
 62
7
100
AcDbSpline
 70
8
 71
3
 72
8
 73
4
 74
0
 40
0
 40
0
 40
0
 40
0
 40
1
 40
1
 40
1
 40
1
 10
2076.469508
 20
925.509016
 30
0.0
 10
2074.944856
 20
928.143817
 30
0.0
 10
2072.128132
 20
929.762691
 30
0.0
 10
2069.084013
 20
929.753729
 30
0.0
  0
SPLINE
  5
29d
100
AcDbEntity
  8
Holes
 62
7
100
AcDbSpline
 70
8
 71
3
 72
8
 73
4
 74
0
 40
0
 40
0
 40
0
 40
0
 40
1
 40
1
 40
1
 40
1
 10
2069.084013
 20
929.753729
 30
0.0
 10
2066.039894
 20
929.762691
 30
0.0
 10
2063.223170
 20
928.143817
 30
0.0
 10
2061.698518
 20
925.509016
 30
0.0
  0
SPLINE
  5
29e
100
AcDbEntity
  8
Holes
 62
7
100
AcDbSpline
 70
8
 71
3
 72
8
 73
4
 74
0
 40
0
 40
0
 40
0
 40
0
 40
1
 40
1
 40
1
 40
1
 10
2061.698518
 20
925.509016
 30
0.0
 10
2060.173865
 20
922.874216
 30
0.0
 10
2060.173865
 20
919.625418
 30
0.0
 10
2061.698518
 20
916.990617
 30
0.0
  0
SPLINE
  5
29f
100
AcDbEntity
  8
Holes
 62
7
100
AcDbSpline
 70
8
 71
3
 72
8
 73
4
 74
0
 40
0
 40
0
 40
0
 40
0
 40
1
 40
1
 40
1
 40
1
 10
2061.698518
 20
916.990617
 30
0.0
 10
2063.223170
 20
914.355816
 30
0.0
 10
2066.039894
 20
912.736942
 30
0.0
 10
2069.084013
 20
912.745904
 30
0.0
  0
LWPOLYLINE
  5
2a0
100
AcDbEntity
  8
Holes
 62
7
100
AcDbPolyline
 90
1
 70
1
 10
2069.078343
 20
960.793075
 30
0.0
  0
SPLINE
  5
2a1
100
AcDbEntity
  8
Holes
 62
7
100
AcDbSpline
 70
8
 71
3
 72
8
 73
4
 74
0
 40
0
 40
0
 40
0
 40
0
 40
1
 40
1
 40
1
 40
1
 10
2069.089682
 20
864.698582
 30
0.0
 10
2072.130492
 20
864.694617
 30
0.0
 10
2074.942014
 20
866.314593
 30
0.0
 10
2076.463564
 20
868.947353
 30
0.0
  0
SPLINE
  5
2a2
100
AcDbEntity
  8
Holes
 62
7
100
AcDbSpline
 70
8
 71
3
 72
8
 73
4
 74
0
 40
0
 40
0
 40
0
 40
0
 40
1
 40
1
 40
1
 40
1
 10
2076.463564
 20
868.947353
 30
0.0
 10
2077.985115
 20
871.580112
 30
0.0
 10
2077.985115
 20
874.824951
 30
0.0
 10
2076.463564
 20
877.457711
 30
0.0
  0
SPLINE
  5
2a3
100
AcDbEntity
  8
Holes
 62
7
100
AcDbSpline
 70
8
 71
3
 72
8
 73
4
 74
0
 40
0
 40
0
 40
0
 40
0
 40
1
 40
1
 40
1
 40
1
 10
2076.463564
 20
877.457711
 30
0.0
 10
2074.942014
 20
880.090470
 30
0.0
 10
2072.130492
 20
881.710446
 30
0.0
 10
2069.089682
 20
881.706481
 30
0.0
  0
SPLINE
  5
2a4
100
AcDbEntity
  8
Holes
 62
7
100
AcDbSpline
 70
8
 71
3
 72
8
 73
4
 74
0
 40
0
 40
0
 40
0
 40
0
 40
1
 40
1
 40
1
 40
1
 10
2069.089682
 20
881.706481
 30
0.0
 10
2066.048872
 20
881.710446
 30
0.0
 10
2063.237351
 20
880.090470
 30
0.0
 10
2061.715800
 20
877.457711
 30
0.0
  0
SPLINE
  5
2a5
100
AcDbEntity
  8
Holes
 62
7
100
AcDbSpline
 70
8
 71
3
 72
8
 73
4
 74
0
 40
0
 40
0
 40
0
 40
0
 40
1
 40
1
 40
1
 40
1
 10
2061.715800
 20
877.457711
 30
0.0
 10
2060.194250
 20
874.824951
 30
0.0
 10
2060.194250
 20
871.580112
 30
0.0
 10
2061.715800
 20
868.947353
 30
0.0
  0
SPLINE
  5
2a6
100
AcDbEntity
  8
Holes
 62
7
100
AcDbSpline
 70
8
 71
3
 72
8
 73
4
 74
0
 40
0
 40
0
 40
0
 40
0
 40
1
 40
1
 40
1
 40
1
 10
2061.715800
 20
868.947353
 30
0.0
 10
2063.237351
 20
866.314593
 30
0.0
 10
2066.048872
 20
864.694617
 30
0.0
 10
2069.089682
 20
864.698582
 30
0.0
  0
LWPOLYLINE
  5
2a7
100
AcDbEntity
  8
Holes
 62
7
100
AcDbPolyline
 90
1
 70
1
 10
2069.084013
 20
912.745904
 30
0.0
  0
SPLINE
  5
2a8
100
AcDbEntity
  8
Holes
 62
7
100
AcDbSpline
 70
8
 71
3
 72
8
 73
4
 74
0
 40
0
 40
0
 40
0
 40
0
 40
1
 40
1
 40
1
 40
1
 10
2549.448632
 20
1825.696810
 30
0.0
 10
2552.486801
 20
1825.697210
 30
0.0
 10
2555.293972
 20
1827.318424
 30
0.0
 10
2556.812710
 20
1829.949755
 30
0.0
  0
SPLINE
  5
2a9
100
AcDbEntity
  8
Holes
 62
7
100
AcDbSpline
 70
8
 71
3
 72
8
 73
4
 74
0
 40
0
 40
0
 40
0
 40
0
 40
1
 40
1
 40
1
 40
1
 10
2556.812710
 20
1829.949755
 30
0.0
 10
2558.331448
 20
1832.581087
 30
0.0
 10
2558.331021
 20
1835.822774
 30
0.0
 10
2556.811590
 20
1838.453706
 30
0.0
  0
SPLINE
  5
2aa
100
AcDbEntity
  8
Holes
 62
7
100
AcDbSpline
 70
8
 71
3
 72
8
 73
4
 74
0
 40
0
 40
0
 40
0
 40
0
 40
1
 40
1
 40
1
 40
1
 10
2556.811590
 20
1838.453706
 30
0.0
 10
2555.292159
 20
1841.084637
 30
0.0
 10
2552.484562
 20
1842.705112
 30
0.0
 10
2549.446393
 20
1842.704712
 30
0.0
  0
SPLINE
  5
2ab
100
AcDbEntity
  8
Holes
 62
7
100
AcDbSpline
 70
8
 71
3
 72
8
 73
4
 74
0
 40
0
 40
0
 40
0
 40
0
 40
1
 40
1
 40
1
 40
1
 10
2549.446393
 20
1842.704712
 30
0.0
 10
2544.749791
 20
1842.704093
 30
0.0
 10
2540.942944
 20
1838.896243
 30
0.0
 10
2540.943562
 20
1834.199641
 30
0.0
  0
SPLINE
  5
2ac
100
AcDbEntity
  8
Holes
 62
7
100
AcDbSpline
 70
8
 71
3
 72
8
 73
4
 74
0
 40
0
 40
0
 40
0
 40
0
 40
1
 40
1
 40
1
 40
1
 10
2540.943562
 20
1834.199641
 30
0.0
 10
2540.944180
 20
1829.503039
 30
0.0
 10
2544.752030
 20
1825.696192
 30
0.0
 10
2549.448632
 20
1825.696810
 30
0.0
  0
LWPOLYLINE
  5
2ad
100
AcDbEntity
  8
Holes
 62
7
100
AcDbPolyline
 90
1
 70
1
 10
2069.089682
 20
864.698582
 30
0.0
  0
SPLINE
  5
2ae
100
AcDbEntity
  8
Holes
 62
7
100
AcDbSpline
 70
8
 71
3
 72
8
 73
4
 74
0
 40
0
 40
0
 40
0
 40
0
 40
1
 40
1
 40
1
 40
1
 10
2549.454302
 20
1777.649625
 30
0.0
 10
2552.497680
 20
1777.642183
 30
0.0
 10
2555.313024
 20
1779.261676
 30
0.0
 10
2556.836631
 20
1781.896221
 30
0.0
  0
SPLINE
  5
2af
100
AcDbEntity
  8
Holes
 62
7
100
AcDbSpline
 70
8
 71
3
 72
8
 73
4
 74
0
 40
0
 40
0
 40
0
 40
0
 40
1
 40
1
 40
1
 40
1
 10
2556.836631
 20
1781.896221
 30
0.0
 10
2558.360238
 20
1784.530766
 30
0.0
 10
2558.359805
 20
1787.778675
 30
0.0
 10
2556.835496
 20
1790.412814
 30
0.0
  0
SPLINE
  5
2b0
100
AcDbEntity
  8
Holes
 62
7
100
AcDbSpline
 70
8
 71
3
 72
8
 73
4
 74
0
 40
0
 40
0
 40
0
 40
0
 40
1
 40
1
 40
1
 40
1
 10
2556.835496
 20
1790.412814
 30
0.0
 10
2555.311186
 20
1793.046953
 30
0.0
 10
2552.495410
 20
1794.665695
 30
0.0
 10
2549.452034
 20
1794.657441
 30
0.0
  0
SPLINE
  5
2b1
100
AcDbEntity
  8
Holes
 62
7
100
AcDbSpline
 70
8
 71
3
 72
8
 73
4
 74
0
 40
0
 40
0
 40
0
 40
0
 40
1
 40
1
 40
1
 40
1
 10
2549.452034
 20
1794.657441
 30
0.0
 10
2546.408656
 20
1794.664883
 30
0.0
 10
2543.593312
 20
1793.045390
 30
0.0
 10
2542.069705
 20
1790.410845
 30
0.0
  0
SPLINE
  5
2b2
100
AcDbEntity
  8
Holes
 62
7
100
AcDbSpline
 70
8
 71
3
 72
8
 73
4
 74
0
 40
0
 40
0
 40
0
 40
0
 40
1
 40
1
 40
1
 40
1
 10
2542.069705
 20
1790.410845
 30
0.0
 10
2540.546097
 20
1787.776300
 30
0.0
 10
2540.546530
 20
1784.528390
 30
0.0
 10
2542.070840
 20
1781.894252
 30
0.0
  0
SPLINE
  5
2b3
100
AcDbEntity
  8
Holes
 62
7
100
AcDbSpline
 70
8
 71
3
 72
8
 73
4
 74
0
 40
0
 40
0
 40
0
 40
0
 40
1
 40
1
 40
1
 40
1
 10
2542.070840
 20
1781.894252
 30
0.0
 10
2543.595150
 20
1779.260113
 30
0.0
 10
2546.410926
 20
1777.641371
 30
0.0
 10
2549.454302
 20
1777.649625
 30
0.0
  0
LWPOLYLINE
  5
2b4
100
AcDbEntity
  8
Holes
 62
7
100
AcDbPolyline
 90
1
 70
1
 10
2549.448632
 20
1825.696810
 30
0.0
  0
SPLINE
  5
2b5
100
AcDbEntity
  8
Holes
 62
7
100
AcDbSpline
 70
8
 71
3
 72
8
 73
4
 74
0
 40
0
 40
0
 40
0
 40
0
 40
1
 40
1
 40
1
 40
1
 10
2549.459971
 20
1729.602382
 30
0.0
 10
2552.503349
 20
1729.594935
 30
0.0
 10
2555.318696
 20
1731.214423
 30
0.0
 10
2556.842308
 20
1733.848966
 30
0.0
  0
SPLINE
  5
2b6
100
AcDbEntity
  8
Holes
 62
7
100
AcDbSpline
 70
8
 71
3
 72
8
 73
4
 74
0
 40
0
 40
0
 40
0
 40
0
 40
1
 40
1
 40
1
 40
1
 10
2556.842308
 20
1733.848966
 30
0.0
 10
2558.365920
 20
1736.483508
 30
0.0
 10
2558.365492
 20
1739.731419
 30
0.0
 10
2556.841187
 20
1742.365560
 30
0.0
  0
SPLINE
  5
2b7
100
AcDbEntity
  8
Holes
 62
7
100
AcDbSpline
 70
8
 71
3
 72
8
 73
4
 74
0
 40
0
 40
0
 40
0
 40
0
 40
1
 40
1
 40
1
 40
1
 10
2556.841187
 20
1742.365560
 30
0.0
 10
2555.316881
 20
1744.999701
 30
0.0
 10
2552.501108
 20
1746.618448
 30
0.0
 10
2549.457732
 20
1746.610199
 30
0.0
  0
SPLINE
  5
2b8
100
AcDbEntity
  8
Holes
 62
7
100
AcDbSpline
 70
8
 71
3
 72
8
 73
4
 74
0
 40
0
 40
0
 40
0
 40
0
 40
1
 40
1
 40
1
 40
1
 10
2549.457732
 20
1746.610199
 30
0.0
 10
2546.414353
 20
1746.617646
 30
0.0
 10
2543.599006
 20
1744.998158
 30
0.0
 10
2542.075395
 20
1742.363616
 30
0.0
  0
SPLINE
  5
2b9
100
AcDbEntity
  8
Holes
 62
7
100
AcDbSpline
 70
8
 71
3
 72
8
 73
4
 74
0
 40
0
 40
0
 40
0
 40
0
 40
1
 40
1
 40
1
 40
1
 10
2542.075395
 20
1742.363616
 30
0.0
 10
2540.551783
 20
1739.729073
 30
0.0
 10
2540.552210
 20
1736.481163
 30
0.0
 10
2542.076516
 20
1733.847022
 30
0.0
  0
SPLINE
  5
2ba
100
AcDbEntity
  8
Holes
 62
7
100
AcDbSpline
 70
8
 71
3
 72
8
 73
4
 74
0
 40
0
 40
0
 40
0
 40
0
 40
1
 40
1
 40
1
 40
1
 10
2542.076516
 20
1733.847022
 30
0.0
 10
2543.600821
 20
1731.212881
 30
0.0
 10
2546.416595
 20
1729.594134
 30
0.0
 10
2549.459971
 20
1729.602382
 30
0.0
  0
LWPOLYLINE
  5
2bb
100
AcDbEntity
  8
Holes
 62
7
100
AcDbPolyline
 90
1
 70
1
 10
2549.454302
 20
1777.649625
 30
0.0
  0
SPLINE
  5
2bc
100
AcDbEntity
  8
Holes
 62
7
100
AcDbSpline
 70
8
 71
3
 72
8
 73
4
 74
0
 40
0
 40
0
 40
0
 40
0
 40
1
 40
1
 40
1
 40
1
 10
2549.465640
 20
1681.555140
 30
0.0
 10
2552.509019
 20
1681.547693
 30
0.0
 10
2555.324366
 20
1683.167181
 30
0.0
 10
2556.847977
 20
1685.801724
 30
0.0
  0
SPLINE
  5
2bd
100
AcDbEntity
  8
Holes
 62
7
100
AcDbSpline
 70
8
 71
3
 72
8
 73
4
 74
0
 40
0
 40
0
 40
0
 40
0
 40
1
 40
1
 40
1
 40
1
 10
2556.847977
 20
1685.801724
 30
0.0
 10
2558.371589
 20
1688.436266
 30
0.0
 10
2558.371162
 20
1691.684176
 30
0.0
 10
2556.846856
 20
1694.318318
 30
0.0
  0
SPLINE
  5
2be
100
AcDbEntity
  8
Holes
 62
7
100
AcDbSpline
 70
8
 71
3
 72
8
 73
4
 74
0
 40
0
 40
0
 40
0
 40
0
 40
1
 40
1
 40
1
 40
1
 10
2556.846856
 20
1694.318318
 30
0.0
 10
2555.322551
 20
1696.952459
 30
0.0
 10
2552.506777
 20
1698.571205
 30
0.0
 10
2549.463401
 20
1698.562957
 30
0.0
  0
SPLINE
  5
2bf
100
AcDbEntity
  8
Holes
 62
7
100
AcDbSpline
 70
8
 71
3
 72
8
 73
4
 74
0
 40
0
 40
0
 40
0
 40
0
 40
1
 40
1
 40
1
 40
1
 10
2549.463401
 20
1698.562957
 30
0.0
 10
2546.420023
 20
1698.570404
 30
0.0
 10
2543.604676
 20
1696.950916
 30
0.0
 10
2542.081064
 20
1694.316374
 30
0.0
  0
SPLINE
  5
2c0
100
AcDbEntity
  8
Holes
 62
7
100
AcDbSpline
 70
8
 71
3
 72
8
 73
4
 74
0
 40
0
 40
0
 40
0
 40
0
 40
1
 40
1
 40
1
 40
1
 10
2542.081064
 20
1694.316374
 30
0.0
 10
2540.557452
 20
1691.681831
 30
0.0
 10
2540.557880
 20
1688.433921
 30
0.0
 10
2542.082185
 20
1685.799780
 30
0.0
  0
SPLINE
  5
2c1
100
AcDbEntity
  8
Holes
 62
7
100
AcDbSpline
 70
8
 71
3
 72
8
 73
4
 74
0
 40
0
 40
0
 40
0
 40
0
 40
1
 40
1
 40
1
 40
1
 10
2542.082185
 20
1685.799780
 30
0.0
 10
2543.606491
 20
1683.165638
 30
0.0
 10
2546.422264
 20
1681.546892
 30
0.0
 10
2549.465640
 20
1681.555140
 30
0.0
  0
LWPOLYLINE
  5
2c2
100
AcDbEntity
  8
Holes
 62
7
100
AcDbPolyline
 90
1
 70
1
 10
2549.459971
 20
1729.602382
 30
0.0
  0
SPLINE
  5
2c3
100
AcDbEntity
  8
Holes
 62
7
100
AcDbSpline
 70
8
 71
3
 72
8
 73
4
 74
0
 40
0
 40
0
 40
0
 40
0
 40
1
 40
1
 40
1
 40
1
 10
2549.471310
 20
1633.507898
 30
0.0
 10
2552.514688
 20
1633.500457
 30
0.0
 10
2555.330032
 20
1635.119949
 30
0.0
 10
2556.853639
 20
1637.754494
 30
0.0
  0
SPLINE
  5
2c4
100
AcDbEntity
  8
Holes
 62
7
100
AcDbSpline
 70
8
 71
3
 72
8
 73
4
 74
0
 40
0
 40
0
 40
0
 40
0
 40
1
 40
1
 40
1
 40
1
 10
2556.853639
 20
1637.754494
 30
0.0
 10
2558.377246
 20
1640.389039
 30
0.0
 10
2558.376813
 20
1643.636949
 30
0.0
 10
2556.852504
 20
1646.271088
 30
0.0
  0
SPLINE
  5
2c5
100
AcDbEntity
  8
Holes
 62
7
100
AcDbSpline
 70
8
 71
3
 72
8
 73
4
 74
0
 40
0
 40
0
 40
0
 40
0
 40
1
 40
1
 40
1
 40
1
 10
2556.852504
 20
1646.271088
 30
0.0
 10
2555.328194
 20
1648.905226
 30
0.0
 10
2552.512418
 20
1650.523968
 30
0.0
 10
2549.469042
 20
1650.515715
 30
0.0
  0
SPLINE
  5
2c6
100
AcDbEntity
  8
Holes
 62
7
100
AcDbSpline
 70
8
 71
3
 72
8
 73
4
 74
0
 40
0
 40
0
 40
0
 40
0
 40
1
 40
1
 40
1
 40
1
 10
2549.469042
 20
1650.515715
 30
0.0
 10
2546.425664
 20
1650.523157
 30
0.0
 10
2543.610320
 20
1648.903664
 30
0.0
 10
2542.086712
 20
1646.269119
 30
0.0
  0
SPLINE
  5
2c7
100
AcDbEntity
  8
Holes
 62
7
100
AcDbSpline
 70
8
 71
3
 72
8
 73
4
 74
0
 40
0
 40
0
 40
0
 40
0
 40
1
 40
1
 40
1
 40
1
 10
2542.086712
 20
1646.269119
 30
0.0
 10
2540.563105
 20
1643.634574
 30
0.0
 10
2540.563538
 20
1640.386664
 30
0.0
 10
2542.087848
 20
1637.752525
 30
0.0
  0
SPLINE
  5
2c8
100
AcDbEntity
  8
Holes
 62
7
100
AcDbSpline
 70
8
 71
3
 72
8
 73
4
 74
0
 40
0
 40
0
 40
0
 40
0
 40
1
 40
1
 40
1
 40
1
 10
2542.087848
 20
1637.752525
 30
0.0
 10
2543.612158
 20
1635.118387
 30
0.0
 10
2546.427934
 20
1633.499645
 30
0.0
 10
2549.471310
 20
1633.507898
 30
0.0
  0
LWPOLYLINE
  5
2c9
100
AcDbEntity
  8
Holes
 62
7
100
AcDbPolyline
 90
1
 70
1
 10
2549.465640
 20
1681.555140
 30
0.0
  0
SPLINE
  5
2ca
100
AcDbEntity
  8
Holes
 62
7
100
AcDbSpline
 70
8
 71
3
 72
8
 73
4
 74
0
 40
0
 40
0
 40
0
 40
0
 40
1
 40
1
 40
1
 40
1
 10
2549.476979
 20
1585.460628
 30
0.0
 10
2552.515153
 20
1585.461028
 30
0.0
 10
2555.322328
 20
1587.082244
 30
0.0
 10
2556.841069
 20
1589.713580
 30
0.0
  0
SPLINE
  5
2cb
100
AcDbEntity
  8
Holes
 62
7
100
AcDbSpline
 70
8
 71
3
 72
8
 73
4
 74
0
 40
0
 40
0
 40
0
 40
0
 40
1
 40
1
 40
1
 40
1
 10
2556.841069
 20
1589.713580
 30
0.0
 10
2558.359809
 20
1592.344916
 30
0.0
 10
2558.359383
 20
1595.586609
 30
0.0
 10
2556.839949
 20
1598.217545
 30
0.0
  0
SPLINE
  5
2cc
100
AcDbEntity
  8
Holes
 62
7
100
AcDbSpline
 70
8
 71
3
 72
8
 73
4
 74
0
 40
0
 40
0
 40
0
 40
0
 40
1
 40
1
 40
1
 40
1
 10
2556.839949
 20
1598.217545
 30
0.0
 10
2555.320516
 20
1600.848481
 30
0.0
 10
2552.512914
 20
1602.468958
 30
0.0
 10
2549.474740
 20
1602.468558
 30
0.0
  0
SPLINE
  5
2cd
100
AcDbEntity
  8
Holes
 62
7
100
AcDbSpline
 70
8
 71
3
 72
8
 73
4
 74
0
 40
0
 40
0
 40
0
 40
0
 40
1
 40
1
 40
1
 40
1
 10
2549.474740
 20
1602.468558
 30
0.0
 10
2546.436565
 20
1602.468158
 30
0.0
 10
2543.629390
 20
1600.846941
 30
0.0
 10
2542.110650
 20
1598.215606
 30
0.0
  0
SPLINE
  5
2ce
100
AcDbEntity
  8
Holes
 62
7
100
AcDbSpline
 70
8
 71
3
 72
8
 73
4
 74
0
 40
0
 40
0
 40
0
 40
0
 40
1
 40
1
 40
1
 40
1
 10
2542.110650
 20
1598.215606
 30
0.0
 10
2540.591909
 20
1595.584270
 30
0.0
 10
2540.592336
 20
1592.342576
 30
0.0
 10
2542.111769
 20
1589.711641
 30
0.0
  0
SPLINE
  5
2cf
100
AcDbEntity
  8
Holes
 62
7
100
AcDbSpline
 70
8
 71
3
 72
8
 73
4
 74
0
 40
0
 40
0
 40
0
 40
0
 40
1
 40
1
 40
1
 40
1
 10
2542.111769
 20
1589.711641
 30
0.0
 10
2543.631203
 20
1587.080705
 30
0.0
 10
2546.438805
 20
1585.460228
 30
0.0
 10
2549.476979
 20
1585.460628
 30
0.0
  0
LWPOLYLINE
  5
2d0
100
AcDbEntity
  8
Holes
 62
7
100
AcDbPolyline
 90
1
 70
1
 10
2549.471310
 20
1633.507898
 30
0.0
  0
SPLINE
  5
2d1
100
AcDbEntity
  8
Holes
 62
7
100
AcDbSpline
 70
8
 71
3
 72
8
 73
4
 74
0
 40
0
 40
0
 40
0
 40
0
 40
1
 40
1
 40
1
 40
1
 10
2549.482648
 20
1537.413386
 30
0.0
 10
2554.179251
 20
1537.414004
 30
0.0
 10
2557.986098
 20
1541.221854
 30
0.0
 10
2557.985479
 20
1545.918456
 30
0.0
  0
SPLINE
  5
2d2
100
AcDbEntity
  8
Holes
 62
7
100
AcDbSpline
 70
8
 71
3
 72
8
 73
4
 74
0
 40
0
 40
0
 40
0
 40
0
 40
1
 40
1
 40
1
 40
1
 10
2557.985479
 20
1545.918456
 30
0.0
 10
2557.984861
 20
1550.615058
 30
0.0
 10
2554.177011
 20
1554.421906
 30
0.0
 10
2549.480409
 20
1554.421287
 30
0.0
  0
SPLINE
  5
2d3
100
AcDbEntity
  8
Holes
 62
7
100
AcDbSpline
 70
8
 71
3
 72
8
 73
4
 74
0
 40
0
 40
0
 40
0
 40
0
 40
1
 40
1
 40
1
 40
1
 10
2549.480409
 20
1554.421287
 30
0.0
 10
2546.442240
 20
1554.420887
 30
0.0
 10
2543.635069
 20
1552.799674
 30
0.0
 10
2542.116331
 20
1550.168342
 30
0.0
  0
SPLINE
  5
2d4
100
AcDbEntity
  8
Holes
 62
7
100
AcDbSpline
 70
8
 71
3
 72
8
 73
4
 74
0
 40
0
 40
0
 40
0
 40
0
 40
1
 40
1
 40
1
 40
1
 10
2542.116331
 20
1550.168342
 30
0.0
 10
2540.597593
 20
1547.537011
 30
0.0
 10
2540.598020
 20
1544.295323
 30
0.0
 10
2542.117451
 20
1541.664391
 30
0.0
  0
SPLINE
  5
2d5
100
AcDbEntity
  8
Holes
 62
7
100
AcDbSpline
 70
8
 71
3
 72
8
 73
4
 74
0
 40
0
 40
0
 40
0
 40
0
 40
1
 40
1
 40
1
 40
1
 10
2542.117451
 20
1541.664391
 30
0.0
 10
2543.636882
 20
1539.033460
 30
0.0
 10
2546.444479
 20
1537.412986
 30
0.0
 10
2549.482648
 20
1537.413386
 30
0.0
  0
LWPOLYLINE
  5
2d6
100
AcDbEntity
  8
Holes
 62
7
100
AcDbPolyline
 90
1
 70
1
 10
2549.476979
 20
1585.460628
 30
0.0
  0
SPLINE
  5
2d7
100
AcDbEntity
  8
Holes
 62
7
100
AcDbSpline
 70
8
 71
3
 72
8
 73
4
 74
0
 40
0
 40
0
 40
0
 40
0
 40
1
 40
1
 40
1
 40
1
 10
2549.488317
 20
1489.366144
 30
0.0
 10
2552.526486
 20
1489.366549
 30
0.0
 10
2555.333654
 20
1490.987767
 30
0.0
 10
2556.852388
 20
1493.619101
 30
0.0
  0
SPLINE
  5
2d8
100
AcDbEntity
  8
Holes
 62
7
100
AcDbSpline
 70
8
 71
3
 72
8
 73
4
 74
0
 40
0
 40
0
 40
0
 40
0
 40
1
 40
1
 40
1
 40
1
 10
2556.852388
 20
1493.619101
 30
0.0
 10
2558.371122
 20
1496.250435
 30
0.0
 10
2558.370689
 20
1499.492123
 30
0.0
 10
2556.851254
 20
1502.123052
 30
0.0
  0
SPLINE
  5
2d9
100
AcDbEntity
  8
Holes
 62
7
100
AcDbSpline
 70
8
 71
3
 72
8
 73
4
 74
0
 40
0
 40
0
 40
0
 40
0
 40
1
 40
1
 40
1
 40
1
 10
2556.851254
 20
1502.123052
 30
0.0
 10
2555.331819
 20
1504.753981
 30
0.0
 10
2552.524219
 20
1506.374450
 30
0.0
 10
2549.486050
 20
1506.374045
 30
0.0
  0
SPLINE
  5
2da
100
AcDbEntity
  8
Holes
 62
7
100
AcDbSpline
 70
8
 71
3
 72
8
 73
4
 74
0
 40
0
 40
0
 40
0
 40
0
 40
1
 40
1
 40
1
 40
1
 10
2549.486050
 20
1506.374045
 30
0.0
 10
2546.447881
 20
1506.373640
 30
0.0
 10
2543.640713
 20
1504.752422
 30
0.0
 10
2542.121979
 20
1502.121088
 30
0.0
  0
SPLINE
  5
2db
100
AcDbEntity
  8
Holes
 62
7
100
AcDbSpline
 70
8
 71
3
 72
8
 73
4
 74
0
 40
0
 40
0
 40
0
 40
0
 40
1
 40
1
 40
1
 40
1
 10
2542.121979
 20
1502.121088
 30
0.0
 10
2540.603246
 20
1499.489754
 30
0.0
 10
2540.603678
 20
1496.248066
 30
0.0
 10
2542.123113
 20
1493.617137
 30
0.0
  0
SPLINE
  5
2dc
100
AcDbEntity
  8
Holes
 62
7
100
AcDbSpline
 70
8
 71
3
 72
8
 73
4
 74
0
 40
0
 40
0
 40
0
 40
0
 40
1
 40
1
 40
1
 40
1
 10
2542.123113
 20
1493.617137
 30
0.0
 10
2543.642548
 20
1490.986208
 30
0.0
 10
2546.450149
 20
1489.365738
 30
0.0
 10
2549.488317
 20
1489.366144
 30
0.0
  0
LWPOLYLINE
  5
2dd
100
AcDbEntity
  8
Holes
 62
7
100
AcDbPolyline
 90
1
 70
1
 10
2549.482648
 20
1537.413386
 30
0.0
  0
SPLINE
  5
2de
100
AcDbEntity
  8
Holes
 62
7
100
AcDbSpline
 70
8
 71
3
 72
8
 73
4
 74
0
 40
0
 40
0
 40
0
 40
0
 40
1
 40
1
 40
1
 40
1
 10
2549.493987
 20
1441.318901
 30
0.0
 10
2552.532156
 20
1441.319301
 30
0.0
 10
2555.339326
 20
1442.940515
 30
0.0
 10
2556.858064
 20
1445.571847
 30
0.0
  0
SPLINE
  5
2df
100
AcDbEntity
  8
Holes
 62
7
100
AcDbSpline
 70
8
 71
3
 72
8
 73
4
 74
0
 40
0
 40
0
 40
0
 40
0
 40
1
 40
1
 40
1
 40
1
 10
2556.858064
 20
1445.571847
 30
0.0
 10
2558.376802
 20
1448.203178
 30
0.0
 10
2558.376376
 20
1451.444866
 30
0.0
 10
2556.856945
 20
1454.075797
 30
0.0
  0
SPLINE
  5
2e0
100
AcDbEntity
  8
Holes
 62
7
100
AcDbSpline
 70
8
 71
3
 72
8
 73
4
 74
0
 40
0
 40
0
 40
0
 40
0
 40
1
 40
1
 40
1
 40
1
 10
2556.856945
 20
1454.075797
 30
0.0
 10
2555.337514
 20
1456.706729
 30
0.0
 10
2552.529916
 20
1458.327203
 30
0.0
 10
2549.491747
 20
1458.326803
 30
0.0
  0
SPLINE
  5
2e1
100
AcDbEntity
  8
Holes
 62
7
100
AcDbSpline
 70
8
 71
3
 72
8
 73
4
 74
0
 40
0
 40
0
 40
0
 40
0
 40
1
 40
1
 40
1
 40
1
 10
2549.491747
 20
1458.326803
 30
0.0
 10
2544.795145
 20
1458.326185
 30
0.0
 10
2540.988298
 20
1454.518335
 30
0.0
 10
2540.988916
 20
1449.821732
 30
0.0
  0
SPLINE
  5
2e2
100
AcDbEntity
  8
Holes
 62
7
100
AcDbSpline
 70
8
 71
3
 72
8
 73
4
 74
0
 40
0
 40
0
 40
0
 40
0
 40
1
 40
1
 40
1
 40
1
 10
2540.988916
 20
1449.821732
 30
0.0
 10
2540.989535
 20
1445.125130
 30
0.0
 10
2544.797384
 20
1441.318283
 30
0.0
 10
2549.493987
 20
1441.318901
 30
0.0
  0
LWPOLYLINE
  5
2e3
100
AcDbEntity
  8
Holes
 62
7
100
AcDbPolyline
 90
1
 70
1
 10
2549.488317
 20
1489.366144
 30
0.0
  0
SPLINE
  5
2e4
100
AcDbEntity
  8
Holes
 62
7
100
AcDbSpline
 70
8
 71
3
 72
8
 73
4
 74
0
 40
0
 40
0
 40
0
 40
0
 40
1
 40
1
 40
1
 40
1
 10
2549.499656
 20
1393.271659
 30
0.0
 10
2554.196258
 20
1393.272286
 30
0.0
 10
2558.003099
 20
1397.080142
 30
0.0
 10
2558.002473
 20
1401.776744
 30
0.0
  0
SPLINE
  5
2e5
100
AcDbEntity
  8
Holes
 62
7
100
AcDbSpline
 70
8
 71
3
 72
8
 73
4
 74
0
 40
0
 40
0
 40
0
 40
0
 40
1
 40
1
 40
1
 40
1
 10
2558.002473
 20
1401.776744
 30
0.0
 10
2558.001847
 20
1406.473346
 30
0.0
 10
2554.193991
 20
1410.280187
 30
0.0
 10
2549.497388
 20
1410.279561
 30
0.0
  0
SPLINE
  5
2e6
100
AcDbEntity
  8
Holes
 62
7
100
AcDbSpline
 70
8
 71
3
 72
8
 73
4
 74
0
 40
0
 40
0
 40
0
 40
0
 40
1
 40
1
 40
1
 40
1
 10
2549.497388
 20
1410.279561
 30
0.0
 10
2546.459219
 20
1410.279156
 30
0.0
 10
2543.652052
 20
1408.657938
 30
0.0
 10
2542.133318
 20
1406.026603
 30
0.0
  0
SPLINE
  5
2e7
100
AcDbEntity
  8
Holes
 62
7
100
AcDbSpline
 70
8
 71
3
 72
8
 73
4
 74
0
 40
0
 40
0
 40
0
 40
0
 40
1
 40
1
 40
1
 40
1
 10
2542.133318
 20
1406.026603
 30
0.0
 10
2540.614584
 20
1403.395269
 30
0.0
 10
2540.615016
 20
1400.153582
 30
0.0
 10
2542.134452
 20
1397.522653
 30
0.0
  0
SPLINE
  5
2e8
100
AcDbEntity
  8
Holes
 62
7
100
AcDbSpline
 70
8
 71
3
 72
8
 73
4
 74
0
 40
0
 40
0
 40
0
 40
0
 40
1
 40
1
 40
1
 40
1
 10
2542.134452
 20
1397.522653
 30
0.0
 10
2543.653887
 20
1394.891724
 30
0.0
 10
2546.461487
 20
1393.271254
 30
0.0
 10
2549.499656
 20
1393.271659
 30
0.0
  0
LWPOLYLINE
  5
2e9
100
AcDbEntity
  8
Holes
 62
7
100
AcDbPolyline
 90
1
 70
1
 10
2549.493987
 20
1441.318901
 30
0.0
  0
SPLINE
  5
2ea
100
AcDbEntity
  8
Holes
 62
7
100
AcDbSpline
 70
8
 71
3
 72
8
 73
4
 74
0
 40
0
 40
0
 40
0
 40
0
 40
1
 40
1
 40
1
 40
1
 10
2549.505325
 20
1345.224389
 30
0.0
 10
2552.545933
 20
1345.221129
 30
0.0
 10
2555.356925
 20
1346.841542
 30
0.0
 10
2556.877940
 20
1349.474377
 30
0.0
  0
SPLINE
  5
2eb
100
AcDbEntity
  8
Holes
 62
7
100
AcDbSpline
 70
8
 71
3
 72
8
 73
4
 74
0
 40
0
 40
0
 40
0
 40
0
 40
1
 40
1
 40
1
 40
1
 10
2556.877940
 20
1349.474377
 30
0.0
 10
2558.398954
 20
1352.107212
 30
0.0
 10
2558.398527
 20
1355.351809
 30
0.0
 10
2556.876819
 20
1357.984244
 30
0.0
  0
SPLINE
  5
2ec
100
AcDbEntity
  8
Holes
 62
7
100
AcDbSpline
 70
8
 71
3
 72
8
 73
4
 74
0
 40
0
 40
0
 40
0
 40
0
 40
1
 40
1
 40
1
 40
1
 10
2556.876819
 20
1357.984244
 30
0.0
 10
2555.355111
 20
1360.616679
 30
0.0
 10
2552.543693
 20
1362.236351
 30
0.0
 10
2549.503086
 20
1362.232290
 30
0.0
  0
SPLINE
  5
2ed
100
AcDbEntity
  8
Holes
 62
7
100
AcDbSpline
 70
8
 71
3
 72
8
 73
4
 74
0
 40
0
 40
0
 40
0
 40
0
 40
1
 40
1
 40
1
 40
1
 10
2549.503086
 20
1362.232290
 30
0.0
 10
2546.462478
 20
1362.235551
 30
0.0
 10
2543.651487
 20
1360.615138
 30
0.0
 10
2542.130472
 20
1357.982302
 30
0.0
  0
SPLINE
  5
2ee
100
AcDbEntity
  8
Holes
 62
7
100
AcDbSpline
 70
8
 71
3
 72
8
 73
4
 74
0
 40
0
 40
0
 40
0
 40
0
 40
1
 40
1
 40
1
 40
1
 10
2542.130472
 20
1357.982302
 30
0.0
 10
2540.609457
 20
1355.349467
 30
0.0
 10
2540.609884
 20
1352.104870
 30
0.0
 10
2542.131592
 20
1349.472435
 30
0.0
  0
SPLINE
  5
2ef
100
AcDbEntity
  8
Holes
 62
7
100
AcDbSpline
 70
8
 71
3
 72
8
 73
4
 74
0
 40
0
 40
0
 40
0
 40
0
 40
1
 40
1
 40
1
 40
1
 10
2542.131592
 20
1349.472435
 30
0.0
 10
2543.653300
 20
1346.840001
 30
0.0
 10
2546.464718
 20
1345.220328
 30
0.0
 10
2549.505325
 20
1345.224389
 30
0.0
  0
LWPOLYLINE
  5
2f0
100
AcDbEntity
  8
Holes
 62
7
100
AcDbPolyline
 90
1
 70
1
 10
2549.499656
 20
1393.271659
 30
0.0
  0
SPLINE
  5
2f1
100
AcDbEntity
  8
Holes
 62
7
100
AcDbSpline
 70
8
 71
3
 72
8
 73
4
 74
0
 40
0
 40
0
 40
0
 40
0
 40
1
 40
1
 40
1
 40
1
 10
2549.510995
 20
1297.177147
 30
0.0
 10
2552.551929
 20
1297.173412
 30
0.0
 10
2555.363425
 20
1298.793726
 30
0.0
 10
2556.884740
 20
1301.426765
 30
0.0
  0
SPLINE
  5
2f2
100
AcDbEntity
  8
Holes
 62
7
100
AcDbSpline
 70
8
 71
3
 72
8
 73
4
 74
0
 40
0
 40
0
 40
0
 40
0
 40
1
 40
1
 40
1
 40
1
 10
2556.884740
 20
1301.426765
 30
0.0
 10
2558.406056
 20
1304.059804
 30
0.0
 10
2558.405628
 20
1307.304790
 30
0.0
 10
2556.883620
 20
1309.937428
 30
0.0
  0
SPLINE
  5
2f3
100
AcDbEntity
  8
Holes
 62
7
100
AcDbSpline
 70
8
 71
3
 72
8
 73
4
 74
0
 40
0
 40
0
 40
0
 40
0
 40
1
 40
1
 40
1
 40
1
 10
2556.883620
 20
1309.937428
 30
0.0
 10
2555.361611
 20
1312.570067
 30
0.0
 10
2552.549688
 20
1314.189641
 30
0.0
 10
2549.508755
 20
1314.185105
 30
0.0
  0
SPLINE
  5
2f4
100
AcDbEntity
  8
Holes
 62
7
100
AcDbSpline
 70
8
 71
3
 72
8
 73
4
 74
0
 40
0
 40
0
 40
0
 40
0
 40
1
 40
1
 40
1
 40
1
 10
2549.508755
 20
1314.185105
 30
0.0
 10
2546.467821
 20
1314.188840
 30
0.0
 10
2543.656325
 20
1312.568526
 30
0.0
 10
2542.135010
 20
1309.935486
 30
0.0
  0
SPLINE
  5
2f5
100
AcDbEntity
  8
Holes
 62
7
100
AcDbSpline
 70
8
 71
3
 72
8
 73
4
 74
0
 40
0
 40
0
 40
0
 40
0
 40
1
 40
1
 40
1
 40
1
 10
2542.135010
 20
1309.935486
 30
0.0
 10
2540.613694
 20
1307.302447
 30
0.0
 10
2540.614122
 20
1304.057462
 30
0.0
 10
2542.136130
 20
1301.424823
 30
0.0
  0
SPLINE
  5
2f6
100
AcDbEntity
  8
Holes
 62
7
100
AcDbSpline
 70
8
 71
3
 72
8
 73
4
 74
0
 40
0
 40
0
 40
0
 40
0
 40
1
 40
1
 40
1
 40
1
 10
2542.136130
 20
1301.424823
 30
0.0
 10
2543.658139
 20
1298.792185
 30
0.0
 10
2546.470061
 20
1297.172611
 30
0.0
 10
2549.510995
 20
1297.177147
 30
0.0
  0
LWPOLYLINE
  5
2f7
100
AcDbEntity
  8
Holes
 62
7
100
AcDbPolyline
 90
1
 70
1
 10
2549.505325
 20
1345.224389
 30
0.0
  0
SPLINE
  5
2f8
100
AcDbEntity
  8
Holes
 62
7
100
AcDbSpline
 70
8
 71
3
 72
8
 73
4
 74
0
 40
0
 40
0
 40
0
 40
0
 40
1
 40
1
 40
1
 40
1
 10
2549.516664
 20
1249.129961
 30
0.0
 10
2552.561111
 20
1249.120910
 30
0.0
 10
2555.378135
 20
1250.740050
 30
0.0
 10
2556.902743
 20
1253.375257
 30
0.0
  0
SPLINE
  5
2f9
100
AcDbEntity
  8
Holes
 62
7
100
AcDbSpline
 70
8
 71
3
 72
8
 73
4
 74
0
 40
0
 40
0
 40
0
 40
0
 40
1
 40
1
 40
1
 40
1
 10
2556.902743
 20
1253.375257
 30
0.0
 10
2558.427351
 20
1256.010463
 30
0.0
 10
2558.426918
 20
1259.259653
 30
0.0
 10
2556.901607
 20
1261.894452
 30
0.0
  0
SPLINE
  5
2fa
100
AcDbEntity
  8
Holes
 62
7
100
AcDbSpline
 70
8
 71
3
 72
8
 73
4
 74
0
 40
0
 40
0
 40
0
 40
0
 40
1
 40
1
 40
1
 40
1
 10
2556.901607
 20
1261.894452
 30
0.0
 10
2555.376296
 20
1264.529252
 30
0.0
 10
2552.558841
 20
1266.147641
 30
0.0
 10
2549.514396
 20
1266.137778
 30
0.0
  0
SPLINE
  5
2fb
100
AcDbEntity
  8
Holes
 62
7
100
AcDbSpline
 70
8
 71
3
 72
8
 73
4
 74
0
 40
0
 40
0
 40
0
 40
0
 40
1
 40
1
 40
1
 40
1
 10
2549.514396
 20
1266.137778
 30
0.0
 10
2546.469949
 20
1266.146829
 30
0.0
 10
2543.652925
 20
1264.527689
 30
0.0
 10
2542.128317
 20
1261.892483
 30
0.0
  0
SPLINE
  5
2fc
100
AcDbEntity
  8
Holes
 62
7
100
AcDbSpline
 70
8
 71
3
 72
8
 73
4
 74
0
 40
0
 40
0
 40
0
 40
0
 40
1
 40
1
 40
1
 40
1
 10
2542.128317
 20
1261.892483
 30
0.0
 10
2540.603709
 20
1259.257276
 30
0.0
 10
2540.604142
 20
1256.008086
 30
0.0
 10
2542.129453
 20
1253.373287
 30
0.0
  0
SPLINE
  5
2fd
100
AcDbEntity
  8
Holes
 62
7
100
AcDbSpline
 70
8
 71
3
 72
8
 73
4
 74
0
 40
0
 40
0
 40
0
 40
0
 40
1
 40
1
 40
1
 40
1
 10
2542.129453
 20
1253.373287
 30
0.0
 10
2543.654764
 20
1250.738487
 30
0.0
 10
2546.472219
 20
1249.120098
 30
0.0
 10
2549.516664
 20
1249.129961
 30
0.0
  0
LWPOLYLINE
  5
2fe
100
AcDbEntity
  8
Holes
 62
7
100
AcDbPolyline
 90
1
 70
1
 10
2549.510995
 20
1297.177147
 30
0.0
  0
SPLINE
  5
2ff
100
AcDbEntity
  8
Holes
 62
7
100
AcDbSpline
 70
8
 71
3
 72
8
 73
4
 74
0
 40
0
 40
0
 40
0
 40
0
 40
1
 40
1
 40
1
 40
1
 10
2309.175061
 20
2197.008732
 30
0.0
 10
2324.374084
 20
2196.997935
 30
0.0
 10
2338.423021
 20
2205.100849
 30
0.0
 10
2346.024774
 20
2218.262299
 30
0.0
  0
SPLINE
  5
300
100
AcDbEntity
  8
Holes
 62
7
100
AcDbSpline
 70
8
 71
3
 72
8
 73
4
 74
0
 40
0
 40
0
 40
0
 40
0
 40
1
 40
1
 40
1
 40
1
 10
2346.024774
 20
2218.262299
 30
0.0
 10
2353.626526
 20
2231.423749
 30
0.0
 10
2353.624904
 20
2247.641944
 30
0.0
 10
2346.020520
 20
2260.801873
 30
0.0
  0
SPLINE
  5
301
100
AcDbEntity
  8
Holes
 62
7
100
AcDbSpline
 70
8
 71
3
 72
8
 73
4
 74
0
 40
0
 40
0
 40
0
 40
0
 40
1
 40
1
 40
1
 40
1
 10
2346.020520
 20
2260.801873
 30
0.0
 10
2338.416135
 20
2273.961803
 30
0.0
 10
2324.365578
 20
2282.061906
 30
0.0
 10
2309.166557
 20
2282.048070
 30
0.0
  0
SPLINE
  5
302
100
AcDbEntity
  8
Holes
 62
7
100
AcDbSpline
 70
8
 71
3
 72
8
 73
4
 74
0
 40
0
 40
0
 40
0
 40
0
 40
1
 40
1
 40
1
 40
1
 10
2309.166557
 20
2282.048070
 30
0.0
 10
2293.967534
 20
2282.058867
 30
0.0
 10
2279.918597
 20
2273.955953
 30
0.0
 10
2272.316845
 20
2260.794503
 30
0.0
  0
SPLINE
  5
303
100
AcDbEntity
  8
Holes
 62
7
100
AcDbSpline
 70
8
 71
3
 72
8
 73
4
 74
0
 40
0
 40
0
 40
0
 40
0
 40
1
 40
1
 40
1
 40
1
 10
2272.316845
 20
2260.794503
 30
0.0
 10
2264.715092
 20
2247.633053
 30
0.0
 10
2264.716714
 20
2231.414858
 30
0.0
 10
2272.321099
 20
2218.254928
 30
0.0
  0
SPLINE
  5
304
100
AcDbEntity
  8
Holes
 62
7
100
AcDbSpline
 70
8
 71
3
 72
8
 73
4
 74
0
 40
0
 40
0
 40
0
 40
0
 40
1
 40
1
 40
1
 40
1
 10
2272.321099
 20
2218.254928
 30
0.0
 10
2279.925483
 20
2205.094999
 30
0.0
 10
2293.976041
 20
2196.994895
 30
0.0
 10
2309.175061
 20
2197.008732
 30
0.0
  0
LWPOLYLINE
  5
305
100
AcDbEntity
  8
Holes
 62
7
100
AcDbPolyline
 90
1
 70
1
 10
2549.516664
 20
1249.129961
 30
0.0
  0
SPLINE
  5
306
100
AcDbEntity
  8
Holes
 62
7
100
AcDbSpline
 70
8
 71
3
 72
8
 73
4
 74
0
 40
0
 40
0
 40
0
 40
0
 40
1
 40
1
 40
1
 40
1
 10
2549.521993
 20
1201.082634
 30
0.0
 10
2552.562601
 20
1201.079380
 30
0.0
 10
2555.373589
 20
1202.699797
 30
0.0
 10
2556.894599
 20
1205.332635
 30
0.0
  0
SPLINE
  5
307
100
AcDbEntity
  8
Holes
 62
7
100
AcDbSpline
 70
8
 71
3
 72
8
 73
4
 74
0
 40
0
 40
0
 40
0
 40
0
 40
1
 40
1
 40
1
 40
1
 10
2556.894599
 20
1205.332635
 30
0.0
 10
2558.415609
 20
1207.965473
 30
0.0
 10
2558.415176
 20
1211.210069
 30
0.0
 10
2556.893464
 20
1213.842501
 30
0.0
  0
SPLINE
  5
308
100
AcDbEntity
  8
Holes
 62
7
100
AcDbSpline
 70
8
 71
3
 72
8
 73
4
 74
0
 40
0
 40
0
 40
0
 40
0
 40
1
 40
1
 40
1
 40
1
 10
2556.893464
 20
1213.842501
 30
0.0
 10
2555.371752
 20
1216.474933
 30
0.0
 10
2552.560332
 20
1218.094601
 30
0.0
 10
2549.519725
 20
1218.090536
 30
0.0
  0
SPLINE
  5
309
100
AcDbEntity
  8
Holes
 62
7
100
AcDbSpline
 70
8
 71
3
 72
8
 73
4
 74
0
 40
0
 40
0
 40
0
 40
0
 40
1
 40
1
 40
1
 40
1
 10
2549.519725
 20
1218.090536
 30
0.0
 10
2546.479118
 20
1218.093790
 30
0.0
 10
2543.668130
 20
1216.473372
 30
0.0
 10
2542.147120
 20
1213.840535
 30
0.0
  0
SPLINE
  5
30a
100
AcDbEntity
  8
Holes
 62
7
100
AcDbSpline
 70
8
 71
3
 72
8
 73
4
 74
0
 40
0
 40
0
 40
0
 40
0
 40
1
 40
1
 40
1
 40
1
 10
2542.147120
 20
1213.840535
 30
0.0
 10
2540.626109
 20
1211.207697
 30
0.0
 10
2540.626542
 20
1207.963101
 30
0.0
 10
2542.148254
 20
1205.330669
 30
0.0
  0
SPLINE
  5
30b
100
AcDbEntity
  8
Holes
 62
7
100
AcDbSpline
 70
8
 71
3
 72
8
 73
4
 74
0
 40
0
 40
0
 40
0
 40
0
 40
1
 40
1
 40
1
 40
1
 10
2542.148254
 20
1205.330669
 30
0.0
 10
2543.669966
 20
1202.698237
 30
0.0
 10
2546.481386
 20
1201.078569
 30
0.0
 10
2549.521993
 20
1201.082634
 30
0.0
  0
LWPOLYLINE
  5
30c
100
AcDbEntity
  8
Holes
 62
7
100
AcDbPolyline
 90
1
 70
1
 10
2309.175061
 20
2197.008732
 30
0.0
  0
SPLINE
  5
30d
100
AcDbEntity
  8
Holes
 62
7
100
AcDbSpline
 70
8
 71
3
 72
8
 73
4
 74
0
 40
0
 40
0
 40
0
 40
0
 40
1
 40
1
 40
1
 40
1
 10
2549.527662
 20
1153.035477
 30
0.0
 10
2554.224265
 20
1153.036103
 30
0.0
 10
2558.031105
 20
1156.843959
 30
0.0
 10
2558.030479
 20
1161.540562
 30
0.0
  0
SPLINE
  5
30e
100
AcDbEntity
  8
Holes
 62
7
100
AcDbSpline
 70
8
 71
3
 72
8
 73
4
 74
0
 40
0
 40
0
 40
0
 40
0
 40
1
 40
1
 40
1
 40
1
 10
2558.030479
 20
1161.540562
 30
0.0
 10
2558.029853
 20
1166.237164
 30
0.0
 10
2554.221997
 20
1170.044005
 30
0.0
 10
2549.525395
 20
1170.043379
 30
0.0
  0
SPLINE
  5
30f
100
AcDbEntity
  8
Holes
 62
7
100
AcDbSpline
 70
8
 71
3
 72
8
 73
4
 74
0
 40
0
 40
0
 40
0
 40
0
 40
1
 40
1
 40
1
 40
1
 10
2549.525395
 20
1170.043379
 30
0.0
 10
2546.487226
 20
1170.042973
 30
0.0
 10
2543.680058
 20
1168.421755
 30
0.0
 10
2542.161324
 20
1165.790421
 30
0.0
  0
SPLINE
  5
310
100
AcDbEntity
  8
Holes
 62
7
100
AcDbSpline
 70
8
 71
3
 72
8
 73
4
 74
0
 40
0
 40
0
 40
0
 40
0
 40
1
 40
1
 40
1
 40
1
 10
2542.161324
 20
1165.790421
 30
0.0
 10
2540.642591
 20
1163.159087
 30
0.0
 10
2540.643023
 20
1159.917399
 30
0.0
 10
2542.162458
 20
1157.286470
 30
0.0
  0
SPLINE
  5
311
100
AcDbEntity
  8
Holes
 62
7
100
AcDbSpline
 70
8
 71
3
 72
8
 73
4
 74
0
 40
0
 40
0
 40
0
 40
0
 40
1
 40
1
 40
1
 40
1
 10
2542.162458
 20
1157.286470
 30
0.0
 10
2543.681893
 20
1154.655541
 30
0.0
 10
2546.489493
 20
1153.035072
 30
0.0
 10
2549.527662
 20
1153.035477
 30
0.0
  0
LWPOLYLINE
  5
312
100
AcDbEntity
  8
Holes
 62
7
100
AcDbPolyline
 90
1
 70
1
 10
2549.521993
 20
1201.082634
 30
0.0
  0
SPLINE
  5
313
100
AcDbEntity
  8
Holes
 62
7
100
AcDbSpline
 70
8
 71
3
 72
8
 73
4
 74
0
 40
0
 40
0
 40
0
 40
0
 40
1
 40
1
 40
1
 40
1
 10
2549.533332
 20
1104.988294
 30
0.0
 10
2552.579228
 20
1104.977037
 30
0.0
 10
2555.398540
 20
1106.595683
 30
0.0
 10
2556.924516
 20
1109.231781
 30
0.0
  0
SPLINE
  5
314
100
AcDbEntity
  8
Holes
 62
7
100
AcDbSpline
 70
8
 71
3
 72
8
 73
4
 74
0
 40
0
 40
0
 40
0
 40
0
 40
1
 40
1
 40
1
 40
1
 10
2556.924516
 20
1109.231781
 30
0.0
 10
2558.450492
 20
1111.867879
 30
0.0
 10
2558.450064
 20
1115.118807
 30
0.0
 10
2556.923394
 20
1117.754503
 30
0.0
  0
SPLINE
  5
315
100
AcDbEntity
  8
Holes
 62
7
100
AcDbSpline
 70
8
 71
3
 72
8
 73
4
 74
0
 40
0
 40
0
 40
0
 40
0
 40
1
 40
1
 40
1
 40
1
 10
2556.923394
 20
1117.754503
 30
0.0
 10
2555.396724
 20
1120.390198
 30
0.0
 10
2552.576986
 20
1122.008102
 30
0.0
 10
2549.531092
 20
1121.996043
 30
0.0
  0
SPLINE
  5
316
100
AcDbEntity
  8
Holes
 62
7
100
AcDbSpline
 70
8
 71
3
 72
8
 73
4
 74
0
 40
0
 40
0
 40
0
 40
0
 40
1
 40
1
 40
1
 40
1
 10
2549.531092
 20
1121.996043
 30
0.0
 10
2546.485196
 20
1122.007300
 30
0.0
 10
2543.665884
 20
1120.388654
 30
0.0
 10
2542.139908
 20
1117.752556
 30
0.0
  0
SPLINE
  5
317
100
AcDbEntity
  8
Holes
 62
7
100
AcDbSpline
 70
8
 71
3
 72
8
 73
4
 74
0
 40
0
 40
0
 40
0
 40
0
 40
1
 40
1
 40
1
 40
1
 10
2542.139908
 20
1117.752556
 30
0.0
 10
2540.613932
 20
1115.116458
 30
0.0
 10
2540.614360
 20
1111.865531
 30
0.0
 10
2542.141030
 20
1109.229835
 30
0.0
  0
SPLINE
  5
318
100
AcDbEntity
  8
Holes
 62
7
100
AcDbSpline
 70
8
 71
3
 72
8
 73
4
 74
0
 40
0
 40
0
 40
0
 40
0
 40
1
 40
1
 40
1
 40
1
 10
2542.141030
 20
1109.229835
 30
0.0
 10
2543.667700
 20
1106.594139
 30
0.0
 10
2546.487438
 20
1104.976235
 30
0.0
 10
2549.533332
 20
1104.988294
 30
0.0
  0
LWPOLYLINE
  5
319
100
AcDbEntity
  8
Holes
 62
7
100
AcDbPolyline
 90
1
 70
1
 10
2549.527662
 20
1153.035477
 30
0.0
  0
SPLINE
  5
31a
100
AcDbEntity
  8
Holes
 62
7
100
AcDbSpline
 70
8
 71
3
 72
8
 73
4
 74
0
 40
0
 40
0
 40
0
 40
0
 40
1
 40
1
 40
1
 40
1
 10
2549.539001
 20
1056.940970
 30
0.0
 10
2552.581972
 20
1056.934138
 30
0.0
 10
2555.396678
 20
1058.553762
 30
0.0
 10
2556.919908
 20
1061.188053
 30
0.0
  0
SPLINE
  5
31b
100
AcDbEntity
  8
Holes
 62
7
100
AcDbSpline
 70
8
 71
3
 72
8
 73
4
 74
0
 40
0
 40
0
 40
0
 40
0
 40
1
 40
1
 40
1
 40
1
 10
2556.919908
 20
1061.188053
 30
0.0
 10
2558.443138
 20
1063.822344
 30
0.0
 10
2558.442711
 20
1067.069766
 30
0.0
 10
2556.918787
 20
1069.703656
 30
0.0
  0
SPLINE
  5
31c
100
AcDbEntity
  8
Holes
 62
7
100
AcDbSpline
 70
8
 71
3
 72
8
 73
4
 74
0
 40
0
 40
0
 40
0
 40
0
 40
1
 40
1
 40
1
 40
1
 10
2556.918787
 20
1069.703656
 30
0.0
 10
2555.394864
 20
1072.337546
 30
0.0
 10
2552.579731
 20
1073.956428
 30
0.0
 10
2549.536762
 20
1073.948795
 30
0.0
  0
SPLINE
  5
31d
100
AcDbEntity
  8
Holes
 62
7
100
AcDbSpline
 70
8
 71
3
 72
8
 73
4
 74
0
 40
0
 40
0
 40
0
 40
0
 40
1
 40
1
 40
1
 40
1
 10
2549.536762
 20
1073.948795
 30
0.0
 10
2546.493791
 20
1073.955627
 30
0.0
 10
2543.679084
 20
1072.336004
 30
0.0
 10
2542.155854
 20
1069.701713
 30
0.0
  0
SPLINE
  5
31e
100
AcDbEntity
  8
Holes
 62
7
100
AcDbSpline
 70
8
 71
3
 72
8
 73
4
 74
0
 40
0
 40
0
 40
0
 40
0
 40
1
 40
1
 40
1
 40
1
 10
2542.155854
 20
1069.701713
 30
0.0
 10
2540.632624
 20
1067.067421
 30
0.0
 10
2540.633052
 20
1063.819999
 30
0.0
 10
2542.156975
 20
1061.186109
 30
0.0
  0
SPLINE
  5
31f
100
AcDbEntity
  8
Holes
 62
7
100
AcDbSpline
 70
8
 71
3
 72
8
 73
4
 74
0
 40
0
 40
0
 40
0
 40
0
 40
1
 40
1
 40
1
 40
1
 10
2542.156975
 20
1061.186109
 30
0.0
 10
2543.680899
 20
1058.552219
 30
0.0
 10
2546.496032
 20
1056.933337
 30
0.0
 10
2549.539001
 20
1056.940970
 30
0.0
  0
LWPOLYLINE
  5
320
100
AcDbEntity
  8
Holes
 62
7
100
AcDbPolyline
 90
1
 70
1
 10
2549.533332
 20
1104.988294
 30
0.0
  0
SPLINE
  5
321
100
AcDbEntity
  8
Holes
 62
7
100
AcDbSpline
 70
8
 71
3
 72
8
 73
4
 74
0
 40
0
 40
0
 40
0
 40
0
 40
1
 40
1
 40
1
 40
1
 10
2549.544670
 20
1008.893799
 30
0.0
 10
2552.587641
 20
1008.886967
 30
0.0
 10
2555.402348
 20
1010.506590
 30
0.0
 10
2556.925578
 20
1013.140881
 30
0.0
  0
SPLINE
  5
322
100
AcDbEntity
  8
Holes
 62
7
100
AcDbSpline
 70
8
 71
3
 72
8
 73
4
 74
0
 40
0
 40
0
 40
0
 40
0
 40
1
 40
1
 40
1
 40
1
 10
2556.925578
 20
1013.140881
 30
0.0
 10
2558.448808
 20
1015.775173
 30
0.0
 10
2558.448380
 20
1019.022595
 30
0.0
 10
2556.924456
 20
1021.656485
 30
0.0
  0
SPLINE
  5
323
100
AcDbEntity
  8
Holes
 62
7
100
AcDbSpline
 70
8
 71
3
 72
8
 73
4
 74
0
 40
0
 40
0
 40
0
 40
0
 40
1
 40
1
 40
1
 40
1
 10
2556.924456
 20
1021.656485
 30
0.0
 10
2555.400533
 20
1024.290375
 30
0.0
 10
2552.585400
 20
1025.909257
 30
0.0
 10
2549.542431
 20
1025.901624
 30
0.0
  0
SPLINE
  5
324
100
AcDbEntity
  8
Holes
 62
7
100
AcDbSpline
 70
8
 71
3
 72
8
 73
4
 74
0
 40
0
 40
0
 40
0
 40
0
 40
1
 40
1
 40
1
 40
1
 10
2549.542431
 20
1025.901624
 30
0.0
 10
2546.499460
 20
1025.908456
 30
0.0
 10
2543.684753
 20
1024.288832
 30
0.0
 10
2542.161523
 20
1021.654541
 30
0.0
  0
SPLINE
  5
325
100
AcDbEntity
  8
Holes
 62
7
100
AcDbSpline
 70
8
 71
3
 72
8
 73
4
 74
0
 40
0
 40
0
 40
0
 40
0
 40
1
 40
1
 40
1
 40
1
 10
2542.161523
 20
1021.654541
 30
0.0
 10
2540.638294
 20
1019.020250
 30
0.0
 10
2540.638721
 20
1015.772828
 30
0.0
 10
2542.162645
 20
1013.138938
 30
0.0
  0
SPLINE
  5
326
100
AcDbEntity
  8
Holes
 62
7
100
AcDbSpline
 70
8
 71
3
 72
8
 73
4
 74
0
 40
0
 40
0
 40
0
 40
0
 40
1
 40
1
 40
1
 40
1
 10
2542.162645
 20
1013.138938
 30
0.0
 10
2543.686568
 20
1010.505048
 30
0.0
 10
2546.501701
 20
1008.886166
 30
0.0
 10
2549.544670
 20
1008.893799
 30
0.0
  0
LWPOLYLINE
  5
327
100
AcDbEntity
  8
Holes
 62
7
100
AcDbPolyline
 90
1
 70
1
 10
2549.539001
 20
1056.940970
 30
0.0
  0
SPLINE
  5
328
100
AcDbEntity
  8
Holes
 62
7
100
AcDbSpline
 70
8
 71
3
 72
8
 73
4
 74
0
 40
0
 40
0
 40
0
 40
0
 40
1
 40
1
 40
1
 40
1
 10
2549.550340
 20
960.846551
 30
0.0
 10
2552.594454
 20
960.837999
 30
0.0
 10
2555.410955
 20
962.457246
 30
0.0
 10
2556.935255
 20
965.092244
 30
0.0
  0
SPLINE
  5
329
100
AcDbEntity
  8
Holes
 62
7
100
AcDbSpline
 70
8
 71
3
 72
8
 73
4
 74
0
 40
0
 40
0
 40
0
 40
0
 40
1
 40
1
 40
1
 40
1
 10
2556.935255
 20
965.092244
 30
0.0
 10
2558.459555
 20
967.727241
 30
0.0
 10
2558.459127
 20
970.976032
 30
0.0
 10
2556.934133
 20
973.610628
 30
0.0
  0
SPLINE
  5
32a
100
AcDbEntity
  8
Holes
 62
7
100
AcDbSpline
 70
8
 71
3
 72
8
 73
4
 74
0
 40
0
 40
0
 40
0
 40
0
 40
1
 40
1
 40
1
 40
1
 10
2556.934133
 20
973.610628
 30
0.0
 10
2555.409140
 20
976.245225
 30
0.0
 10
2552.592212
 20
977.863730
 30
0.0
 10
2549.548100
 20
977.854376
 30
0.0
  0
SPLINE
  5
32b
100
AcDbEntity
  8
Holes
 62
7
100
AcDbSpline
 70
8
 71
3
 72
8
 73
4
 74
0
 40
0
 40
0
 40
0
 40
0
 40
1
 40
1
 40
1
 40
1
 10
2549.548100
 20
977.854376
 30
0.0
 10
2546.503986
 20
977.862928
 30
0.0
 10
2543.687485
 20
976.243681
 30
0.0
 10
2542.163185
 20
973.608684
 30
0.0
  0
SPLINE
  5
32c
100
AcDbEntity
  8
Holes
 62
7
100
AcDbSpline
 70
8
 71
3
 72
8
 73
4
 74
0
 40
0
 40
0
 40
0
 40
0
 40
1
 40
1
 40
1
 40
1
 10
2542.163185
 20
973.608684
 30
0.0
 10
2540.638885
 20
970.973686
 30
0.0
 10
2540.639313
 20
967.724895
 30
0.0
 10
2542.164306
 20
965.090299
 30
0.0
  0
SPLINE
  5
32d
100
AcDbEntity
  8
Holes
 62
7
100
AcDbSpline
 70
8
 71
3
 72
8
 73
4
 74
0
 40
0
 40
0
 40
0
 40
0
 40
1
 40
1
 40
1
 40
1
 10
2542.164306
 20
965.090299
 30
0.0
 10
2543.689300
 20
962.455702
 30
0.0
 10
2546.506228
 20
960.837198
 30
0.0
 10
2549.550340
 20
960.846551
 30
0.0
  0
LWPOLYLINE
  5
32e
100
AcDbEntity
  8
Holes
 62
7
100
AcDbPolyline
 90
1
 70
1
 10
2549.544670
 20
1008.893799
 30
0.0
  0
SPLINE
  5
32f
100
AcDbEntity
  8
Holes
 62
7
100
AcDbSpline
 70
8
 71
3
 72
8
 73
4
 74
0
 40
0
 40
0
 40
0
 40
0
 40
1
 40
1
 40
1
 40
1
 10
2549.556009
 20
912.799230
 30
0.0
 10
2552.596882
 20
912.795570
 30
0.0
 10
2555.408290
 20
914.415895
 30
0.0
 10
2556.929553
 20
917.048894
 30
0.0
  0
SPLINE
  5
330
100
AcDbEntity
  8
Holes
 62
7
100
AcDbSpline
 70
8
 71
3
 72
8
 73
4
 74
0
 40
0
 40
0
 40
0
 40
0
 40
1
 40
1
 40
1
 40
1
 10
2556.929553
 20
917.048894
 30
0.0
 10
2558.450816
 20
919.681893
 30
0.0
 10
2558.450389
 20
922.926807
 30
0.0
 10
2556.928433
 20
925.559406
 30
0.0
  0
SPLINE
  5
331
100
AcDbEntity
  8
Holes
 62
7
100
AcDbSpline
 70
8
 71
3
 72
8
 73
4
 74
0
 40
0
 40
0
 40
0
 40
0
 40
1
 40
1
 40
1
 40
1
 10
2556.928433
 20
925.559406
 30
0.0
 10
2555.406476
 20
928.192004
 30
0.0
 10
2552.594642
 20
929.811589
 30
0.0
 10
2549.553769
 20
929.807128
 30
0.0
  0
SPLINE
  5
332
100
AcDbEntity
  8
Holes
 62
7
100
AcDbSpline
 70
8
 71
3
 72
8
 73
4
 74
0
 40
0
 40
0
 40
0
 40
0
 40
1
 40
1
 40
1
 40
1
 10
2549.553769
 20
929.807128
 30
0.0
 10
2546.512896
 20
929.810788
 30
0.0
 10
2543.701488
 20
928.190463
 30
0.0
 10
2542.180225
 20
925.557464
 30
0.0
  0
SPLINE
  5
333
100
AcDbEntity
  8
Holes
 62
7
100
AcDbSpline
 70
8
 71
3
 72
8
 73
4
 74
0
 40
0
 40
0
 40
0
 40
0
 40
1
 40
1
 40
1
 40
1
 10
2542.180225
 20
925.557464
 30
0.0
 10
2540.658962
 20
922.924465
 30
0.0
 10
2540.659389
 20
919.679551
 30
0.0
 10
2542.181346
 20
917.046952
 30
0.0
  0
SPLINE
  5
334
100
AcDbEntity
  8
Holes
 62
7
100
AcDbSpline
 70
8
 71
3
 72
8
 73
4
 74
0
 40
0
 40
0
 40
0
 40
0
 40
1
 40
1
 40
1
 40
1
 10
2542.181346
 20
917.046952
 30
0.0
 10
2543.703302
 20
914.414354
 30
0.0
 10
2546.515136
 20
912.794769
 30
0.0
 10
2549.556009
 20
912.799230
 30
0.0
  0
LWPOLYLINE
  5
335
100
AcDbEntity
  8
Holes
 62
7
100
AcDbPolyline
 90
1
 70
1
 10
2549.550340
 20
960.846551
 30
0.0
  0
SPLINE
  5
336
100
AcDbEntity
  8
Holes
 62
7
100
AcDbSpline
 70
8
 71
3
 72
8
 73
4
 74
0
 40
0
 40
0
 40
0
 40
0
 40
1
 40
1
 40
1
 40
1
 10
2549.561678
 20
864.752057
 30
0.0
 10
2552.602395
 20
864.748637
 30
0.0
 10
2555.413555
 20
866.369019
 30
0.0
 10
2556.934668
 20
869.001924
 30
0.0
  0
SPLINE
  5
337
100
AcDbEntity
  8
Holes
 62
7
100
AcDbSpline
 70
8
 71
3
 72
8
 73
4
 74
0
 40
0
 40
0
 40
0
 40
0
 40
1
 40
1
 40
1
 40
1
 10
2556.934668
 20
869.001924
 30
0.0
 10
2558.455780
 20
871.634829
 30
0.0
 10
2558.455348
 20
874.879557
 30
0.0
 10
2556.933533
 20
877.512056
 30
0.0
  0
SPLINE
  5
338
100
AcDbEntity
  8
Holes
 62
7
100
AcDbSpline
 70
8
 71
3
 72
8
 73
4
 74
0
 40
0
 40
0
 40
0
 40
0
 40
1
 40
1
 40
1
 40
1
 10
2556.933533
 20
877.512056
 30
0.0
 10
2555.411719
 20
880.144555
 30
0.0
 10
2552.600127
 20
881.764187
 30
0.0
 10
2549.559410
 20
881.759957
 30
0.0
  0
SPLINE
  5
339
100
AcDbEntity
  8
Holes
 62
7
100
AcDbSpline
 70
8
 71
3
 72
8
 73
4
 74
0
 40
0
 40
0
 40
0
 40
0
 40
1
 40
1
 40
1
 40
1
 10
2549.559410
 20
881.759957
 30
0.0
 10
2546.518693
 20
881.763376
 30
0.0
 10
2543.707533
 20
880.142995
 30
0.0
 10
2542.186421
 20
877.510090
 30
0.0
  0
SPLINE
  5
33a
100
AcDbEntity
  8
Holes
 62
7
100
AcDbSpline
 70
8
 71
3
 72
8
 73
4
 74
0
 40
0
 40
0
 40
0
 40
0
 40
1
 40
1
 40
1
 40
1
 10
2542.186421
 20
877.510090
 30
0.0
 10
2540.665308
 20
874.877185
 30
0.0
 10
2540.665741
 20
871.632457
 30
0.0
 10
2542.187555
 20
868.999958
 30
0.0
  0
SPLINE
  5
33b
100
AcDbEntity
  8
Holes
 62
7
100
AcDbSpline
 70
8
 71
3
 72
8
 73
4
 74
0
 40
0
 40
0
 40
0
 40
0
 40
1
 40
1
 40
1
 40
1
 10
2542.187555
 20
868.999958
 30
0.0
 10
2543.709370
 20
866.367458
 30
0.0
 10
2546.520962
 20
864.747826
 30
0.0
 10
2549.561678
 20
864.752057
 30
0.0
  0
LWPOLYLINE
  5
33c
100
AcDbEntity
  8
Holes
 62
7
100
AcDbPolyline
 90
1
 70
1
 10
2549.556009
 20
912.799230
 30
0.0
  0
SPLINE
  5
33d
100
AcDbEntity
  8
Holes
 62
7
100
AcDbSpline
 70
8
 71
3
 72
8
 73
4
 74
0
 40
0
 40
0
 40
0
 40
0
 40
1
 40
1
 40
1
 40
1
 10
2068.976296
 20
1825.643405
 30
0.0
 10
2072.014465
 20
1825.643405
 30
0.0
 10
2074.821849
 20
1827.264249
 30
0.0
 10
2076.340934
 20
1829.895381
 30
0.0
  0
SPLINE
  5
33e
100
AcDbEntity
  8
Holes
 62
7
100
AcDbSpline
 70
8
 71
3
 72
8
 73
4
 74
0
 40
0
 40
0
 40
0
 40
0
 40
1
 40
1
 40
1
 40
1
 10
2076.340934
 20
1829.895381
 30
0.0
 10
2077.860018
 20
1832.526512
 30
0.0
 10
2077.860018
 20
1835.768200
 30
0.0
 10
2076.340934
 20
1838.399332
 30
0.0
  0
SPLINE
  5
33f
100
AcDbEntity
  8
Holes
 62
7
100
AcDbSpline
 70
8
 71
3
 72
8
 73
4
 74
0
 40
0
 40
0
 40
0
 40
0
 40
1
 40
1
 40
1
 40
1
 10
2076.340934
 20
1838.399332
 30
0.0
 10
2074.821849
 20
1841.030463
 30
0.0
 10
2072.014465
 20
1842.651307
 30
0.0
 10
2068.976296
 20
1842.651307
 30
0.0
  0
SPLINE
  5
340
100
AcDbEntity
  8
Holes
 62
7
100
AcDbSpline
 70
8
 71
3
 72
8
 73
4
 74
0
 40
0
 40
0
 40
0
 40
0
 40
1
 40
1
 40
1
 40
1
 10
2068.976296
 20
1842.651307
 30
0.0
 10
2065.938127
 20
1842.651307
 30
0.0
 10
2063.130743
 20
1841.030463
 30
0.0
 10
2061.611659
 20
1838.399332
 30
0.0
  0
SPLINE
  5
341
100
AcDbEntity
  8
Holes
 62
7
100
AcDbSpline
 70
8
 71
3
 72
8
 73
4
 74
0
 40
0
 40
0
 40
0
 40
0
 40
1
 40
1
 40
1
 40
1
 10
2061.611659
 20
1838.399332
 30
0.0
 10
2060.092574
 20
1835.768200
 30
0.0
 10
2060.092574
 20
1832.526512
 30
0.0
 10
2061.611659
 20
1829.895381
 30
0.0
  0
SPLINE
  5
342
100
AcDbEntity
  8
Holes
 62
7
100
AcDbSpline
 70
8
 71
3
 72
8
 73
4
 74
0
 40
0
 40
0
 40
0
 40
0
 40
1
 40
1
 40
1
 40
1
 10
2061.611659
 20
1829.895381
 30
0.0
 10
2063.130743
 20
1827.264249
 30
0.0
 10
2065.938127
 20
1825.643405
 30
0.0
 10
2068.976296
 20
1825.643405
 30
0.0
  0
LWPOLYLINE
  5
343
100
AcDbEntity
  8
Holes
 62
7
100
AcDbPolyline
 90
1
 70
1
 10
2549.561678
 20
864.752057
 30
0.0
  0
SPLINE
  5
344
100
AcDbEntity
  8
Holes
 62
7
100
AcDbSpline
 70
8
 71
3
 72
8
 73
4
 74
0
 40
0
 40
0
 40
0
 40
0
 40
1
 40
1
 40
1
 40
1
 10
2068.981966
 20
1777.596220
 30
0.0
 10
2072.023823
 20
1777.590666
 30
0.0
 10
2074.836994
 20
1779.210289
 30
0.0
 10
2076.359528
 20
1781.843693
 30
0.0
  0
SPLINE
  5
345
100
AcDbEntity
  8
Holes
 62
7
100
AcDbSpline
 70
8
 71
3
 72
8
 73
4
 74
0
 40
0
 40
0
 40
0
 40
0
 40
1
 40
1
 40
1
 40
1
 10
2076.359528
 20
1781.843693
 30
0.0
 10
2077.882062
 20
1784.477097
 30
0.0
 10
2077.882062
 20
1787.723188
 30
0.0
 10
2076.359528
 20
1790.356592
 30
0.0
  0
SPLINE
  5
346
100
AcDbEntity
  8
Holes
 62
7
100
AcDbSpline
 70
8
 71
3
 72
8
 73
4
 74
0
 40
0
 40
0
 40
0
 40
0
 40
1
 40
1
 40
1
 40
1
 10
2076.359528
 20
1790.356592
 30
0.0
 10
2074.836994
 20
1792.989996
 30
0.0
 10
2072.023823
 20
1794.609619
 30
0.0
 10
2068.981966
 20
1794.604065
 30
0.0
  0
SPLINE
  5
347
100
AcDbEntity
  8
Holes
 62
7
100
AcDbSpline
 70
8
 71
3
 72
8
 73
4
 74
0
 40
0
 40
0
 40
0
 40
0
 40
1
 40
1
 40
1
 40
1
 10
2068.981966
 20
1794.604065
 30
0.0
 10
2065.940108
 20
1794.609619
 30
0.0
 10
2063.126937
 20
1792.989996
 30
0.0
 10
2061.604403
 20
1790.356592
 30
0.0
  0
SPLINE
  5
348
100
AcDbEntity
  8
Holes
 62
7
100
AcDbSpline
 70
8
 71
3
 72
8
 73
4
 74
0
 40
0
 40
0
 40
0
 40
0
 40
1
 40
1
 40
1
 40
1
 10
2061.604403
 20
1790.356592
 30
0.0
 10
2060.081869
 20
1787.723188
 30
0.0
 10
2060.081869
 20
1784.477097
 30
0.0
 10
2061.604403
 20
1781.843693
 30
0.0
  0
SPLINE
  5
349
100
AcDbEntity
  8
Holes
 62
7
100
AcDbSpline
 70
8
 71
3
 72
8
 73
4
 74
0
 40
0
 40
0
 40
0
 40
0
 40
1
 40
1
 40
1
 40
1
 10
2061.604403
 20
1781.843693
 30
0.0
 10
2063.126937
 20
1779.210289
 30
0.0
 10
2065.940108
 20
1777.590666
 30
0.0
 10
2068.981966
 20
1777.596220
 30
0.0
  0
LWPOLYLINE
  5
34a
100
AcDbEntity
  8
Holes
 62
7
100
AcDbPolyline
 90
1
 70
1
 10
2068.976296
 20
1825.643405
 30
0.0
  0
SPLINE
  5
34b
100
AcDbEntity
  8
Holes
 62
7
100
AcDbSpline
 70
8
 71
3
 72
8
 73
4
 74
0
 40
0
 40
0
 40
0
 40
0
 40
1
 40
1
 40
1
 40
1
 10
2068.987635
 20
1729.548978
 30
0.0
 10
2072.031019
 20
1729.541120
 30
0.0
 10
2074.846590
 20
1731.160235
 30
0.0
 10
2076.370555
 20
1733.794581
 30
0.0
  0
SPLINE
  5
34c
100
AcDbEntity
  8
Holes
 62
7
100
AcDbSpline
 70
8
 71
3
 72
8
 73
4
 74
0
 40
0
 40
0
 40
0
 40
0
 40
1
 40
1
 40
1
 40
1
 10
2076.370555
 20
1733.794581
 30
0.0
 10
2077.894520
 20
1736.428927
 30
0.0
 10
2077.894520
 20
1739.676845
 30
0.0
 10
2076.370555
 20
1742.311191
 30
0.0
  0
SPLINE
  5
34d
100
AcDbEntity
  8
Holes
 62
7
100
AcDbSpline
 70
8
 71
3
 72
8
 73
4
 74
0
 40
0
 40
0
 40
0
 40
0
 40
1
 40
1
 40
1
 40
1
 10
2076.370555
 20
1742.311191
 30
0.0
 10
2074.846590
 20
1744.945537
 30
0.0
 10
2072.031019
 20
1746.564652
 30
0.0
 10
2068.987635
 20
1746.556794
 30
0.0
  0
SPLINE
  5
34e
100
AcDbEntity
  8
Holes
 62
7
100
AcDbSpline
 70
8
 71
3
 72
8
 73
4
 74
0
 40
0
 40
0
 40
0
 40
0
 40
1
 40
1
 40
1
 40
1
 10
2068.987635
 20
1746.556794
 30
0.0
 10
2065.944251
 20
1746.564652
 30
0.0
 10
2063.128680
 20
1744.945537
 30
0.0
 10
2061.604715
 20
1742.311191
 30
0.0
  0
SPLINE
  5
34f
100
AcDbEntity
  8
Holes
 62
7
100
AcDbSpline
 70
8
 71
3
 72
8
 73
4
 74
0
 40
0
 40
0
 40
0
 40
0
 40
1
 40
1
 40
1
 40
1
 10
2061.604715
 20
1742.311191
 30
0.0
 10
2060.080750
 20
1739.676845
 30
0.0
 10
2060.080750
 20
1736.428927
 30
0.0
 10
2061.604715
 20
1733.794581
 30
0.0
  0
SPLINE
  5
350
100
AcDbEntity
  8
Holes
 62
7
100
AcDbSpline
 70
8
 71
3
 72
8
 73
4
 74
0
 40
0
 40
0
 40
0
 40
0
 40
1
 40
1
 40
1
 40
1
 10
2061.604715
 20
1733.794581
 30
0.0
 10
2063.128680
 20
1731.160235
 30
0.0
 10
2065.944251
 20
1729.541120
 30
0.0
 10
2068.987635
 20
1729.548978
 30
0.0
  0
LWPOLYLINE
  5
351
100
AcDbEntity
  8
Holes
 62
7
100
AcDbPolyline
 90
1
 70
1
 10
2068.981966
 20
1777.596220
 30
0.0
  0
SPLINE
  5
352
100
AcDbEntity
  8
Holes
 62
7
100
AcDbSpline
 70
8
 71
3
 72
8
 73
4
 74
0
 40
0
 40
0
 40
0
 40
0
 40
1
 40
1
 40
1
 40
1
 10
2068.993304
 20
1681.501736
 30
0.0
 10
2072.035161
 20
1681.496182
 30
0.0
 10
2074.848332
 20
1683.115805
 30
0.0
 10
2076.370866
 20
1685.749209
 30
0.0
  0
SPLINE
  5
353
100
AcDbEntity
  8
Holes
 62
7
100
AcDbSpline
 70
8
 71
3
 72
8
 73
4
 74
0
 40
0
 40
0
 40
0
 40
0
 40
1
 40
1
 40
1
 40
1
 10
2076.370866
 20
1685.749209
 30
0.0
 10
2077.893400
 20
1688.382612
 30
0.0
 10
2077.893400
 20
1691.628704
 30
0.0
 10
2076.370866
 20
1694.262108
 30
0.0
  0
SPLINE
  5
354
100
AcDbEntity
  8
Holes
 62
7
100
AcDbSpline
 70
8
 71
3
 72
8
 73
4
 74
0
 40
0
 40
0
 40
0
 40
0
 40
1
 40
1
 40
1
 40
1
 10
2076.370866
 20
1694.262108
 30
0.0
 10
2074.848332
 20
1696.895511
 30
0.0
 10
2072.035161
 20
1698.515134
 30
0.0
 10
2068.993304
 20
1698.509581
 30
0.0
  0
SPLINE
  5
355
100
AcDbEntity
  8
Holes
 62
7
100
AcDbSpline
 70
8
 71
3
 72
8
 73
4
 74
0
 40
0
 40
0
 40
0
 40
0
 40
1
 40
1
 40
1
 40
1
 10
2068.993304
 20
1698.509581
 30
0.0
 10
2065.951447
 20
1698.515134
 30
0.0
 10
2063.138276
 20
1696.895511
 30
0.0
 10
2061.615742
 20
1694.262108
 30
0.0
  0
SPLINE
  5
356
100
AcDbEntity
  8
Holes
 62
7
100
AcDbSpline
 70
8
 71
3
 72
8
 73
4
 74
0
 40
0
 40
0
 40
0
 40
0
 40
1
 40
1
 40
1
 40
1
 10
2061.615742
 20
1694.262108
 30
0.0
 10
2060.093208
 20
1691.628704
 30
0.0
 10
2060.093208
 20
1688.382612
 30
0.0
 10
2061.615742
 20
1685.749209
 30
0.0
  0
SPLINE
  5
357
100
AcDbEntity
  8
Holes
 62
7
100
AcDbSpline
 70
8
 71
3
 72
8
 73
4
 74
0
 40
0
 40
0
 40
0
 40
0
 40
1
 40
1
 40
1
 40
1
 10
2061.615742
 20
1685.749209
 30
0.0
 10
2063.138276
 20
1683.115805
 30
0.0
 10
2065.951447
 20
1681.496182
 30
0.0
 10
2068.993304
 20
1681.501736
 30
0.0
  0
LWPOLYLINE
  5
358
100
AcDbEntity
  8
Holes
 62
7
100
AcDbPolyline
 90
1
 70
1
 10
2068.987635
 20
1729.548978
 30
0.0
  0
SPLINE
  5
359
100
AcDbEntity
  8
Holes
 62
7
100
AcDbSpline
 70
8
 71
3
 72
8
 73
4
 74
0
 40
0
 40
0
 40
0
 40
0
 40
1
 40
1
 40
1
 40
1
 10
2068.998973
 20
1633.454494
 30
0.0
 10
2072.042357
 20
1633.446636
 30
0.0
 10
2074.857928
 20
1635.065751
 30
0.0
 10
2076.381893
 20
1637.700097
 30
0.0
  0
SPLINE
  5
35a
100
AcDbEntity
  8
Holes
 62
7
100
AcDbSpline
 70
8
 71
3
 72
8
 73
4
 74
0
 40
0
 40
0
 40
0
 40
0
 40
1
 40
1
 40
1
 40
1
 10
2076.381893
 20
1637.700097
 30
0.0
 10
2077.905858
 20
1640.334443
 30
0.0
 10
2077.905858
 20
1643.582361
 30
0.0
 10
2076.381893
 20
1646.216707
 30
0.0
  0
SPLINE
  5
35b
100
AcDbEntity
  8
Holes
 62
7
100
AcDbSpline
 70
8
 71
3
 72
8
 73
4
 74
0
 40
0
 40
0
 40
0
 40
0
 40
1
 40
1
 40
1
 40
1
 10
2076.381893
 20
1646.216707
 30
0.0
 10
2074.857928
 20
1648.851053
 30
0.0
 10
2072.042357
 20
1650.470168
 30
0.0
 10
2068.998973
 20
1650.462310
 30
0.0
  0
SPLINE
  5
35c
100
AcDbEntity
  8
Holes
 62
7
100
AcDbSpline
 70
8
 71
3
 72
8
 73
4
 74
0
 40
0
 40
0
 40
0
 40
0
 40
1
 40
1
 40
1
 40
1
 10
2068.998973
 20
1650.462310
 30
0.0
 10
2065.955589
 20
1650.470168
 30
0.0
 10
2063.140018
 20
1648.851053
 30
0.0
 10
2061.616053
 20
1646.216707
 30
0.0
  0
SPLINE
  5
35d
100
AcDbEntity
  8
Holes
 62
7
100
AcDbSpline
 70
8
 71
3
 72
8
 73
4
 74
0
 40
0
 40
0
 40
0
 40
0
 40
1
 40
1
 40
1
 40
1
 10
2061.616053
 20
1646.216707
 30
0.0
 10
2060.092088
 20
1643.582361
 30
0.0
 10
2060.092088
 20
1640.334443
 30
0.0
 10
2061.616053
 20
1637.700097
 30
0.0
  0
SPLINE
  5
35e
100
AcDbEntity
  8
Holes
 62
7
100
AcDbSpline
 70
8
 71
3
 72
8
 73
4
 74
0
 40
0
 40
0
 40
0
 40
0
 40
1
 40
1
 40
1
 40
1
 10
2061.616053
 20
1637.700097
 30
0.0
 10
2063.140018
 20
1635.065751
 30
0.0
 10
2065.955589
 20
1633.446636
 30
0.0
 10
2068.998973
 20
1633.454494
 30
0.0
  0
LWPOLYLINE
  5
35f
100
AcDbEntity
  8
Holes
 62
7
100
AcDbPolyline
 90
1
 70
1
 10
2068.993304
 20
1681.501736
 30
0.0
  0
SPLINE
  5
360
100
AcDbEntity
  8
Holes
 62
7
100
AcDbSpline
 70
8
 71
3
 72
8
 73
4
 74
0
 40
0
 40
0
 40
0
 40
0
 40
1
 40
1
 40
1
 40
1
 10
2069.004643
 20
1585.407251
 30
0.0
 10
2072.042812
 20
1585.407251
 30
0.0
 10
2074.850196
 20
1587.028095
 30
0.0
 10
2076.369280
 20
1589.659227
 30
0.0
  0
SPLINE
  5
361
100
AcDbEntity
  8
Holes
 62
7
100
AcDbSpline
 70
8
 71
3
 72
8
 73
4
 74
0
 40
0
 40
0
 40
0
 40
0
 40
1
 40
1
 40
1
 40
1
 10
2076.369280
 20
1589.659227
 30
0.0
 10
2077.888365
 20
1592.290358
 30
0.0
 10
2077.888365
 20
1595.532046
 30
0.0
 10
2076.369280
 20
1598.163178
 30
0.0
  0
SPLINE
  5
362
100
AcDbEntity
  8
Holes
 62
7
100
AcDbSpline
 70
8
 71
3
 72
8
 73
4
 74
0
 40
0
 40
0
 40
0
 40
0
 40
1
 40
1
 40
1
 40
1
 10
2076.369280
 20
1598.163178
 30
0.0
 10
2074.850196
 20
1600.794309
 30
0.0
 10
2072.042812
 20
1602.415153
 30
0.0
 10
2069.004643
 20
1602.415153
 30
0.0
  0
SPLINE
  5
363
100
AcDbEntity
  8
Holes
 62
7
100
AcDbSpline
 70
8
 71
3
 72
8
 73
4
 74
0
 40
0
 40
0
 40
0
 40
0
 40
1
 40
1
 40
1
 40
1
 10
2069.004643
 20
1602.415153
 30
0.0
 10
2065.966474
 20
1602.415153
 30
0.0
 10
2063.159090
 20
1600.794309
 30
0.0
 10
2061.640005
 20
1598.163178
 30
0.0
  0
SPLINE
  5
364
100
AcDbEntity
  8
Holes
 62
7
100
AcDbSpline
 70
8
 71
3
 72
8
 73
4
 74
0
 40
0
 40
0
 40
0
 40
0
 40
1
 40
1
 40
1
 40
1
 10
2061.640005
 20
1598.163178
 30
0.0
 10
2060.120921
 20
1595.532046
 30
0.0
 10
2060.120921
 20
1592.290358
 30
0.0
 10
2061.640005
 20
1589.659227
 30
0.0
  0
SPLINE
  5
365
100
AcDbEntity
  8
Holes
 62
7
100
AcDbSpline
 70
8
 71
3
 72
8
 73
4
 74
0
 40
0
 40
0
 40
0
 40
0
 40
1
 40
1
 40
1
 40
1
 10
2061.640005
 20
1589.659227
 30
0.0
 10
2063.159090
 20
1587.028095
 30
0.0
 10
2065.966474
 20
1585.407251
 30
0.0
 10
2069.004643
 20
1585.407251
 30
0.0
  0
LWPOLYLINE
  5
366
100
AcDbEntity
  8
Holes
 62
7
100
AcDbPolyline
 90
1
 70
1
 10
2068.998973
 20
1633.454494
 30
0.0
  0
SPLINE
  5
367
100
AcDbEntity
  8
Holes
 62
7
100
AcDbSpline
 70
8
 71
3
 72
8
 73
4
 74
0
 40
0
 40
0
 40
0
 40
0
 40
1
 40
1
 40
1
 40
1
 10
2069.010312
 20
1537.359981
 30
0.0
 10
2072.048481
 20
1537.359981
 30
0.0
 10
2074.855865
 20
1538.980825
 30
0.0
 10
2076.374949
 20
1541.611956
 30
0.0
  0
SPLINE
  5
368
100
AcDbEntity
  8
Holes
 62
7
100
AcDbSpline
 70
8
 71
3
 72
8
 73
4
 74
0
 40
0
 40
0
 40
0
 40
0
 40
1
 40
1
 40
1
 40
1
 10
2076.374949
 20
1541.611956
 30
0.0
 10
2077.894034
 20
1544.243088
 30
0.0
 10
2077.894034
 20
1547.484776
 30
0.0
 10
2076.374949
 20
1550.115907
 30
0.0
  0
SPLINE
  5
369
100
AcDbEntity
  8
Holes
 62
7
100
AcDbSpline
 70
8
 71
3
 72
8
 73
4
 74
0
 40
0
 40
0
 40
0
 40
0
 40
1
 40
1
 40
1
 40
1
 10
2076.374949
 20
1550.115907
 30
0.0
 10
2074.855865
 20
1552.747039
 30
0.0
 10
2072.048481
 20
1554.367883
 30
0.0
 10
2069.010312
 20
1554.367883
 30
0.0
  0
SPLINE
  5
36a
100
AcDbEntity
  8
Holes
 62
7
100
AcDbSpline
 70
8
 71
3
 72
8
 73
4
 74
0
 40
0
 40
0
 40
0
 40
0
 40
1
 40
1
 40
1
 40
1
 10
2069.010312
 20
1554.367883
 30
0.0
 10
2065.972143
 20
1554.367883
 30
0.0
 10
2063.164759
 20
1552.747039
 30
0.0
 10
2061.645675
 20
1550.115907
 30
0.0
  0
SPLINE
  5
36b
100
AcDbEntity
  8
Holes
 62
7
100
AcDbSpline
 70
8
 71
3
 72
8
 73
4
 74
0
 40
0
 40
0
 40
0
 40
0
 40
1
 40
1
 40
1
 40
1
 10
2061.645675
 20
1550.115907
 30
0.0
 10
2060.126590
 20
1547.484776
 30
0.0
 10
2060.126590
 20
1544.243088
 30
0.0
 10
2061.645675
 20
1541.611956
 30
0.0
  0
SPLINE
  5
36c
100
AcDbEntity
  8
Holes
 62
7
100
AcDbSpline
 70
8
 71
3
 72
8
 73
4
 74
0
 40
0
 40
0
 40
0
 40
0
 40
1
 40
1
 40
1
 40
1
 10
2061.645675
 20
1541.611956
 30
0.0
 10
2063.164759
 20
1538.980825
 30
0.0
 10
2065.972143
 20
1537.359981
 30
0.0
 10
2069.010312
 20
1537.359981
 30
0.0
  0
LWPOLYLINE
  5
36d
100
AcDbEntity
  8
Holes
 62
7
100
AcDbPolyline
 90
1
 70
1
 10
2069.004643
 20
1585.407251
 30
0.0
  0
SPLINE
  5
36e
100
AcDbEntity
  8
Holes
 62
7
100
AcDbSpline
 70
8
 71
3
 72
8
 73
4
 74
0
 40
0
 40
0
 40
0
 40
0
 40
1
 40
1
 40
1
 40
1
 10
2069.015981
 20
1489.312767
 30
0.0
 10
2072.057769
 20
1489.307326
 30
0.0
 10
2074.870827
 20
1490.926976
 30
0.0
 10
2076.393294
 20
1493.560338
 30
0.0
  0
SPLINE
  5
36f
100
AcDbEntity
  8
Holes
 62
7
100
AcDbSpline
 70
8
 71
3
 72
8
 73
4
 74
0
 40
0
 40
0
 40
0
 40
0
 40
1
 40
1
 40
1
 40
1
 10
2076.393294
 20
1493.560338
 30
0.0
 10
2077.915761
 20
1496.193700
 30
0.0
 10
2077.915761
 20
1499.439708
 30
0.0
 10
2076.393294
 20
1502.073070
 30
0.0
  0
SPLINE
  5
370
100
AcDbEntity
  8
Holes
 62
7
100
AcDbSpline
 70
8
 71
3
 72
8
 73
4
 74
0
 40
0
 40
0
 40
0
 40
0
 40
1
 40
1
 40
1
 40
1
 10
2076.393294
 20
1502.073070
 30
0.0
 10
2074.870827
 20
1504.706432
 30
0.0
 10
2072.057769
 20
1506.326082
 30
0.0
 10
2069.015981
 20
1506.320640
 30
0.0
  0
SPLINE
  5
371
100
AcDbEntity
  8
Holes
 62
7
100
AcDbSpline
 70
8
 71
3
 72
8
 73
4
 74
0
 40
0
 40
0
 40
0
 40
0
 40
1
 40
1
 40
1
 40
1
 10
2069.015981
 20
1506.320640
 30
0.0
 10
2065.974194
 20
1506.326082
 30
0.0
 10
2063.161135
 20
1504.706432
 30
0.0
 10
2061.638669
 20
1502.073070
 30
0.0
  0
SPLINE
  5
372
100
AcDbEntity
  8
Holes
 62
7
100
AcDbSpline
 70
8
 71
3
 72
8
 73
4
 74
0
 40
0
 40
0
 40
0
 40
0
 40
1
 40
1
 40
1
 40
1
 10
2061.638669
 20
1502.073070
 30
0.0
 10
2060.116202
 20
1499.439708
 30
0.0
 10
2060.116202
 20
1496.193700
 30
0.0
 10
2061.638669
 20
1493.560338
 30
0.0
  0
SPLINE
  5
373
100
AcDbEntity
  8
Holes
 62
7
100
AcDbSpline
 70
8
 71
3
 72
8
 73
4
 74
0
 40
0
 40
0
 40
0
 40
0
 40
1
 40
1
 40
1
 40
1
 10
2061.638669
 20
1493.560338
 30
0.0
 10
2063.161135
 20
1490.926976
 30
0.0
 10
2065.974194
 20
1489.307326
 30
0.0
 10
2069.015981
 20
1489.312767
 30
0.0
  0
LWPOLYLINE
  5
374
100
AcDbEntity
  8
Holes
 62
7
100
AcDbPolyline
 90
1
 70
1
 10
2069.010312
 20
1537.359981
 30
0.0
  0
SPLINE
  5
375
100
AcDbEntity
  8
Holes
 62
7
100
AcDbSpline
 70
8
 71
3
 72
8
 73
4
 74
0
 40
0
 40
0
 40
0
 40
0
 40
1
 40
1
 40
1
 40
1
 10
2069.021651
 20
1441.265497
 30
0.0
 10
2072.059820
 20
1441.265497
 30
0.0
 10
2074.867204
 20
1442.886341
 30
0.0
 10
2076.386288
 20
1445.517472
 30
0.0
  0
SPLINE
  5
376
100
AcDbEntity
  8
Holes
 62
7
100
AcDbSpline
 70
8
 71
3
 72
8
 73
4
 74
0
 40
0
 40
0
 40
0
 40
0
 40
1
 40
1
 40
1
 40
1
 10
2076.386288
 20
1445.517472
 30
0.0
 10
2077.905373
 20
1448.148604
 30
0.0
 10
2077.905373
 20
1451.390291
 30
0.0
 10
2076.386288
 20
1454.021423
 30
0.0
  0
SPLINE
  5
377
100
AcDbEntity
  8
Holes
 62
7
100
AcDbSpline
 70
8
 71
3
 72
8
 73
4
 74
0
 40
0
 40
0
 40
0
 40
0
 40
1
 40
1
 40
1
 40
1
 10
2076.386288
 20
1454.021423
 30
0.0
 10
2074.867204
 20
1456.652554
 30
0.0
 10
2072.059820
 20
1458.273398
 30
0.0
 10
2069.021651
 20
1458.273398
 30
0.0
  0
SPLINE
  5
378
100
AcDbEntity
  8
Holes
 62
7
100
AcDbSpline
 70
8
 71
3
 72
8
 73
4
 74
0
 40
0
 40
0
 40
0
 40
0
 40
1
 40
1
 40
1
 40
1
 10
2069.021651
 20
1458.273398
 30
0.0
 10
2065.983482
 20
1458.273398
 30
0.0
 10
2063.176098
 20
1456.652554
 30
0.0
 10
2061.657013
 20
1454.021423
 30
0.0
  0
SPLINE
  5
379
100
AcDbEntity
  8
Holes
 62
7
100
AcDbSpline
 70
8
 71
3
 72
8
 73
4
 74
0
 40
0
 40
0
 40
0
 40
0
 40
1
 40
1
 40
1
 40
1
 10
2061.657013
 20
1454.021423
 30
0.0
 10
2060.137929
 20
1451.390291
 30
0.0
 10
2060.137929
 20
1448.148604
 30
0.0
 10
2061.657013
 20
1445.517472
 30
0.0
  0
SPLINE
  5
37a
100
AcDbEntity
  8
Holes
 62
7
100
AcDbSpline
 70
8
 71
3
 72
8
 73
4
 74
0
 40
0
 40
0
 40
0
 40
0
 40
1
 40
1
 40
1
 40
1
 10
2061.657013
 20
1445.517472
 30
0.0
 10
2063.176098
 20
1442.886341
 30
0.0
 10
2065.983482
 20
1441.265497
 30
0.0
 10
2069.021651
 20
1441.265497
 30
0.0
  0
LWPOLYLINE
  5
37b
100
AcDbEntity
  8
Holes
 62
7
100
AcDbPolyline
 90
1
 70
1
 10
2069.015981
 20
1489.312767
 30
0.0
  0
SPLINE
  5
37c
100
AcDbEntity
  8
Holes
 62
7
100
AcDbSpline
 70
8
 71
3
 72
8
 73
4
 74
0
 40
0
 40
0
 40
0
 40
0
 40
1
 40
1
 40
1
 40
1
 10
2069.027320
 20
1393.218255
 30
0.0
 10
2072.065489
 20
1393.218255
 30
0.0
 10
2074.872873
 20
1394.839098
 30
0.0
 10
2076.391957
 20
1397.470230
 30
0.0
  0
SPLINE
  5
37d
100
AcDbEntity
  8
Holes
 62
7
100
AcDbSpline
 70
8
 71
3
 72
8
 73
4
 74
0
 40
0
 40
0
 40
0
 40
0
 40
1
 40
1
 40
1
 40
1
 10
2076.391957
 20
1397.470230
 30
0.0
 10
2077.911042
 20
1400.101361
 30
0.0
 10
2077.911042
 20
1403.343049
 30
0.0
 10
2076.391957
 20
1405.974181
 30
0.0
  0
SPLINE
  5
37e
100
AcDbEntity
  8
Holes
 62
7
100
AcDbSpline
 70
8
 71
3
 72
8
 73
4
 74
0
 40
0
 40
0
 40
0
 40
0
 40
1
 40
1
 40
1
 40
1
 10
2076.391957
 20
1405.974181
 30
0.0
 10
2074.872873
 20
1408.605312
 30
0.0
 10
2072.065489
 20
1410.226156
 30
0.0
 10
2069.027320
 20
1410.226156
 30
0.0
  0
SPLINE
  5
37f
100
AcDbEntity
  8
Holes
 62
7
100
AcDbSpline
 70
8
 71
3
 72
8
 73
4
 74
0
 40
0
 40
0
 40
0
 40
0
 40
1
 40
1
 40
1
 40
1
 10
2069.027320
 20
1410.226156
 30
0.0
 10
2065.989151
 20
1410.226156
 30
0.0
 10
2063.181767
 20
1408.605312
 30
0.0
 10
2061.662682
 20
1405.974181
 30
0.0
  0
SPLINE
  5
380
100
AcDbEntity
  8
Holes
 62
7
100
AcDbSpline
 70
8
 71
3
 72
8
 73
4
 74
0
 40
0
 40
0
 40
0
 40
0
 40
1
 40
1
 40
1
 40
1
 10
2061.662682
 20
1405.974181
 30
0.0
 10
2060.143598
 20
1403.343049
 30
0.0
 10
2060.143598
 20
1400.101361
 30
0.0
 10
2061.662682
 20
1397.470230
 30
0.0
  0
SPLINE
  5
381
100
AcDbEntity
  8
Holes
 62
7
100
AcDbSpline
 70
8
 71
3
 72
8
 73
4
 74
0
 40
0
 40
0
 40
0
 40
0
 40
1
 40
1
 40
1
 40
1
 10
2061.662682
 20
1397.470230
 30
0.0
 10
2063.181767
 20
1394.839098
 30
0.0
 10
2065.989151
 20
1393.218255
 30
0.0
 10
2069.027320
 20
1393.218255
 30
0.0
  0
LWPOLYLINE
  5
382
100
AcDbEntity
  8
Holes
 62
7
100
AcDbPolyline
 90
1
 70
1
 10
2069.021651
 20
1441.265497
 30
0.0
  0
SPLINE
  5
383
100
AcDbEntity
  8
Holes
 62
7
100
AcDbSpline
 70
8
 71
3
 72
8
 73
4
 74
0
 40
0
 40
0
 40
0
 40
0
 40
1
 40
1
 40
1
 40
1
 10
2069.032989
 20
1345.171069
 30
0.0
 10
2072.075683
 20
1345.164265
 30
0.0
 10
2074.890163
 20
1346.783617
 30
0.0
 10
2076.413477
 20
1349.417539
 30
0.0
  0
SPLINE
  5
384
100
AcDbEntity
  8
Holes
 62
7
100
AcDbSpline
 70
8
 71
3
 72
8
 73
4
 74
0
 40
0
 40
0
 40
0
 40
0
 40
1
 40
1
 40
1
 40
1
 10
2076.413477
 20
1349.417539
 30
0.0
 10
2077.936791
 20
1352.051460
 30
0.0
 10
2077.936791
 20
1355.298551
 30
0.0
 10
2076.413477
 20
1357.932473
 30
0.0
  0
SPLINE
  5
385
100
AcDbEntity
  8
Holes
 62
7
100
AcDbSpline
 70
8
 71
3
 72
8
 73
4
 74
0
 40
0
 40
0
 40
0
 40
0
 40
1
 40
1
 40
1
 40
1
 10
2076.413477
 20
1357.932473
 30
0.0
 10
2074.890163
 20
1360.566395
 30
0.0
 10
2072.075683
 20
1362.185746
 30
0.0
 10
2069.032989
 20
1362.178942
 30
0.0
  0
SPLINE
  5
386
100
AcDbEntity
  8
Holes
 62
7
100
AcDbSpline
 70
8
 71
3
 72
8
 73
4
 74
0
 40
0
 40
0
 40
0
 40
0
 40
1
 40
1
 40
1
 40
1
 10
2069.032989
 20
1362.178942
 30
0.0
 10
2065.990296
 20
1362.185746
 30
0.0
 10
2063.175816
 20
1360.566395
 30
0.0
 10
2061.652501
 20
1357.932473
 30
0.0
  0
SPLINE
  5
387
100
AcDbEntity
  8
Holes
 62
7
100
AcDbSpline
 70
8
 71
3
 72
8
 73
4
 74
0
 40
0
 40
0
 40
0
 40
0
 40
1
 40
1
 40
1
 40
1
 10
2061.652501
 20
1357.932473
 30
0.0
 10
2060.129187
 20
1355.298551
 30
0.0
 10
2060.129187
 20
1352.051460
 30
0.0
 10
2061.652501
 20
1349.417539
 30
0.0
  0
SPLINE
  5
388
100
AcDbEntity
  8
Holes
 62
7
100
AcDbSpline
 70
8
 71
3
 72
8
 73
4
 74
0
 40
0
 40
0
 40
0
 40
0
 40
1
 40
1
 40
1
 40
1
 10
2061.652501
 20
1349.417539
 30
0.0
 10
2063.175816
 20
1346.783617
 30
0.0
 10
2065.990296
 20
1345.164265
 30
0.0
 10
2069.032989
 20
1345.171069
 30
0.0
  0
LWPOLYLINE
  5
389
100
AcDbEntity
  8
Holes
 62
7
100
AcDbPolyline
 90
1
 70
1
 10
2069.027320
 20
1393.218255
 30
0.0
  0
SPLINE
  5
38a
100
AcDbEntity
  8
Holes
 62
7
100
AcDbSpline
 70
8
 71
3
 72
8
 73
4
 74
0
 40
0
 40
0
 40
0
 40
0
 40
1
 40
1
 40
1
 40
1
 10
2069.038658
 20
1297.123742
 30
0.0
 10
2072.079442
 20
1297.119816
 30
0.0
 10
2074.890924
 20
1298.739801
 30
0.0
 10
2076.412450
 20
1301.372545
 30
0.0
  0
SPLINE
  5
38b
100
AcDbEntity
  8
Holes
 62
7
100
AcDbSpline
 70
8
 71
3
 72
8
 73
4
 74
0
 40
0
 40
0
 40
0
 40
0
 40
1
 40
1
 40
1
 40
1
 10
2076.412450
 20
1301.372545
 30
0.0
 10
2077.933977
 20
1304.005289
 30
0.0
 10
2077.933977
 20
1307.250097
 30
0.0
 10
2076.412450
 20
1309.882841
 30
0.0
  0
SPLINE
  5
38c
100
AcDbEntity
  8
Holes
 62
7
100
AcDbSpline
 70
8
 71
3
 72
8
 73
4
 74
0
 40
0
 40
0
 40
0
 40
0
 40
1
 40
1
 40
1
 40
1
 10
2076.412450
 20
1309.882841
 30
0.0
 10
2074.890924
 20
1312.515584
 30
0.0
 10
2072.079442
 20
1314.135569
 30
0.0
 10
2069.038658
 20
1314.131644
 30
0.0
  0
SPLINE
  5
38d
100
AcDbEntity
  8
Holes
 62
7
100
AcDbSpline
 70
8
 71
3
 72
8
 73
4
 74
0
 40
0
 40
0
 40
0
 40
0
 40
1
 40
1
 40
1
 40
1
 10
2069.038658
 20
1314.131644
 30
0.0
 10
2065.997874
 20
1314.135569
 30
0.0
 10
2063.186393
 20
1312.515584
 30
0.0
 10
2061.664867
 20
1309.882841
 30
0.0
  0
SPLINE
  5
38e
100
AcDbEntity
  8
Holes
 62
7
100
AcDbSpline
 70
8
 71
3
 72
8
 73
4
 74
0
 40
0
 40
0
 40
0
 40
0
 40
1
 40
1
 40
1
 40
1
 10
2061.664867
 20
1309.882841
 30
0.0
 10
2060.143340
 20
1307.250097
 30
0.0
 10
2060.143340
 20
1304.005289
 30
0.0
 10
2061.664867
 20
1301.372545
 30
0.0
  0
SPLINE
  5
38f
100
AcDbEntity
  8
Holes
 62
7
100
AcDbSpline
 70
8
 71
3
 72
8
 73
4
 74
0
 40
0
 40
0
 40
0
 40
0
 40
1
 40
1
 40
1
 40
1
 10
2061.664867
 20
1301.372545
 30
0.0
 10
2063.186393
 20
1298.739801
 30
0.0
 10
2065.997874
 20
1297.119816
 30
0.0
 10
2069.038658
 20
1297.123742
 30
0.0
  0
LWPOLYLINE
  5
390
100
AcDbEntity
  8
Holes
 62
7
100
AcDbPolyline
 90
1
 70
1
 10
2069.032989
 20
1345.171069
 30
0.0
  0
SPLINE
  5
391
100
AcDbEntity
  8
Holes
 62
7
100
AcDbSpline
 70
8
 71
3
 72
8
 73
4
 74
0
 40
0
 40
0
 40
0
 40
0
 40
1
 40
1
 40
1
 40
1
 10
2069.044328
 20
1249.076500
 30
0.0
 10
2072.085274
 20
1249.072345
 30
0.0
 10
2074.897004
 20
1250.692285
 30
0.0
 10
2076.418678
 20
1253.325132
 30
0.0
  0
SPLINE
  5
392
100
AcDbEntity
  8
Holes
 62
7
100
AcDbSpline
 70
8
 71
3
 72
8
 73
4
 74
0
 40
0
 40
0
 40
0
 40
0
 40
1
 40
1
 40
1
 40
1
 10
2076.418678
 20
1253.325132
 30
0.0
 10
2077.940352
 20
1255.957979
 30
0.0
 10
2077.940352
 20
1259.202979
 30
0.0
 10
2076.418678
 20
1261.835826
 30
0.0
  0
SPLINE
  5
393
100
AcDbEntity
  8
Holes
 62
7
100
AcDbSpline
 70
8
 71
3
 72
8
 73
4
 74
0
 40
0
 40
0
 40
0
 40
0
 40
1
 40
1
 40
1
 40
1
 10
2076.418678
 20
1261.835826
 30
0.0
 10
2074.897004
 20
1264.468673
 30
0.0
 10
2072.085274
 20
1266.088613
 30
0.0
 10
2069.044328
 20
1266.084458
 30
0.0
  0
SPLINE
  5
394
100
AcDbEntity
  8
Holes
 62
7
100
AcDbSpline
 70
8
 71
3
 72
8
 73
4
 74
0
 40
0
 40
0
 40
0
 40
0
 40
1
 40
1
 40
1
 40
1
 10
2069.044328
 20
1266.084458
 30
0.0
 10
2066.003381
 20
1266.088613
 30
0.0
 10
2063.191651
 20
1264.468673
 30
0.0
 10
2061.669977
 20
1261.835826
 30
0.0
  0
SPLINE
  5
395
100
AcDbEntity
  8
Holes
 62
7
100
AcDbSpline
 70
8
 71
3
 72
8
 73
4
 74
0
 40
0
 40
0
 40
0
 40
0
 40
1
 40
1
 40
1
 40
1
 10
2061.669977
 20
1261.835826
 30
0.0
 10
2060.148304
 20
1259.202979
 30
0.0
 10
2060.148304
 20
1255.957979
 30
0.0
 10
2061.669977
 20
1253.325132
 30
0.0
  0
SPLINE
  5
396
100
AcDbEntity
  8
Holes
 62
7
100
AcDbSpline
 70
8
 71
3
 72
8
 73
4
 74
0
 40
0
 40
0
 40
0
 40
0
 40
1
 40
1
 40
1
 40
1
 10
2061.669977
 20
1253.325132
 30
0.0
 10
2063.191651
 20
1250.692285
 30
0.0
 10
2066.003381
 20
1249.072345
 30
0.0
 10
2069.044328
 20
1249.076500
 30
0.0
  0
LWPOLYLINE
  5
397
100
AcDbEntity
  8
Holes
 62
7
100
AcDbPolyline
 90
1
 70
1
 10
2069.038658
 20
1297.123742
 30
0.0
  0
SPLINE
  5
398
100
AcDbEntity
  8
Holes
 62
7
100
AcDbSpline
 70
8
 71
3
 72
8
 73
4
 74
0
 40
0
 40
0
 40
0
 40
0
 40
1
 40
1
 40
1
 40
1
 10
2069.049997
 20
1201.029314
 30
0.0
 10
2072.090619
 20
1201.025632
 30
0.0
 10
2074.901847
 20
1202.645670
 30
0.0
 10
2076.423222
 20
1205.278314
 30
0.0
  0
SPLINE
  5
399
100
AcDbEntity
  8
Holes
 62
7
100
AcDbSpline
 70
8
 71
3
 72
8
 73
4
 74
0
 40
0
 40
0
 40
0
 40
0
 40
1
 40
1
 40
1
 40
1
 10
2076.423222
 20
1205.278314
 30
0.0
 10
2077.944597
 20
1207.910958
 30
0.0
 10
2077.944597
 20
1211.155572
 30
0.0
 10
2076.423222
 20
1213.788216
 30
0.0
  0
SPLINE
  5
39a
100
AcDbEntity
  8
Holes
 62
7
100
AcDbSpline
 70
8
 71
3
 72
8
 73
4
 74
0
 40
0
 40
0
 40
0
 40
0
 40
1
 40
1
 40
1
 40
1
 10
2076.423222
 20
1213.788216
 30
0.0
 10
2074.901847
 20
1216.420860
 30
0.0
 10
2072.090619
 20
1218.040898
 30
0.0
 10
2069.049997
 20
1218.037216
 30
0.0
  0
SPLINE
  5
39b
100
AcDbEntity
  8
Holes
 62
7
100
AcDbSpline
 70
8
 71
3
 72
8
 73
4
 74
0
 40
0
 40
0
 40
0
 40
0
 40
1
 40
1
 40
1
 40
1
 10
2069.049997
 20
1218.037216
 30
0.0
 10
2066.009375
 20
1218.040898
 30
0.0
 10
2063.198147
 20
1216.420860
 30
0.0
 10
2061.676772
 20
1213.788216
 30
0.0
  0
SPLINE
  5
39c
100
AcDbEntity
  8
Holes
 62
7
100
AcDbSpline
 70
8
 71
3
 72
8
 73
4
 74
0
 40
0
 40
0
 40
0
 40
0
 40
1
 40
1
 40
1
 40
1
 10
2061.676772
 20
1213.788216
 30
0.0
 10
2060.155397
 20
1211.155572
 30
0.0
 10
2060.155397
 20
1207.910958
 30
0.0
 10
2061.676772
 20
1205.278314
 30
0.0
  0
SPLINE
  5
39d
100
AcDbEntity
  8
Holes
 62
7
100
AcDbSpline
 70
8
 71
3
 72
8
 73
4
 74
0
 40
0
 40
0
 40
0
 40
0
 40
1
 40
1
 40
1
 40
1
 10
2061.676772
 20
1205.278314
 30
0.0
 10
2063.198147
 20
1202.645670
 30
0.0
 10
2066.009375
 20
1201.025632
 30
0.0
 10
2069.049997
 20
1201.029314
 30
0.0
  0
LWPOLYLINE
  5
39e
100
AcDbEntity
  8
Holes
 62
7
100
AcDbPolyline
 90
1
 70
1
 10
2069.044328
 20
1249.076500
 30
0.0
  0
SPLINE
  5
39f
100
AcDbEntity
  8
Holes
 62
7
100
AcDbSpline
 70
8
 71
3
 72
8
 73
4
 74
0
 40
0
 40
0
 40
0
 40
0
 40
1
 40
1
 40
1
 40
1
 10
2069.055666
 20
1152.982072
 30
0.0
 10
2072.099050
 20
1152.974214
 30
0.0
 10
2074.914621
 20
1154.593329
 30
0.0
 10
2076.438586
 20
1157.227675
 30
0.0
  0
SPLINE
  5
3a0
100
AcDbEntity
  8
Holes
 62
7
100
AcDbSpline
 70
8
 71
3
 72
8
 73
4
 74
0
 40
0
 40
0
 40
0
 40
0
 40
1
 40
1
 40
1
 40
1
 10
2076.438586
 20
1157.227675
 30
0.0
 10
2077.962551
 20
1159.862021
 30
0.0
 10
2077.962551
 20
1163.109940
 30
0.0
 10
2076.438586
 20
1165.744286
 30
0.0
  0
SPLINE
  5
3a1
100
AcDbEntity
  8
Holes
 62
7
100
AcDbSpline
 70
8
 71
3
 72
8
 73
4
 74
0
 40
0
 40
0
 40
0
 40
0
 40
1
 40
1
 40
1
 40
1
 10
2076.438586
 20
1165.744286
 30
0.0
 10
2074.914621
 20
1168.378632
 30
0.0
 10
2072.099050
 20
1169.997747
 30
0.0
 10
2069.055666
 20
1169.989889
 30
0.0
  0
SPLINE
  5
3a2
100
AcDbEntity
  8
Holes
 62
7
100
AcDbSpline
 70
8
 71
3
 72
8
 73
4
 74
0
 40
0
 40
0
 40
0
 40
0
 40
1
 40
1
 40
1
 40
1
 10
2069.055666
 20
1169.989889
 30
0.0
 10
2066.012282
 20
1169.997747
 30
0.0
 10
2063.196711
 20
1168.378632
 30
0.0
 10
2061.672746
 20
1165.744286
 30
0.0
  0
SPLINE
  5
3a3
100
AcDbEntity
  8
Holes
 62
7
100
AcDbSpline
 70
8
 71
3
 72
8
 73
4
 74
0
 40
0
 40
0
 40
0
 40
0
 40
1
 40
1
 40
1
 40
1
 10
2061.672746
 20
1165.744286
 30
0.0
 10
2060.148781
 20
1163.109940
 30
0.0
 10
2060.148781
 20
1159.862021
 30
0.0
 10
2061.672746
 20
1157.227675
 30
0.0
  0
SPLINE
  5
3a4
100
AcDbEntity
  8
Holes
 62
7
100
AcDbSpline
 70
8
 71
3
 72
8
 73
4
 74
0
 40
0
 40
0
 40
0
 40
0
 40
1
 40
1
 40
1
 40
1
 10
2061.672746
 20
1157.227675
 30
0.0
 10
2063.196711
 20
1154.593329
 30
0.0
 10
2066.012282
 20
1152.974214
 30
0.0
 10
2069.055666
 20
1152.982072
 30
0.0
  0
LWPOLYLINE
  5
3a5
100
AcDbEntity
  8
Holes
 62
7
100
AcDbPolyline
 90
1
 70
1
 10
2069.049997
 20
1201.029314
 30
0.0
  0
SPLINE
  5
3a6
100
AcDbEntity
  8
Holes
 62
7
100
AcDbSpline
 70
8
 71
3
 72
8
 73
4
 74
0
 40
0
 40
0
 40
0
 40
0
 40
1
 40
1
 40
1
 40
1
 10
2069.061336
 20
1104.934819
 30
0.0
 10
2072.099504
 20
1104.934819
 30
0.0
 10
2074.906888
 20
1106.555662
 30
0.0
 10
2076.425972
 20
1109.186794
 30
0.0
  0
SPLINE
  5
3a7
100
AcDbEntity
  8
Holes
 62
7
100
AcDbSpline
 70
8
 71
3
 72
8
 73
4
 74
0
 40
0
 40
0
 40
0
 40
0
 40
1
 40
1
 40
1
 40
1
 10
2076.425972
 20
1109.186794
 30
0.0
 10
2077.945056
 20
1111.817925
 30
0.0
 10
2077.945056
 20
1115.059612
 30
0.0
 10
2076.425972
 20
1117.690743
 30
0.0
  0
SPLINE
  5
3a8
100
AcDbEntity
  8
Holes
 62
7
100
AcDbSpline
 70
8
 71
3
 72
8
 73
4
 74
0
 40
0
 40
0
 40
0
 40
0
 40
1
 40
1
 40
1
 40
1
 10
2076.425972
 20
1117.690743
 30
0.0
 10
2074.906888
 20
1120.321874
 30
0.0
 10
2072.099504
 20
1121.942718
 30
0.0
 10
2069.061336
 20
1121.942718
 30
0.0
  0
SPLINE
  5
3a9
100
AcDbEntity
  8
Holes
 62
7
100
AcDbSpline
 70
8
 71
3
 72
8
 73
4
 74
0
 40
0
 40
0
 40
0
 40
0
 40
1
 40
1
 40
1
 40
1
 10
2069.061336
 20
1121.942718
 30
0.0
 10
2066.023167
 20
1121.942718
 30
0.0
 10
2063.215784
 20
1120.321874
 30
0.0
 10
2061.696699
 20
1117.690743
 30
0.0
  0
SPLINE
  5
3aa
100
AcDbEntity
  8
Holes
 62
7
100
AcDbSpline
 70
8
 71
3
 72
8
 73
4
 74
0
 40
0
 40
0
 40
0
 40
0
 40
1
 40
1
 40
1
 40
1
 10
2061.696699
 20
1117.690743
 30
0.0
 10
2060.177615
 20
1115.059612
 30
0.0
 10
2060.177615
 20
1111.817925
 30
0.0
 10
2061.696699
 20
1109.186794
 30
0.0
  0
SPLINE
  5
3ab
100
AcDbEntity
  8
Holes
 62
7
100
AcDbSpline
 70
8
 71
3
 72
8
 73
4
 74
0
 40
0
 40
0
 40
0
 40
0
 40
1
 40
1
 40
1
 40
1
 10
2061.696699
 20
1109.186794
 30
0.0
 10
2063.215784
 20
1106.555662
 30
0.0
 10
2066.023167
 20
1104.934819
 30
0.0
 10
2069.061336
 20
1104.934819
 30
0.0
  0
LWPOLYLINE
  5
3ac
100
AcDbEntity
  8
Holes
 62
7
100
AcDbPolyline
 90
1
 70
1
 10
2069.055666
 20
1152.982072
 30
0.0
  0
SPLINE
  5
3ad
100
AcDbEntity
  8
Holes
 62
7
100
AcDbSpline
 70
8
 71
3
 72
8
 73
4
 74
0
 40
0
 40
0
 40
0
 40
0
 40
1
 40
1
 40
1
 40
1
 10
2069.067005
 20
1056.887648
 30
0.0
 10
2072.110122
 20
1056.880193
 30
0.0
 10
2074.925272
 20
1058.499398
 30
0.0
 10
2076.448986
 20
1061.133579
 30
0.0
  0
SPLINE
  5
3ae
100
AcDbEntity
  8
Holes
 62
7
100
AcDbSpline
 70
8
 71
3
 72
8
 73
4
 74
0
 40
0
 40
0
 40
0
 40
0
 40
1
 40
1
 40
1
 40
1
 10
2076.448986
 20
1061.133579
 30
0.0
 10
2077.972700
 20
1063.767760
 30
0.0
 10
2077.972700
 20
1067.015358
 30
0.0
 10
2076.448986
 20
1069.649539
 30
0.0
  0
SPLINE
  5
3af
100
AcDbEntity
  8
Holes
 62
7
100
AcDbSpline
 70
8
 71
3
 72
8
 73
4
 74
0
 40
0
 40
0
 40
0
 40
0
 40
1
 40
1
 40
1
 40
1
 10
2076.448986
 20
1069.649539
 30
0.0
 10
2074.925272
 20
1072.283720
 30
0.0
 10
2072.110122
 20
1073.902924
 30
0.0
 10
2069.067005
 20
1073.895470
 30
0.0
  0
SPLINE
  5
3b0
100
AcDbEntity
  8
Holes
 62
7
100
AcDbSpline
 70
8
 71
3
 72
8
 73
4
 74
0
 40
0
 40
0
 40
0
 40
0
 40
1
 40
1
 40
1
 40
1
 10
2069.067005
 20
1073.895470
 30
0.0
 10
2066.023888
 20
1073.902924
 30
0.0
 10
2063.208738
 20
1072.283720
 30
0.0
 10
2061.685024
 20
1069.649539
 30
0.0
  0
SPLINE
  5
3b1
100
AcDbEntity
  8
Holes
 62
7
100
AcDbSpline
 70
8
 71
3
 72
8
 73
4
 74
0
 40
0
 40
0
 40
0
 40
0
 40
1
 40
1
 40
1
 40
1
 10
2061.685024
 20
1069.649539
 30
0.0
 10
2060.161309
 20
1067.015358
 30
0.0
 10
2060.161309
 20
1063.767760
 30
0.0
 10
2061.685024
 20
1061.133579
 30
0.0
  0
SPLINE
  5
3b2
100
AcDbEntity
  8
Holes
 62
7
100
AcDbSpline
 70
8
 71
3
 72
8
 73
4
 74
0
 40
0
 40
0
 40
0
 40
0
 40
1
 40
1
 40
1
 40
1
 10
2061.685024
 20
1061.133579
 30
0.0
 10
2063.208738
 20
1058.499398
 30
0.0
 10
2066.023888
 20
1056.880193
 30
0.0
 10
2069.067005
 20
1056.887648
 30
0.0
  0
LWPOLYLINE
  5
3b3
100
AcDbEntity
  8
Holes
 62
7
100
AcDbPolyline
 90
1
 70
1
 10
2069.061336
 20
1104.934819
 30
0.0
  0
SPLINE
  5
3b4
100
AcDbEntity
  8
Holes
 62
7
100
AcDbSpline
 70
8
 71
3
 72
8
 73
4
 74
0
 40
0
 40
0
 40
0
 40
0
 40
1
 40
1
 40
1
 40
1
 10
2069.072674
 20
1008.840323
 30
0.0
 10
2072.115652
 20
1008.833079
 30
0.0
 10
2074.930583
 20
1010.452330
 30
0.0
 10
2076.454167
 20
1013.086425
 30
0.0
  0
SPLINE
  5
3b5
100
AcDbEntity
  8
Holes
 62
7
100
AcDbSpline
 70
8
 71
3
 72
8
 73
4
 74
0
 40
0
 40
0
 40
0
 40
0
 40
1
 40
1
 40
1
 40
1
 10
2076.454167
 20
1013.086425
 30
0.0
 10
2077.977750
 20
1015.720520
 30
0.0
 10
2077.977750
 20
1018.967952
 30
0.0
 10
2076.454167
 20
1021.602047
 30
0.0
  0
SPLINE
  5
3b6
100
AcDbEntity
  8
Holes
 62
7
100
AcDbSpline
 70
8
 71
3
 72
8
 73
4
 74
0
 40
0
 40
0
 40
0
 40
0
 40
1
 40
1
 40
1
 40
1
 10
2076.454167
 20
1021.602047
 30
0.0
 10
2074.930583
 20
1024.236142
 30
0.0
 10
2072.115652
 20
1025.855392
 30
0.0
 10
2069.072674
 20
1025.848148
 30
0.0
  0
SPLINE
  5
3b7
100
AcDbEntity
  8
Holes
 62
7
100
AcDbSpline
 70
8
 71
3
 72
8
 73
4
 74
0
 40
0
 40
0
 40
0
 40
0
 40
1
 40
1
 40
1
 40
1
 10
2069.072674
 20
1025.848148
 30
0.0
 10
2066.029697
 20
1025.855392
 30
0.0
 10
2063.214765
 20
1024.236142
 30
0.0
 10
2061.691182
 20
1021.602047
 30
0.0
  0
SPLINE
  5
3b8
100
AcDbEntity
  8
Holes
 62
7
100
AcDbSpline
 70
8
 71
3
 72
8
 73
4
 74
0
 40
0
 40
0
 40
0
 40
0
 40
1
 40
1
 40
1
 40
1
 10
2061.691182
 20
1021.602047
 30
0.0
 10
2060.167598
 20
1018.967952
 30
0.0
 10
2060.167598
 20
1015.720520
 30
0.0
 10
2061.691182
 20
1013.086425
 30
0.0
  0
SPLINE
  5
3b9
100
AcDbEntity
  8
Holes
 62
7
100
AcDbSpline
 70
8
 71
3
 72
8
 73
4
 74
0
 40
0
 40
0
 40
0
 40
0
 40
1
 40
1
 40
1
 40
1
 10
2061.691182
 20
1013.086425
 30
0.0
 10
2063.214765
 20
1010.452330
 30
0.0
 10
2066.029697
 20
1008.833079
 30
0.0
 10
2069.072674
 20
1008.840323
 30
0.0
  0
LWPOLYLINE
  5
3ba
100
AcDbEntity
  8
Holes
 62
7
100
AcDbPolyline
 90
1
 70
1
 10
2069.067005
 20
1056.887648
 30
0.0
  0
SPLINE
  5
3bb
100
AcDbEntity
  8
Holes
 62
7
100
AcDbSpline
 70
8
 71
3
 72
8
 73
4
 74
0
 40
0
 40
0
 40
0
 40
0
 40
1
 40
1
 40
1
 40
1
 10
2069.078343
 20
960.793075
 30
0.0
 10
2072.116526
 20
960.793075
 30
0.0
 10
2074.923922
 20
962.413926
 30
0.0
 10
2076.443013
 20
965.045069
 30
0.0
  0
SPLINE
  5
3bc
100
AcDbEntity
  8
Holes
 62
7
100
AcDbSpline
 70
8
 71
3
 72
8
 73
4
 74
0
 40
0
 40
0
 40
0
 40
0
 40
1
 40
1
 40
1
 40
1
 10
2076.443013
 20
965.045069
 30
0.0
 10
2077.962104
 20
967.676212
 30
0.0
 10
2077.962104
 20
970.917914
 30
0.0
 10
2076.443013
 20
973.549057
 30
0.0
  0
SPLINE
  5
3bd
100
AcDbEntity
  8
Holes
 62
7
100
AcDbSpline
 70
8
 71
3
 72
8
 73
4
 74
0
 40
0
 40
0
 40
0
 40
0
 40
1
 40
1
 40
1
 40
1
 10
2076.443013
 20
973.549057
 30
0.0
 10
2074.923922
 20
976.180200
 30
0.0
 10
2072.116526
 20
977.801051
 30
0.0
 10
2069.078343
 20
977.801051
 30
0.0
  0
SPLINE
  5
3be
100
AcDbEntity
  8
Holes
 62
7
100
AcDbSpline
 70
8
 71
3
 72
8
 73
4
 74
0
 40
0
 40
0
 40
0
 40
0
 40
1
 40
1
 40
1
 40
1
 10
2069.078343
 20
977.801051
 30
0.0
 10
2066.040161
 20
977.801051
 30
0.0
 10
2063.232765
 20
976.180200
 30
0.0
 10
2061.713674
 20
973.549057
 30
0.0
  0
SPLINE
  5
3bf
100
AcDbEntity
  8
Holes
 62
7
100
AcDbSpline
 70
8
 71
3
 72
8
 73
4
 74
0
 40
0
 40
0
 40
0
 40
0
 40
1
 40
1
 40
1
 40
1
 10
2061.713674
 20
973.549057
 30
0.0
 10
2060.194583
 20
970.917914
 30
0.0
 10
2060.194583
 20
967.676212
 30
0.0
 10
2061.713674
 20
965.045069
 30
0.0
  0
SPLINE
  5
3c0
100
AcDbEntity
  8
Holes
 62
7
100
AcDbSpline
 70
8
 71
3
 72
8
 73
4
 74
0
 40
0
 40
0
 40
0
 40
0
 40
1
 40
1
 40
1
 40
1
 10
2061.713674
 20
965.045069
 30
0.0
 10
2063.232765
 20
962.413926
 30
0.0
 10
2066.040161
 20
960.793075
 30
0.0
 10
2069.078343
 20
960.793075
 30
0.0
  0
LWPOLYLINE
  5
3c1
100
AcDbEntity
  8
Holes
 62
7
100
AcDbPolyline
 90
1
 70
1
 10
2069.072674
 20
1008.840323
 30
0.0
  0
SPLINE
  5
3c2
100
AcDbEntity
  8
Holes
 62
7
100
AcDbSpline
 70
8
 71
3
 72
8
 73
4
 74
0
 40
0
 40
0
 40
0
 40
0
 40
1
 40
1
 40
1
 40
1
 10
2069.084013
 20
912.745904
 30
0.0
 10
2072.128132
 20
912.736942
 30
0.0
 10
2074.944856
 20
914.355816
 30
0.0
 10
2076.469508
 20
916.990617
 30
0.0
  0
SPLINE
  5
3c3
100
AcDbEntity
  8
Holes
 62
7
100
AcDbSpline
 70
8
 71
3
 72
8
 73
4
 74
0
 40
0
 40
0
 40
0
 40
0
 40
1
 40
1
 40
1
 40
1
 10
2076.469508
 20
916.990617
 30
0.0
 10
2077.994160
 20
919.625418
 30
0.0
 10
2077.994160
 20
922.874216
 30
0.0
 10
2076.469508
 20
925.509016
 30
0.0
  0
SPLINE
  5
3c4
100
AcDbEntity
  8
Holes
 62
7
100
AcDbSpline
 70
8
 71
3
 72
8
 73
4
 74
0
 40
0
 40
0
 40
0
 40
0
 40
1
 40
1
 40
1
 40
1
 10
2076.469508
 20
925.509016
 30
0.0
 10
2074.944856
 20
928.143817
 30
0.0
 10
2072.128132
 20
929.762691
 30
0.0
 10
2069.084013
 20
929.753729
 30
0.0
  0
SPLINE
  5
3c5
100
AcDbEntity
  8
Holes
 62
7
100
AcDbSpline
 70
8
 71
3
 72
8
 73
4
 74
0
 40
0
 40
0
 40
0
 40
0
 40
1
 40
1
 40
1
 40
1
 10
2069.084013
 20
929.753729
 30
0.0
 10
2066.039894
 20
929.762691
 30
0.0
 10
2063.223170
 20
928.143817
 30
0.0
 10
2061.698518
 20
925.509016
 30
0.0
  0
SPLINE
  5
3c6
100
AcDbEntity
  8
Holes
 62
7
100
AcDbSpline
 70
8
 71
3
 72
8
 73
4
 74
0
 40
0
 40
0
 40
0
 40
0
 40
1
 40
1
 40
1
 40
1
 10
2061.698518
 20
925.509016
 30
0.0
 10
2060.173865
 20
922.874216
 30
0.0
 10
2060.173865
 20
919.625418
 30
0.0
 10
2061.698518
 20
916.990617
 30
0.0
  0
SPLINE
  5
3c7
100
AcDbEntity
  8
Holes
 62
7
100
AcDbSpline
 70
8
 71
3
 72
8
 73
4
 74
0
 40
0
 40
0
 40
0
 40
0
 40
1
 40
1
 40
1
 40
1
 10
2061.698518
 20
916.990617
 30
0.0
 10
2063.223170
 20
914.355816
 30
0.0
 10
2066.039894
 20
912.736942
 30
0.0
 10
2069.084013
 20
912.745904
 30
0.0
  0
LWPOLYLINE
  5
3c8
100
AcDbEntity
  8
Holes
 62
7
100
AcDbPolyline
 90
1
 70
1
 10
2069.078343
 20
960.793075
 30
0.0
  0
SPLINE
  5
3c9
100
AcDbEntity
  8
Holes
 62
7
100
AcDbSpline
 70
8
 71
3
 72
8
 73
4
 74
0
 40
0
 40
0
 40
0
 40
0
 40
1
 40
1
 40
1
 40
1
 10
2069.089682
 20
864.698582
 30
0.0
 10
2072.130492
 20
864.694617
 30
0.0
 10
2074.942014
 20
866.314593
 30
0.0
 10
2076.463564
 20
868.947353
 30
0.0
  0
SPLINE
  5
3ca
100
AcDbEntity
  8
Holes
 62
7
100
AcDbSpline
 70
8
 71
3
 72
8
 73
4
 74
0
 40
0
 40
0
 40
0
 40
0
 40
1
 40
1
 40
1
 40
1
 10
2076.463564
 20
868.947353
 30
0.0
 10
2077.985115
 20
871.580112
 30
0.0
 10
2077.985115
 20
874.824951
 30
0.0
 10
2076.463564
 20
877.457711
 30
0.0
  0
SPLINE
  5
3cb
100
AcDbEntity
  8
Holes
 62
7
100
AcDbSpline
 70
8
 71
3
 72
8
 73
4
 74
0
 40
0
 40
0
 40
0
 40
0
 40
1
 40
1
 40
1
 40
1
 10
2076.463564
 20
877.457711
 30
0.0
 10
2074.942014
 20
880.090470
 30
0.0
 10
2072.130492
 20
881.710446
 30
0.0
 10
2069.089682
 20
881.706481
 30
0.0
  0
SPLINE
  5
3cc
100
AcDbEntity
  8
Holes
 62
7
100
AcDbSpline
 70
8
 71
3
 72
8
 73
4
 74
0
 40
0
 40
0
 40
0
 40
0
 40
1
 40
1
 40
1
 40
1
 10
2069.089682
 20
881.706481
 30
0.0
 10
2066.048872
 20
881.710446
 30
0.0
 10
2063.237351
 20
880.090470
 30
0.0
 10
2061.715800
 20
877.457711
 30
0.0
  0
SPLINE
  5
3cd
100
AcDbEntity
  8
Holes
 62
7
100
AcDbSpline
 70
8
 71
3
 72
8
 73
4
 74
0
 40
0
 40
0
 40
0
 40
0
 40
1
 40
1
 40
1
 40
1
 10
2061.715800
 20
877.457711
 30
0.0
 10
2060.194250
 20
874.824951
 30
0.0
 10
2060.194250
 20
871.580112
 30
0.0
 10
2061.715800
 20
868.947353
 30
0.0
  0
SPLINE
  5
3ce
100
AcDbEntity
  8
Holes
 62
7
100
AcDbSpline
 70
8
 71
3
 72
8
 73
4
 74
0
 40
0
 40
0
 40
0
 40
0
 40
1
 40
1
 40
1
 40
1
 10
2061.715800
 20
868.947353
 30
0.0
 10
2063.237351
 20
866.314593
 30
0.0
 10
2066.048872
 20
864.694617
 30
0.0
 10
2069.089682
 20
864.698582
 30
0.0
  0
LWPOLYLINE
  5
3cf
100
AcDbEntity
  8
Holes
 62
7
100
AcDbPolyline
 90
1
 70
1
 10
2069.084013
 20
912.745904
 30
0.0
  0
SPLINE
  5
3d0
100
AcDbEntity
  8
Holes
 62
7
100
AcDbSpline
 70
8
 71
3
 72
8
 73
4
 74
0
 40
0
 40
0
 40
0
 40
0
 40
1
 40
1
 40
1
 40
1
 10
994.535704
 20
1300.884324
 30
0.0
 10
991.486124
 20
1300.894820
 30
0.0
 10
988.664398
 20
1299.271563
 30
0.0
 10
987.140442
 20
1296.630046
 30
0.0
  0
SPLINE
  5
3d1
100
AcDbEntity
  8
Holes
 62
7
100
AcDbSpline
 70
8
 71
3
 72
8
 73
4
 74
0
 40
0
 40
0
 40
0
 40
0
 40
1
 40
1
 40
1
 40
1
 10
987.140442
 20
1296.630046
 30
0.0
 10
985.616487
 20
1293.988529
 30
0.0
 10
985.623649
 20
1290.733218
 30
0.0
 10
987.159212
 20
1288.098432
 30
0.0
  0
SPLINE
  5
3d2
100
AcDbEntity
  8
Holes
 62
7
100
AcDbSpline
 70
8
 71
3
 72
8
 73
4
 74
0
 40
0
 40
0
 40
0
 40
0
 40
1
 40
1
 40
1
 40
1
 10
987.159212
 20
1288.098432
 30
0.0
 10
988.694775
 20
1285.463647
 30
0.0
 10
991.523617
 20
1283.852821
 30
0.0
 10
994.573121
 20
1283.876735
 30
0.0
  0
SPLINE
  5
3d3
100
AcDbEntity
  8
Holes
 62
7
100
AcDbSpline
 70
8
 71
3
 72
8
 73
4
 74
0
 40
0
 40
0
 40
0
 40
0
 40
1
 40
1
 40
1
 40
1
 10
994.573121
 20
1283.876735
 30
0.0
 10
997.622702
 20
1283.866240
 30
0.0
 10
1000.444428
 20
1285.489496
 30
0.0
 10
1001.968383
 20
1288.131013
 30
0.0
  0
SPLINE
  5
3d4
100
AcDbEntity
  8
Holes
 62
7
100
AcDbSpline
 70
8
 71
3
 72
8
 73
4
 74
0
 40
0
 40
0
 40
0
 40
0
 40
1
 40
1
 40
1
 40
1
 10
1001.968383
 20
1288.131013
 30
0.0
 10
1003.492338
 20
1290.772530
 30
0.0
 10
1003.485177
 20
1294.027841
 30
0.0
 10
1001.949613
 20
1296.662627
 30
0.0
  0
SPLINE
  5
3d5
100
AcDbEntity
  8
Holes
 62
7
100
AcDbSpline
 70
8
 71
3
 72
8
 73
4
 74
0
 40
0
 40
0
 40
0
 40
0
 40
1
 40
1
 40
1
 40
1
 10
1001.949613
 20
1296.662627
 30
0.0
 10
1000.414050
 20
1299.297412
 30
0.0
 10
997.585209
 20
1300.908238
 30
0.0
 10
994.535704
 20
1300.884324
 30
0.0
  0
LWPOLYLINE
  5
3d6
100
AcDbEntity
  8
Holes
 62
7
100
AcDbPolyline
 90
1
 70
1
 10
2069.089682
 20
864.698582
 30
0.0
  0
SPLINE
  5
3d7
100
AcDbEntity
  8
Holes
 62
7
100
AcDbSpline
 70
8
 71
3
 72
8
 73
4
 74
0
 40
0
 40
0
 40
0
 40
0
 40
1
 40
1
 40
1
 40
1
 10
994.431389
 20
1348.931850
 30
0.0
 10
991.392805
 20
1348.925769
 30
0.0
 10
988.588340
 20
1347.298891
 30
0.0
 10
987.074633
 20
1344.664176
 30
0.0
  0
SPLINE
  5
3d8
100
AcDbEntity
  8
Holes
 62
7
100
AcDbSpline
 70
8
 71
3
 72
8
 73
4
 74
0
 40
0
 40
0
 40
0
 40
0
 40
1
 40
1
 40
1
 40
1
 10
987.074633
 20
1344.664176
 30
0.0
 10
985.560927
 20
1342.029460
 30
0.0
 10
985.568006
 20
1338.787284
 30
0.0
 10
987.093202
 20
1336.159203
 30
0.0
  0
SPLINE
  5
3d9
100
AcDbEntity
  8
Holes
 62
7
100
AcDbSpline
 70
8
 71
3
 72
8
 73
4
 74
0
 40
0
 40
0
 40
0
 40
0
 40
1
 40
1
 40
1
 40
1
 10
987.093202
 20
1336.159203
 30
0.0
 10
988.618399
 20
1333.531122
 30
0.0
 10
991.429941
 20
1331.916506
 30
0.0
 10
994.468523
 20
1331.923693
 30
0.0
  0
SPLINE
  5
3da
100
AcDbEntity
  8
Holes
 62
7
100
AcDbSpline
 70
8
 71
3
 72
8
 73
4
 74
0
 40
0
 40
0
 40
0
 40
0
 40
1
 40
1
 40
1
 40
1
 10
994.468523
 20
1331.923693
 30
0.0
 10
997.507108
 20
1331.929774
 30
0.0
 10
1000.311572
 20
1333.556652
 30
0.0
 10
1001.825279
 20
1336.191368
 30
0.0
  0
SPLINE
  5
3db
100
AcDbEntity
  8
Holes
 62
7
100
AcDbSpline
 70
8
 71
3
 72
8
 73
4
 74
0
 40
0
 40
0
 40
0
 40
0
 40
1
 40
1
 40
1
 40
1
 10
1001.825279
 20
1336.191368
 30
0.0
 10
1003.338985
 20
1338.826083
 30
0.0
 10
1003.331906
 20
1342.068259
 30
0.0
 10
1001.806710
 20
1344.696340
 30
0.0
  0
SPLINE
  5
3dc
100
AcDbEntity
  8
Holes
 62
7
100
AcDbSpline
 70
8
 71
3
 72
8
 73
4
 74
0
 40
0
 40
0
 40
0
 40
0
 40
1
 40
1
 40
1
 40
1
 10
1001.806710
 20
1344.696340
 30
0.0
 10
1000.281513
 20
1347.324421
 30
0.0
 10
997.469971
 20
1348.939037
 30
0.0
 10
994.431389
 20
1348.931850
 30
0.0
  0
LWPOLYLINE
  5
3dd
100
AcDbEntity
  8
Holes
 62
7
100
AcDbPolyline
 90
1
 70
1
 10
994.535704
 20
1300.884324
 30
0.0
  0
SPLINE
  5
3de
100
AcDbEntity
  8
Holes
 62
7
100
AcDbSpline
 70
8
 71
3
 72
8
 73
4
 74
0
 40
0
 40
0
 40
0
 40
0
 40
1
 40
1
 40
1
 40
1
 10
994.327074
 20
1396.978525
 30
0.0
 10
991.278097
 20
1396.988164
 30
0.0
 10
988.457292
 20
1395.364757
 30
0.0
 10
986.933857
 20
1392.723640
 30
0.0
  0
SPLINE
  5
3df
100
AcDbEntity
  8
Holes
 62
7
100
AcDbSpline
 70
8
 71
3
 72
8
 73
4
 74
0
 40
0
 40
0
 40
0
 40
0
 40
1
 40
1
 40
1
 40
1
 10
986.933857
 20
1392.723640
 30
0.0
 10
985.410422
 20
1390.082523
 30
0.0
 10
985.417528
 20
1386.827935
 30
0.0
 10
986.952482
 20
1384.193496
 30
0.0
  0
SPLINE
  5
3e0
100
AcDbEntity
  8
Holes
 62
7
100
AcDbSpline
 70
8
 71
3
 72
8
 73
4
 74
0
 40
0
 40
0
 40
0
 40
0
 40
1
 40
1
 40
1
 40
1
 10
986.952482
 20
1384.193496
 30
0.0
 10
988.487435
 20
1381.559057
 30
0.0
 10
991.315302
 20
1379.947982
 30
0.0
 10
994.364208
 20
1379.970935
 30
0.0
  0
SPLINE
  5
3e1
100
AcDbEntity
  8
Holes
 62
7
100
AcDbSpline
 70
8
 71
3
 72
8
 73
4
 74
0
 40
0
 40
0
 40
0
 40
0
 40
1
 40
1
 40
1
 40
1
 10
994.364208
 20
1379.970935
 30
0.0
 10
997.413185
 20
1379.961296
 30
0.0
 10
1000.233990
 20
1381.584704
 30
0.0
 10
1001.757425
 20
1384.225821
 30
0.0
  0
SPLINE
  5
3e2
100
AcDbEntity
  8
Holes
 62
7
100
AcDbSpline
 70
8
 71
3
 72
8
 73
4
 74
0
 40
0
 40
0
 40
0
 40
0
 40
1
 40
1
 40
1
 40
1
 10
1001.757425
 20
1384.225821
 30
0.0
 10
1003.280860
 20
1386.866937
 30
0.0
 10
1003.273754
 20
1390.121526
 30
0.0
 10
1001.738801
 20
1392.755965
 30
0.0
  0
SPLINE
  5
3e3
100
AcDbEntity
  8
Holes
 62
7
100
AcDbSpline
 70
8
 71
3
 72
8
 73
4
 74
0
 40
0
 40
0
 40
0
 40
0
 40
1
 40
1
 40
1
 40
1
 10
1001.738801
 20
1392.755965
 30
0.0
 10
1000.203847
 20
1395.390404
 30
0.0
 10
997.375980
 20
1397.001478
 30
0.0
 10
994.327074
 20
1396.978525
 30
0.0
  0
LWPOLYLINE
  5
3e4
100
AcDbEntity
  8
Holes
 62
7
100
AcDbPolyline
 90
1
 70
1
 10
994.431389
 20
1348.931850
 30
0.0
  0
SPLINE
  5
3e5
100
AcDbEntity
  8
Holes
 62
7
100
AcDbSpline
 70
8
 71
3
 72
8
 73
4
 74
0
 40
0
 40
0
 40
0
 40
0
 40
1
 40
1
 40
1
 40
1
 10
994.222759
 20
1445.025767
 30
0.0
 10
991.173782
 20
1445.035406
 30
0.0
 10
988.352977
 20
1443.411999
 30
0.0
 10
986.829542
 20
1440.770882
 30
0.0
  0
SPLINE
  5
3e6
100
AcDbEntity
  8
Holes
 62
7
100
AcDbSpline
 70
8
 71
3
 72
8
 73
4
 74
0
 40
0
 40
0
 40
0
 40
0
 40
1
 40
1
 40
1
 40
1
 10
986.829542
 20
1440.770882
 30
0.0
 10
985.306107
 20
1438.129765
 30
0.0
 10
985.313213
 20
1434.875177
 30
0.0
 10
986.848167
 20
1432.240738
 30
0.0
  0
SPLINE
  5
3e7
100
AcDbEntity
  8
Holes
 62
7
100
AcDbSpline
 70
8
 71
3
 72
8
 73
4
 74
0
 40
0
 40
0
 40
0
 40
0
 40
1
 40
1
 40
1
 40
1
 10
986.848167
 20
1432.240738
 30
0.0
 10
988.383120
 20
1429.606299
 30
0.0
 10
991.210987
 20
1427.995225
 30
0.0
 10
994.259893
 20
1428.018178
 30
0.0
  0
SPLINE
  5
3e8
100
AcDbEntity
  8
Holes
 62
7
100
AcDbSpline
 70
8
 71
3
 72
8
 73
4
 74
0
 40
0
 40
0
 40
0
 40
0
 40
1
 40
1
 40
1
 40
1
 10
994.259893
 20
1428.018178
 30
0.0
 10
997.308870
 20
1428.008538
 30
0.0
 10
1000.129675
 20
1429.631946
 30
0.0
 10
1001.653110
 20
1432.273063
 30
0.0
  0
SPLINE
  5
3e9
100
AcDbEntity
  8
Holes
 62
7
100
AcDbSpline
 70
8
 71
3
 72
8
 73
4
 74
0
 40
0
 40
0
 40
0
 40
0
 40
1
 40
1
 40
1
 40
1
 10
1001.653110
 20
1432.273063
 30
0.0
 10
1003.176545
 20
1434.914180
 30
0.0
 10
1003.169439
 20
1438.168768
 30
0.0
 10
1001.634486
 20
1440.803207
 30
0.0
  0
SPLINE
  5
3ea
100
AcDbEntity
  8
Holes
 62
7
100
AcDbSpline
 70
8
 71
3
 72
8
 73
4
 74
0
 40
0
 40
0
 40
0
 40
0
 40
1
 40
1
 40
1
 40
1
 10
1001.634486
 20
1440.803207
 30
0.0
 10
1000.099532
 20
1443.437646
 30
0.0
 10
997.271665
 20
1445.048720
 30
0.0
 10
994.222759
 20
1445.025767
 30
0.0
  0
LWPOLYLINE
  5
3eb
100
AcDbEntity
  8
Holes
 62
7
100
AcDbPolyline
 90
1
 70
1
 10
994.327074
 20
1396.978525
 30
0.0
  0
SPLINE
  5
3ec
100
AcDbEntity
  8
Holes
 62
7
100
AcDbSpline
 70
8
 71
3
 72
8
 73
4
 74
0
 40
0
 40
0
 40
0
 40
0
 40
1
 40
1
 40
1
 40
1
 10
994.118444
 20
1493.073009
 30
0.0
 10
991.079911
 20
1493.066928
 30
0.0
 10
988.275493
 20
1491.440077
 30
0.0
 10
986.761813
 20
1488.805405
 30
0.0
  0
SPLINE
  5
3ed
100
AcDbEntity
  8
Holes
 62
7
100
AcDbSpline
 70
8
 71
3
 72
8
 73
4
 74
0
 40
0
 40
0
 40
0
 40
0
 40
1
 40
1
 40
1
 40
1
 10
986.761813
 20
1488.805405
 30
0.0
 10
985.248132
 20
1486.170734
 30
0.0
 10
985.255211
 20
1482.928612
 30
0.0
 10
986.780382
 20
1480.300576
 30
0.0
  0
SPLINE
  5
3ee
100
AcDbEntity
  8
Holes
 62
7
100
AcDbSpline
 70
8
 71
3
 72
8
 73
4
 74
0
 40
0
 40
0
 40
0
 40
0
 40
1
 40
1
 40
1
 40
1
 10
986.780382
 20
1480.300576
 30
0.0
 10
988.305553
 20
1477.672539
 30
0.0
 10
991.117047
 20
1476.057950
 30
0.0
 10
994.155578
 20
1476.065136
 30
0.0
  0
SPLINE
  5
3ef
100
AcDbEntity
  8
Holes
 62
7
100
AcDbSpline
 70
8
 71
3
 72
8
 73
4
 74
0
 40
0
 40
0
 40
0
 40
0
 40
1
 40
1
 40
1
 40
1
 10
994.155578
 20
1476.065136
 30
0.0
 10
997.194112
 20
1476.071218
 30
0.0
 10
999.998529
 20
1477.698069
 30
0.0
 10
1001.512209
 20
1480.332740
 30
0.0
  0
SPLINE
  5
3f0
100
AcDbEntity
  8
Holes
 62
7
100
AcDbSpline
 70
8
 71
3
 72
8
 73
4
 74
0
 40
0
 40
0
 40
0
 40
0
 40
1
 40
1
 40
1
 40
1
 10
1001.512209
 20
1480.332740
 30
0.0
 10
1003.025890
 20
1482.967412
 30
0.0
 10
1003.018811
 20
1486.209533
 30
0.0
 10
1001.493641
 20
1488.837570
 30
0.0
  0
SPLINE
  5
3f1
100
AcDbEntity
  8
Holes
 62
7
100
AcDbSpline
 70
8
 71
3
 72
8
 73
4
 74
0
 40
0
 40
0
 40
0
 40
0
 40
1
 40
1
 40
1
 40
1
 10
1001.493641
 20
1488.837570
 30
0.0
 10
999.968470
 20
1491.465606
 30
0.0
 10
997.156975
 20
1493.080196
 30
0.0
 10
994.118444
 20
1493.073009
 30
0.0
  0
LWPOLYLINE
  5
3f2
100
AcDbEntity
  8
Holes
 62
7
100
AcDbPolyline
 90
1
 70
1
 10
994.222759
 20
1445.025767
 30
0.0
  0
SPLINE
  5
3f3
100
AcDbEntity
  8
Holes
 62
7
100
AcDbSpline
 70
8
 71
3
 72
8
 73
4
 74
0
 40
0
 40
0
 40
0
 40
0
 40
1
 40
1
 40
1
 40
1
 10
994.014129
 20
1541.120252
 30
0.0
 10
990.975545
 20
1541.114171
 30
0.0
 10
988.171080
 20
1539.487293
 30
0.0
 10
986.657374
 20
1536.852577
 30
0.0
  0
SPLINE
  5
3f4
100
AcDbEntity
  8
Holes
 62
7
100
AcDbSpline
 70
8
 71
3
 72
8
 73
4
 74
0
 40
0
 40
0
 40
0
 40
0
 40
1
 40
1
 40
1
 40
1
 10
986.657374
 20
1536.852577
 30
0.0
 10
985.143667
 20
1534.217862
 30
0.0
 10
985.150746
 20
1530.975686
 30
0.0
 10
986.675943
 20
1528.347605
 30
0.0
  0
SPLINE
  5
3f5
100
AcDbEntity
  8
Holes
 62
7
100
AcDbSpline
 70
8
 71
3
 72
8
 73
4
 74
0
 40
0
 40
0
 40
0
 40
0
 40
1
 40
1
 40
1
 40
1
 10
986.675943
 20
1528.347605
 30
0.0
 10
988.201139
 20
1525.719524
 30
0.0
 10
991.012681
 20
1524.104908
 30
0.0
 10
994.051263
 20
1524.112095
 30
0.0
  0
SPLINE
  5
3f6
100
AcDbEntity
  8
Holes
 62
7
100
AcDbSpline
 70
8
 71
3
 72
8
 73
4
 74
0
 40
0
 40
0
 40
0
 40
0
 40
1
 40
1
 40
1
 40
1
 10
994.051263
 20
1524.112095
 30
0.0
 10
997.089848
 20
1524.118176
 30
0.0
 10
999.894313
 20
1525.745054
 30
0.0
 10
1001.408019
 20
1528.379769
 30
0.0
  0
SPLINE
  5
3f7
100
AcDbEntity
  8
Holes
 62
7
100
AcDbSpline
 70
8
 71
3
 72
8
 73
4
 74
0
 40
0
 40
0
 40
0
 40
0
 40
1
 40
1
 40
1
 40
1
 10
1001.408019
 20
1528.379769
 30
0.0
 10
1002.921725
 20
1531.014485
 30
0.0
 10
1002.914646
 20
1534.256661
 30
0.0
 10
1001.389450
 20
1536.884742
 30
0.0
  0
SPLINE
  5
3f8
100
AcDbEntity
  8
Holes
 62
7
100
AcDbSpline
 70
8
 71
3
 72
8
 73
4
 74
0
 40
0
 40
0
 40
0
 40
0
 40
1
 40
1
 40
1
 40
1
 10
1001.389450
 20
1536.884742
 30
0.0
 10
999.864253
 20
1539.512822
 30
0.0
 10
997.052711
 20
1541.127439
 30
0.0
 10
994.014129
 20
1541.120252
 30
0.0
  0
LWPOLYLINE
  5
3f9
100
AcDbEntity
  8
Holes
 62
7
100
AcDbPolyline
 90
1
 70
1
 10
994.118444
 20
1493.073009
 30
0.0
  0
SPLINE
  5
3fa
100
AcDbEntity
  8
Holes
 62
7
100
AcDbSpline
 70
8
 71
3
 72
8
 73
4
 74
0
 40
0
 40
0
 40
0
 40
0
 40
1
 40
1
 40
1
 40
1
 10
993.909814
 20
1589.167210
 30
0.0
 10
990.864351
 20
1589.171499
 30
0.0
 10
988.049090
 20
1587.546900
 30
0.0
 10
986.528959
 20
1584.907948
 30
0.0
  0
SPLINE
  5
3fb
100
AcDbEntity
  8
Holes
 62
7
100
AcDbSpline
 70
8
 71
3
 72
8
 73
4
 74
0
 40
0
 40
0
 40
0
 40
0
 40
1
 40
1
 40
1
 40
1
 10
986.528959
 20
1584.907948
 30
0.0
 10
985.008827
 20
1582.268996
 30
0.0
 10
985.015924
 20
1579.018618
 30
0.0
 10
986.547564
 20
1576.386329
 30
0.0
  0
SPLINE
  5
3fc
100
AcDbEntity
  8
Holes
 62
7
100
AcDbSpline
 70
8
 71
3
 72
8
 73
4
 74
0
 40
0
 40
0
 40
0
 40
0
 40
1
 40
1
 40
1
 40
1
 10
986.547564
 20
1576.386329
 30
0.0
 10
988.079205
 20
1573.754040
 30
0.0
 10
990.901532
 20
1572.141750
 30
0.0
 10
993.946948
 20
1572.159337
 30
0.0
  0
SPLINE
  5
3fd
100
AcDbEntity
  8
Holes
 62
7
100
AcDbSpline
 70
8
 71
3
 72
8
 73
4
 74
0
 40
0
 40
0
 40
0
 40
0
 40
1
 40
1
 40
1
 40
1
 10
993.946948
 20
1572.159337
 30
0.0
 10
996.992412
 20
1572.155048
 30
0.0
 10
999.807672
 20
1573.779647
 30
0.0
 10
1001.327804
 20
1576.418599
 30
0.0
  0
SPLINE
  5
3fe
100
AcDbEntity
  8
Holes
 62
7
100
AcDbSpline
 70
8
 71
3
 72
8
 73
4
 74
0
 40
0
 40
0
 40
0
 40
0
 40
1
 40
1
 40
1
 40
1
 10
1001.327804
 20
1576.418599
 30
0.0
 10
1002.847936
 20
1579.057551
 30
0.0
 10
1002.840839
 20
1582.307930
 30
0.0
 10
1001.309198
 20
1584.940218
 30
0.0
  0
SPLINE
  5
3ff
100
AcDbEntity
  8
Holes
 62
7
100
AcDbSpline
 70
8
 71
3
 72
8
 73
4
 74
0
 40
0
 40
0
 40
0
 40
0
 40
1
 40
1
 40
1
 40
1
 10
1001.309198
 20
1584.940218
 30
0.0
 10
999.777558
 20
1587.572507
 30
0.0
 10
996.955230
 20
1589.184798
 30
0.0
 10
993.909814
 20
1589.167210
 30
0.0
  0
LWPOLYLINE
  5
400
100
AcDbEntity
  8
Holes
 62
7
100
AcDbPolyline
 90
1
 70
1
 10
994.014129
 20
1541.120252
 30
0.0
  0
SPLINE
  5
401
100
AcDbEntity
  8
Holes
 62
7
100
AcDbSpline
 70
8
 71
3
 72
8
 73
4
 74
0
 40
0
 40
0
 40
0
 40
0
 40
1
 40
1
 40
1
 40
1
 10
993.805499
 20
1637.214169
 30
0.0
 10
990.755906
 20
1637.224735
 30
0.0
 10
987.934132
 20
1635.601529
 30
0.0
 10
986.410121
 20
1632.960030
 30
0.0
  0
SPLINE
  5
402
100
AcDbEntity
  8
Holes
 62
7
100
AcDbSpline
 70
8
 71
3
 72
8
 73
4
 74
0
 40
0
 40
0
 40
0
 40
0
 40
1
 40
1
 40
1
 40
1
 10
986.410121
 20
1632.960030
 30
0.0
 10
984.886109
 20
1630.318530
 30
0.0
 10
984.893217
 20
1627.063204
 30
0.0
 10
986.428749
 20
1624.428384
 30
0.0
  0
SPLINE
  5
403
100
AcDbEntity
  8
Holes
 62
7
100
AcDbSpline
 70
8
 71
3
 72
8
 73
4
 74
0
 40
0
 40
0
 40
0
 40
0
 40
1
 40
1
 40
1
 40
1
 10
986.428749
 20
1624.428384
 30
0.0
 10
987.964280
 20
1621.793565
 30
0.0
 10
990.793115
 20
1620.182697
 30
0.0
 10
993.842633
 20
1620.206579
 30
0.0
  0
SPLINE
  5
404
100
AcDbEntity
  8
Holes
 62
7
100
AcDbSpline
 70
8
 71
3
 72
8
 73
4
 74
0
 40
0
 40
0
 40
0
 40
0
 40
1
 40
1
 40
1
 40
1
 10
993.842633
 20
1620.206579
 30
0.0
 10
996.892227
 20
1620.196013
 30
0.0
 10
999.714000
 20
1621.819219
 30
0.0
 10
1001.238012
 20
1624.460718
 30
0.0
  0
SPLINE
  5
405
100
AcDbEntity
  8
Holes
 62
7
100
AcDbSpline
 70
8
 71
3
 72
8
 73
4
 74
0
 40
0
 40
0
 40
0
 40
0
 40
1
 40
1
 40
1
 40
1
 10
1001.238012
 20
1624.460718
 30
0.0
 10
1002.762023
 20
1627.102218
 30
0.0
 10
1002.754916
 20
1630.357544
 30
0.0
 10
1001.219384
 20
1632.992364
 30
0.0
  0
SPLINE
  5
406
100
AcDbEntity
  8
Holes
 62
7
100
AcDbSpline
 70
8
 71
3
 72
8
 73
4
 74
0
 40
0
 40
0
 40
0
 40
0
 40
1
 40
1
 40
1
 40
1
 10
1001.219384
 20
1632.992364
 30
0.0
 10
999.683852
 20
1635.627183
 30
0.0
 10
996.855017
 20
1637.238051
 30
0.0
 10
993.805499
 20
1637.214169
 30
0.0
  0
LWPOLYLINE
  5
407
100
AcDbEntity
  8
Holes
 62
7
100
AcDbPolyline
 90
1
 70
1
 10
993.909814
 20
1589.167210
 30
0.0
  0
SPLINE
  5
408
100
AcDbEntity
  8
Holes
 62
7
100
AcDbSpline
 70
8
 71
3
 72
8
 73
4
 74
0
 40
0
 40
0
 40
0
 40
0
 40
1
 40
1
 40
1
 40
1
 10
993.701184
 20
1685.261411
 30
0.0
 10
990.662651
 20
1685.255329
 30
0.0
 10
987.858234
 20
1683.628478
 30
0.0
 10
986.344553
 20
1680.993807
 30
0.0
  0
SPLINE
  5
409
100
AcDbEntity
  8
Holes
 62
7
100
AcDbSpline
 70
8
 71
3
 72
8
 73
4
 74
0
 40
0
 40
0
 40
0
 40
0
 40
1
 40
1
 40
1
 40
1
 10
986.344553
 20
1680.993807
 30
0.0
 10
984.830873
 20
1678.359135
 30
0.0
 10
984.837951
 20
1675.117014
 30
0.0
 10
986.363122
 20
1672.488977
 30
0.0
  0
SPLINE
  5
40a
100
AcDbEntity
  8
Holes
 62
7
100
AcDbSpline
 70
8
 71
3
 72
8
 73
4
 74
0
 40
0
 40
0
 40
0
 40
0
 40
1
 40
1
 40
1
 40
1
 10
986.363122
 20
1672.488977
 30
0.0
 10
987.888293
 20
1669.860941
 30
0.0
 10
990.699787
 20
1668.246351
 30
0.0
 10
993.738318
 20
1668.253538
 30
0.0
  0
SPLINE
  5
40b
100
AcDbEntity
  8
Holes
 62
7
100
AcDbSpline
 70
8
 71
3
 72
8
 73
4
 74
0
 40
0
 40
0
 40
0
 40
0
 40
1
 40
1
 40
1
 40
1
 10
993.738318
 20
1668.253538
 30
0.0
 10
996.776852
 20
1668.259619
 30
0.0
 10
999.581269
 20
1669.886470
 30
0.0
 10
1001.094950
 20
1672.521142
 30
0.0
  0
SPLINE
  5
40c
100
AcDbEntity
  8
Holes
 62
7
100
AcDbSpline
 70
8
 71
3
 72
8
 73
4
 74
0
 40
0
 40
0
 40
0
 40
0
 40
1
 40
1
 40
1
 40
1
 10
1001.094950
 20
1672.521142
 30
0.0
 10
1002.608630
 20
1675.155813
 30
0.0
 10
1002.601552
 20
1678.397935
 30
0.0
 10
1001.076381
 20
1681.025971
 30
0.0
  0
SPLINE
  5
40d
100
AcDbEntity
  8
Holes
 62
7
100
AcDbSpline
 70
8
 71
3
 72
8
 73
4
 74
0
 40
0
 40
0
 40
0
 40
0
 40
1
 40
1
 40
1
 40
1
 10
1001.076381
 20
1681.025971
 30
0.0
 10
999.551210
 20
1683.654008
 30
0.0
 10
996.739715
 20
1685.268598
 30
0.0
 10
993.701184
 20
1685.261411
 30
0.0
  0
LWPOLYLINE
  5
40e
100
AcDbEntity
  8
Holes
 62
7
100
AcDbPolyline
 90
1
 70
1
 10
993.805499
 20
1637.214169
 30
0.0
  0
SPLINE
  5
40f
100
AcDbEntity
  8
Holes
 62
7
100
AcDbSpline
 70
8
 71
3
 72
8
 73
4
 74
0
 40
0
 40
0
 40
0
 40
0
 40
1
 40
1
 40
1
 40
1
 10
993.596869
 20
1733.308653
 30
0.0
 10
990.551406
 20
1733.312942
 30
0.0
 10
987.736146
 20
1731.688343
 30
0.0
 10
986.216014
 20
1729.049391
 30
0.0
  0
SPLINE
  5
410
100
AcDbEntity
  8
Holes
 62
7
100
AcDbSpline
 70
8
 71
3
 72
8
 73
4
 74
0
 40
0
 40
0
 40
0
 40
0
 40
1
 40
1
 40
1
 40
1
 10
986.216014
 20
1729.049391
 30
0.0
 10
984.695882
 20
1726.410439
 30
0.0
 10
984.702979
 20
1723.160060
 30
0.0
 10
986.234619
 20
1720.527772
 30
0.0
  0
SPLINE
  5
411
100
AcDbEntity
  8
Holes
 62
7
100
AcDbSpline
 70
8
 71
3
 72
8
 73
4
 74
0
 40
0
 40
0
 40
0
 40
0
 40
1
 40
1
 40
1
 40
1
 10
986.234619
 20
1720.527772
 30
0.0
 10
987.766260
 20
1717.895483
 30
0.0
 10
990.588588
 20
1716.283193
 30
0.0
 10
993.634003
 20
1716.300780
 30
0.0
  0
SPLINE
  5
412
100
AcDbEntity
  8
Holes
 62
7
100
AcDbSpline
 70
8
 71
3
 72
8
 73
4
 74
0
 40
0
 40
0
 40
0
 40
0
 40
1
 40
1
 40
1
 40
1
 10
993.634003
 20
1716.300780
 30
0.0
 10
996.679467
 20
1716.296491
 30
0.0
 10
999.494727
 20
1717.921090
 30
0.0
 10
1001.014859
 20
1720.560042
 30
0.0
  0
SPLINE
  5
413
100
AcDbEntity
  8
Holes
 62
7
100
AcDbSpline
 70
8
 71
3
 72
8
 73
4
 74
0
 40
0
 40
0
 40
0
 40
0
 40
1
 40
1
 40
1
 40
1
 10
1001.014859
 20
1720.560042
 30
0.0
 10
1002.534991
 20
1723.198994
 30
0.0
 10
1002.527894
 20
1726.449373
 30
0.0
 10
1000.996253
 20
1729.081661
 30
0.0
  0
SPLINE
  5
414
100
AcDbEntity
  8
Holes
 62
7
100
AcDbSpline
 70
8
 71
3
 72
8
 73
4
 74
0
 40
0
 40
0
 40
0
 40
0
 40
1
 40
1
 40
1
 40
1
 10
1000.996253
 20
1729.081661
 30
0.0
 10
999.464613
 20
1731.713950
 30
0.0
 10
996.642285
 20
1733.326240
 30
0.0
 10
993.596869
 20
1733.308653
 30
0.0
  0
LWPOLYLINE
  5
415
100
AcDbEntity
  8
Holes
 62
7
100
AcDbPolyline
 90
1
 70
1
 10
993.701184
 20
1685.261411
 30
0.0
  0
SPLINE
  5
416
100
AcDbEntity
  8
Holes
 62
7
100
AcDbSpline
 70
8
 71
3
 72
8
 73
4
 74
0
 40
0
 40
0
 40
0
 40
0
 40
1
 40
1
 40
1
 40
1
 10
993.492555
 20
1781.355612
 30
0.0
 10
990.447091
 20
1781.359901
 30
0.0
 10
987.631831
 20
1779.735302
 30
0.0
 10
986.111699
 20
1777.096350
 30
0.0
  0
SPLINE
  5
417
100
AcDbEntity
  8
Holes
 62
7
100
AcDbSpline
 70
8
 71
3
 72
8
 73
4
 74
0
 40
0
 40
0
 40
0
 40
0
 40
1
 40
1
 40
1
 40
1
 10
986.111699
 20
1777.096350
 30
0.0
 10
984.591567
 20
1774.457398
 30
0.0
 10
984.598664
 20
1771.207019
 30
0.0
 10
986.130304
 20
1768.574730
 30
0.0
  0
SPLINE
  5
418
100
AcDbEntity
  8
Holes
 62
7
100
AcDbSpline
 70
8
 71
3
 72
8
 73
4
 74
0
 40
0
 40
0
 40
0
 40
0
 40
1
 40
1
 40
1
 40
1
 10
986.130304
 20
1768.574730
 30
0.0
 10
987.661945
 20
1765.942442
 30
0.0
 10
990.484273
 20
1764.330151
 30
0.0
 10
993.529688
 20
1764.347739
 30
0.0
  0
SPLINE
  5
419
100
AcDbEntity
  8
Holes
 62
7
100
AcDbSpline
 70
8
 71
3
 72
8
 73
4
 74
0
 40
0
 40
0
 40
0
 40
0
 40
1
 40
1
 40
1
 40
1
 10
993.529688
 20
1764.347739
 30
0.0
 10
996.575152
 20
1764.343450
 30
0.0
 10
999.390412
 20
1765.968049
 30
0.0
 10
1000.910544
 20
1768.607001
 30
0.0
  0
SPLINE
  5
41a
100
AcDbEntity
  8
Holes
 62
7
100
AcDbSpline
 70
8
 71
3
 72
8
 73
4
 74
0
 40
0
 40
0
 40
0
 40
0
 40
1
 40
1
 40
1
 40
1
 10
1000.910544
 20
1768.607001
 30
0.0
 10
1002.430676
 20
1771.245952
 30
0.0
 10
1002.423579
 20
1774.496331
 30
0.0
 10
1000.891939
 20
1777.128620
 30
0.0
  0
SPLINE
  5
41b
100
AcDbEntity
  8
Holes
 62
7
100
AcDbSpline
 70
8
 71
3
 72
8
 73
4
 74
0
 40
0
 40
0
 40
0
 40
0
 40
1
 40
1
 40
1
 40
1
 10
1000.891939
 20
1777.128620
 30
0.0
 10
999.360298
 20
1779.760909
 30
0.0
 10
996.537970
 20
1781.373199
 30
0.0
 10
993.492555
 20
1781.355612
 30
0.0
  0
LWPOLYLINE
  5
41c
100
AcDbEntity
  8
Holes
 62
7
100
AcDbPolyline
 90
1
 70
1
 10
993.596869
 20
1733.308653
 30
0.0
  0
SPLINE
  5
41d
100
AcDbEntity
  8
Holes
 62
7
100
AcDbSpline
 70
8
 71
3
 72
8
 73
4
 74
0
 40
0
 40
0
 40
0
 40
0
 40
1
 40
1
 40
1
 40
1
 10
993.388240
 20
1829.402854
 30
0.0
 10
990.344660
 20
1829.404319
 30
0.0
 10
987.532352
 20
1827.779105
 30
0.0
 10
986.013978
 20
1825.141319
 30
0.0
  0
SPLINE
  5
41e
100
AcDbEntity
  8
Holes
 62
7
100
AcDbSpline
 70
8
 71
3
 72
8
 73
4
 74
0
 40
0
 40
0
 40
0
 40
0
 40
1
 40
1
 40
1
 40
1
 10
986.013978
 20
1825.141319
 30
0.0
 10
984.495603
 20
1822.503534
 30
0.0
 10
984.502695
 20
1819.255404
 30
0.0
 10
986.032573
 20
1816.624274
 30
0.0
  0
SPLINE
  5
41f
100
AcDbEntity
  8
Holes
 62
7
100
AcDbSpline
 70
8
 71
3
 72
8
 73
4
 74
0
 40
0
 40
0
 40
0
 40
0
 40
1
 40
1
 40
1
 40
1
 10
986.032573
 20
1816.624274
 30
0.0
 10
987.562452
 20
1813.993143
 30
0.0
 10
990.381830
 20
1812.380226
 30
0.0
 10
993.425373
 20
1812.394981
 30
0.0
  0
SPLINE
  5
420
100
AcDbEntity
  8
Holes
 62
7
100
AcDbSpline
 70
8
 71
3
 72
8
 73
4
 74
0
 40
0
 40
0
 40
0
 40
0
 40
1
 40
1
 40
1
 40
1
 10
993.425373
 20
1812.394981
 30
0.0
 10
996.468953
 20
1812.393516
 30
0.0
 10
999.281261
 20
1814.018729
 30
0.0
 10
1000.799635
 20
1816.656515
 30
0.0
  0
SPLINE
  5
421
100
AcDbEntity
  8
Holes
 62
7
100
AcDbSpline
 70
8
 71
3
 72
8
 73
4
 74
0
 40
0
 40
0
 40
0
 40
0
 40
1
 40
1
 40
1
 40
1
 10
1000.799635
 20
1816.656515
 30
0.0
 10
1002.318010
 20
1819.294301
 30
0.0
 10
1002.310918
 20
1822.542430
 30
0.0
 10
1000.781040
 20
1825.173561
 30
0.0
  0
SPLINE
  5
422
100
AcDbEntity
  8
Holes
 62
7
100
AcDbSpline
 70
8
 71
3
 72
8
 73
4
 74
0
 40
0
 40
0
 40
0
 40
0
 40
1
 40
1
 40
1
 40
1
 10
1000.781040
 20
1825.173561
 30
0.0
 10
999.251161
 20
1827.804691
 30
0.0
 10
996.431783
 20
1829.417609
 30
0.0
 10
993.388240
 20
1829.402854
 30
0.0
  0
LWPOLYLINE
  5
423
100
AcDbEntity
  8
Holes
 62
7
100
AcDbPolyline
 90
1
 70
1
 10
993.492555
 20
1781.355612
 30
0.0
  0
SPLINE
  5
424
100
AcDbEntity
  8
Holes
 62
7
100
AcDbSpline
 70
8
 71
3
 72
8
 73
4
 74
0
 40
0
 40
0
 40
0
 40
0
 40
1
 40
1
 40
1
 40
1
 10
993.283925
 20
1877.450096
 30
0.0
 10
990.245391
 20
1877.444014
 30
0.0
 10
987.440974
 20
1875.817163
 30
0.0
 10
985.927293
 20
1873.182492
 30
0.0
  0
SPLINE
  5
425
100
AcDbEntity
  8
Holes
 62
7
100
AcDbSpline
 70
8
 71
3
 72
8
 73
4
 74
0
 40
0
 40
0
 40
0
 40
0
 40
1
 40
1
 40
1
 40
1
 10
985.927293
 20
1873.182492
 30
0.0
 10
984.413613
 20
1870.547820
 30
0.0
 10
984.420691
 20
1867.305699
 30
0.0
 10
985.945862
 20
1864.677662
 30
0.0
  0
SPLINE
  5
426
100
AcDbEntity
  8
Holes
 62
7
100
AcDbSpline
 70
8
 71
3
 72
8
 73
4
 74
0
 40
0
 40
0
 40
0
 40
0
 40
1
 40
1
 40
1
 40
1
 10
985.945862
 20
1864.677662
 30
0.0
 10
987.471033
 20
1862.049626
 30
0.0
 10
990.282527
 20
1860.435036
 30
0.0
 10
993.321058
 20
1860.442223
 30
0.0
  0
SPLINE
  5
427
100
AcDbEntity
  8
Holes
 62
7
100
AcDbSpline
 70
8
 71
3
 72
8
 73
4
 74
0
 40
0
 40
0
 40
0
 40
0
 40
1
 40
1
 40
1
 40
1
 10
993.321058
 20
1860.442223
 30
0.0
 10
996.359592
 20
1860.448304
 30
0.0
 10
999.164009
 20
1862.075155
 30
0.0
 10
1000.677690
 20
1864.709827
 30
0.0
  0
SPLINE
  5
428
100
AcDbEntity
  8
Holes
 62
7
100
AcDbSpline
 70
8
 71
3
 72
8
 73
4
 74
0
 40
0
 40
0
 40
0
 40
0
 40
1
 40
1
 40
1
 40
1
 10
1000.677690
 20
1864.709827
 30
0.0
 10
1002.191370
 20
1867.344498
 30
0.0
 10
1002.184292
 20
1870.586620
 30
0.0
 10
1000.659121
 20
1873.214656
 30
0.0
  0
SPLINE
  5
429
100
AcDbEntity
  8
Holes
 62
7
100
AcDbSpline
 70
8
 71
3
 72
8
 73
4
 74
0
 40
0
 40
0
 40
0
 40
0
 40
1
 40
1
 40
1
 40
1
 10
1000.659121
 20
1873.214656
 30
0.0
 10
999.133950
 20
1875.842693
 30
0.0
 10
996.322456
 20
1877.457283
 30
0.0
 10
993.283925
 20
1877.450096
 30
0.0
  0
LWPOLYLINE
  5
42a
100
AcDbEntity
  8
Holes
 62
7
100
AcDbPolyline
 90
1
 70
1
 10
993.388240
 20
1829.402854
 30
0.0
  0
SPLINE
  5
42b
100
AcDbEntity
  8
Holes
 62
7
100
AcDbSpline
 70
8
 71
3
 72
8
 73
4
 74
0
 40
0
 40
0
 40
0
 40
0
 40
1
 40
1
 40
1
 40
1
 10
1235.570548
 20
930.066481
 30
0.0
 10
1220.349864
 20
930.078591
 30
0.0
 10
1206.283648
 20
921.953943
 30
0.0
 10
1198.688736
 20
908.763543
 30
0.0
  0
SPLINE
  5
42c
100
AcDbEntity
  8
Holes
 62
7
100
AcDbSpline
 70
8
 71
3
 72
8
 73
4
 74
0
 40
0
 40
0
 40
0
 40
0
 40
1
 40
1
 40
1
 40
1
 10
1198.688736
 20
908.763543
 30
0.0
 10
1191.093823
 20
895.573142
 30
0.0
 10
1191.128802
 20
879.329155
 30
0.0
 10
1198.780451
 20
866.171585
 30
0.0
  0
SPLINE
  5
42d
100
AcDbEntity
  8
Holes
 62
7
100
AcDbSpline
 70
8
 71
3
 72
8
 73
4
 74
0
 40
0
 40
0
 40
0
 40
0
 40
1
 40
1
 40
1
 40
1
 10
1198.780451
 20
866.171585
 30
0.0
 10
1206.432099
 20
853.014015
 30
0.0
 10
1220.533175
 20
844.950021
 30
0.0
 10
1235.753666
 20
845.027682
 30
0.0
  0
SPLINE
  5
42e
100
AcDbEntity
  8
Holes
 62
7
100
AcDbSpline
 70
8
 71
3
 72
8
 73
4
 74
0
 40
0
 40
0
 40
0
 40
0
 40
1
 40
1
 40
1
 40
1
 10
1235.753666
 20
845.027682
 30
0.0
 10
1250.974350
 20
845.015572
 30
0.0
 10
1265.040566
 20
853.140220
 30
0.0
 10
1272.635478
 20
866.330620
 30
0.0
  0
SPLINE
  5
42f
100
AcDbEntity
  8
Holes
 62
7
100
AcDbSpline
 70
8
 71
3
 72
8
 73
4
 74
0
 40
0
 40
0
 40
0
 40
0
 40
1
 40
1
 40
1
 40
1
 10
1272.635478
 20
866.330620
 30
0.0
 10
1280.230390
 20
879.521021
 30
0.0
 10
1280.195411
 20
895.765009
 30
0.0
 10
1272.543763
 20
908.922578
 30
0.0
  0
SPLINE
  5
430
100
AcDbEntity
  8
Holes
 62
7
100
AcDbSpline
 70
8
 71
3
 72
8
 73
4
 74
0
 40
0
 40
0
 40
0
 40
0
 40
1
 40
1
 40
1
 40
1
 10
1272.543763
 20
908.922578
 30
0.0
 10
1264.892114
 20
922.080148
 30
0.0
 10
1250.791038
 20
930.144142
 30
0.0
 10
1235.570548
 20
930.066481
 30
0.0
  0
LWPOLYLINE
  5
431
100
AcDbEntity
  8
Holes
 62
7
100
AcDbPolyline
 90
1
 70
1
 10
993.283925
 20
1877.450096
 30
0.0
  0
SPLINE
  5
432
100
AcDbEntity
  8
Holes
 62
7
100
AcDbSpline
 70
8
 71
3
 72
8
 73
4
 74
0
 40
0
 40
0
 40
0
 40
0
 40
1
 40
1
 40
1
 40
1
 10
993.179950
 20
1925.497055
 30
0.0
 10
990.134486
 20
1925.501344
 30
0.0
 10
987.319226
 20
1923.876744
 30
0.0
 10
985.799094
 20
1921.237793
 30
0.0
  0
SPLINE
  5
433
100
AcDbEntity
  8
Holes
 62
7
100
AcDbSpline
 70
8
 71
3
 72
8
 73
4
 74
0
 40
0
 40
0
 40
0
 40
0
 40
1
 40
1
 40
1
 40
1
 10
985.799094
 20
1921.237793
 30
0.0
 10
984.278962
 20
1918.598841
 30
0.0
 10
984.286059
 20
1915.348462
 30
0.0
 10
985.817700
 20
1912.716173
 30
0.0
  0
SPLINE
  5
434
100
AcDbEntity
  8
Holes
 62
7
100
AcDbSpline
 70
8
 71
3
 72
8
 73
4
 74
0
 40
0
 40
0
 40
0
 40
0
 40
1
 40
1
 40
1
 40
1
 10
985.817700
 20
1912.716173
 30
0.0
 10
987.349340
 20
1910.083885
 30
0.0
 10
990.171668
 20
1908.471594
 30
0.0
 10
993.217084
 20
1908.489181
 30
0.0
  0
SPLINE
  5
435
100
AcDbEntity
  8
Holes
 62
7
100
AcDbSpline
 70
8
 71
3
 72
8
 73
4
 74
0
 40
0
 40
0
 40
0
 40
0
 40
1
 40
1
 40
1
 40
1
 10
993.217084
 20
1908.489181
 30
0.0
 10
996.262547
 20
1908.484893
 30
0.0
 10
999.077808
 20
1910.109492
 30
0.0
 10
1000.597939
 20
1912.748443
 30
0.0
  0
SPLINE
  5
436
100
AcDbEntity
  8
Holes
 62
7
100
AcDbSpline
 70
8
 71
3
 72
8
 73
4
 74
0
 40
0
 40
0
 40
0
 40
0
 40
1
 40
1
 40
1
 40
1
 10
1000.597939
 20
1912.748443
 30
0.0
 10
1002.118071
 20
1915.387395
 30
0.0
 10
1002.110974
 20
1918.637774
 30
0.0
 10
1000.579334
 20
1921.270063
 30
0.0
  0
SPLINE
  5
437
100
AcDbEntity
  8
Holes
 62
7
100
AcDbSpline
 70
8
 71
3
 72
8
 73
4
 74
0
 40
0
 40
0
 40
0
 40
0
 40
1
 40
1
 40
1
 40
1
 10
1000.579334
 20
1921.270063
 30
0.0
 10
999.047693
 20
1923.902352
 30
0.0
 10
996.225366
 20
1925.514642
 30
0.0
 10
993.179950
 20
1925.497055
 30
0.0
  0
LWPOLYLINE
  5
438
100
AcDbEntity
  8
Holes
 62
7
100
AcDbPolyline
 90
1
 70
1
 10
1235.570548
 20
930.066481
 30
0.0
  0
SPLINE
  5
439
100
AcDbEntity
  8
Holes
 62
7
100
AcDbSpline
 70
8
 71
3
 72
8
 73
4
 74
0
 40
0
 40
0
 40
0
 40
0
 40
1
 40
1
 40
1
 40
1
 10
993.075635
 20
1973.544297
 30
0.0
 10
990.030171
 20
1973.548586
 30
0.0
 10
987.214911
 20
1971.923987
 30
0.0
 10
985.694779
 20
1969.285035
 30
0.0
  0
SPLINE
  5
43a
100
AcDbEntity
  8
Holes
 62
7
100
AcDbSpline
 70
8
 71
3
 72
8
 73
4
 74
0
 40
0
 40
0
 40
0
 40
0
 40
1
 40
1
 40
1
 40
1
 10
985.694779
 20
1969.285035
 30
0.0
 10
984.174648
 20
1966.646083
 30
0.0
 10
984.181744
 20
1963.395704
 30
0.0
 10
985.713385
 20
1960.763415
 30
0.0
  0
SPLINE
  5
43b
100
AcDbEntity
  8
Holes
 62
7
100
AcDbSpline
 70
8
 71
3
 72
8
 73
4
 74
0
 40
0
 40
0
 40
0
 40
0
 40
1
 40
1
 40
1
 40
1
 10
985.713385
 20
1960.763415
 30
0.0
 10
987.245025
 20
1958.131127
 30
0.0
 10
990.067353
 20
1956.518836
 30
0.0
 10
993.112769
 20
1956.536424
 30
0.0
  0
SPLINE
  5
43c
100
AcDbEntity
  8
Holes
 62
7
100
AcDbSpline
 70
8
 71
3
 72
8
 73
4
 74
0
 40
0
 40
0
 40
0
 40
0
 40
1
 40
1
 40
1
 40
1
 10
993.112769
 20
1956.536424
 30
0.0
 10
996.158232
 20
1956.532135
 30
0.0
 10
998.973493
 20
1958.156734
 30
0.0
 10
1000.493624
 20
1960.795686
 30
0.0
  0
SPLINE
  5
43d
100
AcDbEntity
  8
Holes
 62
7
100
AcDbSpline
 70
8
 71
3
 72
8
 73
4
 74
0
 40
0
 40
0
 40
0
 40
0
 40
1
 40
1
 40
1
 40
1
 10
1000.493624
 20
1960.795686
 30
0.0
 10
1002.013756
 20
1963.434637
 30
0.0
 10
1002.006659
 20
1966.685016
 30
0.0
 10
1000.475019
 20
1969.317305
 30
0.0
  0
SPLINE
  5
43e
100
AcDbEntity
  8
Holes
 62
7
100
AcDbSpline
 70
8
 71
3
 72
8
 73
4
 74
0
 40
0
 40
0
 40
0
 40
0
 40
1
 40
1
 40
1
 40
1
 10
1000.475019
 20
1969.317305
 30
0.0
 10
998.943378
 20
1971.949594
 30
0.0
 10
996.121051
 20
1973.561884
 30
0.0
 10
993.075635
 20
1973.544297
 30
0.0
  0
LWPOLYLINE
  5
43f
100
AcDbEntity
  8
Holes
 62
7
100
AcDbPolyline
 90
1
 70
1
 10
993.179950
 20
1925.497055
 30
0.0
  0
SPLINE
  5
440
100
AcDbEntity
  8
Holes
 62
7
100
AcDbSpline
 70
8
 71
3
 72
8
 73
4
 74
0
 40
0
 40
0
 40
0
 40
0
 40
1
 40
1
 40
1
 40
1
 10
992.971320
 20
2021.591539
 30
0.0
 10
989.932786
 20
2021.585457
 30
0.0
 10
987.128369
 20
2019.958606
 30
0.0
 10
985.614689
 20
2017.323935
 30
0.0
  0
SPLINE
  5
441
100
AcDbEntity
  8
Holes
 62
7
100
AcDbSpline
 70
8
 71
3
 72
8
 73
4
 74
0
 40
0
 40
0
 40
0
 40
0
 40
1
 40
1
 40
1
 40
1
 10
985.614689
 20
2017.323935
 30
0.0
 10
984.101008
 20
2014.689263
 30
0.0
 10
984.108087
 20
2011.447142
 30
0.0
 10
985.633257
 20
2008.819105
 30
0.0
  0
SPLINE
  5
442
100
AcDbEntity
  8
Holes
 62
7
100
AcDbSpline
 70
8
 71
3
 72
8
 73
4
 74
0
 40
0
 40
0
 40
0
 40
0
 40
1
 40
1
 40
1
 40
1
 10
985.633257
 20
2008.819105
 30
0.0
 10
987.158428
 20
2006.191069
 30
0.0
 10
989.969923
 20
2004.576479
 30
0.0
 10
993.008454
 20
2004.583666
 30
0.0
  0
SPLINE
  5
443
100
AcDbEntity
  8
Holes
 62
7
100
AcDbSpline
 70
8
 71
3
 72
8
 73
4
 74
0
 40
0
 40
0
 40
0
 40
0
 40
1
 40
1
 40
1
 40
1
 10
993.008454
 20
2004.583666
 30
0.0
 10
996.046987
 20
2004.589747
 30
0.0
 10
998.851405
 20
2006.216598
 30
0.0
 10
1000.365085
 20
2008.851270
 30
0.0
  0
SPLINE
  5
444
100
AcDbEntity
  8
Holes
 62
7
100
AcDbSpline
 70
8
 71
3
 72
8
 73
4
 74
0
 40
0
 40
0
 40
0
 40
0
 40
1
 40
1
 40
1
 40
1
 10
1000.365085
 20
2008.851270
 30
0.0
 10
1001.878766
 20
2011.485941
 30
0.0
 10
1001.871687
 20
2014.728063
 30
0.0
 10
1000.346516
 20
2017.356099
 30
0.0
  0
SPLINE
  5
445
100
AcDbEntity
  8
Holes
 62
7
100
AcDbSpline
 70
8
 71
3
 72
8
 73
4
 74
0
 40
0
 40
0
 40
0
 40
0
 40
1
 40
1
 40
1
 40
1
 10
1000.346516
 20
2017.356099
 30
0.0
 10
998.821345
 20
2019.984136
 30
0.0
 10
996.009851
 20
2021.598726
 30
0.0
 10
992.971320
 20
2021.591539
 30
0.0
  0
LWPOLYLINE
  5
446
100
AcDbEntity
  8
Holes
 62
7
100
AcDbPolyline
 90
1
 70
1
 10
993.075635
 20
1973.544297
 30
0.0
  0
SPLINE
  5
447
100
AcDbEntity
  8
Holes
 62
7
100
AcDbSpline
 70
8
 71
3
 72
8
 73
4
 74
0
 40
0
 40
0
 40
0
 40
0
 40
1
 40
1
 40
1
 40
1
 10
992.867005
 20
2069.638214
 30
0.0
 10
989.818028
 20
2069.647853
 30
0.0
 10
986.997223
 20
2068.024446
 30
0.0
 10
985.473788
 20
2065.383329
 30
0.0
  0
SPLINE
  5
448
100
AcDbEntity
  8
Holes
 62
7
100
AcDbSpline
 70
8
 71
3
 72
8
 73
4
 74
0
 40
0
 40
0
 40
0
 40
0
 40
1
 40
1
 40
1
 40
1
 10
985.473788
 20
2065.383329
 30
0.0
 10
983.950353
 20
2062.742212
 30
0.0
 10
983.957459
 20
2059.487624
 30
0.0
 10
985.492412
 20
2056.853185
 30
0.0
  0
SPLINE
  5
449
100
AcDbEntity
  8
Holes
 62
7
100
AcDbSpline
 70
8
 71
3
 72
8
 73
4
 74
0
 40
0
 40
0
 40
0
 40
0
 40
1
 40
1
 40
1
 40
1
 10
985.492412
 20
2056.853185
 30
0.0
 10
987.027366
 20
2054.218746
 30
0.0
 10
989.855233
 20
2052.607671
 30
0.0
 10
992.904139
 20
2052.630624
 30
0.0
  0
SPLINE
  5
44a
100
AcDbEntity
  8
Holes
 62
7
100
AcDbSpline
 70
8
 71
3
 72
8
 73
4
 74
0
 40
0
 40
0
 40
0
 40
0
 40
1
 40
1
 40
1
 40
1
 10
992.904139
 20
2052.630624
 30
0.0
 10
995.953116
 20
2052.620985
 30
0.0
 10
998.773921
 20
2054.244393
 30
0.0
 10
1000.297356
 20
2056.885509
 30
0.0
  0
SPLINE
  5
44b
100
AcDbEntity
  8
Holes
 62
7
100
AcDbSpline
 70
8
 71
3
 72
8
 73
4
 74
0
 40
0
 40
0
 40
0
 40
0
 40
1
 40
1
 40
1
 40
1
 10
1000.297356
 20
2056.885509
 30
0.0
 10
1001.820791
 20
2059.526626
 30
0.0
 10
1001.813685
 20
2062.781214
 30
0.0
 10
1000.278731
 20
2065.415654
 30
0.0
  0
SPLINE
  5
44c
100
AcDbEntity
  8
Holes
 62
7
100
AcDbSpline
 70
8
 71
3
 72
8
 73
4
 74
0
 40
0
 40
0
 40
0
 40
0
 40
1
 40
1
 40
1
 40
1
 10
1000.278731
 20
2065.415654
 30
0.0
 10
998.743778
 20
2068.050093
 30
0.0
 10
995.915911
 20
2069.661167
 30
0.0
 10
992.867005
 20
2069.638214
 30
0.0
  0
LWPOLYLINE
  5
44d
100
AcDbEntity
  8
Holes
 62
7
100
AcDbPolyline
 90
1
 70
1
 10
992.971320
 20
2021.591539
 30
0.0
  0
SPLINE
  5
44e
100
AcDbEntity
  8
Holes
 62
7
100
AcDbSpline
 70
8
 71
3
 72
8
 73
4
 74
0
 40
0
 40
0
 40
0
 40
0
 40
1
 40
1
 40
1
 40
1
 10
992.762690
 20
2117.685740
 30
0.0
 10
989.717226
 20
2117.690029
 30
0.0
 10
986.901966
 20
2116.065430
 30
0.0
 10
985.381834
 20
2113.426478
 30
0.0
  0
SPLINE
  5
44f
100
AcDbEntity
  8
Holes
 62
7
100
AcDbSpline
 70
8
 71
3
 72
8
 73
4
 74
0
 40
0
 40
0
 40
0
 40
0
 40
1
 40
1
 40
1
 40
1
 10
985.381834
 20
2113.426478
 30
0.0
 10
983.861703
 20
2110.787526
 30
0.0
 10
983.868799
 20
2107.537147
 30
0.0
 10
985.400440
 20
2104.904858
 30
0.0
  0
SPLINE
  5
450
100
AcDbEntity
  8
Holes
 62
7
100
AcDbSpline
 70
8
 71
3
 72
8
 73
4
 74
0
 40
0
 40
0
 40
0
 40
0
 40
1
 40
1
 40
1
 40
1
 10
985.400440
 20
2104.904858
 30
0.0
 10
986.932080
 20
2102.272570
 30
0.0
 10
989.754408
 20
2100.660279
 30
0.0
 10
992.799824
 20
2100.677866
 30
0.0
  0
SPLINE
  5
451
100
AcDbEntity
  8
Holes
 62
7
100
AcDbSpline
 70
8
 71
3
 72
8
 73
4
 74
0
 40
0
 40
0
 40
0
 40
0
 40
1
 40
1
 40
1
 40
1
 10
992.799824
 20
2100.677866
 30
0.0
 10
995.845287
 20
2100.673578
 30
0.0
 10
998.660548
 20
2102.298177
 30
0.0
 10
1000.180680
 20
2104.937129
 30
0.0
  0
SPLINE
  5
452
100
AcDbEntity
  8
Holes
 62
7
100
AcDbSpline
 70
8
 71
3
 72
8
 73
4
 74
0
 40
0
 40
0
 40
0
 40
0
 40
1
 40
1
 40
1
 40
1
 10
1000.180680
 20
2104.937129
 30
0.0
 10
1001.700811
 20
2107.576080
 30
0.0
 10
1001.693715
 20
2110.826459
 30
0.0
 10
1000.162074
 20
2113.458748
 30
0.0
  0
SPLINE
  5
453
100
AcDbEntity
  8
Holes
 62
7
100
AcDbSpline
 70
8
 71
3
 72
8
 73
4
 74
0
 40
0
 40
0
 40
0
 40
0
 40
1
 40
1
 40
1
 40
1
 10
1000.162074
 20
2113.458748
 30
0.0
 10
998.630433
 20
2116.091037
 30
0.0
 10
995.808106
 20
2117.703327
 30
0.0
 10
992.762690
 20
2117.685740
 30
0.0
  0
LWPOLYLINE
  5
454
100
AcDbEntity
  8
Holes
 62
7
100
AcDbPolyline
 90
1
 70
1
 10
992.867005
 20
2069.638214
 30
0.0
  0
SPLINE
  5
455
100
AcDbEntity
  8
Holes
 62
7
100
AcDbSpline
 70
8
 71
3
 72
8
 73
4
 74
0
 40
0
 40
0
 40
0
 40
0
 40
1
 40
1
 40
1
 40
1
 10
992.658375
 20
2165.732982
 30
0.0
 10
989.619791
 20
2165.726901
 30
0.0
 10
986.815326
 20
2164.100023
 30
0.0
 10
985.301619
 20
2161.465307
 30
0.0
  0
SPLINE
  5
456
100
AcDbEntity
  8
Holes
 62
7
100
AcDbSpline
 70
8
 71
3
 72
8
 73
4
 74
0
 40
0
 40
0
 40
0
 40
0
 40
1
 40
1
 40
1
 40
1
 10
985.301619
 20
2161.465307
 30
0.0
 10
983.787913
 20
2158.830592
 30
0.0
 10
983.794992
 20
2155.588416
 30
0.0
 10
985.320188
 20
2152.960335
 30
0.0
  0
SPLINE
  5
457
100
AcDbEntity
  8
Holes
 62
7
100
AcDbSpline
 70
8
 71
3
 72
8
 73
4
 74
0
 40
0
 40
0
 40
0
 40
0
 40
1
 40
1
 40
1
 40
1
 10
985.320188
 20
2152.960335
 30
0.0
 10
986.845385
 20
2150.332254
 30
0.0
 10
989.656927
 20
2148.717638
 30
0.0
 10
992.695509
 20
2148.724825
 30
0.0
  0
SPLINE
  5
458
100
AcDbEntity
  8
Holes
 62
7
100
AcDbSpline
 70
8
 71
3
 72
8
 73
4
 74
0
 40
0
 40
0
 40
0
 40
0
 40
1
 40
1
 40
1
 40
1
 10
992.695509
 20
2148.724825
 30
0.0
 10
995.734093
 20
2148.730906
 30
0.0
 10
998.538558
 20
2150.357784
 30
0.0
 10
1000.052265
 20
2152.992500
 30
0.0
  0
SPLINE
  5
459
100
AcDbEntity
  8
Holes
 62
7
100
AcDbSpline
 70
8
 71
3
 72
8
 73
4
 74
0
 40
0
 40
0
 40
0
 40
0
 40
1
 40
1
 40
1
 40
1
 10
1000.052265
 20
2152.992500
 30
0.0
 10
1001.565971
 20
2155.627215
 30
0.0
 10
1001.558892
 20
2158.869391
 30
0.0
 10
1000.033696
 20
2161.497472
 30
0.0
  0
SPLINE
  5
45a
100
AcDbEntity
  8
Holes
 62
7
100
AcDbSpline
 70
8
 71
3
 72
8
 73
4
 74
0
 40
0
 40
0
 40
0
 40
0
 40
1
 40
1
 40
1
 40
1
 10
1000.033696
 20
2161.497472
 30
0.0
 10
998.508499
 20
2164.125553
 30
0.0
 10
995.696957
 20
2165.740169
 30
0.0
 10
992.658375
 20
2165.732982
 30
0.0
  0
LWPOLYLINE
  5
45b
100
AcDbEntity
  8
Holes
 62
7
100
AcDbPolyline
 90
1
 70
1
 10
992.762690
 20
2117.685740
 30
0.0
  0
SPLINE
  5
45c
100
AcDbEntity
  8
Holes
 62
7
100
AcDbSpline
 70
8
 71
3
 72
8
 73
4
 74
0
 40
0
 40
0
 40
0
 40
0
 40
1
 40
1
 40
1
 40
1
 10
992.554060
 20
2213.779941
 30
0.0
 10
989.515527
 20
2213.773859
 30
0.0
 10
986.711109
 20
2212.147008
 30
0.0
 10
985.197429
 20
2209.512336
 30
0.0
  0
SPLINE
  5
45d
100
AcDbEntity
  8
Holes
 62
7
100
AcDbSpline
 70
8
 71
3
 72
8
 73
4
 74
0
 40
0
 40
0
 40
0
 40
0
 40
1
 40
1
 40
1
 40
1
 10
985.197429
 20
2209.512336
 30
0.0
 10
983.683748
 20
2206.877665
 30
0.0
 10
983.690827
 20
2203.635544
 30
0.0
 10
985.215998
 20
2201.007507
 30
0.0
  0
SPLINE
  5
45e
100
AcDbEntity
  8
Holes
 62
7
100
AcDbSpline
 70
8
 71
3
 72
8
 73
4
 74
0
 40
0
 40
0
 40
0
 40
0
 40
1
 40
1
 40
1
 40
1
 10
985.215998
 20
2201.007507
 30
0.0
 10
986.741168
 20
2198.379470
 30
0.0
 10
989.552663
 20
2196.764881
 30
0.0
 10
992.591194
 20
2196.772067
 30
0.0
  0
SPLINE
  5
45f
100
AcDbEntity
  8
Holes
 62
7
100
AcDbSpline
 70
8
 71
3
 72
8
 73
4
 74
0
 40
0
 40
0
 40
0
 40
0
 40
1
 40
1
 40
1
 40
1
 10
992.591194
 20
2196.772067
 30
0.0
 10
995.629727
 20
2196.778149
 30
0.0
 10
998.434145
 20
2198.405000
 30
0.0
 10
999.947825
 20
2201.039671
 30
0.0
  0
SPLINE
  5
460
100
AcDbEntity
  8
Holes
 62
7
100
AcDbSpline
 70
8
 71
3
 72
8
 73
4
 74
0
 40
0
 40
0
 40
0
 40
0
 40
1
 40
1
 40
1
 40
1
 10
999.947825
 20
2201.039671
 30
0.0
 10
1001.461506
 20
2203.674343
 30
0.0
 10
1001.454427
 20
2206.916464
 30
0.0
 10
999.929256
 20
2209.544501
 30
0.0
  0
SPLINE
  5
461
100
AcDbEntity
  8
Holes
 62
7
100
AcDbSpline
 70
8
 71
3
 72
8
 73
4
 74
0
 40
0
 40
0
 40
0
 40
0
 40
1
 40
1
 40
1
 40
1
 10
999.929256
 20
2209.544501
 30
0.0
 10
998.404086
 20
2212.172538
 30
0.0
 10
995.592591
 20
2213.787127
 30
0.0
 10
992.554060
 20
2213.779941
 30
0.0
  0
LWPOLYLINE
  5
462
100
AcDbEntity
  8
Holes
 62
7
100
AcDbPolyline
 90
1
 70
1
 10
992.658375
 20
2165.732982
 30
0.0
  0
SPLINE
  5
463
100
AcDbEntity
  8
Holes
 62
7
100
AcDbSpline
 70
8
 71
3
 72
8
 73
4
 74
0
 40
0
 40
0
 40
0
 40
0
 40
1
 40
1
 40
1
 40
1
 10
992.449745
 20
2261.826899
 30
0.0
 10
989.399891
 20
2261.837857
 30
0.0
 10
986.577707
 20
2260.214738
 30
0.0
 10
985.053451
 20
2257.573076
 30
0.0
  0
SPLINE
  5
464
100
AcDbEntity
  8
Holes
 62
7
100
AcDbSpline
 70
8
 71
3
 72
8
 73
4
 74
0
 40
0
 40
0
 40
0
 40
0
 40
1
 40
1
 40
1
 40
1
 10
985.053451
 20
2257.573076
 30
0.0
 10
983.529196
 20
2254.931414
 30
0.0
 10
983.536304
 20
2251.675775
 30
0.0
 10
985.072080
 20
2249.040795
 30
0.0
  0
SPLINE
  5
465
100
AcDbEntity
  8
Holes
 62
7
100
AcDbSpline
 70
8
 71
3
 72
8
 73
4
 74
0
 40
0
 40
0
 40
0
 40
0
 40
1
 40
1
 40
1
 40
1
 10
985.072080
 20
2249.040795
 30
0.0
 10
986.607857
 20
2246.405814
 30
0.0
 10
989.437102
 20
2244.795033
 30
0.0
 10
992.486879
 20
2244.819309
 30
0.0
  0
SPLINE
  5
466
100
AcDbEntity
  8
Holes
 62
7
100
AcDbSpline
 70
8
 71
3
 72
8
 73
4
 74
0
 40
0
 40
0
 40
0
 40
0
 40
1
 40
1
 40
1
 40
1
 10
992.486879
 20
2244.819309
 30
0.0
 10
995.536733
 20
2244.808351
 30
0.0
 10
998.358917
 20
2246.431471
 30
0.0
 10
999.883173
 20
2249.073133
 30
0.0
  0
SPLINE
  5
467
100
AcDbEntity
  8
Holes
 62
7
100
AcDbSpline
 70
8
 71
3
 72
8
 73
4
 74
0
 40
0
 40
0
 40
0
 40
0
 40
1
 40
1
 40
1
 40
1
 10
999.883173
 20
2249.073133
 30
0.0
 10
1001.407429
 20
2251.714794
 30
0.0
 10
1001.400320
 20
2254.970434
 30
0.0
 10
999.864544
 20
2257.605414
 30
0.0
  0
SPLINE
  5
468
100
AcDbEntity
  8
Holes
 62
7
100
AcDbSpline
 70
8
 71
3
 72
8
 73
4
 74
0
 40
0
 40
0
 40
0
 40
0
 40
1
 40
1
 40
1
 40
1
 10
999.864544
 20
2257.605414
 30
0.0
 10
998.328767
 20
2260.240394
 30
0.0
 10
995.499522
 20
2261.851175
 30
0.0
 10
992.449745
 20
2261.826899
 30
0.0
  0
LWPOLYLINE
  5
469
100
AcDbEntity
  8
Holes
 62
7
100
AcDbPolyline
 90
1
 70
1
 10
992.554060
 20
2213.779941
 30
0.0
  0
SPLINE
  5
46a
100
AcDbEntity
  8
Holes
 62
7
100
AcDbSpline
 70
8
 71
3
 72
8
 73
4
 74
0
 40
0
 40
0
 40
0
 40
0
 40
1
 40
1
 40
1
 40
1
 10
1475.006368
 20
1301.924072
 30
0.0
 10
1471.961394
 20
1301.927959
 30
0.0
 10
1469.146716
 20
1300.303532
 30
0.0
 10
1467.626711
 20
1297.665074
 30
0.0
  0
SPLINE
  5
46b
100
AcDbEntity
  8
Holes
 62
7
100
AcDbSpline
 70
8
 71
3
 72
8
 73
4
 74
0
 40
0
 40
0
 40
0
 40
0
 40
1
 40
1
 40
1
 40
1
 10
1467.626711
 20
1297.665074
 30
0.0
 10
1466.106706
 20
1295.026616
 30
0.0
 10
1466.113368
 20
1291.776827
 30
0.0
 10
1467.644178
 20
1289.144622
 30
0.0
  0
SPLINE
  5
46c
100
AcDbEntity
  8
Holes
 62
7
100
AcDbSpline
 70
8
 71
3
 72
8
 73
4
 74
0
 40
0
 40
0
 40
0
 40
0
 40
1
 40
1
 40
1
 40
1
 10
1467.644178
 20
1289.144622
 30
0.0
 10
1469.174988
 20
1286.512418
 30
0.0
 10
1471.996302
 20
1284.899545
 30
0.0
 10
1475.041234
 20
1284.915916
 30
0.0
  0
SPLINE
  5
46d
100
AcDbEntity
  8
Holes
 62
7
100
AcDbSpline
 70
8
 71
3
 72
8
 73
4
 74
0
 40
0
 40
0
 40
0
 40
0
 40
1
 40
1
 40
1
 40
1
 10
1475.041234
 20
1284.915916
 30
0.0
 10
1478.086208
 20
1284.912029
 30
0.0
 10
1480.900885
 20
1286.536456
 30
0.0
 10
1482.420891
 20
1289.174914
 30
0.0
  0
SPLINE
  5
46e
100
AcDbEntity
  8
Holes
 62
7
100
AcDbSpline
 70
8
 71
3
 72
8
 73
4
 74
0
 40
0
 40
0
 40
0
 40
0
 40
1
 40
1
 40
1
 40
1
 10
1482.420891
 20
1289.174914
 30
0.0
 10
1483.940896
 20
1291.813373
 30
0.0
 10
1483.934234
 20
1295.063161
 30
0.0
 10
1482.403424
 20
1297.695366
 30
0.0
  0
SPLINE
  5
46f
100
AcDbEntity
  8
Holes
 62
7
100
AcDbSpline
 70
8
 71
3
 72
8
 73
4
 74
0
 40
0
 40
0
 40
0
 40
0
 40
1
 40
1
 40
1
 40
1
 10
1482.403424
 20
1297.695366
 30
0.0
 10
1480.872614
 20
1300.327570
 30
0.0
 10
1478.051300
 20
1301.940443
 30
0.0
 10
1475.006368
 20
1301.924072
 30
0.0
  0
LWPOLYLINE
  5
470
100
AcDbEntity
  8
Holes
 62
7
100
AcDbPolyline
 90
1
 70
1
 10
992.449745
 20
2261.826899
 30
0.0
  0
SPLINE
  5
471
100
AcDbEntity
  8
Holes
 62
7
100
AcDbSpline
 70
8
 71
3
 72
8
 73
4
 74
0
 40
0
 40
0
 40
0
 40
0
 40
1
 40
1
 40
1
 40
1
 10
1474.902053
 20
1349.971031
 30
0.0
 10
1471.852971
 20
1349.981237
 30
0.0
 10
1469.031783
 20
1348.358242
 30
0.0
 10
1467.507896
 20
1345.717262
 30
0.0
  0
SPLINE
  5
472
100
AcDbEntity
  8
Holes
 62
7
100
AcDbSpline
 70
8
 71
3
 72
8
 73
4
 74
0
 40
0
 40
0
 40
0
 40
0
 40
1
 40
1
 40
1
 40
1
 10
1467.507896
 20
1345.717262
 30
0.0
 10
1465.984010
 20
1343.076283
 30
0.0
 10
1465.990682
 20
1339.821567
 30
0.0
 10
1467.525384
 20
1337.186858
 30
0.0
  0
SPLINE
  5
473
100
AcDbEntity
  8
Holes
 62
7
100
AcDbSpline
 70
8
 71
3
 72
8
 73
4
 74
0
 40
0
 40
0
 40
0
 40
0
 40
1
 40
1
 40
1
 40
1
 10
1467.525384
 20
1337.186858
 30
0.0
 10
1469.060086
 20
1334.552149
 30
0.0
 10
1471.887905
 20
1332.940734
 30
0.0
 10
1474.936919
 20
1332.963441
 30
0.0
  0
SPLINE
  5
474
100
AcDbEntity
  8
Holes
 62
7
100
AcDbSpline
 70
8
 71
3
 72
8
 73
4
 74
0
 40
0
 40
0
 40
0
 40
0
 40
1
 40
1
 40
1
 40
1
 10
1474.936919
 20
1332.963441
 30
0.0
 10
1477.986000
 20
1332.953235
 30
0.0
 10
1480.807189
 20
1334.576231
 30
0.0
 10
1482.331076
 20
1337.217210
 30
0.0
  0
SPLINE
  5
475
100
AcDbEntity
  8
Holes
 62
7
100
AcDbSpline
 70
8
 71
3
 72
8
 73
4
 74
0
 40
0
 40
0
 40
0
 40
0
 40
1
 40
1
 40
1
 40
1
 10
1482.331076
 20
1337.217210
 30
0.0
 10
1483.854962
 20
1339.858189
 30
0.0
 10
1483.848290
 20
1343.112905
 30
0.0
 10
1482.313588
 20
1345.747614
 30
0.0
  0
SPLINE
  5
476
100
AcDbEntity
  8
Holes
 62
7
100
AcDbSpline
 70
8
 71
3
 72
8
 73
4
 74
0
 40
0
 40
0
 40
0
 40
0
 40
1
 40
1
 40
1
 40
1
 10
1482.313588
 20
1345.747614
 30
0.0
 10
1480.778886
 20
1348.382323
 30
0.0
 10
1477.951067
 20
1349.993739
 30
0.0
 10
1474.902053
 20
1349.971031
 30
0.0
  0
LWPOLYLINE
  5
477
100
AcDbEntity
  8
Holes
 62
7
100
AcDbPolyline
 90
1
 70
1
 10
1475.006368
 20
1301.924072
 30
0.0
  0
SPLINE
  5
478
100
AcDbEntity
  8
Holes
 62
7
100
AcDbSpline
 70
8
 71
3
 72
8
 73
4
 74
0
 40
0
 40
0
 40
0
 40
0
 40
1
 40
1
 40
1
 40
1
 10
1474.797738
 20
1398.018273
 30
0.0
 10
1470.101143
 20
1398.008645
 30
0.0
 10
1466.301606
 20
1394.193498
 30
0.0
 10
1466.311234
 20
1389.496904
 30
0.0
  0
SPLINE
  5
479
100
AcDbEntity
  8
Holes
 62
7
100
AcDbSpline
 70
8
 71
3
 72
8
 73
4
 74
0
 40
0
 40
0
 40
0
 40
0
 40
1
 40
1
 40
1
 40
1
 10
1466.311234
 20
1389.496904
 30
0.0
 10
1466.320862
 20
1384.800309
 30
0.0
 10
1470.136010
 20
1381.000772
 30
0.0
 10
1474.832604
 20
1381.010400
 30
0.0
  0
SPLINE
  5
47a
100
AcDbEntity
  8
Holes
 62
7
100
AcDbSpline
 70
8
 71
3
 72
8
 73
4
 74
0
 40
0
 40
0
 40
0
 40
0
 40
1
 40
1
 40
1
 40
1
 10
1474.832604
 20
1381.010400
 30
0.0
 10
1479.529199
 20
1381.020028
 30
0.0
 10
1483.328736
 20
1384.835175
 30
0.0
 10
1483.319108
 20
1389.531770
 30
0.0
  0
SPLINE
  5
47b
100
AcDbEntity
  8
Holes
 62
7
100
AcDbSpline
 70
8
 71
3
 72
8
 73
4
 74
0
 40
0
 40
0
 40
0
 40
0
 40
1
 40
1
 40
1
 40
1
 10
1483.319108
 20
1389.531770
 30
0.0
 10
1483.309480
 20
1394.228364
 30
0.0
 10
1479.494332
 20
1398.027901
 30
0.0
 10
1474.797738
 20
1398.018273
 30
0.0
  0
LWPOLYLINE
  5
47c
100
AcDbEntity
  8
Holes
 62
7
100
AcDbPolyline
 90
1
 70
1
 10
1474.902053
 20
1349.971031
 30
0.0
  0
SPLINE
  5
47d
100
AcDbEntity
  8
Holes
 62
7
100
AcDbSpline
 70
8
 71
3
 72
8
 73
4
 74
0
 40
0
 40
0
 40
0
 40
0
 40
1
 40
1
 40
1
 40
1
 10
1474.693423
 20
1446.065232
 30
0.0
 10
1471.648500
 20
1446.069118
 30
0.0
 10
1468.833869
 20
1444.444719
 30
0.0
 10
1467.313889
 20
1441.806304
 30
0.0
  0
SPLINE
  5
47e
100
AcDbEntity
  8
Holes
 62
7
100
AcDbSpline
 70
8
 71
3
 72
8
 73
4
 74
0
 40
0
 40
0
 40
0
 40
0
 40
1
 40
1
 40
1
 40
1
 10
1467.313889
 20
1441.806304
 30
0.0
 10
1465.793909
 20
1439.167890
 30
0.0
 10
1465.800571
 20
1435.918155
 30
0.0
 10
1467.331356
 20
1433.285994
 30
0.0
  0
SPLINE
  5
47f
100
AcDbEntity
  8
Holes
 62
7
100
AcDbSpline
 70
8
 71
3
 72
8
 73
4
 74
0
 40
0
 40
0
 40
0
 40
0
 40
1
 40
1
 40
1
 40
1
 10
1467.331356
 20
1433.285994
 30
0.0
 10
1468.862141
 20
1430.653834
 30
0.0
 10
1471.683408
 20
1429.040988
 30
0.0
 10
1474.728289
 20
1429.057359
 30
0.0
  0
SPLINE
  5
480
100
AcDbEntity
  8
Holes
 62
7
100
AcDbSpline
 70
8
 71
3
 72
8
 73
4
 74
0
 40
0
 40
0
 40
0
 40
0
 40
1
 40
1
 40
1
 40
1
 10
1474.728289
 20
1429.057359
 30
0.0
 10
1477.773212
 20
1429.053472
 30
0.0
 10
1480.587843
 20
1430.677872
 30
0.0
 10
1482.107823
 20
1433.316286
 30
0.0
  0
SPLINE
  5
481
100
AcDbEntity
  8
Holes
 62
7
100
AcDbSpline
 70
8
 71
3
 72
8
 73
4
 74
0
 40
0
 40
0
 40
0
 40
0
 40
1
 40
1
 40
1
 40
1
 10
1482.107823
 20
1433.316286
 30
0.0
 10
1483.627803
 20
1435.954701
 30
0.0
 10
1483.621141
 20
1439.204435
 30
0.0
 10
1482.090356
 20
1441.836596
 30
0.0
  0
SPLINE
  5
482
100
AcDbEntity
  8
Holes
 62
7
100
AcDbSpline
 70
8
 71
3
 72
8
 73
4
 74
0
 40
0
 40
0
 40
0
 40
0
 40
1
 40
1
 40
1
 40
1
 10
1482.090356
 20
1441.836596
 30
0.0
 10
1480.559572
 20
1444.468756
 30
0.0
 10
1477.738304
 20
1446.081602
 30
0.0
 10
1474.693423
 20
1446.065232
 30
0.0
  0
LWPOLYLINE
  5
483
100
AcDbEntity
  8
Holes
 62
7
100
AcDbPolyline
 90
1
 70
1
 10
1474.797738
 20
1398.018273
 30
0.0
  0
SPLINE
  5
484
100
AcDbEntity
  8
Holes
 62
7
100
AcDbSpline
 70
8
 71
3
 72
8
 73
4
 74
0
 40
0
 40
0
 40
0
 40
0
 40
1
 40
1
 40
1
 40
1
 10
1474.589108
 20
1494.112474
 30
0.0
 10
1471.540027
 20
1494.122680
 30
0.0
 10
1468.718838
 20
1492.499684
 30
0.0
 10
1467.194951
 20
1489.858705
 30
0.0
  0
SPLINE
  5
485
100
AcDbEntity
  8
Holes
 62
7
100
AcDbSpline
 70
8
 71
3
 72
8
 73
4
 74
0
 40
0
 40
0
 40
0
 40
0
 40
1
 40
1
 40
1
 40
1
 10
1467.194951
 20
1489.858705
 30
0.0
 10
1465.671065
 20
1487.217726
 30
0.0
 10
1465.677737
 20
1483.963010
 30
0.0
 10
1467.212439
 20
1481.328301
 30
0.0
  0
SPLINE
  5
486
100
AcDbEntity
  8
Holes
 62
7
100
AcDbSpline
 70
8
 71
3
 72
8
 73
4
 74
0
 40
0
 40
0
 40
0
 40
0
 40
1
 40
1
 40
1
 40
1
 10
1467.212439
 20
1481.328301
 30
0.0
 10
1468.747141
 20
1478.693592
 30
0.0
 10
1471.574960
 20
1477.082177
 30
0.0
 10
1474.623974
 20
1477.104884
 30
0.0
  0
SPLINE
  5
487
100
AcDbEntity
  8
Holes
 62
7
100
AcDbSpline
 70
8
 71
3
 72
8
 73
4
 74
0
 40
0
 40
0
 40
0
 40
0
 40
1
 40
1
 40
1
 40
1
 10
1474.623974
 20
1477.104884
 30
0.0
 10
1477.673056
 20
1477.094678
 30
0.0
 10
1480.494244
 20
1478.717674
 30
0.0
 10
1482.018131
 20
1481.358653
 30
0.0
  0
SPLINE
  5
488
100
AcDbEntity
  8
Holes
 62
7
100
AcDbSpline
 70
8
 71
3
 72
8
 73
4
 74
0
 40
0
 40
0
 40
0
 40
0
 40
1
 40
1
 40
1
 40
1
 10
1482.018131
 20
1481.358653
 30
0.0
 10
1483.542018
 20
1483.999632
 30
0.0
 10
1483.535345
 20
1487.254348
 30
0.0
 10
1482.000643
 20
1489.889057
 30
0.0
  0
SPLINE
  5
489
100
AcDbEntity
  8
Holes
 62
7
100
AcDbSpline
 70
8
 71
3
 72
8
 73
4
 74
0
 40
0
 40
0
 40
0
 40
0
 40
1
 40
1
 40
1
 40
1
 10
1482.000643
 20
1489.889057
 30
0.0
 10
1480.465941
 20
1492.523766
 30
0.0
 10
1477.638122
 20
1494.135181
 30
0.0
 10
1474.589108
 20
1494.112474
 30
0.0
  0
LWPOLYLINE
  5
48a
100
AcDbEntity
  8
Holes
 62
7
100
AcDbPolyline
 90
1
 70
1
 10
1474.693423
 20
1446.065232
 30
0.0
  0
SPLINE
  5
48b
100
AcDbEntity
  8
Holes
 62
7
100
AcDbSpline
 70
8
 71
3
 72
8
 73
4
 74
0
 40
0
 40
0
 40
0
 40
0
 40
1
 40
1
 40
1
 40
1
 10
1474.484793
 20
1542.159433
 30
0.0
 10
1471.435101
 20
1542.170557
 30
0.0
 10
1468.612953
 20
1540.547762
 30
0.0
 10
1467.088495
 20
1537.906403
 30
0.0
  0
SPLINE
  5
48c
100
AcDbEntity
  8
Holes
 62
7
100
AcDbSpline
 70
8
 71
3
 72
8
 73
4
 74
0
 40
0
 40
0
 40
0
 40
0
 40
1
 40
1
 40
1
 40
1
 10
1467.088495
 20
1537.906403
 30
0.0
 10
1465.564037
 20
1535.265045
 30
0.0
 10
1465.570711
 20
1532.009597
 30
0.0
 10
1467.105985
 20
1529.374511
 30
0.0
  0
SPLINE
  5
48d
100
AcDbEntity
  8
Holes
 62
7
100
AcDbSpline
 70
8
 71
3
 72
8
 73
4
 74
0
 40
0
 40
0
 40
0
 40
0
 40
1
 40
1
 40
1
 40
1
 10
1467.105985
 20
1529.374511
 30
0.0
 10
1468.641260
 20
1526.739426
 30
0.0
 10
1471.470038
 20
1525.128215
 30
0.0
 10
1474.519659
 20
1525.151843
 30
0.0
  0
SPLINE
  5
48e
100
AcDbEntity
  8
Holes
 62
7
100
AcDbSpline
 70
8
 71
3
 72
8
 73
4
 74
0
 40
0
 40
0
 40
0
 40
0
 40
1
 40
1
 40
1
 40
1
 10
1474.519659
 20
1525.151843
 30
0.0
 10
1477.569351
 20
1525.140718
 30
0.0
 10
1480.391500
 20
1526.763514
 30
0.0
 10
1481.915958
 20
1529.404872
 30
0.0
  0
SPLINE
  5
48f
100
AcDbEntity
  8
Holes
 62
7
100
AcDbSpline
 70
8
 71
3
 72
8
 73
4
 74
0
 40
0
 40
0
 40
0
 40
0
 40
1
 40
1
 40
1
 40
1
 10
1481.915958
 20
1529.404872
 30
0.0
 10
1483.440415
 20
1532.046231
 30
0.0
 10
1483.433742
 20
1535.301678
 30
0.0
 10
1481.898467
 20
1537.936764
 30
0.0
  0
SPLINE
  5
490
100
AcDbEntity
  8
Holes
 62
7
100
AcDbSpline
 70
8
 71
3
 72
8
 73
4
 74
0
 40
0
 40
0
 40
0
 40
0
 40
1
 40
1
 40
1
 40
1
 10
1481.898467
 20
1537.936764
 30
0.0
 10
1480.363192
 20
1540.571850
 30
0.0
 10
1477.534414
 20
1542.183061
 30
0.0
 10
1474.484793
 20
1542.159433
 30
0.0
  0
LWPOLYLINE
  5
491
100
AcDbEntity
  8
Holes
 62
7
100
AcDbPolyline
 90
1
 70
1
 10
1474.589108
 20
1494.112474
 30
0.0
  0
SPLINE
  5
492
100
AcDbEntity
  8
Holes
 62
7
100
AcDbSpline
 70
8
 71
3
 72
8
 73
4
 74
0
 40
0
 40
0
 40
0
 40
0
 40
1
 40
1
 40
1
 40
1
 10
1474.380478
 20
1590.206958
 30
0.0
 10
1471.342264
 20
1590.200730
 30
0.0
 10
1468.538160
 20
1588.574107
 30
0.0
 10
1467.024447
 20
1585.939822
 30
0.0
  0
SPLINE
  5
493
100
AcDbEntity
  8
Holes
 62
7
100
AcDbSpline
 70
8
 71
3
 72
8
 73
4
 74
0
 40
0
 40
0
 40
0
 40
0
 40
1
 40
1
 40
1
 40
1
 10
1467.024447
 20
1585.939822
 30
0.0
 10
1465.510733
 20
1583.305536
 30
0.0
 10
1465.517379
 20
1580.063800
 30
0.0
 10
1467.041880
 20
1577.435743
 30
0.0
  0
SPLINE
  5
494
100
AcDbEntity
  8
Holes
 62
7
100
AcDbSpline
 70
8
 71
3
 72
8
 73
4
 74
0
 40
0
 40
0
 40
0
 40
0
 40
1
 40
1
 40
1
 40
1
 10
1467.041880
 20
1577.435743
 30
0.0
 10
1468.566381
 20
1574.807686
 30
0.0
 10
1471.377130
 20
1573.192573
 30
0.0
 10
1474.415344
 20
1573.198802
 30
0.0
  0
SPLINE
  5
495
100
AcDbEntity
  8
Holes
 62
7
100
AcDbSpline
 70
8
 71
3
 72
8
 73
4
 74
0
 40
0
 40
0
 40
0
 40
0
 40
1
 40
1
 40
1
 40
1
 10
1474.415344
 20
1573.198802
 30
0.0
 10
1477.453559
 20
1573.205030
 30
0.0
 10
1480.257662
 20
1574.831653
 30
0.0
 10
1481.771376
 20
1577.465938
 30
0.0
  0
SPLINE
  5
496
100
AcDbEntity
  8
Holes
 62
7
100
AcDbSpline
 70
8
 71
3
 72
8
 73
4
 74
0
 40
0
 40
0
 40
0
 40
0
 40
1
 40
1
 40
1
 40
1
 10
1481.771376
 20
1577.465938
 30
0.0
 10
1483.285089
 20
1580.100223
 30
0.0
 10
1483.278444
 20
1583.341960
 30
0.0
 10
1481.753943
 20
1585.970017
 30
0.0
  0
SPLINE
  5
497
100
AcDbEntity
  8
Holes
 62
7
100
AcDbSpline
 70
8
 71
3
 72
8
 73
4
 74
0
 40
0
 40
0
 40
0
 40
0
 40
1
 40
1
 40
1
 40
1
 10
1481.753943
 20
1585.970017
 30
0.0
 10
1480.229441
 20
1588.598073
 30
0.0
 10
1477.418693
 20
1590.213187
 30
0.0
 10
1474.380478
 20
1590.206958
 30
0.0
  0
LWPOLYLINE
  5
498
100
AcDbEntity
  8
Holes
 62
7
100
AcDbPolyline
 90
1
 70
1
 10
1474.484793
 20
1542.159433
 30
0.0
  0
SPLINE
  5
499
100
AcDbEntity
  8
Holes
 62
7
100
AcDbSpline
 70
8
 71
3
 72
8
 73
4
 74
0
 40
0
 40
0
 40
0
 40
0
 40
1
 40
1
 40
1
 40
1
 10
1474.276163
 20
1638.253917
 30
0.0
 10
1471.231261
 20
1638.257721
 30
0.0
 10
1468.416690
 20
1636.633268
 30
0.0
 10
1466.896774
 20
1633.994841
 30
0.0
  0
SPLINE
  5
49a
100
AcDbEntity
  8
Holes
 62
7
100
AcDbSpline
 70
8
 71
3
 72
8
 73
4
 74
0
 40
0
 40
0
 40
0
 40
0
 40
1
 40
1
 40
1
 40
1
 10
1466.896774
 20
1633.994841
 30
0.0
 10
1465.376857
 20
1631.356414
 30
0.0
 10
1465.383573
 20
1628.106704
 30
0.0
 10
1466.914382
 20
1625.474582
 30
0.0
  0
SPLINE
  5
49b
100
AcDbEntity
  8
Holes
 62
7
100
AcDbSpline
 70
8
 71
3
 72
8
 73
4
 74
0
 40
0
 40
0
 40
0
 40
0
 40
1
 40
1
 40
1
 40
1
 10
1466.914382
 20
1625.474582
 30
0.0
 10
1468.445191
 20
1622.842460
 30
0.0
 10
1471.266452
 20
1621.229654
 30
0.0
 10
1474.311313
 20
1621.246044
 30
0.0
  0
SPLINE
  5
49c
100
AcDbEntity
  8
Holes
 62
7
100
AcDbSpline
 70
8
 71
3
 72
8
 73
4
 74
0
 40
0
 40
0
 40
0
 40
0
 40
1
 40
1
 40
1
 40
1
 10
1474.311313
 20
1621.246044
 30
0.0
 10
1477.356215
 20
1621.242240
 30
0.0
 10
1480.170786
 20
1622.866693
 30
0.0
 10
1481.690702
 20
1625.505120
 30
0.0
  0
SPLINE
  5
49d
100
AcDbEntity
  8
Holes
 62
7
100
AcDbSpline
 70
8
 71
3
 72
8
 73
4
 74
0
 40
0
 40
0
 40
0
 40
0
 40
1
 40
1
 40
1
 40
1
 10
1481.690702
 20
1625.505120
 30
0.0
 10
1483.210619
 20
1628.143547
 30
0.0
 10
1483.203903
 20
1631.393256
 30
0.0
 10
1481.673094
 20
1634.025379
 30
0.0
  0
SPLINE
  5
49e
100
AcDbEntity
  8
Holes
 62
7
100
AcDbSpline
 70
8
 71
3
 72
8
 73
4
 74
0
 40
0
 40
0
 40
0
 40
0
 40
1
 40
1
 40
1
 40
1
 10
1481.673094
 20
1634.025379
 30
0.0
 10
1480.142285
 20
1636.657501
 30
0.0
 10
1477.321023
 20
1638.270306
 30
0.0
 10
1474.276163
 20
1638.253917
 30
0.0
  0
LWPOLYLINE
  5
49f
100
AcDbEntity
  8
Holes
 62
7
100
AcDbPolyline
 90
1
 70
1
 10
1474.380478
 20
1590.206958
 30
0.0
  0
SPLINE
  5
4a0
100
AcDbEntity
  8
Holes
 62
7
100
AcDbSpline
 70
8
 71
3
 72
8
 73
4
 74
0
 40
0
 40
0
 40
0
 40
0
 40
1
 40
1
 40
1
 40
1
 10
1474.171848
 20
1686.300876
 30
0.0
 10
1471.126925
 20
1686.304762
 30
0.0
 10
1468.312294
 20
1684.680362
 30
0.0
 10
1466.792314
 20
1682.041948
 30
0.0
  0
SPLINE
  5
4a1
100
AcDbEntity
  8
Holes
 62
7
100
AcDbSpline
 70
8
 71
3
 72
8
 73
4
 74
0
 40
0
 40
0
 40
0
 40
0
 40
1
 40
1
 40
1
 40
1
 10
1466.792314
 20
1682.041948
 30
0.0
 10
1465.272334
 20
1679.403533
 30
0.0
 10
1465.278996
 20
1676.153799
 30
0.0
 10
1466.809781
 20
1673.521638
 30
0.0
  0
SPLINE
  5
4a2
100
AcDbEntity
  8
Holes
 62
7
100
AcDbSpline
 70
8
 71
3
 72
8
 73
4
 74
0
 40
0
 40
0
 40
0
 40
0
 40
1
 40
1
 40
1
 40
1
 10
1466.809781
 20
1673.521638
 30
0.0
 10
1468.340566
 20
1670.889478
 30
0.0
 10
1471.161833
 20
1669.276632
 30
0.0
 10
1474.206714
 20
1669.293002
 30
0.0
  0
SPLINE
  5
4a3
100
AcDbEntity
  8
Holes
 62
7
100
AcDbSpline
 70
8
 71
3
 72
8
 73
4
 74
0
 40
0
 40
0
 40
0
 40
0
 40
1
 40
1
 40
1
 40
1
 10
1474.206714
 20
1669.293002
 30
0.0
 10
1477.251637
 20
1669.289116
 30
0.0
 10
1480.066268
 20
1670.913515
 30
0.0
 10
1481.586248
 20
1673.551930
 30
0.0
  0
SPLINE
  5
4a4
100
AcDbEntity
  8
Holes
 62
7
100
AcDbSpline
 70
8
 71
3
 72
8
 73
4
 74
0
 40
0
 40
0
 40
0
 40
0
 40
1
 40
1
 40
1
 40
1
 10
1481.586248
 20
1673.551930
 30
0.0
 10
1483.106228
 20
1676.190344
 30
0.0
 10
1483.099566
 20
1679.440079
 30
0.0
 10
1481.568781
 20
1682.072240
 30
0.0
  0
SPLINE
  5
4a5
100
AcDbEntity
  8
Holes
 62
7
100
AcDbSpline
 70
8
 71
3
 72
8
 73
4
 74
0
 40
0
 40
0
 40
0
 40
0
 40
1
 40
1
 40
1
 40
1
 10
1481.568781
 20
1682.072240
 30
0.0
 10
1480.037997
 20
1684.704400
 30
0.0
 10
1477.216730
 20
1686.317246
 30
0.0
 10
1474.171848
 20
1686.300876
 30
0.0
  0
LWPOLYLINE
  5
4a6
100
AcDbEntity
  8
Holes
 62
7
100
AcDbPolyline
 90
1
 70
1
 10
1474.276163
 20
1638.253917
 30
0.0
  0
SPLINE
  5
4a7
100
AcDbEntity
  8
Holes
 62
7
100
AcDbSpline
 70
8
 71
3
 72
8
 73
4
 74
0
 40
0
 40
0
 40
0
 40
0
 40
1
 40
1
 40
1
 40
1
 10
1474.067533
 20
1734.348118
 30
0.0
 10
1469.370939
 20
1734.338411
 30
0.0
 10
1465.571465
 20
1730.523201
 30
0.0
 10
1465.581171
 20
1725.826606
 30
0.0
  0
SPLINE
  5
4a8
100
AcDbEntity
  8
Holes
 62
7
100
AcDbSpline
 70
8
 71
3
 72
8
 73
4
 74
0
 40
0
 40
0
 40
0
 40
0
 40
1
 40
1
 40
1
 40
1
 10
1465.581171
 20
1725.826606
 30
0.0
 10
1465.590878
 20
1721.130012
 30
0.0
 10
1469.406088
 20
1717.330538
 30
0.0
 10
1474.102683
 20
1717.340244
 30
0.0
  0
SPLINE
  5
4a9
100
AcDbEntity
  8
Holes
 62
7
100
AcDbSpline
 70
8
 71
3
 72
8
 73
4
 74
0
 40
0
 40
0
 40
0
 40
0
 40
1
 40
1
 40
1
 40
1
 10
1474.102683
 20
1717.340244
 30
0.0
 10
1477.140847
 20
1717.346523
 30
0.0
 10
1479.944876
 20
1718.973166
 30
0.0
 10
1481.458521
 20
1721.607433
 30
0.0
  0
SPLINE
  5
4aa
100
AcDbEntity
  8
Holes
 62
7
100
AcDbSpline
 70
8
 71
3
 72
8
 73
4
 74
0
 40
0
 40
0
 40
0
 40
0
 40
1
 40
1
 40
1
 40
1
 10
1481.458521
 20
1721.607433
 30
0.0
 10
1482.972165
 20
1724.241700
 30
0.0
 10
1482.965465
 20
1727.483382
 30
0.0
 10
1481.440946
 20
1730.111370
 30
0.0
  0
SPLINE
  5
4ab
100
AcDbEntity
  8
Holes
 62
7
100
AcDbSpline
 70
8
 71
3
 72
8
 73
4
 74
0
 40
0
 40
0
 40
0
 40
0
 40
1
 40
1
 40
1
 40
1
 10
1481.440946
 20
1730.111370
 30
0.0
 10
1479.916426
 20
1732.739357
 30
0.0
 10
1477.105697
 20
1734.354397
 30
0.0
 10
1474.067533
 20
1734.348118
 30
0.0
  0
LWPOLYLINE
  5
4ac
100
AcDbEntity
  8
Holes
 62
7
100
AcDbPolyline
 90
1
 70
1
 10
1474.171848
 20
1686.300876
 30
0.0
  0
SPLINE
  5
4ad
100
AcDbEntity
  8
Holes
 62
7
100
AcDbSpline
 70
8
 71
3
 72
8
 73
4
 74
0
 40
0
 40
0
 40
0
 40
0
 40
1
 40
1
 40
1
 40
1
 10
1473.963218
 20
1782.395076
 30
0.0
 10
1470.911727
 20
1782.408856
 30
0.0
 10
1468.086779
 20
1780.786604
 30
0.0
 10
1466.560681
 20
1778.144103
 30
0.0
  0
SPLINE
  5
4ae
100
AcDbEntity
  8
Holes
 62
7
100
AcDbSpline
 70
8
 71
3
 72
8
 73
4
 74
0
 40
0
 40
0
 40
0
 40
0
 40
1
 40
1
 40
1
 40
1
 10
1466.560681
 20
1778.144103
 30
0.0
 10
1465.034583
 20
1775.501602
 30
0.0
 10
1465.041315
 20
1772.243997
 30
0.0
 10
1466.578323
 20
1769.607826
 30
0.0
  0
SPLINE
  5
4af
100
AcDbEntity
  8
Holes
 62
7
100
AcDbSpline
 70
8
 71
3
 72
8
 73
4
 74
0
 40
0
 40
0
 40
0
 40
0
 40
1
 40
1
 40
1
 40
1
 10
1466.578323
 20
1769.607826
 30
0.0
 10
1468.115330
 20
1766.971655
 30
0.0
 10
1470.946960
 20
1765.361094
 30
0.0
 10
1473.998368
 20
1765.387487
 30
0.0
  0
SPLINE
  5
4b0
100
AcDbEntity
  8
Holes
 62
7
100
AcDbSpline
 70
8
 71
3
 72
8
 73
4
 74
0
 40
0
 40
0
 40
0
 40
0
 40
1
 40
1
 40
1
 40
1
 10
1473.998368
 20
1765.387487
 30
0.0
 10
1477.049859
 20
1765.373707
 30
0.0
 10
1479.874808
 20
1766.995959
 30
0.0
 10
1481.400905
 20
1769.638460
 30
0.0
  0
SPLINE
  5
4b1
100
AcDbEntity
  8
Holes
 62
7
100
AcDbSpline
 70
8
 71
3
 72
8
 73
4
 74
0
 40
0
 40
0
 40
0
 40
0
 40
1
 40
1
 40
1
 40
1
 10
1481.400905
 20
1769.638460
 30
0.0
 10
1482.927003
 20
1772.280961
 30
0.0
 10
1482.920271
 20
1775.538566
 30
0.0
 10
1481.383264
 20
1778.174737
 30
0.0
  0
SPLINE
  5
4b2
100
AcDbEntity
  8
Holes
 62
7
100
AcDbSpline
 70
8
 71
3
 72
8
 73
4
 74
0
 40
0
 40
0
 40
0
 40
0
 40
1
 40
1
 40
1
 40
1
 10
1481.383264
 20
1778.174737
 30
0.0
 10
1479.846256
 20
1780.810907
 30
0.0
 10
1477.014626
 20
1782.421469
 30
0.0
 10
1473.963218
 20
1782.395076
 30
0.0
  0
LWPOLYLINE
  5
4b3
100
AcDbEntity
  8
Holes
 62
7
100
AcDbPolyline
 90
1
 70
1
 10
1474.067533
 20
1734.348118
 30
0.0
  0
SPLINE
  5
4b4
100
AcDbEntity
  8
Holes
 62
7
100
AcDbSpline
 70
8
 71
3
 72
8
 73
4
 74
0
 40
0
 40
0
 40
0
 40
0
 40
1
 40
1
 40
1
 40
1
 10
1473.858903
 20
1830.442602
 30
0.0
 10
1470.813930
 20
1830.446488
 30
0.0
 10
1467.999252
 20
1828.822062
 30
0.0
 10
1466.479247
 20
1826.183604
 30
0.0
  0
SPLINE
  5
4b5
100
AcDbEntity
  8
Holes
 62
7
100
AcDbSpline
 70
8
 71
3
 72
8
 73
4
 74
0
 40
0
 40
0
 40
0
 40
0
 40
1
 40
1
 40
1
 40
1
 10
1466.479247
 20
1826.183604
 30
0.0
 10
1464.959241
 20
1823.545145
 30
0.0
 10
1464.965903
 20
1820.295356
 30
0.0
 10
1466.496713
 20
1817.663152
 30
0.0
  0
SPLINE
  5
4b6
100
AcDbEntity
  8
Holes
 62
7
100
AcDbSpline
 70
8
 71
3
 72
8
 73
4
 74
0
 40
0
 40
0
 40
0
 40
0
 40
1
 40
1
 40
1
 40
1
 10
1466.496713
 20
1817.663152
 30
0.0
 10
1468.027523
 20
1815.030947
 30
0.0
 10
1470.848837
 20
1813.418075
 30
0.0
 10
1473.893769
 20
1813.434445
 30
0.0
  0
SPLINE
  5
4b7
100
AcDbEntity
  8
Holes
 62
7
100
AcDbSpline
 70
8
 71
3
 72
8
 73
4
 74
0
 40
0
 40
0
 40
0
 40
0
 40
1
 40
1
 40
1
 40
1
 10
1473.893769
 20
1813.434445
 30
0.0
 10
1476.938743
 20
1813.430559
 30
0.0
 10
1479.753421
 20
1815.054985
 30
0.0
 10
1481.273426
 20
1817.693444
 30
0.0
  0
SPLINE
  5
4b8
100
AcDbEntity
  8
Holes
 62
7
100
AcDbSpline
 70
8
 71
3
 72
8
 73
4
 74
0
 40
0
 40
0
 40
0
 40
0
 40
1
 40
1
 40
1
 40
1
 10
1481.273426
 20
1817.693444
 30
0.0
 10
1482.793432
 20
1820.331902
 30
0.0
 10
1482.786770
 20
1823.581691
 30
0.0
 10
1481.255960
 20
1826.213895
 30
0.0
  0
SPLINE
  5
4b9
100
AcDbEntity
  8
Holes
 62
7
100
AcDbSpline
 70
8
 71
3
 72
8
 73
4
 74
0
 40
0
 40
0
 40
0
 40
0
 40
1
 40
1
 40
1
 40
1
 10
1481.255960
 20
1826.213895
 30
0.0
 10
1479.725150
 20
1828.846100
 30
0.0
 10
1476.903835
 20
1830.458972
 30
0.0
 10
1473.858903
 20
1830.442602
 30
0.0
  0
LWPOLYLINE
  5
4ba
100
AcDbEntity
  8
Holes
 62
7
100
AcDbPolyline
 90
1
 70
1
 10
1473.963218
 20
1782.395076
 30
0.0
  0
SPLINE
  5
4bb
100
AcDbEntity
  8
Holes
 62
7
100
AcDbSpline
 70
8
 71
3
 72
8
 73
4
 74
0
 40
0
 40
0
 40
0
 40
0
 40
1
 40
1
 40
1
 40
1
 10
1473.754588
 20
1878.489844
 30
0.0
 10
1470.709636
 20
1878.493648
 30
0.0
 10
1467.895018
 20
1876.869168
 30
0.0
 10
1466.375076
 20
1874.230697
 30
0.0
  0
SPLINE
  5
4bc
100
AcDbEntity
  8
Holes
 62
7
100
AcDbSpline
 70
8
 71
3
 72
8
 73
4
 74
0
 40
0
 40
0
 40
0
 40
0
 40
1
 40
1
 40
1
 40
1
 10
1466.375076
 20
1874.230697
 30
0.0
 10
1464.855134
 20
1871.592226
 30
0.0
 10
1464.861850
 20
1868.342463
 30
0.0
 10
1466.392684
 20
1865.710296
 30
0.0
  0
SPLINE
  5
4bd
100
AcDbEntity
  8
Holes
 62
7
100
AcDbSpline
 70
8
 71
3
 72
8
 73
4
 74
0
 40
0
 40
0
 40
0
 40
0
 40
1
 40
1
 40
1
 40
1
 10
1466.392684
 20
1865.710296
 30
0.0
 10
1467.923519
 20
1863.078130
 30
0.0
 10
1470.744827
 20
1861.465298
 30
0.0
 10
1473.789738
 20
1861.481687
 30
0.0
  0
SPLINE
  5
4be
100
AcDbEntity
  8
Holes
 62
7
100
AcDbSpline
 70
8
 71
3
 72
8
 73
4
 74
0
 40
0
 40
0
 40
0
 40
0
 40
1
 40
1
 40
1
 40
1
 10
1473.789738
 20
1861.481687
 30
0.0
 10
1476.834691
 20
1861.477883
 30
0.0
 10
1479.649309
 20
1863.102363
 30
0.0
 10
1481.169251
 20
1865.740834
 30
0.0
  0
SPLINE
  5
4bf
100
AcDbEntity
  8
Holes
 62
7
100
AcDbSpline
 70
8
 71
3
 72
8
 73
4
 74
0
 40
0
 40
0
 40
0
 40
0
 40
1
 40
1
 40
1
 40
1
 10
1481.169251
 20
1865.740834
 30
0.0
 10
1482.689192
 20
1868.379305
 30
0.0
 10
1482.682476
 20
1871.629069
 30
0.0
 10
1481.151642
 20
1874.261235
 30
0.0
  0
SPLINE
  5
4c0
100
AcDbEntity
  8
Holes
 62
7
100
AcDbSpline
 70
8
 71
3
 72
8
 73
4
 74
0
 40
0
 40
0
 40
0
 40
0
 40
1
 40
1
 40
1
 40
1
 10
1481.151642
 20
1874.261235
 30
0.0
 10
1479.620808
 20
1876.893401
 30
0.0
 10
1476.799499
 20
1878.506234
 30
0.0
 10
1473.754588
 20
1878.489844
 30
0.0
  0
LWPOLYLINE
  5
4c1
100
AcDbEntity
  8
Holes
 62
7
100
AcDbPolyline
 90
1
 70
1
 10
1473.858903
 20
1830.442602
 30
0.0
  0
SPLINE
  5
4c2
100
AcDbEntity
  8
Holes
 62
7
100
AcDbSpline
 70
8
 71
3
 72
8
 73
4
 74
0
 40
0
 40
0
 40
0
 40
0
 40
1
 40
1
 40
1
 40
1
 10
1473.650273
 20
1926.536519
 30
0.0
 10
1470.610632
 20
1926.532448
 30
0.0
 10
1467.804294
 20
1924.906284
 30
0.0
 10
1466.289276
 20
1922.271106
 30
0.0
  0
SPLINE
  5
4c3
100
AcDbEntity
  8
Holes
 62
7
100
AcDbSpline
 70
8
 71
3
 72
8
 73
4
 74
0
 40
0
 40
0
 40
0
 40
0
 40
1
 40
1
 40
1
 40
1
 10
1466.289276
 20
1922.271106
 30
0.0
 10
1464.774259
 20
1919.635929
 30
0.0
 10
1464.780962
 20
1916.392490
 30
0.0
 10
1466.306859
 20
1913.763597
 30
0.0
  0
SPLINE
  5
4c4
100
AcDbEntity
  8
Holes
 62
7
100
AcDbSpline
 70
8
 71
3
 72
8
 73
4
 74
0
 40
0
 40
0
 40
0
 40
0
 40
1
 40
1
 40
1
 40
1
 10
1466.306859
 20
1913.763597
 30
0.0
 10
1467.832755
 20
1911.134704
 30
0.0
 10
1470.645791
 20
1909.520153
 30
0.0
 10
1473.685423
 20
1909.528646
 30
0.0
  0
SPLINE
  5
4c5
100
AcDbEntity
  8
Holes
 62
7
100
AcDbSpline
 70
8
 71
3
 72
8
 73
4
 74
0
 40
0
 40
0
 40
0
 40
0
 40
1
 40
1
 40
1
 40
1
 10
1473.685423
 20
1909.528646
 30
0.0
 10
1476.725065
 20
1909.532717
 30
0.0
 10
1479.531403
 20
1911.158882
 30
0.0
 10
1481.046420
 20
1913.794059
 30
0.0
  0
SPLINE
  5
4c6
100
AcDbEntity
  8
Holes
 62
7
100
AcDbSpline
 70
8
 71
3
 72
8
 73
4
 74
0
 40
0
 40
0
 40
0
 40
0
 40
1
 40
1
 40
1
 40
1
 10
1481.046420
 20
1913.794059
 30
0.0
 10
1482.561437
 20
1916.429236
 30
0.0
 10
1482.554734
 20
1919.672675
 30
0.0
 10
1481.028838
 20
1922.301568
 30
0.0
  0
SPLINE
  5
4c7
100
AcDbEntity
  8
Holes
 62
7
100
AcDbSpline
 70
8
 71
3
 72
8
 73
4
 74
0
 40
0
 40
0
 40
0
 40
0
 40
1
 40
1
 40
1
 40
1
 10
1481.028838
 20
1922.301568
 30
0.0
 10
1479.502941
 20
1924.930461
 30
0.0
 10
1476.689906
 20
1926.545012
 30
0.0
 10
1473.650273
 20
1926.536519
 30
0.0
  0
LWPOLYLINE
  5
4c8
100
AcDbEntity
  8
Holes
 62
7
100
AcDbPolyline
 90
1
 70
1
 10
1473.754588
 20
1878.489844
 30
0.0
  0
SPLINE
  5
4c9
100
AcDbEntity
  8
Holes
 62
7
100
AcDbSpline
 70
8
 71
3
 72
8
 73
4
 74
0
 40
0
 40
0
 40
0
 40
0
 40
1
 40
1
 40
1
 40
1
 10
1473.545958
 20
1974.583478
 30
0.0
 10
1470.491833
 20
1974.601355
 30
0.0
 10
1467.662677
 20
1972.980061
 30
0.0
 10
1466.134043
 20
1970.335959
 30
0.0
  0
SPLINE
  5
4ca
100
AcDbEntity
  8
Holes
 62
7
100
AcDbSpline
 70
8
 71
3
 72
8
 73
4
 74
0
 40
0
 40
0
 40
0
 40
0
 40
1
 40
1
 40
1
 40
1
 10
1466.134043
 20
1970.335959
 30
0.0
 10
1464.605409
 20
1967.691856
 30
0.0
 10
1464.612094
 20
1964.431078
 30
0.0
 10
1466.151556
 20
1961.793265
 30
0.0
  0
SPLINE
  5
4cb
100
AcDbEntity
  8
Holes
 62
7
100
AcDbSpline
 70
8
 71
3
 72
8
 73
4
 74
0
 40
0
 40
0
 40
0
 40
0
 40
1
 40
1
 40
1
 40
1
 10
1466.151556
 20
1961.793265
 30
0.0
 10
1467.691019
 20
1959.155453
 30
0.0
 10
1470.526798
 20
1957.545772
 30
0.0
 10
1473.580825
 20
1957.576172
 30
0.0
  0
SPLINE
  5
4cc
100
AcDbEntity
  8
Holes
 62
7
100
AcDbSpline
 70
8
 71
3
 72
8
 73
4
 74
0
 40
0
 40
0
 40
0
 40
0
 40
1
 40
1
 40
1
 40
1
 10
1473.580825
 20
1957.576172
 30
0.0
 10
1476.634950
 20
1957.558294
 30
0.0
 10
1479.464106
 20
1959.179588
 30
0.0
 10
1480.992740
 20
1961.823691
 30
0.0
  0
SPLINE
  5
4cd
100
AcDbEntity
  8
Holes
 62
7
100
AcDbSpline
 70
8
 71
3
 72
8
 73
4
 74
0
 40
0
 40
0
 40
0
 40
0
 40
1
 40
1
 40
1
 40
1
 10
1480.992740
 20
1961.823691
 30
0.0
 10
1482.521374
 20
1964.467793
 30
0.0
 10
1482.514690
 20
1967.728571
 30
0.0
 10
1480.975227
 20
1970.366384
 30
0.0
  0
SPLINE
  5
4ce
100
AcDbEntity
  8
Holes
 62
7
100
AcDbSpline
 70
8
 71
3
 72
8
 73
4
 74
0
 40
0
 40
0
 40
0
 40
0
 40
1
 40
1
 40
1
 40
1
 10
1480.975227
 20
1970.366384
 30
0.0
 10
1479.435764
 20
1973.004197
 30
0.0
 10
1476.599985
 20
1974.613877
 30
0.0
 10
1473.545958
 20
1974.583478
 30
0.0
  0
LWPOLYLINE
  5
4cf
100
AcDbEntity
  8
Holes
 62
7
100
AcDbPolyline
 90
1
 70
1
 10
1473.650273
 20
1926.536519
 30
0.0
  0
SPLINE
  5
4d0
100
AcDbEntity
  8
Holes
 62
7
100
AcDbSpline
 70
8
 71
3
 72
8
 73
4
 74
0
 40
0
 40
0
 40
0
 40
0
 40
1
 40
1
 40
1
 40
1
 10
1473.441644
 20
2022.631004
 30
0.0
 10
1470.396721
 20
2022.634890
 30
0.0
 10
1467.582090
 20
2021.010490
 30
0.0
 10
1466.062110
 20
2018.372076
 30
0.0
  0
SPLINE
  5
4d1
100
AcDbEntity
  8
Holes
 62
7
100
AcDbSpline
 70
8
 71
3
 72
8
 73
4
 74
0
 40
0
 40
0
 40
0
 40
0
 40
1
 40
1
 40
1
 40
1
 10
1466.062110
 20
2018.372076
 30
0.0
 10
1464.542130
 20
2015.733661
 30
0.0
 10
1464.548792
 20
2012.483927
 30
0.0
 10
1466.079576
 20
2009.851766
 30
0.0
  0
SPLINE
  5
4d2
100
AcDbEntity
  8
Holes
 62
7
100
AcDbSpline
 70
8
 71
3
 72
8
 73
4
 74
0
 40
0
 40
0
 40
0
 40
0
 40
1
 40
1
 40
1
 40
1
 10
1466.079576
 20
2009.851766
 30
0.0
 10
1467.610361
 20
2007.219606
 30
0.0
 10
1470.431628
 20
2005.606760
 30
0.0
 10
1473.476510
 20
2005.623130
 30
0.0
  0
SPLINE
  5
4d3
100
AcDbEntity
  8
Holes
 62
7
100
AcDbSpline
 70
8
 71
3
 72
8
 73
4
 74
0
 40
0
 40
0
 40
0
 40
0
 40
1
 40
1
 40
1
 40
1
 10
1473.476510
 20
2005.623130
 30
0.0
 10
1476.521433
 20
2005.619244
 30
0.0
 10
1479.336063
 20
2007.243643
 30
0.0
 10
1480.856043
 20
2009.882058
 30
0.0
  0
SPLINE
  5
4d4
100
AcDbEntity
  8
Holes
 62
7
100
AcDbSpline
 70
8
 71
3
 72
8
 73
4
 74
0
 40
0
 40
0
 40
0
 40
0
 40
1
 40
1
 40
1
 40
1
 10
1480.856043
 20
2009.882058
 30
0.0
 10
1482.376023
 20
2012.520472
 30
0.0
 10
1482.369361
 20
2015.770207
 30
0.0
 10
1480.838577
 20
2018.402368
 30
0.0
  0
SPLINE
  5
4d5
100
AcDbEntity
  8
Holes
 62
7
100
AcDbSpline
 70
8
 71
3
 72
8
 73
4
 74
0
 40
0
 40
0
 40
0
 40
0
 40
1
 40
1
 40
1
 40
1
 10
1480.838577
 20
2018.402368
 30
0.0
 10
1479.307792
 20
2021.034528
 30
0.0
 10
1476.486525
 20
2022.647374
 30
0.0
 10
1473.441644
 20
2022.631004
 30
0.0
  0
LWPOLYLINE
  5
4d6
100
AcDbEntity
  8
Holes
 62
7
100
AcDbPolyline
 90
1
 70
1
 10
1473.545958
 20
1974.583478
 30
0.0
  0
SPLINE
  5
4d7
100
AcDbEntity
  8
Holes
 62
7
100
AcDbSpline
 70
8
 71
3
 72
8
 73
4
 74
0
 40
0
 40
0
 40
0
 40
0
 40
1
 40
1
 40
1
 40
1
 10
1473.337329
 20
2070.677962
 30
0.0
 10
1470.299114
 20
2070.671734
 30
0.0
 10
1467.495011
 20
2069.045111
 30
0.0
 10
1465.981297
 20
2066.410826
 30
0.0
  0
SPLINE
  5
4d8
100
AcDbEntity
  8
Holes
 62
7
100
AcDbSpline
 70
8
 71
3
 72
8
 73
4
 74
0
 40
0
 40
0
 40
0
 40
0
 40
1
 40
1
 40
1
 40
1
 10
1465.981297
 20
2066.410826
 30
0.0
 10
1464.467584
 20
2063.776540
 30
0.0
 10
1464.474229
 20
2060.534804
 30
0.0
 10
1465.998730
 20
2057.906747
 30
0.0
  0
SPLINE
  5
4d9
100
AcDbEntity
  8
Holes
 62
7
100
AcDbSpline
 70
8
 71
3
 72
8
 73
4
 74
0
 40
0
 40
0
 40
0
 40
0
 40
1
 40
1
 40
1
 40
1
 10
1465.998730
 20
2057.906747
 30
0.0
 10
1467.523231
 20
2055.278690
 30
0.0
 10
1470.333980
 20
2053.663577
 30
0.0
 10
1473.372195
 20
2053.669805
 30
0.0
  0
SPLINE
  5
4da
100
AcDbEntity
  8
Holes
 62
7
100
AcDbSpline
 70
8
 71
3
 72
8
 73
4
 74
0
 40
0
 40
0
 40
0
 40
0
 40
1
 40
1
 40
1
 40
1
 10
1473.372195
 20
2053.669805
 30
0.0
 10
1476.410409
 20
2053.676034
 30
0.0
 10
1479.214513
 20
2055.302657
 30
0.0
 10
1480.728226
 20
2057.936942
 30
0.0
  0
SPLINE
  5
4db
100
AcDbEntity
  8
Holes
 62
7
100
AcDbSpline
 70
8
 71
3
 72
8
 73
4
 74
0
 40
0
 40
0
 40
0
 40
0
 40
1
 40
1
 40
1
 40
1
 10
1480.728226
 20
2057.936942
 30
0.0
 10
1482.241940
 20
2060.571227
 30
0.0
 10
1482.235294
 20
2063.812964
 30
0.0
 10
1480.710793
 20
2066.441020
 30
0.0
  0
SPLINE
  5
4dc
100
AcDbEntity
  8
Holes
 62
7
100
AcDbSpline
 70
8
 71
3
 72
8
 73
4
 74
0
 40
0
 40
0
 40
0
 40
0
 40
1
 40
1
 40
1
 40
1
 10
1480.710793
 20
2066.441020
 30
0.0
 10
1479.186292
 20
2069.069077
 30
0.0
 10
1476.375543
 20
2070.684190
 30
0.0
 10
1473.337329
 20
2070.677962
 30
0.0
  0
LWPOLYLINE
  5
4dd
100
AcDbEntity
  8
Holes
 62
7
100
AcDbPolyline
 90
1
 70
1
 10
1473.441644
 20
2022.631004
 30
0.0
  0
SPLINE
  5
4de
100
AcDbEntity
  8
Holes
 62
7
100
AcDbSpline
 70
8
 71
3
 72
8
 73
4
 74
0
 40
0
 40
0
 40
0
 40
0
 40
1
 40
1
 40
1
 40
1
 10
1473.233014
 20
2118.724921
 30
0.0
 10
1470.178888
 20
2118.742798
 30
0.0
 10
1467.349732
 20
2117.121504
 30
0.0
 10
1465.821098
 20
2114.477401
 30
0.0
  0
SPLINE
  5
4df
100
AcDbEntity
  8
Holes
 62
7
100
AcDbSpline
 70
8
 71
3
 72
8
 73
4
 74
0
 40
0
 40
0
 40
0
 40
0
 40
1
 40
1
 40
1
 40
1
 10
1465.821098
 20
2114.477401
 30
0.0
 10
1464.292464
 20
2111.833299
 30
0.0
 10
1464.299149
 20
2108.572521
 30
0.0
 10
1465.838611
 20
2105.934708
 30
0.0
  0
SPLINE
  5
4e0
100
AcDbEntity
  8
Holes
 62
7
100
AcDbSpline
 70
8
 71
3
 72
8
 73
4
 74
0
 40
0
 40
0
 40
0
 40
0
 40
1
 40
1
 40
1
 40
1
 10
1465.838611
 20
2105.934708
 30
0.0
 10
1467.378074
 20
2103.296896
 30
0.0
 10
1470.213853
 20
2101.687215
 30
0.0
 10
1473.267880
 20
2101.717614
 30
0.0
  0
SPLINE
  5
4e1
100
AcDbEntity
  8
Holes
 62
7
100
AcDbSpline
 70
8
 71
3
 72
8
 73
4
 74
0
 40
0
 40
0
 40
0
 40
0
 40
1
 40
1
 40
1
 40
1
 10
1473.267880
 20
2101.717614
 30
0.0
 10
1476.322005
 20
2101.699737
 30
0.0
 10
1479.151161
 20
2103.321031
 30
0.0
 10
1480.679795
 20
2105.965134
 30
0.0
  0
SPLINE
  5
4e2
100
AcDbEntity
  8
Holes
 62
7
100
AcDbSpline
 70
8
 71
3
 72
8
 73
4
 74
0
 40
0
 40
0
 40
0
 40
0
 40
1
 40
1
 40
1
 40
1
 10
1480.679795
 20
2105.965134
 30
0.0
 10
1482.208429
 20
2108.609236
 30
0.0
 10
1482.201745
 20
2111.870014
 30
0.0
 10
1480.662282
 20
2114.507827
 30
0.0
  0
SPLINE
  5
4e3
100
AcDbEntity
  8
Holes
 62
7
100
AcDbSpline
 70
8
 71
3
 72
8
 73
4
 74
0
 40
0
 40
0
 40
0
 40
0
 40
1
 40
1
 40
1
 40
1
 10
1480.662282
 20
2114.507827
 30
0.0
 10
1479.122819
 20
2117.145640
 30
0.0
 10
1476.287040
 20
2118.755320
 30
0.0
 10
1473.233014
 20
2118.724921
 30
0.0
  0
LWPOLYLINE
  5
4e4
100
AcDbEntity
  8
Holes
 62
7
100
AcDbPolyline
 90
1
 70
1
 10
1473.337329
 20
2070.677962
 30
0.0
  0
SPLINE
  5
4e5
100
AcDbEntity
  8
Holes
 62
7
100
AcDbSpline
 70
8
 71
3
 72
8
 73
4
 74
0
 40
0
 40
0
 40
0
 40
0
 40
1
 40
1
 40
1
 40
1
 10
1473.128699
 20
2166.772163
 30
0.0
 10
1470.077552
 20
2166.785476
 30
0.0
 10
1467.253117
 20
2165.163158
 30
0.0
 10
1465.727297
 20
2162.520896
 30
0.0
  0
SPLINE
  5
4e6
100
AcDbEntity
  8
Holes
 62
7
100
AcDbSpline
 70
8
 71
3
 72
8
 73
4
 74
0
 40
0
 40
0
 40
0
 40
0
 40
1
 40
1
 40
1
 40
1
 10
1465.727297
 20
2162.520896
 30
0.0
 10
1464.201477
 20
2159.878634
 30
0.0
 10
1464.208155
 20
2156.621442
 30
0.0
 10
1465.744795
 20
2153.985458
 30
0.0
  0
SPLINE
  5
4e7
100
AcDbEntity
  8
Holes
 62
7
100
AcDbSpline
 70
8
 71
3
 72
8
 73
4
 74
0
 40
0
 40
0
 40
0
 40
0
 40
1
 40
1
 40
1
 40
1
 10
1465.744795
 20
2153.985458
 30
0.0
 10
1467.281435
 20
2151.349474
 30
0.0
 10
1470.112498
 20
2149.738750
 30
0.0
 10
1473.163565
 20
2149.764573
 30
0.0
  0
SPLINE
  5
4e8
100
AcDbEntity
  8
Holes
 62
7
100
AcDbSpline
 70
8
 71
3
 72
8
 73
4
 74
0
 40
0
 40
0
 40
0
 40
0
 40
1
 40
1
 40
1
 40
1
 10
1473.163565
 20
2149.764573
 30
0.0
 10
1476.214712
 20
2149.751260
 30
0.0
 10
1479.039147
 20
2151.373578
 30
0.0
 10
1480.564966
 20
2154.015840
 30
0.0
  0
SPLINE
  5
4e9
100
AcDbEntity
  8
Holes
 62
7
100
AcDbSpline
 70
8
 71
3
 72
8
 73
4
 74
0
 40
0
 40
0
 40
0
 40
0
 40
1
 40
1
 40
1
 40
1
 10
1480.564966
 20
2154.015840
 30
0.0
 10
1482.090786
 20
2156.658102
 30
0.0
 10
1482.084109
 20
2159.915294
 30
0.0
 10
1480.547468
 20
2162.551278
 30
0.0
  0
SPLINE
  5
4ea
100
AcDbEntity
  8
Holes
 62
7
100
AcDbSpline
 70
8
 71
3
 72
8
 73
4
 74
0
 40
0
 40
0
 40
0
 40
0
 40
1
 40
1
 40
1
 40
1
 10
1480.547468
 20
2162.551278
 30
0.0
 10
1479.010828
 20
2165.187262
 30
0.0
 10
1476.179765
 20
2166.797986
 30
0.0
 10
1473.128699
 20
2166.772163
 30
0.0
  0
LWPOLYLINE
  5
4eb
100
AcDbEntity
  8
Holes
 62
7
100
AcDbPolyline
 90
1
 70
1
 10
1473.233014
 20
2118.724921
 30
0.0
  0
SPLINE
  5
4ec
100
AcDbEntity
  8
Holes
 62
7
100
AcDbSpline
 70
8
 71
3
 72
8
 73
4
 74
0
 40
0
 40
0
 40
0
 40
0
 40
1
 40
1
 40
1
 40
1
 10
1473.024384
 20
2214.819405
 30
0.0
 10
1469.979461
 20
2214.823291
 30
0.0
 10
1467.164830
 20
2213.198892
 30
0.0
 10
1465.644850
 20
2210.560477
 30
0.0
  0
SPLINE
  5
4ed
100
AcDbEntity
  8
Holes
 62
7
100
AcDbSpline
 70
8
 71
3
 72
8
 73
4
 74
0
 40
0
 40
0
 40
0
 40
0
 40
1
 40
1
 40
1
 40
1
 10
1465.644850
 20
2210.560477
 30
0.0
 10
1464.124870
 20
2207.922063
 30
0.0
 10
1464.131532
 20
2204.672328
 30
0.0
 10
1465.662317
 20
2202.040168
 30
0.0
  0
SPLINE
  5
4ee
100
AcDbEntity
  8
Holes
 62
7
100
AcDbSpline
 70
8
 71
3
 72
8
 73
4
 74
0
 40
0
 40
0
 40
0
 40
0
 40
1
 40
1
 40
1
 40
1
 10
1465.662317
 20
2202.040168
 30
0.0
 10
1467.193101
 20
2199.408007
 30
0.0
 10
1470.014368
 20
2197.795162
 30
0.0
 10
1473.059250
 20
2197.811532
 30
0.0
  0
SPLINE
  5
4ef
100
AcDbEntity
  8
Holes
 62
7
100
AcDbSpline
 70
8
 71
3
 72
8
 73
4
 74
0
 40
0
 40
0
 40
0
 40
0
 40
1
 40
1
 40
1
 40
1
 10
1473.059250
 20
2197.811532
 30
0.0
 10
1476.104173
 20
2197.807646
 30
0.0
 10
1478.918804
 20
2199.432045
 30
0.0
 10
1480.438784
 20
2202.070459
 30
0.0
  0
SPLINE
  5
4f0
100
AcDbEntity
  8
Holes
 62
7
100
AcDbSpline
 70
8
 71
3
 72
8
 73
4
 74
0
 40
0
 40
0
 40
0
 40
0
 40
1
 40
1
 40
1
 40
1
 10
1480.438784
 20
2202.070459
 30
0.0
 10
1481.958764
 20
2204.708874
 30
0.0
 10
1481.952102
 20
2207.958609
 30
0.0
 10
1480.421317
 20
2210.590769
 30
0.0
  0
SPLINE
  5
4f1
100
AcDbEntity
  8
Holes
 62
7
100
AcDbSpline
 70
8
 71
3
 72
8
 73
4
 74
0
 40
0
 40
0
 40
0
 40
0
 40
1
 40
1
 40
1
 40
1
 10
1480.421317
 20
2210.590769
 30
0.0
 10
1478.890532
 20
2213.222930
 30
0.0
 10
1476.069265
 20
2214.835775
 30
0.0
 10
1473.024384
 20
2214.819405
 30
0.0
  0
LWPOLYLINE
  5
4f2
100
AcDbEntity
  8
Holes
 62
7
100
AcDbPolyline
 90
1
 70
1
 10
1473.128699
 20
2166.772163
 30
0.0
  0
SPLINE
  5
4f3
100
AcDbEntity
  8
Holes
 62
7
100
AcDbSpline
 70
8
 71
3
 72
8
 73
4
 74
0
 40
0
 40
0
 40
0
 40
0
 40
1
 40
1
 40
1
 40
1
 10
1472.920069
 20
2262.866931
 30
0.0
 10
1469.881804
 20
2262.860702
 30
0.0
 10
1467.077653
 20
2261.234052
 30
0.0
 10
1465.563915
 20
2258.599723
 30
0.0
  0
SPLINE
  5
4f4
100
AcDbEntity
  8
Holes
 62
7
100
AcDbSpline
 70
8
 71
3
 72
8
 73
4
 74
0
 40
0
 40
0
 40
0
 40
0
 40
1
 40
1
 40
1
 40
1
 10
1465.563915
 20
2258.599723
 30
0.0
 10
1464.050176
 20
2255.965394
 30
0.0
 10
1464.056821
 20
2252.723604
 30
0.0
 10
1465.581348
 20
2250.095503
 30
0.0
  0
SPLINE
  5
4f5
100
AcDbEntity
  8
Holes
 62
7
100
AcDbSpline
 70
8
 71
3
 72
8
 73
4
 74
0
 40
0
 40
0
 40
0
 40
0
 40
1
 40
1
 40
1
 40
1
 10
1465.581348
 20
2250.095503
 30
0.0
 10
1467.105874
 20
2247.467402
 30
0.0
 10
1469.916670
 20
2245.852262
 30
0.0
 10
1472.954935
 20
2245.858490
 30
0.0
  0
SPLINE
  5
4f6
100
AcDbEntity
  8
Holes
 62
7
100
AcDbSpline
 70
8
 71
3
 72
8
 73
4
 74
0
 40
0
 40
0
 40
0
 40
0
 40
1
 40
1
 40
1
 40
1
 10
1472.954935
 20
2245.858490
 30
0.0
 10
1475.993200
 20
2245.864719
 30
0.0
 10
1478.797350
 20
2247.491369
 30
0.0
 10
1480.311089
 20
2250.125698
 30
0.0
  0
SPLINE
  5
4f7
100
AcDbEntity
  8
Holes
 62
7
100
AcDbSpline
 70
8
 71
3
 72
8
 73
4
 74
0
 40
0
 40
0
 40
0
 40
0
 40
1
 40
1
 40
1
 40
1
 10
1480.311089
 20
2250.125698
 30
0.0
 10
1481.824828
 20
2252.760027
 30
0.0
 10
1481.818182
 20
2256.001817
 30
0.0
 10
1480.293656
 20
2258.629918
 30
0.0
  0
SPLINE
  5
4f8
100
AcDbEntity
  8
Holes
 62
7
100
AcDbSpline
 70
8
 71
3
 72
8
 73
4
 74
0
 40
0
 40
0
 40
0
 40
0
 40
1
 40
1
 40
1
 40
1
 10
1480.293656
 20
2258.629918
 30
0.0
 10
1478.769130
 20
2261.258019
 30
0.0
 10
1475.958334
 20
2262.873159
 30
0.0
 10
1472.920069
 20
2262.866931
 30
0.0
  0
LWPOLYLINE
  5
4f9
100
AcDbEntity
  8
Holes
 62
7
100
AcDbPolyline
 90
1
 70
1
 10
1473.024384
 20
2214.819405
 30
0.0
  0
SPLINE
  5
4fa
100
AcDbEntity
  8
Holes
 62
7
100
AcDbSpline
 70
8
 71
3
 72
8
 73
4
 74
0
 40
0
 40
0
 40
0
 40
0
 40
1
 40
1
 40
1
 40
1
 10
994.535704
 20
1300.884324
 30
0.0
 10
991.486124
 20
1300.894820
 30
0.0
 10
988.664398
 20
1299.271563
 30
0.0
 10
987.140442
 20
1296.630046
 30
0.0
  0
SPLINE
  5
4fb
100
AcDbEntity
  8
Holes
 62
7
100
AcDbSpline
 70
8
 71
3
 72
8
 73
4
 74
0
 40
0
 40
0
 40
0
 40
0
 40
1
 40
1
 40
1
 40
1
 10
987.140442
 20
1296.630046
 30
0.0
 10
985.616487
 20
1293.988529
 30
0.0
 10
985.623649
 20
1290.733218
 30
0.0
 10
987.159212
 20
1288.098432
 30
0.0
  0
SPLINE
  5
4fc
100
AcDbEntity
  8
Holes
 62
7
100
AcDbSpline
 70
8
 71
3
 72
8
 73
4
 74
0
 40
0
 40
0
 40
0
 40
0
 40
1
 40
1
 40
1
 40
1
 10
987.159212
 20
1288.098432
 30
0.0
 10
988.694775
 20
1285.463647
 30
0.0
 10
991.523617
 20
1283.852821
 30
0.0
 10
994.573121
 20
1283.876735
 30
0.0
  0
SPLINE
  5
4fd
100
AcDbEntity
  8
Holes
 62
7
100
AcDbSpline
 70
8
 71
3
 72
8
 73
4
 74
0
 40
0
 40
0
 40
0
 40
0
 40
1
 40
1
 40
1
 40
1
 10
994.573121
 20
1283.876735
 30
0.0
 10
997.622702
 20
1283.866240
 30
0.0
 10
1000.444428
 20
1285.489496
 30
0.0
 10
1001.968383
 20
1288.131013
 30
0.0
  0
SPLINE
  5
4fe
100
AcDbEntity
  8
Holes
 62
7
100
AcDbSpline
 70
8
 71
3
 72
8
 73
4
 74
0
 40
0
 40
0
 40
0
 40
0
 40
1
 40
1
 40
1
 40
1
 10
1001.968383
 20
1288.131013
 30
0.0
 10
1003.492338
 20
1290.772530
 30
0.0
 10
1003.485177
 20
1294.027841
 30
0.0
 10
1001.949613
 20
1296.662627
 30
0.0
  0
SPLINE
  5
4ff
100
AcDbEntity
  8
Holes
 62
7
100
AcDbSpline
 70
8
 71
3
 72
8
 73
4
 74
0
 40
0
 40
0
 40
0
 40
0
 40
1
 40
1
 40
1
 40
1
 10
1001.949613
 20
1296.662627
 30
0.0
 10
1000.414050
 20
1299.297412
 30
0.0
 10
997.585209
 20
1300.908238
 30
0.0
 10
994.535704
 20
1300.884324
 30
0.0
  0
LWPOLYLINE
  5
500
100
AcDbEntity
  8
Holes
 62
7
100
AcDbPolyline
 90
1
 70
1
 10
1472.920069
 20
2262.866931
 30
0.0
  0
SPLINE
  5
501
100
AcDbEntity
  8
Holes
 62
7
100
AcDbSpline
 70
8
 71
3
 72
8
 73
4
 74
0
 40
0
 40
0
 40
0
 40
0
 40
1
 40
1
 40
1
 40
1
 10
994.431389
 20
1348.931850
 30
0.0
 10
991.392805
 20
1348.925769
 30
0.0
 10
988.588340
 20
1347.298891
 30
0.0
 10
987.074633
 20
1344.664176
 30
0.0
  0
SPLINE
  5
502
100
AcDbEntity
  8
Holes
 62
7
100
AcDbSpline
 70
8
 71
3
 72
8
 73
4
 74
0
 40
0
 40
0
 40
0
 40
0
 40
1
 40
1
 40
1
 40
1
 10
987.074633
 20
1344.664176
 30
0.0
 10
985.560927
 20
1342.029460
 30
0.0
 10
985.568006
 20
1338.787284
 30
0.0
 10
987.093202
 20
1336.159203
 30
0.0
  0
SPLINE
  5
503
100
AcDbEntity
  8
Holes
 62
7
100
AcDbSpline
 70
8
 71
3
 72
8
 73
4
 74
0
 40
0
 40
0
 40
0
 40
0
 40
1
 40
1
 40
1
 40
1
 10
987.093202
 20
1336.159203
 30
0.0
 10
988.618399
 20
1333.531122
 30
0.0
 10
991.429941
 20
1331.916506
 30
0.0
 10
994.468523
 20
1331.923693
 30
0.0
  0
SPLINE
  5
504
100
AcDbEntity
  8
Holes
 62
7
100
AcDbSpline
 70
8
 71
3
 72
8
 73
4
 74
0
 40
0
 40
0
 40
0
 40
0
 40
1
 40
1
 40
1
 40
1
 10
994.468523
 20
1331.923693
 30
0.0
 10
997.507108
 20
1331.929774
 30
0.0
 10
1000.311572
 20
1333.556652
 30
0.0
 10
1001.825279
 20
1336.191368
 30
0.0
  0
SPLINE
  5
505
100
AcDbEntity
  8
Holes
 62
7
100
AcDbSpline
 70
8
 71
3
 72
8
 73
4
 74
0
 40
0
 40
0
 40
0
 40
0
 40
1
 40
1
 40
1
 40
1
 10
1001.825279
 20
1336.191368
 30
0.0
 10
1003.338985
 20
1338.826083
 30
0.0
 10
1003.331906
 20
1342.068259
 30
0.0
 10
1001.806710
 20
1344.696340
 30
0.0
  0
SPLINE
  5
506
100
AcDbEntity
  8
Holes
 62
7
100
AcDbSpline
 70
8
 71
3
 72
8
 73
4
 74
0
 40
0
 40
0
 40
0
 40
0
 40
1
 40
1
 40
1
 40
1
 10
1001.806710
 20
1344.696340
 30
0.0
 10
1000.281513
 20
1347.324421
 30
0.0
 10
997.469971
 20
1348.939037
 30
0.0
 10
994.431389
 20
1348.931850
 30
0.0
  0
LWPOLYLINE
  5
507
100
AcDbEntity
  8
Holes
 62
7
100
AcDbPolyline
 90
1
 70
1
 10
994.535704
 20
1300.884324
 30
0.0
  0
SPLINE
  5
508
100
AcDbEntity
  8
Holes
 62
7
100
AcDbSpline
 70
8
 71
3
 72
8
 73
4
 74
0
 40
0
 40
0
 40
0
 40
0
 40
1
 40
1
 40
1
 40
1
 10
994.327074
 20
1396.978525
 30
0.0
 10
991.278097
 20
1396.988164
 30
0.0
 10
988.457292
 20
1395.364757
 30
0.0
 10
986.933857
 20
1392.723640
 30
0.0
  0
SPLINE
  5
509
100
AcDbEntity
  8
Holes
 62
7
100
AcDbSpline
 70
8
 71
3
 72
8
 73
4
 74
0
 40
0
 40
0
 40
0
 40
0
 40
1
 40
1
 40
1
 40
1
 10
986.933857
 20
1392.723640
 30
0.0
 10
985.410422
 20
1390.082523
 30
0.0
 10
985.417528
 20
1386.827935
 30
0.0
 10
986.952482
 20
1384.193496
 30
0.0
  0
SPLINE
  5
50a
100
AcDbEntity
  8
Holes
 62
7
100
AcDbSpline
 70
8
 71
3
 72
8
 73
4
 74
0
 40
0
 40
0
 40
0
 40
0
 40
1
 40
1
 40
1
 40
1
 10
986.952482
 20
1384.193496
 30
0.0
 10
988.487435
 20
1381.559057
 30
0.0
 10
991.315302
 20
1379.947982
 30
0.0
 10
994.364208
 20
1379.970935
 30
0.0
  0
SPLINE
  5
50b
100
AcDbEntity
  8
Holes
 62
7
100
AcDbSpline
 70
8
 71
3
 72
8
 73
4
 74
0
 40
0
 40
0
 40
0
 40
0
 40
1
 40
1
 40
1
 40
1
 10
994.364208
 20
1379.970935
 30
0.0
 10
997.413185
 20
1379.961296
 30
0.0
 10
1000.233990
 20
1381.584704
 30
0.0
 10
1001.757425
 20
1384.225821
 30
0.0
  0
SPLINE
  5
50c
100
AcDbEntity
  8
Holes
 62
7
100
AcDbSpline
 70
8
 71
3
 72
8
 73
4
 74
0
 40
0
 40
0
 40
0
 40
0
 40
1
 40
1
 40
1
 40
1
 10
1001.757425
 20
1384.225821
 30
0.0
 10
1003.280860
 20
1386.866937
 30
0.0
 10
1003.273754
 20
1390.121526
 30
0.0
 10
1001.738801
 20
1392.755965
 30
0.0
  0
SPLINE
  5
50d
100
AcDbEntity
  8
Holes
 62
7
100
AcDbSpline
 70
8
 71
3
 72
8
 73
4
 74
0
 40
0
 40
0
 40
0
 40
0
 40
1
 40
1
 40
1
 40
1
 10
1001.738801
 20
1392.755965
 30
0.0
 10
1000.203847
 20
1395.390404
 30
0.0
 10
997.375980
 20
1397.001478
 30
0.0
 10
994.327074
 20
1396.978525
 30
0.0
  0
LWPOLYLINE
  5
50e
100
AcDbEntity
  8
Holes
 62
7
100
AcDbPolyline
 90
1
 70
1
 10
994.431389
 20
1348.931850
 30
0.0
  0
SPLINE
  5
50f
100
AcDbEntity
  8
Holes
 62
7
100
AcDbSpline
 70
8
 71
3
 72
8
 73
4
 74
0
 40
0
 40
0
 40
0
 40
0
 40
1
 40
1
 40
1
 40
1
 10
994.222759
 20
1445.025767
 30
0.0
 10
991.173782
 20
1445.035406
 30
0.0
 10
988.352977
 20
1443.411999
 30
0.0
 10
986.829542
 20
1440.770882
 30
0.0
  0
SPLINE
  5
510
100
AcDbEntity
  8
Holes
 62
7
100
AcDbSpline
 70
8
 71
3
 72
8
 73
4
 74
0
 40
0
 40
0
 40
0
 40
0
 40
1
 40
1
 40
1
 40
1
 10
986.829542
 20
1440.770882
 30
0.0
 10
985.306107
 20
1438.129765
 30
0.0
 10
985.313213
 20
1434.875177
 30
0.0
 10
986.848167
 20
1432.240738
 30
0.0
  0
SPLINE
  5
511
100
AcDbEntity
  8
Holes
 62
7
100
AcDbSpline
 70
8
 71
3
 72
8
 73
4
 74
0
 40
0
 40
0
 40
0
 40
0
 40
1
 40
1
 40
1
 40
1
 10
986.848167
 20
1432.240738
 30
0.0
 10
988.383120
 20
1429.606299
 30
0.0
 10
991.210987
 20
1427.995225
 30
0.0
 10
994.259893
 20
1428.018178
 30
0.0
  0
SPLINE
  5
512
100
AcDbEntity
  8
Holes
 62
7
100
AcDbSpline
 70
8
 71
3
 72
8
 73
4
 74
0
 40
0
 40
0
 40
0
 40
0
 40
1
 40
1
 40
1
 40
1
 10
994.259893
 20
1428.018178
 30
0.0
 10
997.308870
 20
1428.008538
 30
0.0
 10
1000.129675
 20
1429.631946
 30
0.0
 10
1001.653110
 20
1432.273063
 30
0.0
  0
SPLINE
  5
513
100
AcDbEntity
  8
Holes
 62
7
100
AcDbSpline
 70
8
 71
3
 72
8
 73
4
 74
0
 40
0
 40
0
 40
0
 40
0
 40
1
 40
1
 40
1
 40
1
 10
1001.653110
 20
1432.273063
 30
0.0
 10
1003.176545
 20
1434.914180
 30
0.0
 10
1003.169439
 20
1438.168768
 30
0.0
 10
1001.634486
 20
1440.803207
 30
0.0
  0
SPLINE
  5
514
100
AcDbEntity
  8
Holes
 62
7
100
AcDbSpline
 70
8
 71
3
 72
8
 73
4
 74
0
 40
0
 40
0
 40
0
 40
0
 40
1
 40
1
 40
1
 40
1
 10
1001.634486
 20
1440.803207
 30
0.0
 10
1000.099532
 20
1443.437646
 30
0.0
 10
997.271665
 20
1445.048720
 30
0.0
 10
994.222759
 20
1445.025767
 30
0.0
  0
LWPOLYLINE
  5
515
100
AcDbEntity
  8
Holes
 62
7
100
AcDbPolyline
 90
1
 70
1
 10
994.327074
 20
1396.978525
 30
0.0
  0
SPLINE
  5
516
100
AcDbEntity
  8
Holes
 62
7
100
AcDbSpline
 70
8
 71
3
 72
8
 73
4
 74
0
 40
0
 40
0
 40
0
 40
0
 40
1
 40
1
 40
1
 40
1
 10
994.118444
 20
1493.073009
 30
0.0
 10
991.079911
 20
1493.066928
 30
0.0
 10
988.275493
 20
1491.440077
 30
0.0
 10
986.761813
 20
1488.805405
 30
0.0
  0
SPLINE
  5
517
100
AcDbEntity
  8
Holes
 62
7
100
AcDbSpline
 70
8
 71
3
 72
8
 73
4
 74
0
 40
0
 40
0
 40
0
 40
0
 40
1
 40
1
 40
1
 40
1
 10
986.761813
 20
1488.805405
 30
0.0
 10
985.248132
 20
1486.170734
 30
0.0
 10
985.255211
 20
1482.928612
 30
0.0
 10
986.780382
 20
1480.300576
 30
0.0
  0
SPLINE
  5
518
100
AcDbEntity
  8
Holes
 62
7
100
AcDbSpline
 70
8
 71
3
 72
8
 73
4
 74
0
 40
0
 40
0
 40
0
 40
0
 40
1
 40
1
 40
1
 40
1
 10
986.780382
 20
1480.300576
 30
0.0
 10
988.305553
 20
1477.672539
 30
0.0
 10
991.117047
 20
1476.057950
 30
0.0
 10
994.155578
 20
1476.065136
 30
0.0
  0
SPLINE
  5
519
100
AcDbEntity
  8
Holes
 62
7
100
AcDbSpline
 70
8
 71
3
 72
8
 73
4
 74
0
 40
0
 40
0
 40
0
 40
0
 40
1
 40
1
 40
1
 40
1
 10
994.155578
 20
1476.065136
 30
0.0
 10
997.194112
 20
1476.071218
 30
0.0
 10
999.998529
 20
1477.698069
 30
0.0
 10
1001.512209
 20
1480.332740
 30
0.0
  0
SPLINE
  5
51a
100
AcDbEntity
  8
Holes
 62
7
100
AcDbSpline
 70
8
 71
3
 72
8
 73
4
 74
0
 40
0
 40
0
 40
0
 40
0
 40
1
 40
1
 40
1
 40
1
 10
1001.512209
 20
1480.332740
 30
0.0
 10
1003.025890
 20
1482.967412
 30
0.0
 10
1003.018811
 20
1486.209533
 30
0.0
 10
1001.493641
 20
1488.837570
 30
0.0
  0
SPLINE
  5
51b
100
AcDbEntity
  8
Holes
 62
7
100
AcDbSpline
 70
8
 71
3
 72
8
 73
4
 74
0
 40
0
 40
0
 40
0
 40
0
 40
1
 40
1
 40
1
 40
1
 10
1001.493641
 20
1488.837570
 30
0.0
 10
999.968470
 20
1491.465606
 30
0.0
 10
997.156975
 20
1493.080196
 30
0.0
 10
994.118444
 20
1493.073009
 30
0.0
  0
LWPOLYLINE
  5
51c
100
AcDbEntity
  8
Holes
 62
7
100
AcDbPolyline
 90
1
 70
1
 10
994.222759
 20
1445.025767
 30
0.0
  0
SPLINE
  5
51d
100
AcDbEntity
  8
Holes
 62
7
100
AcDbSpline
 70
8
 71
3
 72
8
 73
4
 74
0
 40
0
 40
0
 40
0
 40
0
 40
1
 40
1
 40
1
 40
1
 10
994.014129
 20
1541.120252
 30
0.0
 10
990.975545
 20
1541.114171
 30
0.0
 10
988.171080
 20
1539.487293
 30
0.0
 10
986.657374
 20
1536.852577
 30
0.0
  0
SPLINE
  5
51e
100
AcDbEntity
  8
Holes
 62
7
100
AcDbSpline
 70
8
 71
3
 72
8
 73
4
 74
0
 40
0
 40
0
 40
0
 40
0
 40
1
 40
1
 40
1
 40
1
 10
986.657374
 20
1536.852577
 30
0.0
 10
985.143667
 20
1534.217862
 30
0.0
 10
985.150746
 20
1530.975686
 30
0.0
 10
986.675943
 20
1528.347605
 30
0.0
  0
SPLINE
  5
51f
100
AcDbEntity
  8
Holes
 62
7
100
AcDbSpline
 70
8
 71
3
 72
8
 73
4
 74
0
 40
0
 40
0
 40
0
 40
0
 40
1
 40
1
 40
1
 40
1
 10
986.675943
 20
1528.347605
 30
0.0
 10
988.201139
 20
1525.719524
 30
0.0
 10
991.012681
 20
1524.104908
 30
0.0
 10
994.051263
 20
1524.112095
 30
0.0
  0
SPLINE
  5
520
100
AcDbEntity
  8
Holes
 62
7
100
AcDbSpline
 70
8
 71
3
 72
8
 73
4
 74
0
 40
0
 40
0
 40
0
 40
0
 40
1
 40
1
 40
1
 40
1
 10
994.051263
 20
1524.112095
 30
0.0
 10
997.089848
 20
1524.118176
 30
0.0
 10
999.894313
 20
1525.745054
 30
0.0
 10
1001.408019
 20
1528.379769
 30
0.0
  0
SPLINE
  5
521
100
AcDbEntity
  8
Holes
 62
7
100
AcDbSpline
 70
8
 71
3
 72
8
 73
4
 74
0
 40
0
 40
0
 40
0
 40
0
 40
1
 40
1
 40
1
 40
1
 10
1001.408019
 20
1528.379769
 30
0.0
 10
1002.921725
 20
1531.014485
 30
0.0
 10
1002.914646
 20
1534.256661
 30
0.0
 10
1001.389450
 20
1536.884742
 30
0.0
  0
SPLINE
  5
522
100
AcDbEntity
  8
Holes
 62
7
100
AcDbSpline
 70
8
 71
3
 72
8
 73
4
 74
0
 40
0
 40
0
 40
0
 40
0
 40
1
 40
1
 40
1
 40
1
 10
1001.389450
 20
1536.884742
 30
0.0
 10
999.864253
 20
1539.512822
 30
0.0
 10
997.052711
 20
1541.127439
 30
0.0
 10
994.014129
 20
1541.120252
 30
0.0
  0
LWPOLYLINE
  5
523
100
AcDbEntity
  8
Holes
 62
7
100
AcDbPolyline
 90
1
 70
1
 10
994.118444
 20
1493.073009
 30
0.0
  0
SPLINE
  5
524
100
AcDbEntity
  8
Holes
 62
7
100
AcDbSpline
 70
8
 71
3
 72
8
 73
4
 74
0
 40
0
 40
0
 40
0
 40
0
 40
1
 40
1
 40
1
 40
1
 10
993.909814
 20
1589.167210
 30
0.0
 10
990.864351
 20
1589.171499
 30
0.0
 10
988.049090
 20
1587.546900
 30
0.0
 10
986.528959
 20
1584.907948
 30
0.0
  0
SPLINE
  5
525
100
AcDbEntity
  8
Holes
 62
7
100
AcDbSpline
 70
8
 71
3
 72
8
 73
4
 74
0
 40
0
 40
0
 40
0
 40
0
 40
1
 40
1
 40
1
 40
1
 10
986.528959
 20
1584.907948
 30
0.0
 10
985.008827
 20
1582.268996
 30
0.0
 10
985.015924
 20
1579.018618
 30
0.0
 10
986.547564
 20
1576.386329
 30
0.0
  0
SPLINE
  5
526
100
AcDbEntity
  8
Holes
 62
7
100
AcDbSpline
 70
8
 71
3
 72
8
 73
4
 74
0
 40
0
 40
0
 40
0
 40
0
 40
1
 40
1
 40
1
 40
1
 10
986.547564
 20
1576.386329
 30
0.0
 10
988.079205
 20
1573.754040
 30
0.0
 10
990.901532
 20
1572.141750
 30
0.0
 10
993.946948
 20
1572.159337
 30
0.0
  0
SPLINE
  5
527
100
AcDbEntity
  8
Holes
 62
7
100
AcDbSpline
 70
8
 71
3
 72
8
 73
4
 74
0
 40
0
 40
0
 40
0
 40
0
 40
1
 40
1
 40
1
 40
1
 10
993.946948
 20
1572.159337
 30
0.0
 10
996.992412
 20
1572.155048
 30
0.0
 10
999.807672
 20
1573.779647
 30
0.0
 10
1001.327804
 20
1576.418599
 30
0.0
  0
SPLINE
  5
528
100
AcDbEntity
  8
Holes
 62
7
100
AcDbSpline
 70
8
 71
3
 72
8
 73
4
 74
0
 40
0
 40
0
 40
0
 40
0
 40
1
 40
1
 40
1
 40
1
 10
1001.327804
 20
1576.418599
 30
0.0
 10
1002.847936
 20
1579.057551
 30
0.0
 10
1002.840839
 20
1582.307930
 30
0.0
 10
1001.309198
 20
1584.940218
 30
0.0
  0
SPLINE
  5
529
100
AcDbEntity
  8
Holes
 62
7
100
AcDbSpline
 70
8
 71
3
 72
8
 73
4
 74
0
 40
0
 40
0
 40
0
 40
0
 40
1
 40
1
 40
1
 40
1
 10
1001.309198
 20
1584.940218
 30
0.0
 10
999.777558
 20
1587.572507
 30
0.0
 10
996.955230
 20
1589.184798
 30
0.0
 10
993.909814
 20
1589.167210
 30
0.0
  0
LWPOLYLINE
  5
52a
100
AcDbEntity
  8
Holes
 62
7
100
AcDbPolyline
 90
1
 70
1
 10
994.014129
 20
1541.120252
 30
0.0
  0
SPLINE
  5
52b
100
AcDbEntity
  8
Holes
 62
7
100
AcDbSpline
 70
8
 71
3
 72
8
 73
4
 74
0
 40
0
 40
0
 40
0
 40
0
 40
1
 40
1
 40
1
 40
1
 10
993.805499
 20
1637.214169
 30
0.0
 10
990.755906
 20
1637.224735
 30
0.0
 10
987.934132
 20
1635.601529
 30
0.0
 10
986.410121
 20
1632.960030
 30
0.0
  0
SPLINE
  5
52c
100
AcDbEntity
  8
Holes
 62
7
100
AcDbSpline
 70
8
 71
3
 72
8
 73
4
 74
0
 40
0
 40
0
 40
0
 40
0
 40
1
 40
1
 40
1
 40
1
 10
986.410121
 20
1632.960030
 30
0.0
 10
984.886109
 20
1630.318530
 30
0.0
 10
984.893217
 20
1627.063204
 30
0.0
 10
986.428749
 20
1624.428384
 30
0.0
  0
SPLINE
  5
52d
100
AcDbEntity
  8
Holes
 62
7
100
AcDbSpline
 70
8
 71
3
 72
8
 73
4
 74
0
 40
0
 40
0
 40
0
 40
0
 40
1
 40
1
 40
1
 40
1
 10
986.428749
 20
1624.428384
 30
0.0
 10
987.964280
 20
1621.793565
 30
0.0
 10
990.793115
 20
1620.182697
 30
0.0
 10
993.842633
 20
1620.206579
 30
0.0
  0
SPLINE
  5
52e
100
AcDbEntity
  8
Holes
 62
7
100
AcDbSpline
 70
8
 71
3
 72
8
 73
4
 74
0
 40
0
 40
0
 40
0
 40
0
 40
1
 40
1
 40
1
 40
1
 10
993.842633
 20
1620.206579
 30
0.0
 10
996.892227
 20
1620.196013
 30
0.0
 10
999.714000
 20
1621.819219
 30
0.0
 10
1001.238012
 20
1624.460718
 30
0.0
  0
SPLINE
  5
52f
100
AcDbEntity
  8
Holes
 62
7
100
AcDbSpline
 70
8
 71
3
 72
8
 73
4
 74
0
 40
0
 40
0
 40
0
 40
0
 40
1
 40
1
 40
1
 40
1
 10
1001.238012
 20
1624.460718
 30
0.0
 10
1002.762023
 20
1627.102218
 30
0.0
 10
1002.754916
 20
1630.357544
 30
0.0
 10
1001.219384
 20
1632.992364
 30
0.0
  0
SPLINE
  5
530
100
AcDbEntity
  8
Holes
 62
7
100
AcDbSpline
 70
8
 71
3
 72
8
 73
4
 74
0
 40
0
 40
0
 40
0
 40
0
 40
1
 40
1
 40
1
 40
1
 10
1001.219384
 20
1632.992364
 30
0.0
 10
999.683852
 20
1635.627183
 30
0.0
 10
996.855017
 20
1637.238051
 30
0.0
 10
993.805499
 20
1637.214169
 30
0.0
  0
LWPOLYLINE
  5
531
100
AcDbEntity
  8
Holes
 62
7
100
AcDbPolyline
 90
1
 70
1
 10
993.909814
 20
1589.167210
 30
0.0
  0
SPLINE
  5
532
100
AcDbEntity
  8
Holes
 62
7
100
AcDbSpline
 70
8
 71
3
 72
8
 73
4
 74
0
 40
0
 40
0
 40
0
 40
0
 40
1
 40
1
 40
1
 40
1
 10
993.701184
 20
1685.261411
 30
0.0
 10
990.662651
 20
1685.255329
 30
0.0
 10
987.858234
 20
1683.628478
 30
0.0
 10
986.344553
 20
1680.993807
 30
0.0
  0
SPLINE
  5
533
100
AcDbEntity
  8
Holes
 62
7
100
AcDbSpline
 70
8
 71
3
 72
8
 73
4
 74
0
 40
0
 40
0
 40
0
 40
0
 40
1
 40
1
 40
1
 40
1
 10
986.344553
 20
1680.993807
 30
0.0
 10
984.830873
 20
1678.359135
 30
0.0
 10
984.837951
 20
1675.117014
 30
0.0
 10
986.363122
 20
1672.488977
 30
0.0
  0
SPLINE
  5
534
100
AcDbEntity
  8
Holes
 62
7
100
AcDbSpline
 70
8
 71
3
 72
8
 73
4
 74
0
 40
0
 40
0
 40
0
 40
0
 40
1
 40
1
 40
1
 40
1
 10
986.363122
 20
1672.488977
 30
0.0
 10
987.888293
 20
1669.860941
 30
0.0
 10
990.699787
 20
1668.246351
 30
0.0
 10
993.738318
 20
1668.253538
 30
0.0
  0
SPLINE
  5
535
100
AcDbEntity
  8
Holes
 62
7
100
AcDbSpline
 70
8
 71
3
 72
8
 73
4
 74
0
 40
0
 40
0
 40
0
 40
0
 40
1
 40
1
 40
1
 40
1
 10
993.738318
 20
1668.253538
 30
0.0
 10
996.776852
 20
1668.259619
 30
0.0
 10
999.581269
 20
1669.886470
 30
0.0
 10
1001.094950
 20
1672.521142
 30
0.0
  0
SPLINE
  5
536
100
AcDbEntity
  8
Holes
 62
7
100
AcDbSpline
 70
8
 71
3
 72
8
 73
4
 74
0
 40
0
 40
0
 40
0
 40
0
 40
1
 40
1
 40
1
 40
1
 10
1001.094950
 20
1672.521142
 30
0.0
 10
1002.608630
 20
1675.155813
 30
0.0
 10
1002.601552
 20
1678.397935
 30
0.0
 10
1001.076381
 20
1681.025971
 30
0.0
  0
SPLINE
  5
537
100
AcDbEntity
  8
Holes
 62
7
100
AcDbSpline
 70
8
 71
3
 72
8
 73
4
 74
0
 40
0
 40
0
 40
0
 40
0
 40
1
 40
1
 40
1
 40
1
 10
1001.076381
 20
1681.025971
 30
0.0
 10
999.551210
 20
1683.654008
 30
0.0
 10
996.739715
 20
1685.268598
 30
0.0
 10
993.701184
 20
1685.261411
 30
0.0
  0
LWPOLYLINE
  5
538
100
AcDbEntity
  8
Holes
 62
7
100
AcDbPolyline
 90
1
 70
1
 10
993.805499
 20
1637.214169
 30
0.0
  0
SPLINE
  5
539
100
AcDbEntity
  8
Holes
 62
7
100
AcDbSpline
 70
8
 71
3
 72
8
 73
4
 74
0
 40
0
 40
0
 40
0
 40
0
 40
1
 40
1
 40
1
 40
1
 10
993.596869
 20
1733.308653
 30
0.0
 10
990.551406
 20
1733.312942
 30
0.0
 10
987.736146
 20
1731.688343
 30
0.0
 10
986.216014
 20
1729.049391
 30
0.0
  0
SPLINE
  5
53a
100
AcDbEntity
  8
Holes
 62
7
100
AcDbSpline
 70
8
 71
3
 72
8
 73
4
 74
0
 40
0
 40
0
 40
0
 40
0
 40
1
 40
1
 40
1
 40
1
 10
986.216014
 20
1729.049391
 30
0.0
 10
984.695882
 20
1726.410439
 30
0.0
 10
984.702979
 20
1723.160060
 30
0.0
 10
986.234619
 20
1720.527772
 30
0.0
  0
SPLINE
  5
53b
100
AcDbEntity
  8
Holes
 62
7
100
AcDbSpline
 70
8
 71
3
 72
8
 73
4
 74
0
 40
0
 40
0
 40
0
 40
0
 40
1
 40
1
 40
1
 40
1
 10
986.234619
 20
1720.527772
 30
0.0
 10
987.766260
 20
1717.895483
 30
0.0
 10
990.588588
 20
1716.283193
 30
0.0
 10
993.634003
 20
1716.300780
 30
0.0
  0
SPLINE
  5
53c
100
AcDbEntity
  8
Holes
 62
7
100
AcDbSpline
 70
8
 71
3
 72
8
 73
4
 74
0
 40
0
 40
0
 40
0
 40
0
 40
1
 40
1
 40
1
 40
1
 10
993.634003
 20
1716.300780
 30
0.0
 10
996.679467
 20
1716.296491
 30
0.0
 10
999.494727
 20
1717.921090
 30
0.0
 10
1001.014859
 20
1720.560042
 30
0.0
  0
SPLINE
  5
53d
100
AcDbEntity
  8
Holes
 62
7
100
AcDbSpline
 70
8
 71
3
 72
8
 73
4
 74
0
 40
0
 40
0
 40
0
 40
0
 40
1
 40
1
 40
1
 40
1
 10
1001.014859
 20
1720.560042
 30
0.0
 10
1002.534991
 20
1723.198994
 30
0.0
 10
1002.527894
 20
1726.449373
 30
0.0
 10
1000.996253
 20
1729.081661
 30
0.0
  0
SPLINE
  5
53e
100
AcDbEntity
  8
Holes
 62
7
100
AcDbSpline
 70
8
 71
3
 72
8
 73
4
 74
0
 40
0
 40
0
 40
0
 40
0
 40
1
 40
1
 40
1
 40
1
 10
1000.996253
 20
1729.081661
 30
0.0
 10
999.464613
 20
1731.713950
 30
0.0
 10
996.642285
 20
1733.326240
 30
0.0
 10
993.596869
 20
1733.308653
 30
0.0
  0
LWPOLYLINE
  5
53f
100
AcDbEntity
  8
Holes
 62
7
100
AcDbPolyline
 90
1
 70
1
 10
993.701184
 20
1685.261411
 30
0.0
  0
SPLINE
  5
540
100
AcDbEntity
  8
Holes
 62
7
100
AcDbSpline
 70
8
 71
3
 72
8
 73
4
 74
0
 40
0
 40
0
 40
0
 40
0
 40
1
 40
1
 40
1
 40
1
 10
993.492555
 20
1781.355612
 30
0.0
 10
990.447091
 20
1781.359901
 30
0.0
 10
987.631831
 20
1779.735302
 30
0.0
 10
986.111699
 20
1777.096350
 30
0.0
  0
SPLINE
  5
541
100
AcDbEntity
  8
Holes
 62
7
100
AcDbSpline
 70
8
 71
3
 72
8
 73
4
 74
0
 40
0
 40
0
 40
0
 40
0
 40
1
 40
1
 40
1
 40
1
 10
986.111699
 20
1777.096350
 30
0.0
 10
984.591567
 20
1774.457398
 30
0.0
 10
984.598664
 20
1771.207019
 30
0.0
 10
986.130304
 20
1768.574730
 30
0.0
  0
SPLINE
  5
542
100
AcDbEntity
  8
Holes
 62
7
100
AcDbSpline
 70
8
 71
3
 72
8
 73
4
 74
0
 40
0
 40
0
 40
0
 40
0
 40
1
 40
1
 40
1
 40
1
 10
986.130304
 20
1768.574730
 30
0.0
 10
987.661945
 20
1765.942442
 30
0.0
 10
990.484273
 20
1764.330151
 30
0.0
 10
993.529688
 20
1764.347739
 30
0.0
  0
SPLINE
  5
543
100
AcDbEntity
  8
Holes
 62
7
100
AcDbSpline
 70
8
 71
3
 72
8
 73
4
 74
0
 40
0
 40
0
 40
0
 40
0
 40
1
 40
1
 40
1
 40
1
 10
993.529688
 20
1764.347739
 30
0.0
 10
996.575152
 20
1764.343450
 30
0.0
 10
999.390412
 20
1765.968049
 30
0.0
 10
1000.910544
 20
1768.607001
 30
0.0
  0
SPLINE
  5
544
100
AcDbEntity
  8
Holes
 62
7
100
AcDbSpline
 70
8
 71
3
 72
8
 73
4
 74
0
 40
0
 40
0
 40
0
 40
0
 40
1
 40
1
 40
1
 40
1
 10
1000.910544
 20
1768.607001
 30
0.0
 10
1002.430676
 20
1771.245952
 30
0.0
 10
1002.423579
 20
1774.496331
 30
0.0
 10
1000.891939
 20
1777.128620
 30
0.0
  0
SPLINE
  5
545
100
AcDbEntity
  8
Holes
 62
7
100
AcDbSpline
 70
8
 71
3
 72
8
 73
4
 74
0
 40
0
 40
0
 40
0
 40
0
 40
1
 40
1
 40
1
 40
1
 10
1000.891939
 20
1777.128620
 30
0.0
 10
999.360298
 20
1779.760909
 30
0.0
 10
996.537970
 20
1781.373199
 30
0.0
 10
993.492555
 20
1781.355612
 30
0.0
  0
LWPOLYLINE
  5
546
100
AcDbEntity
  8
Holes
 62
7
100
AcDbPolyline
 90
1
 70
1
 10
993.596869
 20
1733.308653
 30
0.0
  0
SPLINE
  5
547
100
AcDbEntity
  8
Holes
 62
7
100
AcDbSpline
 70
8
 71
3
 72
8
 73
4
 74
0
 40
0
 40
0
 40
0
 40
0
 40
1
 40
1
 40
1
 40
1
 10
993.388240
 20
1829.402854
 30
0.0
 10
990.344660
 20
1829.404319
 30
0.0
 10
987.532352
 20
1827.779105
 30
0.0
 10
986.013978
 20
1825.141319
 30
0.0
  0
SPLINE
  5
548
100
AcDbEntity
  8
Holes
 62
7
100
AcDbSpline
 70
8
 71
3
 72
8
 73
4
 74
0
 40
0
 40
0
 40
0
 40
0
 40
1
 40
1
 40
1
 40
1
 10
986.013978
 20
1825.141319
 30
0.0
 10
984.495603
 20
1822.503534
 30
0.0
 10
984.502695
 20
1819.255404
 30
0.0
 10
986.032573
 20
1816.624274
 30
0.0
  0
SPLINE
  5
549
100
AcDbEntity
  8
Holes
 62
7
100
AcDbSpline
 70
8
 71
3
 72
8
 73
4
 74
0
 40
0
 40
0
 40
0
 40
0
 40
1
 40
1
 40
1
 40
1
 10
986.032573
 20
1816.624274
 30
0.0
 10
987.562452
 20
1813.993143
 30
0.0
 10
990.381830
 20
1812.380226
 30
0.0
 10
993.425373
 20
1812.394981
 30
0.0
  0
SPLINE
  5
54a
100
AcDbEntity
  8
Holes
 62
7
100
AcDbSpline
 70
8
 71
3
 72
8
 73
4
 74
0
 40
0
 40
0
 40
0
 40
0
 40
1
 40
1
 40
1
 40
1
 10
993.425373
 20
1812.394981
 30
0.0
 10
996.468953
 20
1812.393516
 30
0.0
 10
999.281261
 20
1814.018729
 30
0.0
 10
1000.799635
 20
1816.656515
 30
0.0
  0
SPLINE
  5
54b
100
AcDbEntity
  8
Holes
 62
7
100
AcDbSpline
 70
8
 71
3
 72
8
 73
4
 74
0
 40
0
 40
0
 40
0
 40
0
 40
1
 40
1
 40
1
 40
1
 10
1000.799635
 20
1816.656515
 30
0.0
 10
1002.318010
 20
1819.294301
 30
0.0
 10
1002.310918
 20
1822.542430
 30
0.0
 10
1000.781040
 20
1825.173561
 30
0.0
  0
SPLINE
  5
54c
100
AcDbEntity
  8
Holes
 62
7
100
AcDbSpline
 70
8
 71
3
 72
8
 73
4
 74
0
 40
0
 40
0
 40
0
 40
0
 40
1
 40
1
 40
1
 40
1
 10
1000.781040
 20
1825.173561
 30
0.0
 10
999.251161
 20
1827.804691
 30
0.0
 10
996.431783
 20
1829.417609
 30
0.0
 10
993.388240
 20
1829.402854
 30
0.0
  0
LWPOLYLINE
  5
54d
100
AcDbEntity
  8
Holes
 62
7
100
AcDbPolyline
 90
1
 70
1
 10
993.492555
 20
1781.355612
 30
0.0
  0
SPLINE
  5
54e
100
AcDbEntity
  8
Holes
 62
7
100
AcDbSpline
 70
8
 71
3
 72
8
 73
4
 74
0
 40
0
 40
0
 40
0
 40
0
 40
1
 40
1
 40
1
 40
1
 10
993.283925
 20
1877.450096
 30
0.0
 10
990.245391
 20
1877.444014
 30
0.0
 10
987.440974
 20
1875.817163
 30
0.0
 10
985.927293
 20
1873.182492
 30
0.0
  0
SPLINE
  5
54f
100
AcDbEntity
  8
Holes
 62
7
100
AcDbSpline
 70
8
 71
3
 72
8
 73
4
 74
0
 40
0
 40
0
 40
0
 40
0
 40
1
 40
1
 40
1
 40
1
 10
985.927293
 20
1873.182492
 30
0.0
 10
984.413613
 20
1870.547820
 30
0.0
 10
984.420691
 20
1867.305699
 30
0.0
 10
985.945862
 20
1864.677662
 30
0.0
  0
SPLINE
  5
550
100
AcDbEntity
  8
Holes
 62
7
100
AcDbSpline
 70
8
 71
3
 72
8
 73
4
 74
0
 40
0
 40
0
 40
0
 40
0
 40
1
 40
1
 40
1
 40
1
 10
985.945862
 20
1864.677662
 30
0.0
 10
987.471033
 20
1862.049626
 30
0.0
 10
990.282527
 20
1860.435036
 30
0.0
 10
993.321058
 20
1860.442223
 30
0.0
  0
SPLINE
  5
551
100
AcDbEntity
  8
Holes
 62
7
100
AcDbSpline
 70
8
 71
3
 72
8
 73
4
 74
0
 40
0
 40
0
 40
0
 40
0
 40
1
 40
1
 40
1
 40
1
 10
993.321058
 20
1860.442223
 30
0.0
 10
996.359592
 20
1860.448304
 30
0.0
 10
999.164009
 20
1862.075155
 30
0.0
 10
1000.677690
 20
1864.709827
 30
0.0
  0
SPLINE
  5
552
100
AcDbEntity
  8
Holes
 62
7
100
AcDbSpline
 70
8
 71
3
 72
8
 73
4
 74
0
 40
0
 40
0
 40
0
 40
0
 40
1
 40
1
 40
1
 40
1
 10
1000.677690
 20
1864.709827
 30
0.0
 10
1002.191370
 20
1867.344498
 30
0.0
 10
1002.184292
 20
1870.586620
 30
0.0
 10
1000.659121
 20
1873.214656
 30
0.0
  0
SPLINE
  5
553
100
AcDbEntity
  8
Holes
 62
7
100
AcDbSpline
 70
8
 71
3
 72
8
 73
4
 74
0
 40
0
 40
0
 40
0
 40
0
 40
1
 40
1
 40
1
 40
1
 10
1000.659121
 20
1873.214656
 30
0.0
 10
999.133950
 20
1875.842693
 30
0.0
 10
996.322456
 20
1877.457283
 30
0.0
 10
993.283925
 20
1877.450096
 30
0.0
  0
LWPOLYLINE
  5
554
100
AcDbEntity
  8
Holes
 62
7
100
AcDbPolyline
 90
1
 70
1
 10
993.388240
 20
1829.402854
 30
0.0
  0
SPLINE
  5
555
100
AcDbEntity
  8
Holes
 62
7
100
AcDbSpline
 70
8
 71
3
 72
8
 73
4
 74
0
 40
0
 40
0
 40
0
 40
0
 40
1
 40
1
 40
1
 40
1
 10
1235.570548
 20
930.066481
 30
0.0
 10
1220.349864
 20
930.078591
 30
0.0
 10
1206.283648
 20
921.953943
 30
0.0
 10
1198.688736
 20
908.763543
 30
0.0
  0
SPLINE
  5
556
100
AcDbEntity
  8
Holes
 62
7
100
AcDbSpline
 70
8
 71
3
 72
8
 73
4
 74
0
 40
0
 40
0
 40
0
 40
0
 40
1
 40
1
 40
1
 40
1
 10
1198.688736
 20
908.763543
 30
0.0
 10
1191.093823
 20
895.573142
 30
0.0
 10
1191.128802
 20
879.329155
 30
0.0
 10
1198.780451
 20
866.171585
 30
0.0
  0
SPLINE
  5
557
100
AcDbEntity
  8
Holes
 62
7
100
AcDbSpline
 70
8
 71
3
 72
8
 73
4
 74
0
 40
0
 40
0
 40
0
 40
0
 40
1
 40
1
 40
1
 40
1
 10
1198.780451
 20
866.171585
 30
0.0
 10
1206.432099
 20
853.014015
 30
0.0
 10
1220.533175
 20
844.950021
 30
0.0
 10
1235.753666
 20
845.027682
 30
0.0
  0
SPLINE
  5
558
100
AcDbEntity
  8
Holes
 62
7
100
AcDbSpline
 70
8
 71
3
 72
8
 73
4
 74
0
 40
0
 40
0
 40
0
 40
0
 40
1
 40
1
 40
1
 40
1
 10
1235.753666
 20
845.027682
 30
0.0
 10
1250.974350
 20
845.015572
 30
0.0
 10
1265.040566
 20
853.140220
 30
0.0
 10
1272.635478
 20
866.330620
 30
0.0
  0
SPLINE
  5
559
100
AcDbEntity
  8
Holes
 62
7
100
AcDbSpline
 70
8
 71
3
 72
8
 73
4
 74
0
 40
0
 40
0
 40
0
 40
0
 40
1
 40
1
 40
1
 40
1
 10
1272.635478
 20
866.330620
 30
0.0
 10
1280.230390
 20
879.521021
 30
0.0
 10
1280.195411
 20
895.765009
 30
0.0
 10
1272.543763
 20
908.922578
 30
0.0
  0
SPLINE
  5
55a
100
AcDbEntity
  8
Holes
 62
7
100
AcDbSpline
 70
8
 71
3
 72
8
 73
4
 74
0
 40
0
 40
0
 40
0
 40
0
 40
1
 40
1
 40
1
 40
1
 10
1272.543763
 20
908.922578
 30
0.0
 10
1264.892114
 20
922.080148
 30
0.0
 10
1250.791038
 20
930.144142
 30
0.0
 10
1235.570548
 20
930.066481
 30
0.0
  0
LWPOLYLINE
  5
55b
100
AcDbEntity
  8
Holes
 62
7
100
AcDbPolyline
 90
1
 70
1
 10
993.283925
 20
1877.450096
 30
0.0
  0
SPLINE
  5
55c
100
AcDbEntity
  8
Holes
 62
7
100
AcDbSpline
 70
8
 71
3
 72
8
 73
4
 74
0
 40
0
 40
0
 40
0
 40
0
 40
1
 40
1
 40
1
 40
1
 10
993.179950
 20
1925.497055
 30
0.0
 10
990.134486
 20
1925.501344
 30
0.0
 10
987.319226
 20
1923.876744
 30
0.0
 10
985.799094
 20
1921.237793
 30
0.0
  0
SPLINE
  5
55d
100
AcDbEntity
  8
Holes
 62
7
100
AcDbSpline
 70
8
 71
3
 72
8
 73
4
 74
0
 40
0
 40
0
 40
0
 40
0
 40
1
 40
1
 40
1
 40
1
 10
985.799094
 20
1921.237793
 30
0.0
 10
984.278962
 20
1918.598841
 30
0.0
 10
984.286059
 20
1915.348462
 30
0.0
 10
985.817700
 20
1912.716173
 30
0.0
  0
SPLINE
  5
55e
100
AcDbEntity
  8
Holes
 62
7
100
AcDbSpline
 70
8
 71
3
 72
8
 73
4
 74
0
 40
0
 40
0
 40
0
 40
0
 40
1
 40
1
 40
1
 40
1
 10
985.817700
 20
1912.716173
 30
0.0
 10
987.349340
 20
1910.083885
 30
0.0
 10
990.171668
 20
1908.471594
 30
0.0
 10
993.217084
 20
1908.489181
 30
0.0
  0
SPLINE
  5
55f
100
AcDbEntity
  8
Holes
 62
7
100
AcDbSpline
 70
8
 71
3
 72
8
 73
4
 74
0
 40
0
 40
0
 40
0
 40
0
 40
1
 40
1
 40
1
 40
1
 10
993.217084
 20
1908.489181
 30
0.0
 10
996.262547
 20
1908.484893
 30
0.0
 10
999.077808
 20
1910.109492
 30
0.0
 10
1000.597939
 20
1912.748443
 30
0.0
  0
SPLINE
  5
560
100
AcDbEntity
  8
Holes
 62
7
100
AcDbSpline
 70
8
 71
3
 72
8
 73
4
 74
0
 40
0
 40
0
 40
0
 40
0
 40
1
 40
1
 40
1
 40
1
 10
1000.597939
 20
1912.748443
 30
0.0
 10
1002.118071
 20
1915.387395
 30
0.0
 10
1002.110974
 20
1918.637774
 30
0.0
 10
1000.579334
 20
1921.270063
 30
0.0
  0
SPLINE
  5
561
100
AcDbEntity
  8
Holes
 62
7
100
AcDbSpline
 70
8
 71
3
 72
8
 73
4
 74
0
 40
0
 40
0
 40
0
 40
0
 40
1
 40
1
 40
1
 40
1
 10
1000.579334
 20
1921.270063
 30
0.0
 10
999.047693
 20
1923.902352
 30
0.0
 10
996.225366
 20
1925.514642
 30
0.0
 10
993.179950
 20
1925.497055
 30
0.0
  0
LWPOLYLINE
  5
562
100
AcDbEntity
  8
Holes
 62
7
100
AcDbPolyline
 90
1
 70
1
 10
1235.570548
 20
930.066481
 30
0.0
  0
SPLINE
  5
563
100
AcDbEntity
  8
Holes
 62
7
100
AcDbSpline
 70
8
 71
3
 72
8
 73
4
 74
0
 40
0
 40
0
 40
0
 40
0
 40
1
 40
1
 40
1
 40
1
 10
993.075635
 20
1973.544297
 30
0.0
 10
990.030171
 20
1973.548586
 30
0.0
 10
987.214911
 20
1971.923987
 30
0.0
 10
985.694779
 20
1969.285035
 30
0.0
  0
SPLINE
  5
564
100
AcDbEntity
  8
Holes
 62
7
100
AcDbSpline
 70
8
 71
3
 72
8
 73
4
 74
0
 40
0
 40
0
 40
0
 40
0
 40
1
 40
1
 40
1
 40
1
 10
985.694779
 20
1969.285035
 30
0.0
 10
984.174648
 20
1966.646083
 30
0.0
 10
984.181744
 20
1963.395704
 30
0.0
 10
985.713385
 20
1960.763415
 30
0.0
  0
SPLINE
  5
565
100
AcDbEntity
  8
Holes
 62
7
100
AcDbSpline
 70
8
 71
3
 72
8
 73
4
 74
0
 40
0
 40
0
 40
0
 40
0
 40
1
 40
1
 40
1
 40
1
 10
985.713385
 20
1960.763415
 30
0.0
 10
987.245025
 20
1958.131127
 30
0.0
 10
990.067353
 20
1956.518836
 30
0.0
 10
993.112769
 20
1956.536424
 30
0.0
  0
SPLINE
  5
566
100
AcDbEntity
  8
Holes
 62
7
100
AcDbSpline
 70
8
 71
3
 72
8
 73
4
 74
0
 40
0
 40
0
 40
0
 40
0
 40
1
 40
1
 40
1
 40
1
 10
993.112769
 20
1956.536424
 30
0.0
 10
996.158232
 20
1956.532135
 30
0.0
 10
998.973493
 20
1958.156734
 30
0.0
 10
1000.493624
 20
1960.795686
 30
0.0
  0
SPLINE
  5
567
100
AcDbEntity
  8
Holes
 62
7
100
AcDbSpline
 70
8
 71
3
 72
8
 73
4
 74
0
 40
0
 40
0
 40
0
 40
0
 40
1
 40
1
 40
1
 40
1
 10
1000.493624
 20
1960.795686
 30
0.0
 10
1002.013756
 20
1963.434637
 30
0.0
 10
1002.006659
 20
1966.685016
 30
0.0
 10
1000.475019
 20
1969.317305
 30
0.0
  0
SPLINE
  5
568
100
AcDbEntity
  8
Holes
 62
7
100
AcDbSpline
 70
8
 71
3
 72
8
 73
4
 74
0
 40
0
 40
0
 40
0
 40
0
 40
1
 40
1
 40
1
 40
1
 10
1000.475019
 20
1969.317305
 30
0.0
 10
998.943378
 20
1971.949594
 30
0.0
 10
996.121051
 20
1973.561884
 30
0.0
 10
993.075635
 20
1973.544297
 30
0.0
  0
LWPOLYLINE
  5
569
100
AcDbEntity
  8
Holes
 62
7
100
AcDbPolyline
 90
1
 70
1
 10
993.179950
 20
1925.497055
 30
0.0
  0
SPLINE
  5
56a
100
AcDbEntity
  8
Holes
 62
7
100
AcDbSpline
 70
8
 71
3
 72
8
 73
4
 74
0
 40
0
 40
0
 40
0
 40
0
 40
1
 40
1
 40
1
 40
1
 10
992.971320
 20
2021.591539
 30
0.0
 10
989.932786
 20
2021.585457
 30
0.0
 10
987.128369
 20
2019.958606
 30
0.0
 10
985.614689
 20
2017.323935
 30
0.0
  0
SPLINE
  5
56b
100
AcDbEntity
  8
Holes
 62
7
100
AcDbSpline
 70
8
 71
3
 72
8
 73
4
 74
0
 40
0
 40
0
 40
0
 40
0
 40
1
 40
1
 40
1
 40
1
 10
985.614689
 20
2017.323935
 30
0.0
 10
984.101008
 20
2014.689263
 30
0.0
 10
984.108087
 20
2011.447142
 30
0.0
 10
985.633257
 20
2008.819105
 30
0.0
  0
SPLINE
  5
56c
100
AcDbEntity
  8
Holes
 62
7
100
AcDbSpline
 70
8
 71
3
 72
8
 73
4
 74
0
 40
0
 40
0
 40
0
 40
0
 40
1
 40
1
 40
1
 40
1
 10
985.633257
 20
2008.819105
 30
0.0
 10
987.158428
 20
2006.191069
 30
0.0
 10
989.969923
 20
2004.576479
 30
0.0
 10
993.008454
 20
2004.583666
 30
0.0
  0
SPLINE
  5
56d
100
AcDbEntity
  8
Holes
 62
7
100
AcDbSpline
 70
8
 71
3
 72
8
 73
4
 74
0
 40
0
 40
0
 40
0
 40
0
 40
1
 40
1
 40
1
 40
1
 10
993.008454
 20
2004.583666
 30
0.0
 10
996.046987
 20
2004.589747
 30
0.0
 10
998.851405
 20
2006.216598
 30
0.0
 10
1000.365085
 20
2008.851270
 30
0.0
  0
SPLINE
  5
56e
100
AcDbEntity
  8
Holes
 62
7
100
AcDbSpline
 70
8
 71
3
 72
8
 73
4
 74
0
 40
0
 40
0
 40
0
 40
0
 40
1
 40
1
 40
1
 40
1
 10
1000.365085
 20
2008.851270
 30
0.0
 10
1001.878766
 20
2011.485941
 30
0.0
 10
1001.871687
 20
2014.728063
 30
0.0
 10
1000.346516
 20
2017.356099
 30
0.0
  0
SPLINE
  5
56f
100
AcDbEntity
  8
Holes
 62
7
100
AcDbSpline
 70
8
 71
3
 72
8
 73
4
 74
0
 40
0
 40
0
 40
0
 40
0
 40
1
 40
1
 40
1
 40
1
 10
1000.346516
 20
2017.356099
 30
0.0
 10
998.821345
 20
2019.984136
 30
0.0
 10
996.009851
 20
2021.598726
 30
0.0
 10
992.971320
 20
2021.591539
 30
0.0
  0
LWPOLYLINE
  5
570
100
AcDbEntity
  8
Holes
 62
7
100
AcDbPolyline
 90
1
 70
1
 10
993.075635
 20
1973.544297
 30
0.0
  0
SPLINE
  5
571
100
AcDbEntity
  8
Holes
 62
7
100
AcDbSpline
 70
8
 71
3
 72
8
 73
4
 74
0
 40
0
 40
0
 40
0
 40
0
 40
1
 40
1
 40
1
 40
1
 10
992.867005
 20
2069.638214
 30
0.0
 10
989.818028
 20
2069.647853
 30
0.0
 10
986.997223
 20
2068.024446
 30
0.0
 10
985.473788
 20
2065.383329
 30
0.0
  0
SPLINE
  5
572
100
AcDbEntity
  8
Holes
 62
7
100
AcDbSpline
 70
8
 71
3
 72
8
 73
4
 74
0
 40
0
 40
0
 40
0
 40
0
 40
1
 40
1
 40
1
 40
1
 10
985.473788
 20
2065.383329
 30
0.0
 10
983.950353
 20
2062.742212
 30
0.0
 10
983.957459
 20
2059.487624
 30
0.0
 10
985.492412
 20
2056.853185
 30
0.0
  0
SPLINE
  5
573
100
AcDbEntity
  8
Holes
 62
7
100
AcDbSpline
 70
8
 71
3
 72
8
 73
4
 74
0
 40
0
 40
0
 40
0
 40
0
 40
1
 40
1
 40
1
 40
1
 10
985.492412
 20
2056.853185
 30
0.0
 10
987.027366
 20
2054.218746
 30
0.0
 10
989.855233
 20
2052.607671
 30
0.0
 10
992.904139
 20
2052.630624
 30
0.0
  0
SPLINE
  5
574
100
AcDbEntity
  8
Holes
 62
7
100
AcDbSpline
 70
8
 71
3
 72
8
 73
4
 74
0
 40
0
 40
0
 40
0
 40
0
 40
1
 40
1
 40
1
 40
1
 10
992.904139
 20
2052.630624
 30
0.0
 10
995.953116
 20
2052.620985
 30
0.0
 10
998.773921
 20
2054.244393
 30
0.0
 10
1000.297356
 20
2056.885509
 30
0.0
  0
SPLINE
  5
575
100
AcDbEntity
  8
Holes
 62
7
100
AcDbSpline
 70
8
 71
3
 72
8
 73
4
 74
0
 40
0
 40
0
 40
0
 40
0
 40
1
 40
1
 40
1
 40
1
 10
1000.297356
 20
2056.885509
 30
0.0
 10
1001.820791
 20
2059.526626
 30
0.0
 10
1001.813685
 20
2062.781214
 30
0.0
 10
1000.278731
 20
2065.415654
 30
0.0
  0
SPLINE
  5
576
100
AcDbEntity
  8
Holes
 62
7
100
AcDbSpline
 70
8
 71
3
 72
8
 73
4
 74
0
 40
0
 40
0
 40
0
 40
0
 40
1
 40
1
 40
1
 40
1
 10
1000.278731
 20
2065.415654
 30
0.0
 10
998.743778
 20
2068.050093
 30
0.0
 10
995.915911
 20
2069.661167
 30
0.0
 10
992.867005
 20
2069.638214
 30
0.0
  0
LWPOLYLINE
  5
577
100
AcDbEntity
  8
Holes
 62
7
100
AcDbPolyline
 90
1
 70
1
 10
992.971320
 20
2021.591539
 30
0.0
  0
SPLINE
  5
578
100
AcDbEntity
  8
Holes
 62
7
100
AcDbSpline
 70
8
 71
3
 72
8
 73
4
 74
0
 40
0
 40
0
 40
0
 40
0
 40
1
 40
1
 40
1
 40
1
 10
992.762690
 20
2117.685740
 30
0.0
 10
989.717226
 20
2117.690029
 30
0.0
 10
986.901966
 20
2116.065430
 30
0.0
 10
985.381834
 20
2113.426478
 30
0.0
  0
SPLINE
  5
579
100
AcDbEntity
  8
Holes
 62
7
100
AcDbSpline
 70
8
 71
3
 72
8
 73
4
 74
0
 40
0
 40
0
 40
0
 40
0
 40
1
 40
1
 40
1
 40
1
 10
985.381834
 20
2113.426478
 30
0.0
 10
983.861703
 20
2110.787526
 30
0.0
 10
983.868799
 20
2107.537147
 30
0.0
 10
985.400440
 20
2104.904858
 30
0.0
  0
SPLINE
  5
57a
100
AcDbEntity
  8
Holes
 62
7
100
AcDbSpline
 70
8
 71
3
 72
8
 73
4
 74
0
 40
0
 40
0
 40
0
 40
0
 40
1
 40
1
 40
1
 40
1
 10
985.400440
 20
2104.904858
 30
0.0
 10
986.932080
 20
2102.272570
 30
0.0
 10
989.754408
 20
2100.660279
 30
0.0
 10
992.799824
 20
2100.677866
 30
0.0
  0
SPLINE
  5
57b
100
AcDbEntity
  8
Holes
 62
7
100
AcDbSpline
 70
8
 71
3
 72
8
 73
4
 74
0
 40
0
 40
0
 40
0
 40
0
 40
1
 40
1
 40
1
 40
1
 10
992.799824
 20
2100.677866
 30
0.0
 10
995.845287
 20
2100.673578
 30
0.0
 10
998.660548
 20
2102.298177
 30
0.0
 10
1000.180680
 20
2104.937129
 30
0.0
  0
SPLINE
  5
57c
100
AcDbEntity
  8
Holes
 62
7
100
AcDbSpline
 70
8
 71
3
 72
8
 73
4
 74
0
 40
0
 40
0
 40
0
 40
0
 40
1
 40
1
 40
1
 40
1
 10
1000.180680
 20
2104.937129
 30
0.0
 10
1001.700811
 20
2107.576080
 30
0.0
 10
1001.693715
 20
2110.826459
 30
0.0
 10
1000.162074
 20
2113.458748
 30
0.0
  0
SPLINE
  5
57d
100
AcDbEntity
  8
Holes
 62
7
100
AcDbSpline
 70
8
 71
3
 72
8
 73
4
 74
0
 40
0
 40
0
 40
0
 40
0
 40
1
 40
1
 40
1
 40
1
 10
1000.162074
 20
2113.458748
 30
0.0
 10
998.630433
 20
2116.091037
 30
0.0
 10
995.808106
 20
2117.703327
 30
0.0
 10
992.762690
 20
2117.685740
 30
0.0
  0
LWPOLYLINE
  5
57e
100
AcDbEntity
  8
Holes
 62
7
100
AcDbPolyline
 90
1
 70
1
 10
992.867005
 20
2069.638214
 30
0.0
  0
SPLINE
  5
57f
100
AcDbEntity
  8
Holes
 62
7
100
AcDbSpline
 70
8
 71
3
 72
8
 73
4
 74
0
 40
0
 40
0
 40
0
 40
0
 40
1
 40
1
 40
1
 40
1
 10
992.658375
 20
2165.732982
 30
0.0
 10
989.619791
 20
2165.726901
 30
0.0
 10
986.815326
 20
2164.100023
 30
0.0
 10
985.301619
 20
2161.465307
 30
0.0
  0
SPLINE
  5
580
100
AcDbEntity
  8
Holes
 62
7
100
AcDbSpline
 70
8
 71
3
 72
8
 73
4
 74
0
 40
0
 40
0
 40
0
 40
0
 40
1
 40
1
 40
1
 40
1
 10
985.301619
 20
2161.465307
 30
0.0
 10
983.787913
 20
2158.830592
 30
0.0
 10
983.794992
 20
2155.588416
 30
0.0
 10
985.320188
 20
2152.960335
 30
0.0
  0
SPLINE
  5
581
100
AcDbEntity
  8
Holes
 62
7
100
AcDbSpline
 70
8
 71
3
 72
8
 73
4
 74
0
 40
0
 40
0
 40
0
 40
0
 40
1
 40
1
 40
1
 40
1
 10
985.320188
 20
2152.960335
 30
0.0
 10
986.845385
 20
2150.332254
 30
0.0
 10
989.656927
 20
2148.717638
 30
0.0
 10
992.695509
 20
2148.724825
 30
0.0
  0
SPLINE
  5
582
100
AcDbEntity
  8
Holes
 62
7
100
AcDbSpline
 70
8
 71
3
 72
8
 73
4
 74
0
 40
0
 40
0
 40
0
 40
0
 40
1
 40
1
 40
1
 40
1
 10
992.695509
 20
2148.724825
 30
0.0
 10
995.734093
 20
2148.730906
 30
0.0
 10
998.538558
 20
2150.357784
 30
0.0
 10
1000.052265
 20
2152.992500
 30
0.0
  0
SPLINE
  5
583
100
AcDbEntity
  8
Holes
 62
7
100
AcDbSpline
 70
8
 71
3
 72
8
 73
4
 74
0
 40
0
 40
0
 40
0
 40
0
 40
1
 40
1
 40
1
 40
1
 10
1000.052265
 20
2152.992500
 30
0.0
 10
1001.565971
 20
2155.627215
 30
0.0
 10
1001.558892
 20
2158.869391
 30
0.0
 10
1000.033696
 20
2161.497472
 30
0.0
  0
SPLINE
  5
584
100
AcDbEntity
  8
Holes
 62
7
100
AcDbSpline
 70
8
 71
3
 72
8
 73
4
 74
0
 40
0
 40
0
 40
0
 40
0
 40
1
 40
1
 40
1
 40
1
 10
1000.033696
 20
2161.497472
 30
0.0
 10
998.508499
 20
2164.125553
 30
0.0
 10
995.696957
 20
2165.740169
 30
0.0
 10
992.658375
 20
2165.732982
 30
0.0
  0
LWPOLYLINE
  5
585
100
AcDbEntity
  8
Holes
 62
7
100
AcDbPolyline
 90
1
 70
1
 10
992.762690
 20
2117.685740
 30
0.0
  0
SPLINE
  5
586
100
AcDbEntity
  8
Holes
 62
7
100
AcDbSpline
 70
8
 71
3
 72
8
 73
4
 74
0
 40
0
 40
0
 40
0
 40
0
 40
1
 40
1
 40
1
 40
1
 10
992.554060
 20
2213.779941
 30
0.0
 10
989.515527
 20
2213.773859
 30
0.0
 10
986.711109
 20
2212.147008
 30
0.0
 10
985.197429
 20
2209.512336
 30
0.0
  0
SPLINE
  5
587
100
AcDbEntity
  8
Holes
 62
7
100
AcDbSpline
 70
8
 71
3
 72
8
 73
4
 74
0
 40
0
 40
0
 40
0
 40
0
 40
1
 40
1
 40
1
 40
1
 10
985.197429
 20
2209.512336
 30
0.0
 10
983.683748
 20
2206.877665
 30
0.0
 10
983.690827
 20
2203.635544
 30
0.0
 10
985.215998
 20
2201.007507
 30
0.0
  0
SPLINE
  5
588
100
AcDbEntity
  8
Holes
 62
7
100
AcDbSpline
 70
8
 71
3
 72
8
 73
4
 74
0
 40
0
 40
0
 40
0
 40
0
 40
1
 40
1
 40
1
 40
1
 10
985.215998
 20
2201.007507
 30
0.0
 10
986.741168
 20
2198.379470
 30
0.0
 10
989.552663
 20
2196.764881
 30
0.0
 10
992.591194
 20
2196.772067
 30
0.0
  0
SPLINE
  5
589
100
AcDbEntity
  8
Holes
 62
7
100
AcDbSpline
 70
8
 71
3
 72
8
 73
4
 74
0
 40
0
 40
0
 40
0
 40
0
 40
1
 40
1
 40
1
 40
1
 10
992.591194
 20
2196.772067
 30
0.0
 10
995.629727
 20
2196.778149
 30
0.0
 10
998.434145
 20
2198.405000
 30
0.0
 10
999.947825
 20
2201.039671
 30
0.0
  0
SPLINE
  5
58a
100
AcDbEntity
  8
Holes
 62
7
100
AcDbSpline
 70
8
 71
3
 72
8
 73
4
 74
0
 40
0
 40
0
 40
0
 40
0
 40
1
 40
1
 40
1
 40
1
 10
999.947825
 20
2201.039671
 30
0.0
 10
1001.461506
 20
2203.674343
 30
0.0
 10
1001.454427
 20
2206.916464
 30
0.0
 10
999.929256
 20
2209.544501
 30
0.0
  0
SPLINE
  5
58b
100
AcDbEntity
  8
Holes
 62
7
100
AcDbSpline
 70
8
 71
3
 72
8
 73
4
 74
0
 40
0
 40
0
 40
0
 40
0
 40
1
 40
1
 40
1
 40
1
 10
999.929256
 20
2209.544501
 30
0.0
 10
998.404086
 20
2212.172538
 30
0.0
 10
995.592591
 20
2213.787127
 30
0.0
 10
992.554060
 20
2213.779941
 30
0.0
  0
LWPOLYLINE
  5
58c
100
AcDbEntity
  8
Holes
 62
7
100
AcDbPolyline
 90
1
 70
1
 10
992.658375
 20
2165.732982
 30
0.0
  0
SPLINE
  5
58d
100
AcDbEntity
  8
Holes
 62
7
100
AcDbSpline
 70
8
 71
3
 72
8
 73
4
 74
0
 40
0
 40
0
 40
0
 40
0
 40
1
 40
1
 40
1
 40
1
 10
992.449745
 20
2261.826899
 30
0.0
 10
989.399891
 20
2261.837857
 30
0.0
 10
986.577707
 20
2260.214738
 30
0.0
 10
985.053451
 20
2257.573076
 30
0.0
  0
SPLINE
  5
58e
100
AcDbEntity
  8
Holes
 62
7
100
AcDbSpline
 70
8
 71
3
 72
8
 73
4
 74
0
 40
0
 40
0
 40
0
 40
0
 40
1
 40
1
 40
1
 40
1
 10
985.053451
 20
2257.573076
 30
0.0
 10
983.529196
 20
2254.931414
 30
0.0
 10
983.536304
 20
2251.675775
 30
0.0
 10
985.072080
 20
2249.040795
 30
0.0
  0
SPLINE
  5
58f
100
AcDbEntity
  8
Holes
 62
7
100
AcDbSpline
 70
8
 71
3
 72
8
 73
4
 74
0
 40
0
 40
0
 40
0
 40
0
 40
1
 40
1
 40
1
 40
1
 10
985.072080
 20
2249.040795
 30
0.0
 10
986.607857
 20
2246.405814
 30
0.0
 10
989.437102
 20
2244.795033
 30
0.0
 10
992.486879
 20
2244.819309
 30
0.0
  0
SPLINE
  5
590
100
AcDbEntity
  8
Holes
 62
7
100
AcDbSpline
 70
8
 71
3
 72
8
 73
4
 74
0
 40
0
 40
0
 40
0
 40
0
 40
1
 40
1
 40
1
 40
1
 10
992.486879
 20
2244.819309
 30
0.0
 10
995.536733
 20
2244.808351
 30
0.0
 10
998.358917
 20
2246.431471
 30
0.0
 10
999.883173
 20
2249.073133
 30
0.0
  0
SPLINE
  5
591
100
AcDbEntity
  8
Holes
 62
7
100
AcDbSpline
 70
8
 71
3
 72
8
 73
4
 74
0
 40
0
 40
0
 40
0
 40
0
 40
1
 40
1
 40
1
 40
1
 10
999.883173
 20
2249.073133
 30
0.0
 10
1001.407429
 20
2251.714794
 30
0.0
 10
1001.400320
 20
2254.970434
 30
0.0
 10
999.864544
 20
2257.605414
 30
0.0
  0
SPLINE
  5
592
100
AcDbEntity
  8
Holes
 62
7
100
AcDbSpline
 70
8
 71
3
 72
8
 73
4
 74
0
 40
0
 40
0
 40
0
 40
0
 40
1
 40
1
 40
1
 40
1
 10
999.864544
 20
2257.605414
 30
0.0
 10
998.328767
 20
2260.240394
 30
0.0
 10
995.499522
 20
2261.851175
 30
0.0
 10
992.449745
 20
2261.826899
 30
0.0
  0
LWPOLYLINE
  5
593
100
AcDbEntity
  8
Holes
 62
7
100
AcDbPolyline
 90
1
 70
1
 10
992.554060
 20
2213.779941
 30
0.0
  0
SPLINE
  5
594
100
AcDbEntity
  8
Holes
 62
7
100
AcDbSpline
 70
8
 71
3
 72
8
 73
4
 74
0
 40
0
 40
0
 40
0
 40
0
 40
1
 40
1
 40
1
 40
1
 10
1475.006368
 20
1301.924072
 30
0.0
 10
1471.961394
 20
1301.927959
 30
0.0
 10
1469.146716
 20
1300.303532
 30
0.0
 10
1467.626711
 20
1297.665074
 30
0.0
  0
SPLINE
  5
595
100
AcDbEntity
  8
Holes
 62
7
100
AcDbSpline
 70
8
 71
3
 72
8
 73
4
 74
0
 40
0
 40
0
 40
0
 40
0
 40
1
 40
1
 40
1
 40
1
 10
1467.626711
 20
1297.665074
 30
0.0
 10
1466.106706
 20
1295.026616
 30
0.0
 10
1466.113368
 20
1291.776827
 30
0.0
 10
1467.644178
 20
1289.144622
 30
0.0
  0
SPLINE
  5
596
100
AcDbEntity
  8
Holes
 62
7
100
AcDbSpline
 70
8
 71
3
 72
8
 73
4
 74
0
 40
0
 40
0
 40
0
 40
0
 40
1
 40
1
 40
1
 40
1
 10
1467.644178
 20
1289.144622
 30
0.0
 10
1469.174988
 20
1286.512418
 30
0.0
 10
1471.996302
 20
1284.899545
 30
0.0
 10
1475.041234
 20
1284.915916
 30
0.0
  0
SPLINE
  5
597
100
AcDbEntity
  8
Holes
 62
7
100
AcDbSpline
 70
8
 71
3
 72
8
 73
4
 74
0
 40
0
 40
0
 40
0
 40
0
 40
1
 40
1
 40
1
 40
1
 10
1475.041234
 20
1284.915916
 30
0.0
 10
1478.086208
 20
1284.912029
 30
0.0
 10
1480.900885
 20
1286.536456
 30
0.0
 10
1482.420891
 20
1289.174914
 30
0.0
  0
SPLINE
  5
598
100
AcDbEntity
  8
Holes
 62
7
100
AcDbSpline
 70
8
 71
3
 72
8
 73
4
 74
0
 40
0
 40
0
 40
0
 40
0
 40
1
 40
1
 40
1
 40
1
 10
1482.420891
 20
1289.174914
 30
0.0
 10
1483.940896
 20
1291.813373
 30
0.0
 10
1483.934234
 20
1295.063161
 30
0.0
 10
1482.403424
 20
1297.695366
 30
0.0
  0
SPLINE
  5
599
100
AcDbEntity
  8
Holes
 62
7
100
AcDbSpline
 70
8
 71
3
 72
8
 73
4
 74
0
 40
0
 40
0
 40
0
 40
0
 40
1
 40
1
 40
1
 40
1
 10
1482.403424
 20
1297.695366
 30
0.0
 10
1480.872614
 20
1300.327570
 30
0.0
 10
1478.051300
 20
1301.940443
 30
0.0
 10
1475.006368
 20
1301.924072
 30
0.0
  0
LWPOLYLINE
  5
59a
100
AcDbEntity
  8
Holes
 62
7
100
AcDbPolyline
 90
1
 70
1
 10
992.449745
 20
2261.826899
 30
0.0
  0
SPLINE
  5
59b
100
AcDbEntity
  8
Holes
 62
7
100
AcDbSpline
 70
8
 71
3
 72
8
 73
4
 74
0
 40
0
 40
0
 40
0
 40
0
 40
1
 40
1
 40
1
 40
1
 10
1474.902053
 20
1349.971031
 30
0.0
 10
1471.852971
 20
1349.981237
 30
0.0
 10
1469.031783
 20
1348.358242
 30
0.0
 10
1467.507896
 20
1345.717262
 30
0.0
  0
SPLINE
  5
59c
100
AcDbEntity
  8
Holes
 62
7
100
AcDbSpline
 70
8
 71
3
 72
8
 73
4
 74
0
 40
0
 40
0
 40
0
 40
0
 40
1
 40
1
 40
1
 40
1
 10
1467.507896
 20
1345.717262
 30
0.0
 10
1465.984010
 20
1343.076283
 30
0.0
 10
1465.990682
 20
1339.821567
 30
0.0
 10
1467.525384
 20
1337.186858
 30
0.0
  0
SPLINE
  5
59d
100
AcDbEntity
  8
Holes
 62
7
100
AcDbSpline
 70
8
 71
3
 72
8
 73
4
 74
0
 40
0
 40
0
 40
0
 40
0
 40
1
 40
1
 40
1
 40
1
 10
1467.525384
 20
1337.186858
 30
0.0
 10
1469.060086
 20
1334.552149
 30
0.0
 10
1471.887905
 20
1332.940734
 30
0.0
 10
1474.936919
 20
1332.963441
 30
0.0
  0
SPLINE
  5
59e
100
AcDbEntity
  8
Holes
 62
7
100
AcDbSpline
 70
8
 71
3
 72
8
 73
4
 74
0
 40
0
 40
0
 40
0
 40
0
 40
1
 40
1
 40
1
 40
1
 10
1474.936919
 20
1332.963441
 30
0.0
 10
1477.986000
 20
1332.953235
 30
0.0
 10
1480.807189
 20
1334.576231
 30
0.0
 10
1482.331076
 20
1337.217210
 30
0.0
  0
SPLINE
  5
59f
100
AcDbEntity
  8
Holes
 62
7
100
AcDbSpline
 70
8
 71
3
 72
8
 73
4
 74
0
 40
0
 40
0
 40
0
 40
0
 40
1
 40
1
 40
1
 40
1
 10
1482.331076
 20
1337.217210
 30
0.0
 10
1483.854962
 20
1339.858189
 30
0.0
 10
1483.848290
 20
1343.112905
 30
0.0
 10
1482.313588
 20
1345.747614
 30
0.0
  0
SPLINE
  5
5a0
100
AcDbEntity
  8
Holes
 62
7
100
AcDbSpline
 70
8
 71
3
 72
8
 73
4
 74
0
 40
0
 40
0
 40
0
 40
0
 40
1
 40
1
 40
1
 40
1
 10
1482.313588
 20
1345.747614
 30
0.0
 10
1480.778886
 20
1348.382323
 30
0.0
 10
1477.951067
 20
1349.993739
 30
0.0
 10
1474.902053
 20
1349.971031
 30
0.0
  0
LWPOLYLINE
  5
5a1
100
AcDbEntity
  8
Holes
 62
7
100
AcDbPolyline
 90
1
 70
1
 10
1475.006368
 20
1301.924072
 30
0.0
  0
SPLINE
  5
5a2
100
AcDbEntity
  8
Holes
 62
7
100
AcDbSpline
 70
8
 71
3
 72
8
 73
4
 74
0
 40
0
 40
0
 40
0
 40
0
 40
1
 40
1
 40
1
 40
1
 10
1474.797738
 20
1398.018273
 30
0.0
 10
1470.101143
 20
1398.008645
 30
0.0
 10
1466.301606
 20
1394.193498
 30
0.0
 10
1466.311234
 20
1389.496904
 30
0.0
  0
SPLINE
  5
5a3
100
AcDbEntity
  8
Holes
 62
7
100
AcDbSpline
 70
8
 71
3
 72
8
 73
4
 74
0
 40
0
 40
0
 40
0
 40
0
 40
1
 40
1
 40
1
 40
1
 10
1466.311234
 20
1389.496904
 30
0.0
 10
1466.320862
 20
1384.800309
 30
0.0
 10
1470.136010
 20
1381.000772
 30
0.0
 10
1474.832604
 20
1381.010400
 30
0.0
  0
SPLINE
  5
5a4
100
AcDbEntity
  8
Holes
 62
7
100
AcDbSpline
 70
8
 71
3
 72
8
 73
4
 74
0
 40
0
 40
0
 40
0
 40
0
 40
1
 40
1
 40
1
 40
1
 10
1474.832604
 20
1381.010400
 30
0.0
 10
1479.529199
 20
1381.020028
 30
0.0
 10
1483.328736
 20
1384.835175
 30
0.0
 10
1483.319108
 20
1389.531770
 30
0.0
  0
SPLINE
  5
5a5
100
AcDbEntity
  8
Holes
 62
7
100
AcDbSpline
 70
8
 71
3
 72
8
 73
4
 74
0
 40
0
 40
0
 40
0
 40
0
 40
1
 40
1
 40
1
 40
1
 10
1483.319108
 20
1389.531770
 30
0.0
 10
1483.309480
 20
1394.228364
 30
0.0
 10
1479.494332
 20
1398.027901
 30
0.0
 10
1474.797738
 20
1398.018273
 30
0.0
  0
LWPOLYLINE
  5
5a6
100
AcDbEntity
  8
Holes
 62
7
100
AcDbPolyline
 90
1
 70
1
 10
1474.902053
 20
1349.971031
 30
0.0
  0
SPLINE
  5
5a7
100
AcDbEntity
  8
Holes
 62
7
100
AcDbSpline
 70
8
 71
3
 72
8
 73
4
 74
0
 40
0
 40
0
 40
0
 40
0
 40
1
 40
1
 40
1
 40
1
 10
1474.693423
 20
1446.065232
 30
0.0
 10
1471.648500
 20
1446.069118
 30
0.0
 10
1468.833869
 20
1444.444719
 30
0.0
 10
1467.313889
 20
1441.806304
 30
0.0
  0
SPLINE
  5
5a8
100
AcDbEntity
  8
Holes
 62
7
100
AcDbSpline
 70
8
 71
3
 72
8
 73
4
 74
0
 40
0
 40
0
 40
0
 40
0
 40
1
 40
1
 40
1
 40
1
 10
1467.313889
 20
1441.806304
 30
0.0
 10
1465.793909
 20
1439.167890
 30
0.0
 10
1465.800571
 20
1435.918155
 30
0.0
 10
1467.331356
 20
1433.285994
 30
0.0
  0
SPLINE
  5
5a9
100
AcDbEntity
  8
Holes
 62
7
100
AcDbSpline
 70
8
 71
3
 72
8
 73
4
 74
0
 40
0
 40
0
 40
0
 40
0
 40
1
 40
1
 40
1
 40
1
 10
1467.331356
 20
1433.285994
 30
0.0
 10
1468.862141
 20
1430.653834
 30
0.0
 10
1471.683408
 20
1429.040988
 30
0.0
 10
1474.728289
 20
1429.057359
 30
0.0
  0
SPLINE
  5
5aa
100
AcDbEntity
  8
Holes
 62
7
100
AcDbSpline
 70
8
 71
3
 72
8
 73
4
 74
0
 40
0
 40
0
 40
0
 40
0
 40
1
 40
1
 40
1
 40
1
 10
1474.728289
 20
1429.057359
 30
0.0
 10
1477.773212
 20
1429.053472
 30
0.0
 10
1480.587843
 20
1430.677872
 30
0.0
 10
1482.107823
 20
1433.316286
 30
0.0
  0
SPLINE
  5
5ab
100
AcDbEntity
  8
Holes
 62
7
100
AcDbSpline
 70
8
 71
3
 72
8
 73
4
 74
0
 40
0
 40
0
 40
0
 40
0
 40
1
 40
1
 40
1
 40
1
 10
1482.107823
 20
1433.316286
 30
0.0
 10
1483.627803
 20
1435.954701
 30
0.0
 10
1483.621141
 20
1439.204435
 30
0.0
 10
1482.090356
 20
1441.836596
 30
0.0
  0
SPLINE
  5
5ac
100
AcDbEntity
  8
Holes
 62
7
100
AcDbSpline
 70
8
 71
3
 72
8
 73
4
 74
0
 40
0
 40
0
 40
0
 40
0
 40
1
 40
1
 40
1
 40
1
 10
1482.090356
 20
1441.836596
 30
0.0
 10
1480.559572
 20
1444.468756
 30
0.0
 10
1477.738304
 20
1446.081602
 30
0.0
 10
1474.693423
 20
1446.065232
 30
0.0
  0
LWPOLYLINE
  5
5ad
100
AcDbEntity
  8
Holes
 62
7
100
AcDbPolyline
 90
1
 70
1
 10
1474.797738
 20
1398.018273
 30
0.0
  0
SPLINE
  5
5ae
100
AcDbEntity
  8
Holes
 62
7
100
AcDbSpline
 70
8
 71
3
 72
8
 73
4
 74
0
 40
0
 40
0
 40
0
 40
0
 40
1
 40
1
 40
1
 40
1
 10
1474.589108
 20
1494.112474
 30
0.0
 10
1471.540027
 20
1494.122680
 30
0.0
 10
1468.718838
 20
1492.499684
 30
0.0
 10
1467.194951
 20
1489.858705
 30
0.0
  0
SPLINE
  5
5af
100
AcDbEntity
  8
Holes
 62
7
100
AcDbSpline
 70
8
 71
3
 72
8
 73
4
 74
0
 40
0
 40
0
 40
0
 40
0
 40
1
 40
1
 40
1
 40
1
 10
1467.194951
 20
1489.858705
 30
0.0
 10
1465.671065
 20
1487.217726
 30
0.0
 10
1465.677737
 20
1483.963010
 30
0.0
 10
1467.212439
 20
1481.328301
 30
0.0
  0
SPLINE
  5
5b0
100
AcDbEntity
  8
Holes
 62
7
100
AcDbSpline
 70
8
 71
3
 72
8
 73
4
 74
0
 40
0
 40
0
 40
0
 40
0
 40
1
 40
1
 40
1
 40
1
 10
1467.212439
 20
1481.328301
 30
0.0
 10
1468.747141
 20
1478.693592
 30
0.0
 10
1471.574960
 20
1477.082177
 30
0.0
 10
1474.623974
 20
1477.104884
 30
0.0
  0
SPLINE
  5
5b1
100
AcDbEntity
  8
Holes
 62
7
100
AcDbSpline
 70
8
 71
3
 72
8
 73
4
 74
0
 40
0
 40
0
 40
0
 40
0
 40
1
 40
1
 40
1
 40
1
 10
1474.623974
 20
1477.104884
 30
0.0
 10
1477.673056
 20
1477.094678
 30
0.0
 10
1480.494244
 20
1478.717674
 30
0.0
 10
1482.018131
 20
1481.358653
 30
0.0
  0
SPLINE
  5
5b2
100
AcDbEntity
  8
Holes
 62
7
100
AcDbSpline
 70
8
 71
3
 72
8
 73
4
 74
0
 40
0
 40
0
 40
0
 40
0
 40
1
 40
1
 40
1
 40
1
 10
1482.018131
 20
1481.358653
 30
0.0
 10
1483.542018
 20
1483.999632
 30
0.0
 10
1483.535345
 20
1487.254348
 30
0.0
 10
1482.000643
 20
1489.889057
 30
0.0
  0
SPLINE
  5
5b3
100
AcDbEntity
  8
Holes
 62
7
100
AcDbSpline
 70
8
 71
3
 72
8
 73
4
 74
0
 40
0
 40
0
 40
0
 40
0
 40
1
 40
1
 40
1
 40
1
 10
1482.000643
 20
1489.889057
 30
0.0
 10
1480.465941
 20
1492.523766
 30
0.0
 10
1477.638122
 20
1494.135181
 30
0.0
 10
1474.589108
 20
1494.112474
 30
0.0
  0
LWPOLYLINE
  5
5b4
100
AcDbEntity
  8
Holes
 62
7
100
AcDbPolyline
 90
1
 70
1
 10
1474.693423
 20
1446.065232
 30
0.0
  0
SPLINE
  5
5b5
100
AcDbEntity
  8
Holes
 62
7
100
AcDbSpline
 70
8
 71
3
 72
8
 73
4
 74
0
 40
0
 40
0
 40
0
 40
0
 40
1
 40
1
 40
1
 40
1
 10
1474.484793
 20
1542.159433
 30
0.0
 10
1471.435101
 20
1542.170557
 30
0.0
 10
1468.612953
 20
1540.547762
 30
0.0
 10
1467.088495
 20
1537.906403
 30
0.0
  0
SPLINE
  5
5b6
100
AcDbEntity
  8
Holes
 62
7
100
AcDbSpline
 70
8
 71
3
 72
8
 73
4
 74
0
 40
0
 40
0
 40
0
 40
0
 40
1
 40
1
 40
1
 40
1
 10
1467.088495
 20
1537.906403
 30
0.0
 10
1465.564037
 20
1535.265045
 30
0.0
 10
1465.570711
 20
1532.009597
 30
0.0
 10
1467.105985
 20
1529.374511
 30
0.0
  0
SPLINE
  5
5b7
100
AcDbEntity
  8
Holes
 62
7
100
AcDbSpline
 70
8
 71
3
 72
8
 73
4
 74
0
 40
0
 40
0
 40
0
 40
0
 40
1
 40
1
 40
1
 40
1
 10
1467.105985
 20
1529.374511
 30
0.0
 10
1468.641260
 20
1526.739426
 30
0.0
 10
1471.470038
 20
1525.128215
 30
0.0
 10
1474.519659
 20
1525.151843
 30
0.0
  0
SPLINE
  5
5b8
100
AcDbEntity
  8
Holes
 62
7
100
AcDbSpline
 70
8
 71
3
 72
8
 73
4
 74
0
 40
0
 40
0
 40
0
 40
0
 40
1
 40
1
 40
1
 40
1
 10
1474.519659
 20
1525.151843
 30
0.0
 10
1477.569351
 20
1525.140718
 30
0.0
 10
1480.391500
 20
1526.763514
 30
0.0
 10
1481.915958
 20
1529.404872
 30
0.0
  0
SPLINE
  5
5b9
100
AcDbEntity
  8
Holes
 62
7
100
AcDbSpline
 70
8
 71
3
 72
8
 73
4
 74
0
 40
0
 40
0
 40
0
 40
0
 40
1
 40
1
 40
1
 40
1
 10
1481.915958
 20
1529.404872
 30
0.0
 10
1483.440415
 20
1532.046231
 30
0.0
 10
1483.433742
 20
1535.301678
 30
0.0
 10
1481.898467
 20
1537.936764
 30
0.0
  0
SPLINE
  5
5ba
100
AcDbEntity
  8
Holes
 62
7
100
AcDbSpline
 70
8
 71
3
 72
8
 73
4
 74
0
 40
0
 40
0
 40
0
 40
0
 40
1
 40
1
 40
1
 40
1
 10
1481.898467
 20
1537.936764
 30
0.0
 10
1480.363192
 20
1540.571850
 30
0.0
 10
1477.534414
 20
1542.183061
 30
0.0
 10
1474.484793
 20
1542.159433
 30
0.0
  0
LWPOLYLINE
  5
5bb
100
AcDbEntity
  8
Holes
 62
7
100
AcDbPolyline
 90
1
 70
1
 10
1474.589108
 20
1494.112474
 30
0.0
  0
SPLINE
  5
5bc
100
AcDbEntity
  8
Holes
 62
7
100
AcDbSpline
 70
8
 71
3
 72
8
 73
4
 74
0
 40
0
 40
0
 40
0
 40
0
 40
1
 40
1
 40
1
 40
1
 10
1474.380478
 20
1590.206958
 30
0.0
 10
1471.342264
 20
1590.200730
 30
0.0
 10
1468.538160
 20
1588.574107
 30
0.0
 10
1467.024447
 20
1585.939822
 30
0.0
  0
SPLINE
  5
5bd
100
AcDbEntity
  8
Holes
 62
7
100
AcDbSpline
 70
8
 71
3
 72
8
 73
4
 74
0
 40
0
 40
0
 40
0
 40
0
 40
1
 40
1
 40
1
 40
1
 10
1467.024447
 20
1585.939822
 30
0.0
 10
1465.510733
 20
1583.305536
 30
0.0
 10
1465.517379
 20
1580.063800
 30
0.0
 10
1467.041880
 20
1577.435743
 30
0.0
  0
SPLINE
  5
5be
100
AcDbEntity
  8
Holes
 62
7
100
AcDbSpline
 70
8
 71
3
 72
8
 73
4
 74
0
 40
0
 40
0
 40
0
 40
0
 40
1
 40
1
 40
1
 40
1
 10
1467.041880
 20
1577.435743
 30
0.0
 10
1468.566381
 20
1574.807686
 30
0.0
 10
1471.377130
 20
1573.192573
 30
0.0
 10
1474.415344
 20
1573.198802
 30
0.0
  0
SPLINE
  5
5bf
100
AcDbEntity
  8
Holes
 62
7
100
AcDbSpline
 70
8
 71
3
 72
8
 73
4
 74
0
 40
0
 40
0
 40
0
 40
0
 40
1
 40
1
 40
1
 40
1
 10
1474.415344
 20
1573.198802
 30
0.0
 10
1477.453559
 20
1573.205030
 30
0.0
 10
1480.257662
 20
1574.831653
 30
0.0
 10
1481.771376
 20
1577.465938
 30
0.0
  0
SPLINE
  5
5c0
100
AcDbEntity
  8
Holes
 62
7
100
AcDbSpline
 70
8
 71
3
 72
8
 73
4
 74
0
 40
0
 40
0
 40
0
 40
0
 40
1
 40
1
 40
1
 40
1
 10
1481.771376
 20
1577.465938
 30
0.0
 10
1483.285089
 20
1580.100223
 30
0.0
 10
1483.278444
 20
1583.341960
 30
0.0
 10
1481.753943
 20
1585.970017
 30
0.0
  0
SPLINE
  5
5c1
100
AcDbEntity
  8
Holes
 62
7
100
AcDbSpline
 70
8
 71
3
 72
8
 73
4
 74
0
 40
0
 40
0
 40
0
 40
0
 40
1
 40
1
 40
1
 40
1
 10
1481.753943
 20
1585.970017
 30
0.0
 10
1480.229441
 20
1588.598073
 30
0.0
 10
1477.418693
 20
1590.213187
 30
0.0
 10
1474.380478
 20
1590.206958
 30
0.0
  0
LWPOLYLINE
  5
5c2
100
AcDbEntity
  8
Holes
 62
7
100
AcDbPolyline
 90
1
 70
1
 10
1474.484793
 20
1542.159433
 30
0.0
  0
SPLINE
  5
5c3
100
AcDbEntity
  8
Holes
 62
7
100
AcDbSpline
 70
8
 71
3
 72
8
 73
4
 74
0
 40
0
 40
0
 40
0
 40
0
 40
1
 40
1
 40
1
 40
1
 10
1474.276163
 20
1638.253917
 30
0.0
 10
1471.231261
 20
1638.257721
 30
0.0
 10
1468.416690
 20
1636.633268
 30
0.0
 10
1466.896774
 20
1633.994841
 30
0.0
  0
SPLINE
  5
5c4
100
AcDbEntity
  8
Holes
 62
7
100
AcDbSpline
 70
8
 71
3
 72
8
 73
4
 74
0
 40
0
 40
0
 40
0
 40
0
 40
1
 40
1
 40
1
 40
1
 10
1466.896774
 20
1633.994841
 30
0.0
 10
1465.376857
 20
1631.356414
 30
0.0
 10
1465.383573
 20
1628.106704
 30
0.0
 10
1466.914382
 20
1625.474582
 30
0.0
  0
SPLINE
  5
5c5
100
AcDbEntity
  8
Holes
 62
7
100
AcDbSpline
 70
8
 71
3
 72
8
 73
4
 74
0
 40
0
 40
0
 40
0
 40
0
 40
1
 40
1
 40
1
 40
1
 10
1466.914382
 20
1625.474582
 30
0.0
 10
1468.445191
 20
1622.842460
 30
0.0
 10
1471.266452
 20
1621.229654
 30
0.0
 10
1474.311313
 20
1621.246044
 30
0.0
  0
SPLINE
  5
5c6
100
AcDbEntity
  8
Holes
 62
7
100
AcDbSpline
 70
8
 71
3
 72
8
 73
4
 74
0
 40
0
 40
0
 40
0
 40
0
 40
1
 40
1
 40
1
 40
1
 10
1474.311313
 20
1621.246044
 30
0.0
 10
1477.356215
 20
1621.242240
 30
0.0
 10
1480.170786
 20
1622.866693
 30
0.0
 10
1481.690702
 20
1625.505120
 30
0.0
  0
SPLINE
  5
5c7
100
AcDbEntity
  8
Holes
 62
7
100
AcDbSpline
 70
8
 71
3
 72
8
 73
4
 74
0
 40
0
 40
0
 40
0
 40
0
 40
1
 40
1
 40
1
 40
1
 10
1481.690702
 20
1625.505120
 30
0.0
 10
1483.210619
 20
1628.143547
 30
0.0
 10
1483.203903
 20
1631.393256
 30
0.0
 10
1481.673094
 20
1634.025379
 30
0.0
  0
SPLINE
  5
5c8
100
AcDbEntity
  8
Holes
 62
7
100
AcDbSpline
 70
8
 71
3
 72
8
 73
4
 74
0
 40
0
 40
0
 40
0
 40
0
 40
1
 40
1
 40
1
 40
1
 10
1481.673094
 20
1634.025379
 30
0.0
 10
1480.142285
 20
1636.657501
 30
0.0
 10
1477.321023
 20
1638.270306
 30
0.0
 10
1474.276163
 20
1638.253917
 30
0.0
  0
LWPOLYLINE
  5
5c9
100
AcDbEntity
  8
Holes
 62
7
100
AcDbPolyline
 90
1
 70
1
 10
1474.380478
 20
1590.206958
 30
0.0
  0
SPLINE
  5
5ca
100
AcDbEntity
  8
Holes
 62
7
100
AcDbSpline
 70
8
 71
3
 72
8
 73
4
 74
0
 40
0
 40
0
 40
0
 40
0
 40
1
 40
1
 40
1
 40
1
 10
1474.171848
 20
1686.300876
 30
0.0
 10
1471.126925
 20
1686.304762
 30
0.0
 10
1468.312294
 20
1684.680362
 30
0.0
 10
1466.792314
 20
1682.041948
 30
0.0
  0
SPLINE
  5
5cb
100
AcDbEntity
  8
Holes
 62
7
100
AcDbSpline
 70
8
 71
3
 72
8
 73
4
 74
0
 40
0
 40
0
 40
0
 40
0
 40
1
 40
1
 40
1
 40
1
 10
1466.792314
 20
1682.041948
 30
0.0
 10
1465.272334
 20
1679.403533
 30
0.0
 10
1465.278996
 20
1676.153799
 30
0.0
 10
1466.809781
 20
1673.521638
 30
0.0
  0
SPLINE
  5
5cc
100
AcDbEntity
  8
Holes
 62
7
100
AcDbSpline
 70
8
 71
3
 72
8
 73
4
 74
0
 40
0
 40
0
 40
0
 40
0
 40
1
 40
1
 40
1
 40
1
 10
1466.809781
 20
1673.521638
 30
0.0
 10
1468.340566
 20
1670.889478
 30
0.0
 10
1471.161833
 20
1669.276632
 30
0.0
 10
1474.206714
 20
1669.293002
 30
0.0
  0
SPLINE
  5
5cd
100
AcDbEntity
  8
Holes
 62
7
100
AcDbSpline
 70
8
 71
3
 72
8
 73
4
 74
0
 40
0
 40
0
 40
0
 40
0
 40
1
 40
1
 40
1
 40
1
 10
1474.206714
 20
1669.293002
 30
0.0
 10
1477.251637
 20
1669.289116
 30
0.0
 10
1480.066268
 20
1670.913515
 30
0.0
 10
1481.586248
 20
1673.551930
 30
0.0
  0
SPLINE
  5
5ce
100
AcDbEntity
  8
Holes
 62
7
100
AcDbSpline
 70
8
 71
3
 72
8
 73
4
 74
0
 40
0
 40
0
 40
0
 40
0
 40
1
 40
1
 40
1
 40
1
 10
1481.586248
 20
1673.551930
 30
0.0
 10
1483.106228
 20
1676.190344
 30
0.0
 10
1483.099566
 20
1679.440079
 30
0.0
 10
1481.568781
 20
1682.072240
 30
0.0
  0
SPLINE
  5
5cf
100
AcDbEntity
  8
Holes
 62
7
100
AcDbSpline
 70
8
 71
3
 72
8
 73
4
 74
0
 40
0
 40
0
 40
0
 40
0
 40
1
 40
1
 40
1
 40
1
 10
1481.568781
 20
1682.072240
 30
0.0
 10
1480.037997
 20
1684.704400
 30
0.0
 10
1477.216730
 20
1686.317246
 30
0.0
 10
1474.171848
 20
1686.300876
 30
0.0
  0
LWPOLYLINE
  5
5d0
100
AcDbEntity
  8
Holes
 62
7
100
AcDbPolyline
 90
1
 70
1
 10
1474.276163
 20
1638.253917
 30
0.0
  0
SPLINE
  5
5d1
100
AcDbEntity
  8
Holes
 62
7
100
AcDbSpline
 70
8
 71
3
 72
8
 73
4
 74
0
 40
0
 40
0
 40
0
 40
0
 40
1
 40
1
 40
1
 40
1
 10
1474.067533
 20
1734.348118
 30
0.0
 10
1469.370939
 20
1734.338411
 30
0.0
 10
1465.571465
 20
1730.523201
 30
0.0
 10
1465.581171
 20
1725.826606
 30
0.0
  0
SPLINE
  5
5d2
100
AcDbEntity
  8
Holes
 62
7
100
AcDbSpline
 70
8
 71
3
 72
8
 73
4
 74
0
 40
0
 40
0
 40
0
 40
0
 40
1
 40
1
 40
1
 40
1
 10
1465.581171
 20
1725.826606
 30
0.0
 10
1465.590878
 20
1721.130012
 30
0.0
 10
1469.406088
 20
1717.330538
 30
0.0
 10
1474.102683
 20
1717.340244
 30
0.0
  0
SPLINE
  5
5d3
100
AcDbEntity
  8
Holes
 62
7
100
AcDbSpline
 70
8
 71
3
 72
8
 73
4
 74
0
 40
0
 40
0
 40
0
 40
0
 40
1
 40
1
 40
1
 40
1
 10
1474.102683
 20
1717.340244
 30
0.0
 10
1477.140847
 20
1717.346523
 30
0.0
 10
1479.944876
 20
1718.973166
 30
0.0
 10
1481.458521
 20
1721.607433
 30
0.0
  0
SPLINE
  5
5d4
100
AcDbEntity
  8
Holes
 62
7
100
AcDbSpline
 70
8
 71
3
 72
8
 73
4
 74
0
 40
0
 40
0
 40
0
 40
0
 40
1
 40
1
 40
1
 40
1
 10
1481.458521
 20
1721.607433
 30
0.0
 10
1482.972165
 20
1724.241700
 30
0.0
 10
1482.965465
 20
1727.483382
 30
0.0
 10
1481.440946
 20
1730.111370
 30
0.0
  0
SPLINE
  5
5d5
100
AcDbEntity
  8
Holes
 62
7
100
AcDbSpline
 70
8
 71
3
 72
8
 73
4
 74
0
 40
0
 40
0
 40
0
 40
0
 40
1
 40
1
 40
1
 40
1
 10
1481.440946
 20
1730.111370
 30
0.0
 10
1479.916426
 20
1732.739357
 30
0.0
 10
1477.105697
 20
1734.354397
 30
0.0
 10
1474.067533
 20
1734.348118
 30
0.0
  0
LWPOLYLINE
  5
5d6
100
AcDbEntity
  8
Holes
 62
7
100
AcDbPolyline
 90
1
 70
1
 10
1474.171848
 20
1686.300876
 30
0.0
  0
SPLINE
  5
5d7
100
AcDbEntity
  8
Holes
 62
7
100
AcDbSpline
 70
8
 71
3
 72
8
 73
4
 74
0
 40
0
 40
0
 40
0
 40
0
 40
1
 40
1
 40
1
 40
1
 10
1473.963218
 20
1782.395076
 30
0.0
 10
1470.911727
 20
1782.408856
 30
0.0
 10
1468.086779
 20
1780.786604
 30
0.0
 10
1466.560681
 20
1778.144103
 30
0.0
  0
SPLINE
  5
5d8
100
AcDbEntity
  8
Holes
 62
7
100
AcDbSpline
 70
8
 71
3
 72
8
 73
4
 74
0
 40
0
 40
0
 40
0
 40
0
 40
1
 40
1
 40
1
 40
1
 10
1466.560681
 20
1778.144103
 30
0.0
 10
1465.034583
 20
1775.501602
 30
0.0
 10
1465.041315
 20
1772.243997
 30
0.0
 10
1466.578323
 20
1769.607826
 30
0.0
  0
SPLINE
  5
5d9
100
AcDbEntity
  8
Holes
 62
7
100
AcDbSpline
 70
8
 71
3
 72
8
 73
4
 74
0
 40
0
 40
0
 40
0
 40
0
 40
1
 40
1
 40
1
 40
1
 10
1466.578323
 20
1769.607826
 30
0.0
 10
1468.115330
 20
1766.971655
 30
0.0
 10
1470.946960
 20
1765.361094
 30
0.0
 10
1473.998368
 20
1765.387487
 30
0.0
  0
SPLINE
  5
5da
100
AcDbEntity
  8
Holes
 62
7
100
AcDbSpline
 70
8
 71
3
 72
8
 73
4
 74
0
 40
0
 40
0
 40
0
 40
0
 40
1
 40
1
 40
1
 40
1
 10
1473.998368
 20
1765.387487
 30
0.0
 10
1477.049859
 20
1765.373707
 30
0.0
 10
1479.874808
 20
1766.995959
 30
0.0
 10
1481.400905
 20
1769.638460
 30
0.0
  0
SPLINE
  5
5db
100
AcDbEntity
  8
Holes
 62
7
100
AcDbSpline
 70
8
 71
3
 72
8
 73
4
 74
0
 40
0
 40
0
 40
0
 40
0
 40
1
 40
1
 40
1
 40
1
 10
1481.400905
 20
1769.638460
 30
0.0
 10
1482.927003
 20
1772.280961
 30
0.0
 10
1482.920271
 20
1775.538566
 30
0.0
 10
1481.383264
 20
1778.174737
 30
0.0
  0
SPLINE
  5
5dc
100
AcDbEntity
  8
Holes
 62
7
100
AcDbSpline
 70
8
 71
3
 72
8
 73
4
 74
0
 40
0
 40
0
 40
0
 40
0
 40
1
 40
1
 40
1
 40
1
 10
1481.383264
 20
1778.174737
 30
0.0
 10
1479.846256
 20
1780.810907
 30
0.0
 10
1477.014626
 20
1782.421469
 30
0.0
 10
1473.963218
 20
1782.395076
 30
0.0
  0
LWPOLYLINE
  5
5dd
100
AcDbEntity
  8
Holes
 62
7
100
AcDbPolyline
 90
1
 70
1
 10
1474.067533
 20
1734.348118
 30
0.0
  0
SPLINE
  5
5de
100
AcDbEntity
  8
Holes
 62
7
100
AcDbSpline
 70
8
 71
3
 72
8
 73
4
 74
0
 40
0
 40
0
 40
0
 40
0
 40
1
 40
1
 40
1
 40
1
 10
1473.858903
 20
1830.442602
 30
0.0
 10
1470.813930
 20
1830.446488
 30
0.0
 10
1467.999252
 20
1828.822062
 30
0.0
 10
1466.479247
 20
1826.183604
 30
0.0
  0
SPLINE
  5
5df
100
AcDbEntity
  8
Holes
 62
7
100
AcDbSpline
 70
8
 71
3
 72
8
 73
4
 74
0
 40
0
 40
0
 40
0
 40
0
 40
1
 40
1
 40
1
 40
1
 10
1466.479247
 20
1826.183604
 30
0.0
 10
1464.959241
 20
1823.545145
 30
0.0
 10
1464.965903
 20
1820.295356
 30
0.0
 10
1466.496713
 20
1817.663152
 30
0.0
  0
SPLINE
  5
5e0
100
AcDbEntity
  8
Holes
 62
7
100
AcDbSpline
 70
8
 71
3
 72
8
 73
4
 74
0
 40
0
 40
0
 40
0
 40
0
 40
1
 40
1
 40
1
 40
1
 10
1466.496713
 20
1817.663152
 30
0.0
 10
1468.027523
 20
1815.030947
 30
0.0
 10
1470.848837
 20
1813.418075
 30
0.0
 10
1473.893769
 20
1813.434445
 30
0.0
  0
SPLINE
  5
5e1
100
AcDbEntity
  8
Holes
 62
7
100
AcDbSpline
 70
8
 71
3
 72
8
 73
4
 74
0
 40
0
 40
0
 40
0
 40
0
 40
1
 40
1
 40
1
 40
1
 10
1473.893769
 20
1813.434445
 30
0.0
 10
1476.938743
 20
1813.430559
 30
0.0
 10
1479.753421
 20
1815.054985
 30
0.0
 10
1481.273426
 20
1817.693444
 30
0.0
  0
SPLINE
  5
5e2
100
AcDbEntity
  8
Holes
 62
7
100
AcDbSpline
 70
8
 71
3
 72
8
 73
4
 74
0
 40
0
 40
0
 40
0
 40
0
 40
1
 40
1
 40
1
 40
1
 10
1481.273426
 20
1817.693444
 30
0.0
 10
1482.793432
 20
1820.331902
 30
0.0
 10
1482.786770
 20
1823.581691
 30
0.0
 10
1481.255960
 20
1826.213895
 30
0.0
  0
SPLINE
  5
5e3
100
AcDbEntity
  8
Holes
 62
7
100
AcDbSpline
 70
8
 71
3
 72
8
 73
4
 74
0
 40
0
 40
0
 40
0
 40
0
 40
1
 40
1
 40
1
 40
1
 10
1481.255960
 20
1826.213895
 30
0.0
 10
1479.725150
 20
1828.846100
 30
0.0
 10
1476.903835
 20
1830.458972
 30
0.0
 10
1473.858903
 20
1830.442602
 30
0.0
  0
LWPOLYLINE
  5
5e4
100
AcDbEntity
  8
Holes
 62
7
100
AcDbPolyline
 90
1
 70
1
 10
1473.963218
 20
1782.395076
 30
0.0
  0
SPLINE
  5
5e5
100
AcDbEntity
  8
Holes
 62
7
100
AcDbSpline
 70
8
 71
3
 72
8
 73
4
 74
0
 40
0
 40
0
 40
0
 40
0
 40
1
 40
1
 40
1
 40
1
 10
1473.754588
 20
1878.489844
 30
0.0
 10
1470.709636
 20
1878.493648
 30
0.0
 10
1467.895018
 20
1876.869168
 30
0.0
 10
1466.375076
 20
1874.230697
 30
0.0
  0
SPLINE
  5
5e6
100
AcDbEntity
  8
Holes
 62
7
100
AcDbSpline
 70
8
 71
3
 72
8
 73
4
 74
0
 40
0
 40
0
 40
0
 40
0
 40
1
 40
1
 40
1
 40
1
 10
1466.375076
 20
1874.230697
 30
0.0
 10
1464.855134
 20
1871.592226
 30
0.0
 10
1464.861850
 20
1868.342463
 30
0.0
 10
1466.392684
 20
1865.710296
 30
0.0
  0
SPLINE
  5
5e7
100
AcDbEntity
  8
Holes
 62
7
100
AcDbSpline
 70
8
 71
3
 72
8
 73
4
 74
0
 40
0
 40
0
 40
0
 40
0
 40
1
 40
1
 40
1
 40
1
 10
1466.392684
 20
1865.710296
 30
0.0
 10
1467.923519
 20
1863.078130
 30
0.0
 10
1470.744827
 20
1861.465298
 30
0.0
 10
1473.789738
 20
1861.481687
 30
0.0
  0
SPLINE
  5
5e8
100
AcDbEntity
  8
Holes
 62
7
100
AcDbSpline
 70
8
 71
3
 72
8
 73
4
 74
0
 40
0
 40
0
 40
0
 40
0
 40
1
 40
1
 40
1
 40
1
 10
1473.789738
 20
1861.481687
 30
0.0
 10
1476.834691
 20
1861.477883
 30
0.0
 10
1479.649309
 20
1863.102363
 30
0.0
 10
1481.169251
 20
1865.740834
 30
0.0
  0
SPLINE
  5
5e9
100
AcDbEntity
  8
Holes
 62
7
100
AcDbSpline
 70
8
 71
3
 72
8
 73
4
 74
0
 40
0
 40
0
 40
0
 40
0
 40
1
 40
1
 40
1
 40
1
 10
1481.169251
 20
1865.740834
 30
0.0
 10
1482.689192
 20
1868.379305
 30
0.0
 10
1482.682476
 20
1871.629069
 30
0.0
 10
1481.151642
 20
1874.261235
 30
0.0
  0
SPLINE
  5
5ea
100
AcDbEntity
  8
Holes
 62
7
100
AcDbSpline
 70
8
 71
3
 72
8
 73
4
 74
0
 40
0
 40
0
 40
0
 40
0
 40
1
 40
1
 40
1
 40
1
 10
1481.151642
 20
1874.261235
 30
0.0
 10
1479.620808
 20
1876.893401
 30
0.0
 10
1476.799499
 20
1878.506234
 30
0.0
 10
1473.754588
 20
1878.489844
 30
0.0
  0
LWPOLYLINE
  5
5eb
100
AcDbEntity
  8
Holes
 62
7
100
AcDbPolyline
 90
1
 70
1
 10
1473.858903
 20
1830.442602
 30
0.0
  0
SPLINE
  5
5ec
100
AcDbEntity
  8
Holes
 62
7
100
AcDbSpline
 70
8
 71
3
 72
8
 73
4
 74
0
 40
0
 40
0
 40
0
 40
0
 40
1
 40
1
 40
1
 40
1
 10
1473.650273
 20
1926.536519
 30
0.0
 10
1470.610632
 20
1926.532448
 30
0.0
 10
1467.804294
 20
1924.906284
 30
0.0
 10
1466.289276
 20
1922.271106
 30
0.0
  0
SPLINE
  5
5ed
100
AcDbEntity
  8
Holes
 62
7
100
AcDbSpline
 70
8
 71
3
 72
8
 73
4
 74
0
 40
0
 40
0
 40
0
 40
0
 40
1
 40
1
 40
1
 40
1
 10
1466.289276
 20
1922.271106
 30
0.0
 10
1464.774259
 20
1919.635929
 30
0.0
 10
1464.780962
 20
1916.392490
 30
0.0
 10
1466.306859
 20
1913.763597
 30
0.0
  0
SPLINE
  5
5ee
100
AcDbEntity
  8
Holes
 62
7
100
AcDbSpline
 70
8
 71
3
 72
8
 73
4
 74
0
 40
0
 40
0
 40
0
 40
0
 40
1
 40
1
 40
1
 40
1
 10
1466.306859
 20
1913.763597
 30
0.0
 10
1467.832755
 20
1911.134704
 30
0.0
 10
1470.645791
 20
1909.520153
 30
0.0
 10
1473.685423
 20
1909.528646
 30
0.0
  0
SPLINE
  5
5ef
100
AcDbEntity
  8
Holes
 62
7
100
AcDbSpline
 70
8
 71
3
 72
8
 73
4
 74
0
 40
0
 40
0
 40
0
 40
0
 40
1
 40
1
 40
1
 40
1
 10
1473.685423
 20
1909.528646
 30
0.0
 10
1476.725065
 20
1909.532717
 30
0.0
 10
1479.531403
 20
1911.158882
 30
0.0
 10
1481.046420
 20
1913.794059
 30
0.0
  0
SPLINE
  5
5f0
100
AcDbEntity
  8
Holes
 62
7
100
AcDbSpline
 70
8
 71
3
 72
8
 73
4
 74
0
 40
0
 40
0
 40
0
 40
0
 40
1
 40
1
 40
1
 40
1
 10
1481.046420
 20
1913.794059
 30
0.0
 10
1482.561437
 20
1916.429236
 30
0.0
 10
1482.554734
 20
1919.672675
 30
0.0
 10
1481.028838
 20
1922.301568
 30
0.0
  0
SPLINE
  5
5f1
100
AcDbEntity
  8
Holes
 62
7
100
AcDbSpline
 70
8
 71
3
 72
8
 73
4
 74
0
 40
0
 40
0
 40
0
 40
0
 40
1
 40
1
 40
1
 40
1
 10
1481.028838
 20
1922.301568
 30
0.0
 10
1479.502941
 20
1924.930461
 30
0.0
 10
1476.689906
 20
1926.545012
 30
0.0
 10
1473.650273
 20
1926.536519
 30
0.0
  0
LWPOLYLINE
  5
5f2
100
AcDbEntity
  8
Holes
 62
7
100
AcDbPolyline
 90
1
 70
1
 10
1473.754588
 20
1878.489844
 30
0.0
  0
SPLINE
  5
5f3
100
AcDbEntity
  8
Holes
 62
7
100
AcDbSpline
 70
8
 71
3
 72
8
 73
4
 74
0
 40
0
 40
0
 40
0
 40
0
 40
1
 40
1
 40
1
 40
1
 10
1473.545958
 20
1974.583478
 30
0.0
 10
1470.491833
 20
1974.601355
 30
0.0
 10
1467.662677
 20
1972.980061
 30
0.0
 10
1466.134043
 20
1970.335959
 30
0.0
  0
SPLINE
  5
5f4
100
AcDbEntity
  8
Holes
 62
7
100
AcDbSpline
 70
8
 71
3
 72
8
 73
4
 74
0
 40
0
 40
0
 40
0
 40
0
 40
1
 40
1
 40
1
 40
1
 10
1466.134043
 20
1970.335959
 30
0.0
 10
1464.605409
 20
1967.691856
 30
0.0
 10
1464.612094
 20
1964.431078
 30
0.0
 10
1466.151556
 20
1961.793265
 30
0.0
  0
SPLINE
  5
5f5
100
AcDbEntity
  8
Holes
 62
7
100
AcDbSpline
 70
8
 71
3
 72
8
 73
4
 74
0
 40
0
 40
0
 40
0
 40
0
 40
1
 40
1
 40
1
 40
1
 10
1466.151556
 20
1961.793265
 30
0.0
 10
1467.691019
 20
1959.155453
 30
0.0
 10
1470.526798
 20
1957.545772
 30
0.0
 10
1473.580825
 20
1957.576172
 30
0.0
  0
SPLINE
  5
5f6
100
AcDbEntity
  8
Holes
 62
7
100
AcDbSpline
 70
8
 71
3
 72
8
 73
4
 74
0
 40
0
 40
0
 40
0
 40
0
 40
1
 40
1
 40
1
 40
1
 10
1473.580825
 20
1957.576172
 30
0.0
 10
1476.634950
 20
1957.558294
 30
0.0
 10
1479.464106
 20
1959.179588
 30
0.0
 10
1480.992740
 20
1961.823691
 30
0.0
  0
SPLINE
  5
5f7
100
AcDbEntity
  8
Holes
 62
7
100
AcDbSpline
 70
8
 71
3
 72
8
 73
4
 74
0
 40
0
 40
0
 40
0
 40
0
 40
1
 40
1
 40
1
 40
1
 10
1480.992740
 20
1961.823691
 30
0.0
 10
1482.521374
 20
1964.467793
 30
0.0
 10
1482.514690
 20
1967.728571
 30
0.0
 10
1480.975227
 20
1970.366384
 30
0.0
  0
SPLINE
  5
5f8
100
AcDbEntity
  8
Holes
 62
7
100
AcDbSpline
 70
8
 71
3
 72
8
 73
4
 74
0
 40
0
 40
0
 40
0
 40
0
 40
1
 40
1
 40
1
 40
1
 10
1480.975227
 20
1970.366384
 30
0.0
 10
1479.435764
 20
1973.004197
 30
0.0
 10
1476.599985
 20
1974.613877
 30
0.0
 10
1473.545958
 20
1974.583478
 30
0.0
  0
LWPOLYLINE
  5
5f9
100
AcDbEntity
  8
Holes
 62
7
100
AcDbPolyline
 90
1
 70
1
 10
1473.650273
 20
1926.536519
 30
0.0
  0
SPLINE
  5
5fa
100
AcDbEntity
  8
Holes
 62
7
100
AcDbSpline
 70
8
 71
3
 72
8
 73
4
 74
0
 40
0
 40
0
 40
0
 40
0
 40
1
 40
1
 40
1
 40
1
 10
1473.441644
 20
2022.631004
 30
0.0
 10
1470.396721
 20
2022.634890
 30
0.0
 10
1467.582090
 20
2021.010490
 30
0.0
 10
1466.062110
 20
2018.372076
 30
0.0
  0
SPLINE
  5
5fb
100
AcDbEntity
  8
Holes
 62
7
100
AcDbSpline
 70
8
 71
3
 72
8
 73
4
 74
0
 40
0
 40
0
 40
0
 40
0
 40
1
 40
1
 40
1
 40
1
 10
1466.062110
 20
2018.372076
 30
0.0
 10
1464.542130
 20
2015.733661
 30
0.0
 10
1464.548792
 20
2012.483927
 30
0.0
 10
1466.079576
 20
2009.851766
 30
0.0
  0
SPLINE
  5
5fc
100
AcDbEntity
  8
Holes
 62
7
100
AcDbSpline
 70
8
 71
3
 72
8
 73
4
 74
0
 40
0
 40
0
 40
0
 40
0
 40
1
 40
1
 40
1
 40
1
 10
1466.079576
 20
2009.851766
 30
0.0
 10
1467.610361
 20
2007.219606
 30
0.0
 10
1470.431628
 20
2005.606760
 30
0.0
 10
1473.476510
 20
2005.623130
 30
0.0
  0
SPLINE
  5
5fd
100
AcDbEntity
  8
Holes
 62
7
100
AcDbSpline
 70
8
 71
3
 72
8
 73
4
 74
0
 40
0
 40
0
 40
0
 40
0
 40
1
 40
1
 40
1
 40
1
 10
1473.476510
 20
2005.623130
 30
0.0
 10
1476.521433
 20
2005.619244
 30
0.0
 10
1479.336063
 20
2007.243643
 30
0.0
 10
1480.856043
 20
2009.882058
 30
0.0
  0
SPLINE
  5
5fe
100
AcDbEntity
  8
Holes
 62
7
100
AcDbSpline
 70
8
 71
3
 72
8
 73
4
 74
0
 40
0
 40
0
 40
0
 40
0
 40
1
 40
1
 40
1
 40
1
 10
1480.856043
 20
2009.882058
 30
0.0
 10
1482.376023
 20
2012.520472
 30
0.0
 10
1482.369361
 20
2015.770207
 30
0.0
 10
1480.838577
 20
2018.402368
 30
0.0
  0
SPLINE
  5
5ff
100
AcDbEntity
  8
Holes
 62
7
100
AcDbSpline
 70
8
 71
3
 72
8
 73
4
 74
0
 40
0
 40
0
 40
0
 40
0
 40
1
 40
1
 40
1
 40
1
 10
1480.838577
 20
2018.402368
 30
0.0
 10
1479.307792
 20
2021.034528
 30
0.0
 10
1476.486525
 20
2022.647374
 30
0.0
 10
1473.441644
 20
2022.631004
 30
0.0
  0
LWPOLYLINE
  5
600
100
AcDbEntity
  8
Holes
 62
7
100
AcDbPolyline
 90
1
 70
1
 10
1473.545958
 20
1974.583478
 30
0.0
  0
SPLINE
  5
601
100
AcDbEntity
  8
Holes
 62
7
100
AcDbSpline
 70
8
 71
3
 72
8
 73
4
 74
0
 40
0
 40
0
 40
0
 40
0
 40
1
 40
1
 40
1
 40
1
 10
1473.337329
 20
2070.677962
 30
0.0
 10
1470.299114
 20
2070.671734
 30
0.0
 10
1467.495011
 20
2069.045111
 30
0.0
 10
1465.981297
 20
2066.410826
 30
0.0
  0
SPLINE
  5
602
100
AcDbEntity
  8
Holes
 62
7
100
AcDbSpline
 70
8
 71
3
 72
8
 73
4
 74
0
 40
0
 40
0
 40
0
 40
0
 40
1
 40
1
 40
1
 40
1
 10
1465.981297
 20
2066.410826
 30
0.0
 10
1464.467584
 20
2063.776540
 30
0.0
 10
1464.474229
 20
2060.534804
 30
0.0
 10
1465.998730
 20
2057.906747
 30
0.0
  0
SPLINE
  5
603
100
AcDbEntity
  8
Holes
 62
7
100
AcDbSpline
 70
8
 71
3
 72
8
 73
4
 74
0
 40
0
 40
0
 40
0
 40
0
 40
1
 40
1
 40
1
 40
1
 10
1465.998730
 20
2057.906747
 30
0.0
 10
1467.523231
 20
2055.278690
 30
0.0
 10
1470.333980
 20
2053.663577
 30
0.0
 10
1473.372195
 20
2053.669805
 30
0.0
  0
SPLINE
  5
604
100
AcDbEntity
  8
Holes
 62
7
100
AcDbSpline
 70
8
 71
3
 72
8
 73
4
 74
0
 40
0
 40
0
 40
0
 40
0
 40
1
 40
1
 40
1
 40
1
 10
1473.372195
 20
2053.669805
 30
0.0
 10
1476.410409
 20
2053.676034
 30
0.0
 10
1479.214513
 20
2055.302657
 30
0.0
 10
1480.728226
 20
2057.936942
 30
0.0
  0
SPLINE
  5
605
100
AcDbEntity
  8
Holes
 62
7
100
AcDbSpline
 70
8
 71
3
 72
8
 73
4
 74
0
 40
0
 40
0
 40
0
 40
0
 40
1
 40
1
 40
1
 40
1
 10
1480.728226
 20
2057.936942
 30
0.0
 10
1482.241940
 20
2060.571227
 30
0.0
 10
1482.235294
 20
2063.812964
 30
0.0
 10
1480.710793
 20
2066.441020
 30
0.0
  0
SPLINE
  5
606
100
AcDbEntity
  8
Holes
 62
7
100
AcDbSpline
 70
8
 71
3
 72
8
 73
4
 74
0
 40
0
 40
0
 40
0
 40
0
 40
1
 40
1
 40
1
 40
1
 10
1480.710793
 20
2066.441020
 30
0.0
 10
1479.186292
 20
2069.069077
 30
0.0
 10
1476.375543
 20
2070.684190
 30
0.0
 10
1473.337329
 20
2070.677962
 30
0.0
  0
LWPOLYLINE
  5
607
100
AcDbEntity
  8
Holes
 62
7
100
AcDbPolyline
 90
1
 70
1
 10
1473.441644
 20
2022.631004
 30
0.0
  0
SPLINE
  5
608
100
AcDbEntity
  8
Holes
 62
7
100
AcDbSpline
 70
8
 71
3
 72
8
 73
4
 74
0
 40
0
 40
0
 40
0
 40
0
 40
1
 40
1
 40
1
 40
1
 10
1473.233014
 20
2118.724921
 30
0.0
 10
1470.178888
 20
2118.742798
 30
0.0
 10
1467.349732
 20
2117.121504
 30
0.0
 10
1465.821098
 20
2114.477401
 30
0.0
  0
SPLINE
  5
609
100
AcDbEntity
  8
Holes
 62
7
100
AcDbSpline
 70
8
 71
3
 72
8
 73
4
 74
0
 40
0
 40
0
 40
0
 40
0
 40
1
 40
1
 40
1
 40
1
 10
1465.821098
 20
2114.477401
 30
0.0
 10
1464.292464
 20
2111.833299
 30
0.0
 10
1464.299149
 20
2108.572521
 30
0.0
 10
1465.838611
 20
2105.934708
 30
0.0
  0
SPLINE
  5
60a
100
AcDbEntity
  8
Holes
 62
7
100
AcDbSpline
 70
8
 71
3
 72
8
 73
4
 74
0
 40
0
 40
0
 40
0
 40
0
 40
1
 40
1
 40
1
 40
1
 10
1465.838611
 20
2105.934708
 30
0.0
 10
1467.378074
 20
2103.296896
 30
0.0
 10
1470.213853
 20
2101.687215
 30
0.0
 10
1473.267880
 20
2101.717614
 30
0.0
  0
SPLINE
  5
60b
100
AcDbEntity
  8
Holes
 62
7
100
AcDbSpline
 70
8
 71
3
 72
8
 73
4
 74
0
 40
0
 40
0
 40
0
 40
0
 40
1
 40
1
 40
1
 40
1
 10
1473.267880
 20
2101.717614
 30
0.0
 10
1476.322005
 20
2101.699737
 30
0.0
 10
1479.151161
 20
2103.321031
 30
0.0
 10
1480.679795
 20
2105.965134
 30
0.0
  0
SPLINE
  5
60c
100
AcDbEntity
  8
Holes
 62
7
100
AcDbSpline
 70
8
 71
3
 72
8
 73
4
 74
0
 40
0
 40
0
 40
0
 40
0
 40
1
 40
1
 40
1
 40
1
 10
1480.679795
 20
2105.965134
 30
0.0
 10
1482.208429
 20
2108.609236
 30
0.0
 10
1482.201745
 20
2111.870014
 30
0.0
 10
1480.662282
 20
2114.507827
 30
0.0
  0
SPLINE
  5
60d
100
AcDbEntity
  8
Holes
 62
7
100
AcDbSpline
 70
8
 71
3
 72
8
 73
4
 74
0
 40
0
 40
0
 40
0
 40
0
 40
1
 40
1
 40
1
 40
1
 10
1480.662282
 20
2114.507827
 30
0.0
 10
1479.122819
 20
2117.145640
 30
0.0
 10
1476.287040
 20
2118.755320
 30
0.0
 10
1473.233014
 20
2118.724921
 30
0.0
  0
LWPOLYLINE
  5
60e
100
AcDbEntity
  8
Holes
 62
7
100
AcDbPolyline
 90
1
 70
1
 10
1473.337329
 20
2070.677962
 30
0.0
  0
SPLINE
  5
60f
100
AcDbEntity
  8
Holes
 62
7
100
AcDbSpline
 70
8
 71
3
 72
8
 73
4
 74
0
 40
0
 40
0
 40
0
 40
0
 40
1
 40
1
 40
1
 40
1
 10
1473.128699
 20
2166.772163
 30
0.0
 10
1470.077552
 20
2166.785476
 30
0.0
 10
1467.253117
 20
2165.163158
 30
0.0
 10
1465.727297
 20
2162.520896
 30
0.0
  0
SPLINE
  5
610
100
AcDbEntity
  8
Holes
 62
7
100
AcDbSpline
 70
8
 71
3
 72
8
 73
4
 74
0
 40
0
 40
0
 40
0
 40
0
 40
1
 40
1
 40
1
 40
1
 10
1465.727297
 20
2162.520896
 30
0.0
 10
1464.201477
 20
2159.878634
 30
0.0
 10
1464.208155
 20
2156.621442
 30
0.0
 10
1465.744795
 20
2153.985458
 30
0.0
  0
SPLINE
  5
611
100
AcDbEntity
  8
Holes
 62
7
100
AcDbSpline
 70
8
 71
3
 72
8
 73
4
 74
0
 40
0
 40
0
 40
0
 40
0
 40
1
 40
1
 40
1
 40
1
 10
1465.744795
 20
2153.985458
 30
0.0
 10
1467.281435
 20
2151.349474
 30
0.0
 10
1470.112498
 20
2149.738750
 30
0.0
 10
1473.163565
 20
2149.764573
 30
0.0
  0
SPLINE
  5
612
100
AcDbEntity
  8
Holes
 62
7
100
AcDbSpline
 70
8
 71
3
 72
8
 73
4
 74
0
 40
0
 40
0
 40
0
 40
0
 40
1
 40
1
 40
1
 40
1
 10
1473.163565
 20
2149.764573
 30
0.0
 10
1476.214712
 20
2149.751260
 30
0.0
 10
1479.039147
 20
2151.373578
 30
0.0
 10
1480.564966
 20
2154.015840
 30
0.0
  0
SPLINE
  5
613
100
AcDbEntity
  8
Holes
 62
7
100
AcDbSpline
 70
8
 71
3
 72
8
 73
4
 74
0
 40
0
 40
0
 40
0
 40
0
 40
1
 40
1
 40
1
 40
1
 10
1480.564966
 20
2154.015840
 30
0.0
 10
1482.090786
 20
2156.658102
 30
0.0
 10
1482.084109
 20
2159.915294
 30
0.0
 10
1480.547468
 20
2162.551278
 30
0.0
  0
SPLINE
  5
614
100
AcDbEntity
  8
Holes
 62
7
100
AcDbSpline
 70
8
 71
3
 72
8
 73
4
 74
0
 40
0
 40
0
 40
0
 40
0
 40
1
 40
1
 40
1
 40
1
 10
1480.547468
 20
2162.551278
 30
0.0
 10
1479.010828
 20
2165.187262
 30
0.0
 10
1476.179765
 20
2166.797986
 30
0.0
 10
1473.128699
 20
2166.772163
 30
0.0
  0
LWPOLYLINE
  5
615
100
AcDbEntity
  8
Holes
 62
7
100
AcDbPolyline
 90
1
 70
1
 10
1473.233014
 20
2118.724921
 30
0.0
  0
SPLINE
  5
616
100
AcDbEntity
  8
Holes
 62
7
100
AcDbSpline
 70
8
 71
3
 72
8
 73
4
 74
0
 40
0
 40
0
 40
0
 40
0
 40
1
 40
1
 40
1
 40
1
 10
1473.024384
 20
2214.819405
 30
0.0
 10
1469.979461
 20
2214.823291
 30
0.0
 10
1467.164830
 20
2213.198892
 30
0.0
 10
1465.644850
 20
2210.560477
 30
0.0
  0
SPLINE
  5
617
100
AcDbEntity
  8
Holes
 62
7
100
AcDbSpline
 70
8
 71
3
 72
8
 73
4
 74
0
 40
0
 40
0
 40
0
 40
0
 40
1
 40
1
 40
1
 40
1
 10
1465.644850
 20
2210.560477
 30
0.0
 10
1464.124870
 20
2207.922063
 30
0.0
 10
1464.131532
 20
2204.672328
 30
0.0
 10
1465.662317
 20
2202.040168
 30
0.0
  0
SPLINE
  5
618
100
AcDbEntity
  8
Holes
 62
7
100
AcDbSpline
 70
8
 71
3
 72
8
 73
4
 74
0
 40
0
 40
0
 40
0
 40
0
 40
1
 40
1
 40
1
 40
1
 10
1465.662317
 20
2202.040168
 30
0.0
 10
1467.193101
 20
2199.408007
 30
0.0
 10
1470.014368
 20
2197.795162
 30
0.0
 10
1473.059250
 20
2197.811532
 30
0.0
  0
SPLINE
  5
619
100
AcDbEntity
  8
Holes
 62
7
100
AcDbSpline
 70
8
 71
3
 72
8
 73
4
 74
0
 40
0
 40
0
 40
0
 40
0
 40
1
 40
1
 40
1
 40
1
 10
1473.059250
 20
2197.811532
 30
0.0
 10
1476.104173
 20
2197.807646
 30
0.0
 10
1478.918804
 20
2199.432045
 30
0.0
 10
1480.438784
 20
2202.070459
 30
0.0
  0
SPLINE
  5
61a
100
AcDbEntity
  8
Holes
 62
7
100
AcDbSpline
 70
8
 71
3
 72
8
 73
4
 74
0
 40
0
 40
0
 40
0
 40
0
 40
1
 40
1
 40
1
 40
1
 10
1480.438784
 20
2202.070459
 30
0.0
 10
1481.958764
 20
2204.708874
 30
0.0
 10
1481.952102
 20
2207.958609
 30
0.0
 10
1480.421317
 20
2210.590769
 30
0.0
  0
SPLINE
  5
61b
100
AcDbEntity
  8
Holes
 62
7
100
AcDbSpline
 70
8
 71
3
 72
8
 73
4
 74
0
 40
0
 40
0
 40
0
 40
0
 40
1
 40
1
 40
1
 40
1
 10
1480.421317
 20
2210.590769
 30
0.0
 10
1478.890532
 20
2213.222930
 30
0.0
 10
1476.069265
 20
2214.835775
 30
0.0
 10
1473.024384
 20
2214.819405
 30
0.0
  0
LWPOLYLINE
  5
61c
100
AcDbEntity
  8
Holes
 62
7
100
AcDbPolyline
 90
1
 70
1
 10
1473.128699
 20
2166.772163
 30
0.0
  0
SPLINE
  5
61d
100
AcDbEntity
  8
Holes
 62
7
100
AcDbSpline
 70
8
 71
3
 72
8
 73
4
 74
0
 40
0
 40
0
 40
0
 40
0
 40
1
 40
1
 40
1
 40
1
 10
1472.920069
 20
2262.866931
 30
0.0
 10
1469.881804
 20
2262.860702
 30
0.0
 10
1467.077653
 20
2261.234052
 30
0.0
 10
1465.563915
 20
2258.599723
 30
0.0
  0
SPLINE
  5
61e
100
AcDbEntity
  8
Holes
 62
7
100
AcDbSpline
 70
8
 71
3
 72
8
 73
4
 74
0
 40
0
 40
0
 40
0
 40
0
 40
1
 40
1
 40
1
 40
1
 10
1465.563915
 20
2258.599723
 30
0.0
 10
1464.050176
 20
2255.965394
 30
0.0
 10
1464.056821
 20
2252.723604
 30
0.0
 10
1465.581348
 20
2250.095503
 30
0.0
  0
SPLINE
  5
61f
100
AcDbEntity
  8
Holes
 62
7
100
AcDbSpline
 70
8
 71
3
 72
8
 73
4
 74
0
 40
0
 40
0
 40
0
 40
0
 40
1
 40
1
 40
1
 40
1
 10
1465.581348
 20
2250.095503
 30
0.0
 10
1467.105874
 20
2247.467402
 30
0.0
 10
1469.916670
 20
2245.852262
 30
0.0
 10
1472.954935
 20
2245.858490
 30
0.0
  0
SPLINE
  5
620
100
AcDbEntity
  8
Holes
 62
7
100
AcDbSpline
 70
8
 71
3
 72
8
 73
4
 74
0
 40
0
 40
0
 40
0
 40
0
 40
1
 40
1
 40
1
 40
1
 10
1472.954935
 20
2245.858490
 30
0.0
 10
1475.993200
 20
2245.864719
 30
0.0
 10
1478.797350
 20
2247.491369
 30
0.0
 10
1480.311089
 20
2250.125698
 30
0.0
  0
SPLINE
  5
621
100
AcDbEntity
  8
Holes
 62
7
100
AcDbSpline
 70
8
 71
3
 72
8
 73
4
 74
0
 40
0
 40
0
 40
0
 40
0
 40
1
 40
1
 40
1
 40
1
 10
1480.311089
 20
2250.125698
 30
0.0
 10
1481.824828
 20
2252.760027
 30
0.0
 10
1481.818182
 20
2256.001817
 30
0.0
 10
1480.293656
 20
2258.629918
 30
0.0
  0
SPLINE
  5
622
100
AcDbEntity
  8
Holes
 62
7
100
AcDbSpline
 70
8
 71
3
 72
8
 73
4
 74
0
 40
0
 40
0
 40
0
 40
0
 40
1
 40
1
 40
1
 40
1
 10
1480.293656
 20
2258.629918
 30
0.0
 10
1478.769130
 20
2261.258019
 30
0.0
 10
1475.958334
 20
2262.873159
 30
0.0
 10
1472.920069
 20
2262.866931
 30
0.0
  0
LWPOLYLINE
  5
623
100
AcDbEntity
  8
Holes
 62
7
100
AcDbPolyline
 90
1
 70
1
 10
1473.024384
 20
2214.819405
 30
0.0
  0
LWPOLYLINE
  5
624
100
AcDbEntity
  8
Holes
 62
7
100
AcDbPolyline
 90
1
 70
1
 10
1472.920069
 20
2262.866931
 30
0.0
  0
LWPOLYLINE
  5
625
100
AcDbEntity
  8
Pocket
 62
7
100
AcDbPolyline
 90
2
 70
0
 10
2574.953838
 20
1885.227201
 30
0.0
 10
2523.930218
 20
1885.221532
 30
0.0
  0
SPLINE
  5
626
100
AcDbEntity
  8
Pocket
 62
7
100
AcDbSpline
 70
8
 71
3
 72
8
 73
4
 74
0
 40
0
 40
0
 40
0
 40
0
 40
1
 40
1
 40
1
 40
1
 10
2309.174409
 20
2167.528730
 30
0.0
 10
2348.938909
 20
2167.533427
 30
0.0
 10
2381.170598
 20
2199.772731
 30
0.0
 10
2381.165902
 20
2239.537231
 30
0.0
  0
SPLINE
  5
627
100
AcDbEntity
  8
Pocket
 62
7
100
AcDbSpline
 70
8
 71
3
 72
8
 73
4
 74
0
 40
0
 40
0
 40
0
 40
0
 40
1
 40
1
 40
1
 40
1
 10
2381.165902
 20
2239.537231
 30
0.0
 10
2381.161205
 20
2279.301731
 30
0.0
 10
2348.921901
 20
2311.533420
 30
0.0
 10
2309.157401
 20
2311.528723
 30
0.0
  0
SPLINE
  5
628
100
AcDbEntity
  8
Pocket
 62
7
100
AcDbSpline
 70
8
 71
3
 72
8
 73
4
 74
0
 40
0
 40
0
 40
0
 40
0
 40
1
 40
1
 40
1
 40
1
 10
2309.157401
 20
2311.528723
 30
0.0
 10
2269.392901
 20
2311.524027
 30
0.0
 10
2237.161212
 20
2279.284723
 30
0.0
 10
2237.165909
 20
2239.520223
 30
0.0
  0
SPLINE
  5
629
100
AcDbEntity
  8
Pocket
 62
7
100
AcDbSpline
 70
8
 71
3
 72
8
 73
4
 74
0
 40
0
 40
0
 40
0
 40
0
 40
1
 40
1
 40
1
 40
1
 10
2237.165909
 20
2239.520223
 30
0.0
 10
2237.170605
 20
2199.755723
 30
0.0
 10
2269.409909
 20
2167.524034
 30
0.0
 10
2309.174409
 20
2167.528730
 30
0.0
  0
LWPOLYLINE
  5
62a
100
AcDbEntity
  8
Pocket
 62
7
100
AcDbPolyline
 90
4
 70
0
 10
2523.930218
 20
1885.221844
 30
0.0
 10
2524.048422
 20
822.229771
 30
0.0
 10
2575.072042
 20
822.237283
 30
0.0
 10
2574.953838
 20
1885.229327
 30
0.0
  0
LWPOLYLINE
  5
62b
100
AcDbEntity
  8
Pocket
 62
7
100
AcDbPolyline
 90
1
 70
1
 10
2309.174409
 20
2167.528730
 30
0.0
  0
LWPOLYLINE
  5
62c
100
AcDbEntity
  8
Pocket
 62
7
100
AcDbPolyline
 90
2
 70
0
 10
2094.481388
 20
1885.174108
 30
0.0
 10
2043.457825
 20
1885.168439
 30
0.0
  0
LWPOLYLINE
  5
62d
100
AcDbEntity
  8
Pocket
 62
7
100
AcDbPolyline
 90
4
 70
0
 10
2043.457825
 20
1885.168751
 30
0.0
 10
2043.576030
 20
822.176769
 30
0.0
 10
2094.599735
 20
822.184281
 30
0.0
 10
2094.481530
 20
1885.176348
 30
0.0
  0
LWPOLYLINE
  5
62e
100
AcDbEntity
  8
Pocket
 62
7
100
AcDbPolyline
 90
2
 70
0
 10
2574.953838
 20
1885.227201
 30
0.0
 10
2523.930218
 20
1885.221532
 30
0.0
  0
SPLINE
  5
62f
100
AcDbEntity
  8
Pocket
 62
7
100
AcDbSpline
 70
8
 71
3
 72
8
 73
4
 74
0
 40
0
 40
0
 40
0
 40
0
 40
1
 40
1
 40
1
 40
1
 10
2309.174409
 20
2167.528730
 30
0.0
 10
2348.938909
 20
2167.533427
 30
0.0
 10
2381.170598
 20
2199.772731
 30
0.0
 10
2381.165902
 20
2239.537231
 30
0.0
  0
SPLINE
  5
630
100
AcDbEntity
  8
Pocket
 62
7
100
AcDbSpline
 70
8
 71
3
 72
8
 73
4
 74
0
 40
0
 40
0
 40
0
 40
0
 40
1
 40
1
 40
1
 40
1
 10
2381.165902
 20
2239.537231
 30
0.0
 10
2381.161205
 20
2279.301731
 30
0.0
 10
2348.921901
 20
2311.533420
 30
0.0
 10
2309.157401
 20
2311.528723
 30
0.0
  0
SPLINE
  5
631
100
AcDbEntity
  8
Pocket
 62
7
100
AcDbSpline
 70
8
 71
3
 72
8
 73
4
 74
0
 40
0
 40
0
 40
0
 40
0
 40
1
 40
1
 40
1
 40
1
 10
2309.157401
 20
2311.528723
 30
0.0
 10
2269.392901
 20
2311.524027
 30
0.0
 10
2237.161212
 20
2279.284723
 30
0.0
 10
2237.165909
 20
2239.520223
 30
0.0
  0
SPLINE
  5
632
100
AcDbEntity
  8
Pocket
 62
7
100
AcDbSpline
 70
8
 71
3
 72
8
 73
4
 74
0
 40
0
 40
0
 40
0
 40
0
 40
1
 40
1
 40
1
 40
1
 10
2237.165909
 20
2239.520223
 30
0.0
 10
2237.170605
 20
2199.755723
 30
0.0
 10
2269.409909
 20
2167.524034
 30
0.0
 10
2309.174409
 20
2167.528730
 30
0.0
  0
LWPOLYLINE
  5
633
100
AcDbEntity
  8
Pocket
 62
7
100
AcDbPolyline
 90
4
 70
0
 10
2523.930218
 20
1885.221844
 30
0.0
 10
2524.048422
 20
822.229771
 30
0.0
 10
2575.072042
 20
822.237283
 30
0.0
 10
2574.953838
 20
1885.229327
 30
0.0
  0
LWPOLYLINE
  5
634
100
AcDbEntity
  8
Pocket
 62
7
100
AcDbPolyline
 90
1
 70
1
 10
2309.174409
 20
2167.528730
 30
0.0
  0
LWPOLYLINE
  5
635
100
AcDbEntity
  8
Pocket
 62
7
100
AcDbPolyline
 90
2
 70
0
 10
2094.481388
 20
1885.174108
 30
0.0
 10
2043.457825
 20
1885.168439
 30
0.0
  0
LWPOLYLINE
  5
636
100
AcDbEntity
  8
Pocket
 62
7
100
AcDbPolyline
 90
4
 70
0
 10
2043.457825
 20
1885.168751
 30
0.0
 10
2043.576030
 20
822.176769
 30
0.0
 10
2094.599735
 20
822.184281
 30
0.0
 10
2094.481530
 20
1885.176348
 30
0.0
  0
LWPOLYLINE
  5
637
100
AcDbEntity
  8
Pocket
 62
7
100
AcDbPolyline
 90
2
 70
0
 10
969.152757
 20
1241.302059
 30
0.0
 10
1020.176264
 20
1241.406941
 30
0.0
  0
SPLINE
  5
638
100
AcDbEntity
  8
Pocket
 62
7
100
AcDbSpline
 70
8
 71
3
 72
8
 73
4
 74
0
 40
0
 40
0
 40
0
 40
0
 40
1
 40
1
 40
1
 40
1
 10
1235.511049
 20
959.548212
 30
0.0
 10
1209.757432
 20
959.538106
 30
0.0
 10
1185.970349
 20
945.773364
 30
0.0
 10
1173.128749
 20
923.449785
 30
0.0
  0
SPLINE
  5
639
100
AcDbEntity
  8
Pocket
 62
7
100
AcDbSpline
 70
8
 71
3
 72
8
 73
4
 74
0
 40
0
 40
0
 40
0
 40
0
 40
1
 40
1
 40
1
 40
1
 10
1173.128749
 20
923.449785
 30
0.0
 10
1160.287148
 20
901.126206
 30
0.0
 10
1160.346804
 20
873.643669
 30
0.0
 10
1173.285197
 20
851.376050
 30
0.0
  0
SPLINE
  5
63a
100
AcDbEntity
  8
Pocket
 62
7
100
AcDbSpline
 70
8
 71
3
 72
8
 73
4
 74
0
 40
0
 40
0
 40
0
 40
0
 40
1
 40
1
 40
1
 40
1
 10
1173.285197
 20
851.376050
 30
0.0
 10
1186.223591
 20
829.108431
 30
0.0
 10
1210.070207
 20
815.447086
 30
0.0
 10
1235.823625
 20
815.548785
 30
0.0
  0
SPLINE
  5
63b
100
AcDbEntity
  8
Pocket
 62
7
100
AcDbSpline
 70
8
 71
3
 72
8
 73
4
 74
0
 40
0
 40
0
 40
0
 40
0
 40
1
 40
1
 40
1
 40
1
 10
1235.823625
 20
815.548785
 30
0.0
 10
1261.577242
 20
815.558891
 30
0.0
 10
1285.364324
 20
829.323634
 30
0.0
 10
1298.205925
 20
851.647213
 30
0.0
  0
SPLINE
  5
63c
100
AcDbEntity
  8
Pocket
 62
7
100
AcDbSpline
 70
8
 71
3
 72
8
 73
4
 74
0
 40
0
 40
0
 40
0
 40
0
 40
1
 40
1
 40
1
 40
1
 10
1298.205925
 20
851.647213
 30
0.0
 10
1311.047525
 20
873.970791
 30
0.0
 10
1310.987870
 20
901.453329
 30
0.0
 10
1298.049476
 20
923.720948
 30
0.0
  0
SPLINE
  5
63d
100
AcDbEntity
  8
Pocket
 62
7
100
AcDbSpline
 70
8
 71
3
 72
8
 73
4
 74
0
 40
0
 40
0
 40
0
 40
0
 40
1
 40
1
 40
1
 40
1
 10
1298.049476
 20
923.720948
 30
0.0
 10
1285.111082
 20
945.988567
 30
0.0
 10
1261.264466
 20
959.649911
 30
0.0
 10
1235.511049
 20
959.548212
 30
0.0
  0
LWPOLYLINE
  5
63e
100
AcDbEntity
  8
Pocket
 62
7
100
AcDbPolyline
 90
4
 70
0
 10
1020.176264
 20
1241.406658
 30
0.0
 10
1017.876232
 20
2304.396189
 30
0.0
 10
966.852726
 20
2304.291307
 30
0.0
 10
969.152757
 20
1241.302059
 30
0.0
  0
LWPOLYLINE
  5
63f
100
AcDbEntity
  8
Pocket
 62
7
100
AcDbPolyline
 90
1
 70
1
 10
1235.511049
 20
959.548212
 30
0.0
  0
LWPOLYLINE
  5
640
100
AcDbEntity
  8
Pocket
 62
7
100
AcDbPolyline
 90
2
 70
0
 10
1449.624044
 20
1242.342941
 30
0.0
 10
1500.647523
 20
1242.447823
 30
0.0
  0
LWPOLYLINE
  5
641
100
AcDbEntity
  8
Pocket
 62
7
100
AcDbPolyline
 90
4
 70
0
 10
1500.647551
 20
1242.447539
 30
0.0
 10
1498.347491
 20
2305.436787
 30
0.0
 10
1447.323900
 20
2305.331905
 30
0.0
 10
1449.623903
 20
1242.342374
 30
0.0
  0
LWPOLYLINE
  5
642
100
AcDbEntity
  8
Pocket
 62
7
100
AcDbPolyline
 90
2
 70
0
 10
969.152757
 20
1241.302059
 30
0.0
 10
1020.176264
 20
1241.406941
 30
0.0
  0
SPLINE
  5
643
100
AcDbEntity
  8
Pocket
 62
7
100
AcDbSpline
 70
8
 71
3
 72
8
 73
4
 74
0
 40
0
 40
0
 40
0
 40
0
 40
1
 40
1
 40
1
 40
1
 10
1235.511049
 20
959.548212
 30
0.0
 10
1209.757432
 20
959.538106
 30
0.0
 10
1185.970349
 20
945.773364
 30
0.0
 10
1173.128749
 20
923.449785
 30
0.0
  0
SPLINE
  5
644
100
AcDbEntity
  8
Pocket
 62
7
100
AcDbSpline
 70
8
 71
3
 72
8
 73
4
 74
0
 40
0
 40
0
 40
0
 40
0
 40
1
 40
1
 40
1
 40
1
 10
1173.128749
 20
923.449785
 30
0.0
 10
1160.287148
 20
901.126206
 30
0.0
 10
1160.346804
 20
873.643669
 30
0.0
 10
1173.285197
 20
851.376050
 30
0.0
  0
SPLINE
  5
645
100
AcDbEntity
  8
Pocket
 62
7
100
AcDbSpline
 70
8
 71
3
 72
8
 73
4
 74
0
 40
0
 40
0
 40
0
 40
0
 40
1
 40
1
 40
1
 40
1
 10
1173.285197
 20
851.376050
 30
0.0
 10
1186.223591
 20
829.108431
 30
0.0
 10
1210.070207
 20
815.447086
 30
0.0
 10
1235.823625
 20
815.548785
 30
0.0
  0
SPLINE
  5
646
100
AcDbEntity
  8
Pocket
 62
7
100
AcDbSpline
 70
8
 71
3
 72
8
 73
4
 74
0
 40
0
 40
0
 40
0
 40
0
 40
1
 40
1
 40
1
 40
1
 10
1235.823625
 20
815.548785
 30
0.0
 10
1261.577242
 20
815.558891
 30
0.0
 10
1285.364324
 20
829.323634
 30
0.0
 10
1298.205925
 20
851.647213
 30
0.0
  0
SPLINE
  5
647
100
AcDbEntity
  8
Pocket
 62
7
100
AcDbSpline
 70
8
 71
3
 72
8
 73
4
 74
0
 40
0
 40
0
 40
0
 40
0
 40
1
 40
1
 40
1
 40
1
 10
1298.205925
 20
851.647213
 30
0.0
 10
1311.047525
 20
873.970791
 30
0.0
 10
1310.987870
 20
901.453329
 30
0.0
 10
1298.049476
 20
923.720948
 30
0.0
  0
SPLINE
  5
648
100
AcDbEntity
  8
Pocket
 62
7
100
AcDbSpline
 70
8
 71
3
 72
8
 73
4
 74
0
 40
0
 40
0
 40
0
 40
0
 40
1
 40
1
 40
1
 40
1
 10
1298.049476
 20
923.720948
 30
0.0
 10
1285.111082
 20
945.988567
 30
0.0
 10
1261.264466
 20
959.649911
 30
0.0
 10
1235.511049
 20
959.548212
 30
0.0
  0
LWPOLYLINE
  5
649
100
AcDbEntity
  8
Pocket
 62
7
100
AcDbPolyline
 90
4
 70
0
 10
1020.176264
 20
1241.406658
 30
0.0
 10
1017.876232
 20
2304.396189
 30
0.0
 10
966.852726
 20
2304.291307
 30
0.0
 10
969.152757
 20
1241.302059
 30
0.0
  0
LWPOLYLINE
  5
64a
100
AcDbEntity
  8
Pocket
 62
7
100
AcDbPolyline
 90
1
 70
1
 10
1235.511049
 20
959.548212
 30
0.0
  0
LWPOLYLINE
  5
64b
100
AcDbEntity
  8
Pocket
 62
7
100
AcDbPolyline
 90
2
 70
0
 10
1449.624044
 20
1242.342941
 30
0.0
 10
1500.647523
 20
1242.447823
 30
0.0
  0
SPLINE
  5
64c
100
AcDbEntity
  8
Pocket
 62
7
100
AcDbSpline
 70
8
 71
3
 72
8
 73
4
 74
0
 40
0
 40
0
 40
0
 40
0
 40
1
 40
1
 40
1
 40
1
 10
2194.519431
 20
3527.215509
 30
0.0
 10
2194.526558
 20
3532.694375
 30
0.0
 10
2190.091208
 20
3537.141847
 30
0.0
 10
2184.612343
 20
3537.149674
 30
0.0
  0
SPLINE
  5
64d
100
AcDbEntity
  8
Pocket
 62
7
100
AcDbSpline
 70
8
 71
3
 72
8
 73
4
 74
0
 40
0
 40
0
 40
0
 40
0
 40
1
 40
1
 40
1
 40
1
 10
2184.612343
 20
3537.149674
 30
0.0
 10
2179.133478
 20
3537.157501
 30
0.0
 10
2174.685439
 20
3532.722719
 30
0.0
 10
2174.676912
 20
3527.243855
 30
0.0
  0
LWPOLYLINE
  5
64e
100
AcDbEntity
  8
Pocket
 62
7
100
AcDbPolyline
 90
4
 70
0
 10
1500.647551
 20
1242.447539
 30
0.0
 10
1498.347491
 20
2305.436787
 30
0.0
 10
1447.323900
 20
2305.331905
 30
0.0
 10
1449.623903
 20
1242.342374
 30
0.0
  0
SPLINE
  5
64f
100
AcDbEntity
  8
Pocket
 62
7
100
AcDbSpline
 70
8
 71
3
 72
8
 73
4
 74
0
 40
0
 40
0
 40
0
 40
0
 40
1
 40
1
 40
1
 40
1
 10
297.008860
 20
3529.286217
 30
0.0
 10
297.010100
 20
3534.760926
 30
0.0
 10
292.576468
 20
3539.201903
 30
0.0
 10
287.101764
 20
3539.209724
 30
0.0
  0
SPLINE
  5
650
100
AcDbEntity
  8
Pocket
 62
7
100
AcDbSpline
 70
8
 71
3
 72
8
 73
4
 74
0
 40
0
 40
0
 40
0
 40
0
 40
1
 40
1
 40
1
 40
1
 10
287.101764
 20
3539.209724
 30
0.0
 10
281.627060
 20
3539.217545
 30
0.0
 10
277.180757
 20
3534.789254
 30
0.0
 10
277.166356
 20
3529.314564
 30
0.0
  0
LWPOLYLINE
  5
651
100
AcDbEntity
  8
Pocket
 62
7
100
AcDbPolyline
 90
2
 70
0
 10
297.008860
 20
3529.286217
 30
0.0
 10
2174.676912
 20
3527.237052
 30
0.0
  0
SPLINE
  5
652
100
AcDbEntity
  8
Pocket
 62
7
100
AcDbSpline
 70
8
 71
3
 72
8
 73
4
 74
0
 40
0
 40
0
 40
0
 40
0
 40
1
 40
1
 40
1
 40
1
 10
277.109379
 20
3477.150566
 30
0.0
 10
277.108139
 20
3471.675857
 30
0.0
 10
281.541772
 20
3467.234880
 30
0.0
 10
287.016475
 20
3467.227059
 30
0.0
  0
SPLINE
  5
653
100
AcDbEntity
  8
Pocket
 62
7
100
AcDbSpline
 70
8
 71
3
 72
8
 73
4
 74
0
 40
0
 40
0
 40
0
 40
0
 40
1
 40
1
 40
1
 40
1
 10
287.016475
 20
3467.227059
 30
0.0
 10
292.491179
 20
3467.219238
 30
0.0
 10
296.937482
 20
3471.647529
 30
0.0
 10
296.951884
 20
3477.122219
 30
0.0
  0
LWPOLYLINE
  5
654
100
AcDbEntity
  8
Pocket
 62
7
100
AcDbPolyline
 90
2
 70
0
 10
277.109379
 20
3477.150566
 30
0.0
 10
277.166356
 20
3529.308044
 30
0.0
  0
SPLINE
  5
655
100
AcDbEntity
  8
Pocket
 62
7
100
AcDbSpline
 70
8
 71
3
 72
8
 73
4
 74
0
 40
0
 40
0
 40
0
 40
0
 40
1
 40
1
 40
1
 40
1
 10
2174.619936
 20
3475.079574
 30
0.0
 10
2174.612809
 20
3469.600708
 30
0.0
 10
2179.048159
 20
3465.153236
 30
0.0
 10
2184.527024
 20
3465.145409
 30
0.0
  0
SPLINE
  5
656
100
AcDbEntity
  8
Pocket
 62
7
100
AcDbSpline
 70
8
 71
3
 72
8
 73
4
 74
0
 40
0
 40
0
 40
0
 40
0
 40
1
 40
1
 40
1
 40
1
 10
2184.527024
 20
3465.145409
 30
0.0
 10
2190.005889
 20
3465.137582
 30
0.0
 10
2194.453928
 20
3469.572363
 30
0.0
 10
2194.462455
 20
3475.051227
 30
0.0
  0
LWPOLYLINE
  5
657
100
AcDbEntity
  8
Pocket
 62
7
100
AcDbPolyline
 90
2
 70
0
 10
2174.619936
 20
3475.079574
 30
0.0
 10
296.951884
 20
3477.128739
 30
0.0
  0
LWPOLYLINE
  5
658
100
AcDbEntity
  8
Pocket
 62
7
100
AcDbPolyline
 90
2
 70
0
 10
2194.519431
 20
3527.215509
 30
0.0
 10
2194.462455
 20
3475.058031
 30
0.0
  0
ENDSEC
  0
SECTION
  2
OBJECTS
  0
DICTIONARY
  5
C
330
0
100
AcDbDictionary
  3
ACAD_GROUP
350
D
  3
ACAD_MLINESTYLE
350
17
  0
DICTIONARY
  5
D
330
C
100
AcDbDictionary
  0
DICTIONARY
  5
1A
330
C
100
AcDbDictionary
  0
DICTIONARY
  5
17
330
C
100
AcDbDictionary
  3
STANDARD
350
18
  0
DICTIONARY
  5
19
330
C
100
AcDbDictionary
  0
ENDSEC
  0
EOF
