999
FreeCAD v0.19 23756 (Git)
  0
SECTION
  2
HEADER
  9
$ACADVER
  1
AC1014
  9
$ACADMAINTVER
 70
     9
  9
$DWGCODEPAGE
  3
ANSI_1252
  9
$TEXTSTYLE
  7
STANDARD
  9
$DIMSTYLE
  2
STANDARD
  9
$DIMTXSTY
  7
STANDARD
  9
$CMLSTYLE
  2
STANDARD
  9
$PEXTMAX
 10
50
 20
50
 30
50
  9
$PEXTMIN
 10
0
 20
0
 30
0
  9
$HANDSEED
  5
FFFF
  0
ENDSEC
  0
SECTION
  2
CLASSES
  0
CLASS
  1
ACDBDICTIONARYWDFLT
  2
AcDbDictionaryWithDefault
  3
ObjectDBX Classes
 90
        0
280
     0
281
     0
  0
CLASS
  1
XRECORD
  2
AcDbXrecord
  3
ObjectDBX Classes
 90
        0
280
     0
281
     0
  0
CLASS
  1
LWPOLYLINE
  2
AcDbPolyline
  3
ObjectDBX Classes
 90
        0
280
     0
281
     1
  0
ENDSEC
  0
SECTION
  2
TABLES
  0
TABLE
  2
VPORT
  5
20
330
0
100
AcDbSymbolTable
 70
     1
  0
VPORT
  5
21
330
20
100
AcDbSymbolTableRecord
100
AcDbViewportTableRecord
  2
*ACTIVE
 70
     0
  0
ENDTAB
  0
TABLE
  2
LTYPE
  5
22
330
0
100
AcDbSymbolTable
 70
     1
  0
LTYPE
  5
23
330
21
100
AcDbSymbolTableRecord
100
AcDbLinetypeTableRecord
  2
BYBLOCK
 70
     0
  3

 72
    65
 73
     0
 40
0.0
  0
LTYPE
  5
24
330
21
100
AcDbSymbolTableRecord
100
AcDbLinetypeTableRecord
  2
BYLAYER
 70
     0
  3

 72
    65
 73
     0
 40
0.0
  0
LTYPE
  5
25
330
21
100
AcDbSymbolTableRecord
100
AcDbLinetypeTableRecord
  2
CONTINUOUS
 70
     0
  3
Solid line
 72
    65
 73
     0
 40
0.0
  0
ENDTAB
  0
TABLE
  2
LAYER
  5
AC2
330
0
100
AcDbSymbolTable
 70
103
  0
LAYER
  5
AC3
330
AC2
100
AcDbSymbolTableRecord
100
AcDbLayerTableRecord
  2
0
 70
   0
 62
   7
  6
CONTINUOUS
  0
LAYER
  5
AC4
330
AC2
100
AcDbSymbolTableRecord
100
AcDbLayerTableRecord
  2
none
 70
    0
 62
    7
  6
CONTINUOUS
  0
LAYER
  5
AC5
330
AC2
100
AcDbSymbolTableRecord
100
AcDbLayerTableRecord
  2
Wire046
 70
    0
 62
    7
  6
CONTINUOUS
  0
LAYER
  5
AC6
330
AC2
100
AcDbSymbolTableRecord
100
AcDbLayerTableRecord
  2
Wire
 70
    0
 62
    7
  6
CONTINUOUS
  0
LAYER
  5
AC7
330
AC2
100
AcDbSymbolTableRecord
100
AcDbLayerTableRecord
  2
Wire001
 70
    0
 62
    7
  6
CONTINUOUS
  0
LAYER
  5
AC8
330
AC2
100
AcDbSymbolTableRecord
100
AcDbLayerTableRecord
  2
Wire002
 70
    0
 62
    7
  6
CONTINUOUS
  0
LAYER
  5
AC9
330
AC2
100
AcDbSymbolTableRecord
100
AcDbLayerTableRecord
  2
Wire003
 70
    0
 62
    7
  6
CONTINUOUS
  0
LAYER
  5
ACA
330
AC2
100
AcDbSymbolTableRecord
100
AcDbLayerTableRecord
  2
Wire004
 70
    0
 62
    7
  6
CONTINUOUS
  0
LAYER
  5
ACB
330
AC2
100
AcDbSymbolTableRecord
100
AcDbLayerTableRecord
  2
Wire005
 70
    0
 62
    7
  6
CONTINUOUS
  0
LAYER
  5
ACC
330
AC2
100
AcDbSymbolTableRecord
100
AcDbLayerTableRecord
  2
Wire006
 70
    0
 62
    7
  6
CONTINUOUS
  0
LAYER
  5
ACD
330
AC2
100
AcDbSymbolTableRecord
100
AcDbLayerTableRecord
  2
Wire007
 70
    0
 62
    7
  6
CONTINUOUS
  0
LAYER
  5
ACE
330
AC2
100
AcDbSymbolTableRecord
100
AcDbLayerTableRecord
  2
Wire008
 70
    0
 62
    7
  6
CONTINUOUS
  0
LAYER
  5
ACF
330
AC2
100
AcDbSymbolTableRecord
100
AcDbLayerTableRecord
  2
Wire009
 70
    0
 62
    7
  6
CONTINUOUS
  0
LAYER
  5
AD0
330
AC2
100
AcDbSymbolTableRecord
100
AcDbLayerTableRecord
  2
Wire010
 70
    0
 62
    7
  6
CONTINUOUS
  0
LAYER
  5
AD1
330
AC2
100
AcDbSymbolTableRecord
100
AcDbLayerTableRecord
  2
Wire011
 70
    0
 62
    7
  6
CONTINUOUS
  0
LAYER
  5
AD2
330
AC2
100
AcDbSymbolTableRecord
100
AcDbLayerTableRecord
  2
Wire012
 70
    0
 62
    7
  6
CONTINUOUS
  0
LAYER
  5
AD3
330
AC2
100
AcDbSymbolTableRecord
100
AcDbLayerTableRecord
  2
Wire013
 70
    0
 62
    7
  6
CONTINUOUS
  0
LAYER
  5
AD4
330
AC2
100
AcDbSymbolTableRecord
100
AcDbLayerTableRecord
  2
Wire014
 70
    0
 62
    7
  6
CONTINUOUS
  0
LAYER
  5
AD5
330
AC2
100
AcDbSymbolTableRecord
100
AcDbLayerTableRecord
  2
Wire015
 70
    0
 62
    7
  6
CONTINUOUS
  0
LAYER
  5
AD6
330
AC2
100
AcDbSymbolTableRecord
100
AcDbLayerTableRecord
  2
Wire016
 70
    0
 62
    7
  6
CONTINUOUS
  0
LAYER
  5
AD7
330
AC2
100
AcDbSymbolTableRecord
100
AcDbLayerTableRecord
  2
Wire017
 70
    0
 62
    7
  6
CONTINUOUS
  0
LAYER
  5
AD8
330
AC2
100
AcDbSymbolTableRecord
100
AcDbLayerTableRecord
  2
Wire018
 70
    0
 62
    7
  6
CONTINUOUS
  0
LAYER
  5
AD9
330
AC2
100
AcDbSymbolTableRecord
100
AcDbLayerTableRecord
  2
Wire019
 70
    0
 62
    7
  6
CONTINUOUS
  0
LAYER
  5
ADA
330
AC2
100
AcDbSymbolTableRecord
100
AcDbLayerTableRecord
  2
Wire020
 70
    0
 62
    7
  6
CONTINUOUS
  0
LAYER
  5
ADB
330
AC2
100
AcDbSymbolTableRecord
100
AcDbLayerTableRecord
  2
Wire021
 70
    0
 62
    7
  6
CONTINUOUS
  0
LAYER
  5
ADC
330
AC2
100
AcDbSymbolTableRecord
100
AcDbLayerTableRecord
  2
Wire022
 70
    0
 62
    7
  6
CONTINUOUS
  0
LAYER
  5
ADD
330
AC2
100
AcDbSymbolTableRecord
100
AcDbLayerTableRecord
  2
Wire023
 70
    0
 62
    7
  6
CONTINUOUS
  0
LAYER
  5
ADE
330
AC2
100
AcDbSymbolTableRecord
100
AcDbLayerTableRecord
  2
Wire024
 70
    0
 62
    7
  6
CONTINUOUS
  0
LAYER
  5
ADF
330
AC2
100
AcDbSymbolTableRecord
100
AcDbLayerTableRecord
  2
Wire025
 70
    0
 62
    7
  6
CONTINUOUS
  0
LAYER
  5
AE0
330
AC2
100
AcDbSymbolTableRecord
100
AcDbLayerTableRecord
  2
Wire026
 70
    0
 62
    7
  6
CONTINUOUS
  0
LAYER
  5
AE1
330
AC2
100
AcDbSymbolTableRecord
100
AcDbLayerTableRecord
  2
Wire027
 70
    0
 62
    7
  6
CONTINUOUS
  0
LAYER
  5
AE2
330
AC2
100
AcDbSymbolTableRecord
100
AcDbLayerTableRecord
  2
Wire028
 70
    0
 62
    7
  6
CONTINUOUS
  0
LAYER
  5
AE3
330
AC2
100
AcDbSymbolTableRecord
100
AcDbLayerTableRecord
  2
Wire029
 70
    0
 62
    7
  6
CONTINUOUS
  0
LAYER
  5
AE4
330
AC2
100
AcDbSymbolTableRecord
100
AcDbLayerTableRecord
  2
Wire030
 70
    0
 62
    7
  6
CONTINUOUS
  0
LAYER
  5
AE5
330
AC2
100
AcDbSymbolTableRecord
100
AcDbLayerTableRecord
  2
Wire031
 70
    0
 62
    7
  6
CONTINUOUS
  0
LAYER
  5
AE6
330
AC2
100
AcDbSymbolTableRecord
100
AcDbLayerTableRecord
  2
Wire032
 70
    0
 62
    7
  6
CONTINUOUS
  0
LAYER
  5
AE7
330
AC2
100
AcDbSymbolTableRecord
100
AcDbLayerTableRecord
  2
Wire033
 70
    0
 62
    7
  6
CONTINUOUS
  0
LAYER
  5
AE8
330
AC2
100
AcDbSymbolTableRecord
100
AcDbLayerTableRecord
  2
Wire034
 70
    0
 62
    7
  6
CONTINUOUS
  0
LAYER
  5
AE9
330
AC2
100
AcDbSymbolTableRecord
100
AcDbLayerTableRecord
  2
Wire035
 70
    0
 62
    7
  6
CONTINUOUS
  0
LAYER
  5
AEA
330
AC2
100
AcDbSymbolTableRecord
100
AcDbLayerTableRecord
  2
Wire036
 70
    0
 62
    7
  6
CONTINUOUS
  0
LAYER
  5
AEB
330
AC2
100
AcDbSymbolTableRecord
100
AcDbLayerTableRecord
  2
Wire037
 70
    0
 62
    7
  6
CONTINUOUS
  0
LAYER
  5
AEC
330
AC2
100
AcDbSymbolTableRecord
100
AcDbLayerTableRecord
  2
Wire038
 70
    0
 62
    7
  6
CONTINUOUS
  0
LAYER
  5
AED
330
AC2
100
AcDbSymbolTableRecord
100
AcDbLayerTableRecord
  2
Wire039
 70
    0
 62
    7
  6
CONTINUOUS
  0
LAYER
  5
AEE
330
AC2
100
AcDbSymbolTableRecord
100
AcDbLayerTableRecord
  2
Wire040
 70
    0
 62
    7
  6
CONTINUOUS
  0
LAYER
  5
AEF
330
AC2
100
AcDbSymbolTableRecord
100
AcDbLayerTableRecord
  2
Wire041
 70
    0
 62
    7
  6
CONTINUOUS
  0
LAYER
  5
AF0
330
AC2
100
AcDbSymbolTableRecord
100
AcDbLayerTableRecord
  2
Wire042
 70
    0
 62
    7
  6
CONTINUOUS
  0
LAYER
  5
AF1
330
AC2
100
AcDbSymbolTableRecord
100
AcDbLayerTableRecord
  2
Wire043
 70
    0
 62
    7
  6
CONTINUOUS
  0
LAYER
  5
AF2
330
AC2
100
AcDbSymbolTableRecord
100
AcDbLayerTableRecord
  2
Wire044
 70
    0
 62
    7
  6
CONTINUOUS
  0
LAYER
  5
AF3
330
AC2
100
AcDbSymbolTableRecord
100
AcDbLayerTableRecord
  2
Wire045
 70
    0
 62
    7
  6
CONTINUOUS
  0
LAYER
  5
AF4
330
AC2
100
AcDbSymbolTableRecord
100
AcDbLayerTableRecord
  2
Wire047
 70
    0
 62
    7
  6
CONTINUOUS
  0
LAYER
  5
AF5
330
AC2
100
AcDbSymbolTableRecord
100
AcDbLayerTableRecord
  2
Wire048
 70
    0
 62
    7
  6
CONTINUOUS
  0
LAYER
  5
AF6
330
AC2
100
AcDbSymbolTableRecord
100
AcDbLayerTableRecord
  2
Wire049
 70
    0
 62
    7
  6
CONTINUOUS
  0
LAYER
  5
AF7
330
AC2
100
AcDbSymbolTableRecord
100
AcDbLayerTableRecord
  2
Wire050
 70
    0
 62
    7
  6
CONTINUOUS
  0
LAYER
  5
AF8
330
AC2
100
AcDbSymbolTableRecord
100
AcDbLayerTableRecord
  2
Wire051
 70
    0
 62
    7
  6
CONTINUOUS
  0
LAYER
  5
AF9
330
AC2
100
AcDbSymbolTableRecord
100
AcDbLayerTableRecord
  2
Wire052
 70
    0
 62
    7
  6
CONTINUOUS
  0
LAYER
  5
AFA
330
AC2
100
AcDbSymbolTableRecord
100
AcDbLayerTableRecord
  2
Wire053
 70
    0
 62
    7
  6
CONTINUOUS
  0
LAYER
  5
AFB
330
AC2
100
AcDbSymbolTableRecord
100
AcDbLayerTableRecord
  2
Wire054
 70
    0
 62
    7
  6
CONTINUOUS
  0
LAYER
  5
AFC
330
AC2
100
AcDbSymbolTableRecord
100
AcDbLayerTableRecord
  2
Wire055
 70
    0
 62
    7
  6
CONTINUOUS
  0
LAYER
  5
AFD
330
AC2
100
AcDbSymbolTableRecord
100
AcDbLayerTableRecord
  2
Wire056
 70
    0
 62
    7
  6
CONTINUOUS
  0
LAYER
  5
AFE
330
AC2
100
AcDbSymbolTableRecord
100
AcDbLayerTableRecord
  2
Wire057
 70
    0
 62
    7
  6
CONTINUOUS
  0
LAYER
  5
AFF
330
AC2
100
AcDbSymbolTableRecord
100
AcDbLayerTableRecord
  2
Wire058
 70
    0
 62
    7
  6
CONTINUOUS
  0
LAYER
  5
B00
330
AC2
100
AcDbSymbolTableRecord
100
AcDbLayerTableRecord
  2
Wire059
 70
    0
 62
    7
  6
CONTINUOUS
  0
LAYER
  5
B01
330
AC2
100
AcDbSymbolTableRecord
100
AcDbLayerTableRecord
  2
Wire060
 70
    0
 62
    7
  6
CONTINUOUS
  0
LAYER
  5
B02
330
AC2
100
AcDbSymbolTableRecord
100
AcDbLayerTableRecord
  2
Wire061
 70
    0
 62
    7
  6
CONTINUOUS
  0
LAYER
  5
B03
330
AC2
100
AcDbSymbolTableRecord
100
AcDbLayerTableRecord
  2
Wire062
 70
    0
 62
    7
  6
CONTINUOUS
  0
LAYER
  5
B04
330
AC2
100
AcDbSymbolTableRecord
100
AcDbLayerTableRecord
  2
Wire063
 70
    0
 62
    7
  6
CONTINUOUS
  0
LAYER
  5
B05
330
AC2
100
AcDbSymbolTableRecord
100
AcDbLayerTableRecord
  2
Wire064
 70
    0
 62
    7
  6
CONTINUOUS
  0
LAYER
  5
B06
330
AC2
100
AcDbSymbolTableRecord
100
AcDbLayerTableRecord
  2
Wire065
 70
    0
 62
    7
  6
CONTINUOUS
  0
LAYER
  5
B07
330
AC2
100
AcDbSymbolTableRecord
100
AcDbLayerTableRecord
  2
Wire066
 70
    0
 62
    7
  6
CONTINUOUS
  0
LAYER
  5
B08
330
AC2
100
AcDbSymbolTableRecord
100
AcDbLayerTableRecord
  2
Wire067
 70
    0
 62
    7
  6
CONTINUOUS
  0
LAYER
  5
B09
330
AC2
100
AcDbSymbolTableRecord
100
AcDbLayerTableRecord
  2
Wire068
 70
    0
 62
    7
  6
CONTINUOUS
  0
LAYER
  5
B0A
330
AC2
100
AcDbSymbolTableRecord
100
AcDbLayerTableRecord
  2
Wire069
 70
    0
 62
    7
  6
CONTINUOUS
  0
LAYER
  5
B0B
330
AC2
100
AcDbSymbolTableRecord
100
AcDbLayerTableRecord
  2
Wire070
 70
    0
 62
    7
  6
CONTINUOUS
  0
LAYER
  5
B0C
330
AC2
100
AcDbSymbolTableRecord
100
AcDbLayerTableRecord
  2
Wire071
 70
    0
 62
    7
  6
CONTINUOUS
  0
LAYER
  5
B0D
330
AC2
100
AcDbSymbolTableRecord
100
AcDbLayerTableRecord
  2
Wire072
 70
    0
 62
    7
  6
CONTINUOUS
  0
LAYER
  5
B0E
330
AC2
100
AcDbSymbolTableRecord
100
AcDbLayerTableRecord
  2
Wire073
 70
    0
 62
    7
  6
CONTINUOUS
  0
LAYER
  5
B0F
330
AC2
100
AcDbSymbolTableRecord
100
AcDbLayerTableRecord
  2
Wire074
 70
    0
 62
    7
  6
CONTINUOUS
  0
LAYER
  5
B10
330
AC2
100
AcDbSymbolTableRecord
100
AcDbLayerTableRecord
  2
Wire075
 70
    0
 62
    7
  6
CONTINUOUS
  0
LAYER
  5
B11
330
AC2
100
AcDbSymbolTableRecord
100
AcDbLayerTableRecord
  2
Wire076
 70
    0
 62
    7
  6
CONTINUOUS
  0
LAYER
  5
B12
330
AC2
100
AcDbSymbolTableRecord
100
AcDbLayerTableRecord
  2
Wire077
 70
    0
 62
    7
  6
CONTINUOUS
  0
LAYER
  5
B13
330
AC2
100
AcDbSymbolTableRecord
100
AcDbLayerTableRecord
  2
Wire078
 70
    0
 62
    7
  6
CONTINUOUS
  0
LAYER
  5
B14
330
AC2
100
AcDbSymbolTableRecord
100
AcDbLayerTableRecord
  2
Wire079
 70
    0
 62
    7
  6
CONTINUOUS
  0
LAYER
  5
B15
330
AC2
100
AcDbSymbolTableRecord
100
AcDbLayerTableRecord
  2
Wire080
 70
    0
 62
    7
  6
CONTINUOUS
  0
LAYER
  5
B16
330
AC2
100
AcDbSymbolTableRecord
100
AcDbLayerTableRecord
  2
Wire081
 70
    0
 62
    7
  6
CONTINUOUS
  0
LAYER
  5
B17
330
AC2
100
AcDbSymbolTableRecord
100
AcDbLayerTableRecord
  2
Wire082
 70
    0
 62
    7
  6
CONTINUOUS
  0
LAYER
  5
B18
330
AC2
100
AcDbSymbolTableRecord
100
AcDbLayerTableRecord
  2
Wire083
 70
    0
 62
    7
  6
CONTINUOUS
  0
LAYER
  5
B19
330
AC2
100
AcDbSymbolTableRecord
100
AcDbLayerTableRecord
  2
Wire084
 70
    0
 62
    7
  6
CONTINUOUS
  0
LAYER
  5
B1A
330
AC2
100
AcDbSymbolTableRecord
100
AcDbLayerTableRecord
  2
Wire085
 70
    0
 62
    7
  6
CONTINUOUS
  0
LAYER
  5
B1B
330
AC2
100
AcDbSymbolTableRecord
100
AcDbLayerTableRecord
  2
Wire086
 70
    0
 62
    7
  6
CONTINUOUS
  0
LAYER
  5
B1C
330
AC2
100
AcDbSymbolTableRecord
100
AcDbLayerTableRecord
  2
Wire087
 70
    0
 62
    7
  6
CONTINUOUS
  0
LAYER
  5
B1D
330
AC2
100
AcDbSymbolTableRecord
100
AcDbLayerTableRecord
  2
Wire088
 70
    0
 62
    7
  6
CONTINUOUS
  0
LAYER
  5
B1E
330
AC2
100
AcDbSymbolTableRecord
100
AcDbLayerTableRecord
  2
Wire089
 70
    0
 62
    7
  6
CONTINUOUS
  0
LAYER
  5
B1F
330
AC2
100
AcDbSymbolTableRecord
100
AcDbLayerTableRecord
  2
Wire090
 70
    0
 62
    7
  6
CONTINUOUS
  0
LAYER
  5
B20
330
AC2
100
AcDbSymbolTableRecord
100
AcDbLayerTableRecord
  2
Wire091
 70
    0
 62
    7
  6
CONTINUOUS
  0
LAYER
  5
B21
330
AC2
100
AcDbSymbolTableRecord
100
AcDbLayerTableRecord
  2
Wire092
 70
    0
 62
    7
  6
CONTINUOUS
  0
LAYER
  5
B22
330
AC2
100
AcDbSymbolTableRecord
100
AcDbLayerTableRecord
  2
Wire093
 70
    0
 62
    7
  6
CONTINUOUS
  0
LAYER
  5
B23
330
AC2
100
AcDbSymbolTableRecord
100
AcDbLayerTableRecord
  2
Wire094
 70
    0
 62
    7
  6
CONTINUOUS
  0
LAYER
  5
B24
330
AC2
100
AcDbSymbolTableRecord
100
AcDbLayerTableRecord
  2
Wire095
 70
    0
 62
    7
  6
CONTINUOUS
  0
LAYER
  5
B25
330
AC2
100
AcDbSymbolTableRecord
100
AcDbLayerTableRecord
  2
Wire096
 70
    0
 62
    7
  6
CONTINUOUS
  0
LAYER
  5
B26
330
AC2
100
AcDbSymbolTableRecord
100
AcDbLayerTableRecord
  2
Wire097
 70
    0
 62
    7
  6
CONTINUOUS
  0
LAYER
  5
B27
330
AC2
100
AcDbSymbolTableRecord
100
AcDbLayerTableRecord
  2
Wire098
 70
    0
 62
    7
  6
CONTINUOUS
  0
LAYER
  5
B28
330
AC2
100
AcDbSymbolTableRecord
100
AcDbLayerTableRecord
  2
Wire099
 70
    0
 62
    7
  6
CONTINUOUS
  0
LAYER
  5
B29
330
AC2
100
AcDbSymbolTableRecord
100
AcDbLayerTableRecord
  2
Wire100
 70
    0
 62
    7
  6
CONTINUOUS
  0
ENDTAB
  0
TABLE
  2
STYLE
  5
70
330
0
100
AcDbSymbolTable
 70
     2
  0
STYLE
  5
71
330
70
100
AcDbSymbolTableRecord
100
AcDbTextStyleTableRecord
  2
STANDARD
 70
     0
 40
0.0
 41
1.0
 50
0.0
 71
     0
 42
2.5
  3
arial.ttf
  4

  0
STYLE
  5
72
330
70
100
AcDbSymbolTableRecord
100
AcDbTextStyleTableRecord
  2
ANNOTATIVE
 70
     0
 40
0.0
 41
1.0
 50
0.0
 71
     0
 42
2.5
  3
arial.ttf
  4

  0
ENDTAB
  0
TABLE
  2
VIEW
  5
73
330
0
100
AcDbSymbolTable
 70
     0
  0
ENDTAB
  0
TABLE
  2
UCS
  5
74
330
0
100
AcDbSymbolTable
 70
     0
  0
ENDTAB
  0
TABLE
  2
APPID
  5
75
330
0
100
AcDbSymbolTable
 70
     2
  0
APPID
  5
76
330
75
100
AcDbSymbolTableRecord
100
AcDbRegAppTableRecord
  2
ACAD
 70
     0
  0
APPID
  5
77
330
75
100
AcDbSymbolTableRecord
100
AcDbRegAppTableRecord
  2
ACADANNOTATIVE
 70
     0
  0
ENDTAB
  0
TABLE
  2
DIMSTYLE
  5
78
330
0
100
AcDbSymbolTable
 70
     2
  0
DIMSTYLE
105
79
330
78
100
AcDbSymbolTableRecord
100
AcDbDimStyleTableRecord
  2
STANDARD
 70
     0
  3

  4

  5

  6

  7

 40
0.0
 41
2.5
 42
0.625
 43
3.75
 44
1.25
 45
0.0
 46
0.0
 47
0.0
 48
0.0
140
2.5
141
2.5
142
0.0
143
0.03937007874016
144
1.0
145
0.0
146
1.0
147
0.625
 71
     0
 72
     0
 73
     0
 74
     0
 75
     0
 76
     0
 77
     1
 78
     8
170
     0
171
     3
172
     1
173
     0
174
     0
175
     0
176
     0
177
     0
178
     0
270
     2
271
     2
272
     2
273
     2
274
     3
340
71
275
     0
280
     0
281
     0
282
     0
283
     0
284
     8
285
     0
286
     0
287
     3
288
     0
  0
ENDTAB
  0
TABLE
  2
BLOCK_RECORD
  5
A01
330
0
100
AcDbSymbolTable
  70
5
  0
BLOCK_RECORD
  5
A02
330
A01
100
AcDbSymbolTableRecord
100
AcDbBlockTableRecord
  2
*MODEL_SPACE
  0
BLOCK_RECORD
  5
A03
330
A01
100
AcDbSymbolTableRecord
100
AcDbBlockTableRecord
  2
*PAPER_SPACE
  0
ENDTAB
  0
ENDSEC
  0
SECTION
  2
BLOCKS
  0
BLOCK
  5
A04
330
A02
100
AcDbEntity
  8
0
100
AcDbBlockBegin
  2
*MODEL_SPACE
 70
   0
 10
0
 20
0
 30
0
  3
*MODEL_SPACE
  1
 
  0
ENDBLK
  5
A05
330
A02
100
AcDbEntity
  8
0
100
AcDbBlockEnd
  0
BLOCK
  5
A06
330
A03
100
AcDbEntity
 67
1
  8
0
100
AcDbBlockBegin
  2
*PAPER_SPACE
 70
   0
 10
0
 20
0
 30
0
  3
*PAPER_SPACE
  1
 
  0
ENDBLK
  5
A07
330
A03
100
AcDbEntity
 67
    1
  8
0
100
AcDbBlockEnd
  0
ENDSEC
  0
SECTION
  2
ENTITIES
  0
CIRCLE
  5
A08
330
A02
100
AcDbEntity
  8
Wire046
100
AcDbCircle
 10
-661.091
 20
-92.5487
 40
3
  0
LINE
  5
A09
330
A02
100
AcDbEntity
  8
Wire
100
AcDbLine
 10
-72.0912
 20
-327.299
 30
0
 11
-72.0912
 21
-186.299
 31
0
  0
LINE
  5
A0A
330
A02
100
AcDbEntity
  8
Wire
100
AcDbLine
 10
-72.0912
 20
-186.299
 30
0
 11
-297.091
 21
-186.299
 31
0
  0
ARC
  5
A0B
330
A02
100
AcDbEntity
  8
Wire
100
AcDbCircle
 10
-300.591
 20
-186.299
 30
0
 40
3.5
100
AcDbArc
 50
180
 51
0
  0
LINE
  5
A0C
330
A02
100
AcDbEntity
  8
Wire
100
AcDbLine
 10
-304.091
 20
-186.299
 30
0
 11
-304.091
 21
-168.299
 31
0
  0
ARC
  5
A0D
330
A02
100
AcDbEntity
  8
Wire
100
AcDbCircle
 10
-300.591
 20
-168.299
 30
0
 40
3.5
100
AcDbArc
 50
0
 51
180
  0
LINE
  5
A0E
330
A02
100
AcDbEntity
  8
Wire
100
AcDbLine
 10
-297.091
 20
-168.299
 30
0
 11
-72.0912
 21
-168.299
 31
0
  0
LINE
  5
A0F
330
A02
100
AcDbEntity
  8
Wire
100
AcDbLine
 10
-72.0912
 20
-168.299
 30
0
 11
-72.0912
 21
-27.2987
 31
0
  0
ARC
  5
A10
330
A02
100
AcDbEntity
  8
Wire
100
AcDbCircle
 10
-68.5912
 20
-27.2987
 30
0
 40
3.5
100
AcDbArc
 50
0
 51
180
  0
LINE
  5
A11
330
A02
100
AcDbEntity
  8
Wire
100
AcDbLine
 10
-65.0912
 20
-27.2987
 30
0
 11
-54.0912
 21
-27.2987
 31
0
  0
LINE
  5
A12
330
A02
100
AcDbEntity
  8
Wire
100
AcDbLine
 10
-54.0912
 20
-27.2987
 30
0
 11
-54.0912
 21
197.701
 31
0
  0
LINE
  5
A13
330
A02
100
AcDbEntity
  8
Wire
100
AcDbLine
 10
-54.0912
 20
197.701
 30
0
 11
-90.0912
 21
197.701
 31
0
  0
LINE
  5
A14
330
A02
100
AcDbEntity
  8
Wire
100
AcDbLine
 10
-90.0912
 20
197.701
 30
0
 11
-340.091
 21
-52.2987
 31
0
  0
LINE
  5
A15
330
A02
100
AcDbEntity
  8
Wire
100
AcDbLine
 10
-340.091
 20
-52.2987
 30
0
 11
-804.091
 21
-52.2987
 31
0
  0
ARC
  5
A16
330
A02
100
AcDbEntity
  8
Wire
100
AcDbCircle
 10
-804.091
 20
-177.299
 30
0
 40
125
100
AcDbArc
 50
90
 51
-90
  0
LINE
  5
A17
330
A02
100
AcDbEntity
  8
Wire
100
AcDbLine
 10
-804.091
 20
-302.299
 30
0
 11
-340.091
 21
-302.299
 31
0
  0
LINE
  5
A18
330
A02
100
AcDbEntity
  8
Wire
100
AcDbLine
 10
-340.091
 20
-302.299
 30
0
 11
-90.0912
 21
-552.299
 31
0
  0
LINE
  5
A19
330
A02
100
AcDbEntity
  8
Wire
100
AcDbLine
 10
-90.0912
 20
-552.299
 30
0
 11
-54.0912
 21
-552.299
 31
0
  0
LINE
  5
A1A
330
A02
100
AcDbEntity
  8
Wire
100
AcDbLine
 10
-54.0912
 20
-552.299
 30
0
 11
-54.0912
 21
-327.299
 31
0
  0
LINE
  5
A1B
330
A02
100
AcDbEntity
  8
Wire
100
AcDbLine
 10
-54.0912
 20
-327.299
 30
0
 11
-65.0912
 21
-327.299
 31
0
  0
ARC
  5
A1C
330
A02
100
AcDbEntity
  8
Wire
100
AcDbCircle
 10
-68.5912
 20
-327.299
 30
0
 40
3.5
100
AcDbArc
 50
180
 51
0
  0
LINE
  5
A1D
330
A02
100
AcDbEntity
  8
Wire001
100
AcDbLine
 10
-679.091
 20
-271.049
 30
0
 11
-304.091
 21
-271.049
 31
0
  0
LINE
  5
A1E
330
A02
100
AcDbEntity
  8
Wire001
100
AcDbLine
 10
-304.091
 20
-271.049
 30
0
 11
-304.091
 21
-253.049
 31
0
  0
LINE
  5
A1F
330
A02
100
AcDbEntity
  8
Wire001
100
AcDbLine
 10
-304.091
 20
-253.049
 30
0
 11
-679.091
 21
-253.049
 31
0
  0
LINE
  5
A20
330
A02
100
AcDbEntity
  8
Wire001
100
AcDbLine
 10
-679.091
 20
-253.049
 30
0
 11
-679.091
 21
-271.049
 31
0
  0
CIRCLE
  5
A21
330
A02
100
AcDbEntity
  8
Wire002
100
AcDbCircle
 10
-804.091
 20
-177.299
 40
25.4
  0
LINE
  5
A22
330
A02
100
AcDbEntity
  8
Wire003
100
AcDbLine
 10
-679.091
 20
-101.549
 30
0
 11
-304.091
 21
-101.549
 31
0
  0
LINE
  5
A23
330
A02
100
AcDbEntity
  8
Wire003
100
AcDbLine
 10
-304.091
 20
-101.549
 30
0
 11
-304.091
 21
-83.5487
 31
0
  0
LINE
  5
A24
330
A02
100
AcDbEntity
  8
Wire003
100
AcDbLine
 10
-304.091
 20
-83.5487
 30
0
 11
-679.091
 21
-83.5487
 31
0
  0
LINE
  5
A25
330
A02
100
AcDbEntity
  8
Wire003
100
AcDbLine
 10
-679.091
 20
-83.5487
 30
0
 11
-679.091
 21
-101.549
 31
0
  0
CIRCLE
  5
A26
330
A02
100
AcDbEntity
  8
Wire004
100
AcDbCircle
 10
-322.091
 20
-262.049
 40
3
  0
CIRCLE
  5
A27
330
A02
100
AcDbEntity
  8
Wire005
100
AcDbCircle
 10
-339.041
 20
-262.049
 40
3
  0
CIRCLE
  5
A28
330
A02
100
AcDbEntity
  8
Wire006
100
AcDbCircle
 10
-355.991
 20
-262.049
 40
3
  0
CIRCLE
  5
A29
330
A02
100
AcDbEntity
  8
Wire007
100
AcDbCircle
 10
-372.941
 20
-262.049
 40
3
  0
CIRCLE
  5
A2A
330
A02
100
AcDbEntity
  8
Wire008
100
AcDbCircle
 10
-389.891
 20
-262.049
 40
3
  0
CIRCLE
  5
A2B
330
A02
100
AcDbEntity
  8
Wire009
100
AcDbCircle
 10
-406.841
 20
-262.049
 40
3
  0
CIRCLE
  5
A2C
330
A02
100
AcDbEntity
  8
Wire010
100
AcDbCircle
 10
-423.791
 20
-262.049
 40
3
  0
CIRCLE
  5
A2D
330
A02
100
AcDbEntity
  8
Wire011
100
AcDbCircle
 10
-440.741
 20
-262.049
 40
3
  0
CIRCLE
  5
A2E
330
A02
100
AcDbEntity
  8
Wire012
100
AcDbCircle
 10
-457.691
 20
-262.049
 40
3
  0
CIRCLE
  5
A2F
330
A02
100
AcDbEntity
  8
Wire013
100
AcDbCircle
 10
-474.641
 20
-262.049
 40
3
  0
CIRCLE
  5
A30
330
A02
100
AcDbEntity
  8
Wire014
100
AcDbCircle
 10
-491.591
 20
-262.049
 40
3
  0
CIRCLE
  5
A31
330
A02
100
AcDbEntity
  8
Wire015
100
AcDbCircle
 10
-508.541
 20
-262.049
 40
3
  0
CIRCLE
  5
A32
330
A02
100
AcDbEntity
  8
Wire016
100
AcDbCircle
 10
-525.491
 20
-262.049
 40
3
  0
CIRCLE
  5
A33
330
A02
100
AcDbEntity
  8
Wire017
100
AcDbCircle
 10
-542.441
 20
-262.049
 40
3
  0
CIRCLE
  5
A34
330
A02
100
AcDbEntity
  8
Wire018
100
AcDbCircle
 10
-559.391
 20
-262.049
 40
3
  0
CIRCLE
  5
A35
330
A02
100
AcDbEntity
  8
Wire019
100
AcDbCircle
 10
-576.341
 20
-262.049
 40
3
  0
CIRCLE
  5
A36
330
A02
100
AcDbEntity
  8
Wire020
100
AcDbCircle
 10
-593.291
 20
-262.049
 40
3
  0
CIRCLE
  5
A37
330
A02
100
AcDbEntity
  8
Wire021
100
AcDbCircle
 10
-610.241
 20
-262.049
 40
3
  0
CIRCLE
  5
A38
330
A02
100
AcDbEntity
  8
Wire022
100
AcDbCircle
 10
-627.191
 20
-262.049
 40
3
  0
CIRCLE
  5
A39
330
A02
100
AcDbEntity
  8
Wire023
100
AcDbCircle
 10
-644.141
 20
-262.049
 40
3
  0
CIRCLE
  5
A3A
330
A02
100
AcDbEntity
  8
Wire024
100
AcDbCircle
 10
-661.091
 20
-262.049
 40
3
  0
CIRCLE
  5
A3B
330
A02
100
AcDbEntity
  8
Wire025
100
AcDbCircle
 10
-322.091
 20
-92.5487
 40
3
  0
CIRCLE
  5
A3C
330
A02
100
AcDbEntity
  8
Wire026
100
AcDbCircle
 10
-339.041
 20
-92.5487
 40
3
  0
CIRCLE
  5
A3D
330
A02
100
AcDbEntity
  8
Wire027
100
AcDbCircle
 10
-355.991
 20
-92.5487
 40
3
  0
CIRCLE
  5
A3E
330
A02
100
AcDbEntity
  8
Wire028
100
AcDbCircle
 10
-372.941
 20
-92.5487
 40
3
  0
CIRCLE
  5
A3F
330
A02
100
AcDbEntity
  8
Wire029
100
AcDbCircle
 10
-389.891
 20
-92.5487
 40
3
  0
CIRCLE
  5
A40
330
A02
100
AcDbEntity
  8
Wire030
100
AcDbCircle
 10
-406.841
 20
-92.5487
 40
3
  0
CIRCLE
  5
A41
330
A02
100
AcDbEntity
  8
Wire031
100
AcDbCircle
 10
-423.791
 20
-92.5487
 40
3
  0
CIRCLE
  5
A42
330
A02
100
AcDbEntity
  8
Wire032
100
AcDbCircle
 10
-440.741
 20
-92.5487
 40
3
  0
CIRCLE
  5
A43
330
A02
100
AcDbEntity
  8
Wire033
100
AcDbCircle
 10
-804.091
 20
-177.299
 40
15
  0
CIRCLE
  5
A44
330
A02
100
AcDbEntity
  8
Wire034
100
AcDbCircle
 10
-457.691
 20
-92.5487
 40
3
  0
CIRCLE
  5
A45
330
A02
100
AcDbEntity
  8
Wire035
100
AcDbCircle
 10
-474.641
 20
-92.5487
 40
3
  0
CIRCLE
  5
A46
330
A02
100
AcDbEntity
  8
Wire036
100
AcDbCircle
 10
-491.591
 20
-92.5487
 40
3
  0
CIRCLE
  5
A47
330
A02
100
AcDbEntity
  8
Wire037
100
AcDbCircle
 10
-508.541
 20
-92.5487
 40
3
  0
CIRCLE
  5
A48
330
A02
100
AcDbEntity
  8
Wire038
100
AcDbCircle
 10
-525.491
 20
-92.5487
 40
3
  0
CIRCLE
  5
A49
330
A02
100
AcDbEntity
  8
Wire039
100
AcDbCircle
 10
-542.441
 20
-92.5487
 40
3
  0
CIRCLE
  5
A4A
330
A02
100
AcDbEntity
  8
Wire040
100
AcDbCircle
 10
-559.391
 20
-92.5487
 40
3
  0
CIRCLE
  5
A4B
330
A02
100
AcDbEntity
  8
Wire041
100
AcDbCircle
 10
-576.341
 20
-92.5487
 40
3
  0
CIRCLE
  5
A4C
330
A02
100
AcDbEntity
  8
Wire042
100
AcDbCircle
 10
-593.291
 20
-92.5487
 40
3
  0
CIRCLE
  5
A4D
330
A02
100
AcDbEntity
  8
Wire043
100
AcDbCircle
 10
-610.241
 20
-92.5487
 40
3
  0
CIRCLE
  5
A4E
330
A02
100
AcDbEntity
  8
Wire044
100
AcDbCircle
 10
-627.191
 20
-92.5487
 40
3
  0
CIRCLE
  5
A4F
330
A02
100
AcDbEntity
  8
Wire045
100
AcDbCircle
 10
-644.141
 20
-92.5487
 40
3
  0
LINE
  5
A50
330
A02
100
AcDbEntity
  8
Wire047
100
AcDbLine
 10
-888.839
 20
503.996
 30
0
 11
-888.32
 21
362.997
 31
0
  0
LINE
  5
A51
330
A02
100
AcDbEntity
  8
Wire047
100
AcDbLine
 10
-888.32
 20
362.997
 30
0
 11
-663.321
 21
363.826
 31
0
  0
ARC
  5
A52
330
A02
100
AcDbEntity
  8
Wire047
100
AcDbCircle
 10
-659.821
 20
363.839
 30
0
 40
3.5
100
AcDbArc
 50
0.211067
 51
-179.789
  0
LINE
  5
A53
330
A02
100
AcDbEntity
  8
Wire047
100
AcDbLine
 10
-656.321
 20
363.852
 30
0
 11
-656.255
 21
345.852
 31
0
  0
ARC
  5
A54
330
A02
100
AcDbEntity
  8
Wire047
100
AcDbCircle
 10
-659.755
 20
345.839
 30
0
 40
3.5
100
AcDbArc
 50
-179.789
 51
0.211067
  0
LINE
  5
A55
330
A02
100
AcDbEntity
  8
Wire047
100
AcDbLine
 10
-663.255
 20
345.826
 30
0
 11
-888.253
 21
344.997
 31
0
  0
LINE
  5
A56
330
A02
100
AcDbEntity
  8
Wire047
100
AcDbLine
 10
-888.253
 20
344.997
 30
0
 11
-887.734
 21
203.998
 31
0
  0
ARC
  5
A57
330
A02
100
AcDbEntity
  8
Wire047
100
AcDbCircle
 10
-891.234
 20
203.985
 30
0
 40
3.5
100
AcDbArc
 50
-179.789
 51
0.211067
  0
LINE
  5
A58
330
A02
100
AcDbEntity
  8
Wire047
100
AcDbLine
 10
-894.734
 20
203.972
 30
0
 11
-905.734
 21
203.932
 31
0
  0
LINE
  5
A59
330
A02
100
AcDbEntity
  8
Wire047
100
AcDbLine
 10
-905.734
 20
203.932
 30
0
 11
-904.905
 21
-21.0668
 31
0
  0
LINE
  5
A5A
330
A02
100
AcDbEntity
  8
Wire047
100
AcDbLine
 10
-904.905
 20
-21.0668
 30
0
 11
-868.905
 21
-20.9341
 31
0
  0
LINE
  5
A5B
330
A02
100
AcDbEntity
  8
Wire047
100
AcDbLine
 10
-868.905
 20
-20.9341
 30
0
 11
-619.828
 21
229.985
 31
0
  0
LINE
  5
A5C
330
A02
100
AcDbEntity
  8
Wire047
100
AcDbLine
 10
-619.828
 20
229.985
 30
0
 11
-155.831
 21
231.694
 31
0
  0
ARC
  5
A5D
330
A02
100
AcDbEntity
  8
Wire047
100
AcDbCircle
 10
-156.292
 20
356.694
 30
0
 40
125
100
AcDbArc
 50
-89.7889
 51
90.2111
  0
LINE
  5
A5E
330
A02
100
AcDbEntity
  8
Wire047
100
AcDbLine
 10
-156.752
 20
481.693
 30
0
 11
-620.749
 21
479.983
 31
0
  0
LINE
  5
A5F
330
A02
100
AcDbEntity
  8
Wire047
100
AcDbLine
 10
-620.749
 20
479.983
 30
0
 11
-871.668
 21
729.061
 31
0
  0
LINE
  5
A60
330
A02
100
AcDbEntity
  8
Wire047
100
AcDbLine
 10
-871.668
 20
729.061
 30
0
 11
-907.668
 21
728.928
 31
0
  0
LINE
  5
A61
330
A02
100
AcDbEntity
  8
Wire047
100
AcDbLine
 10
-907.668
 20
728.928
 30
0
 11
-906.839
 21
503.93
 31
0
  0
LINE
  5
A62
330
A02
100
AcDbEntity
  8
Wire047
100
AcDbLine
 10
-906.839
 20
503.93
 30
0
 11
-895.839
 21
503.97
 31
0
  0
ARC
  5
A63
330
A02
100
AcDbEntity
  8
Wire047
100
AcDbCircle
 10
-892.339
 20
503.983
 30
0
 40
3.5
100
AcDbArc
 50
0.211067
 51
-179.789
  0
LINE
  5
A64
330
A02
100
AcDbEntity
  8
Wire048
100
AcDbLine
 10
-281.636
 20
449.982
 30
0
 11
-656.634
 21
448.601
 31
0
  0
LINE
  5
A65
330
A02
100
AcDbEntity
  8
Wire048
100
AcDbLine
 10
-656.634
 20
448.601
 30
0
 11
-656.567
 21
430.601
 31
0
  0
LINE
  5
A66
330
A02
100
AcDbEntity
  8
Wire048
100
AcDbLine
 10
-656.567
 20
430.601
 30
0
 11
-281.57
 21
431.983
 31
0
  0
LINE
  5
A67
330
A02
100
AcDbEntity
  8
Wire048
100
AcDbLine
 10
-281.57
 20
431.983
 30
0
 11
-281.636
 21
449.982
 31
0
  0
CIRCLE
  5
A68
330
A02
100
AcDbEntity
  8
Wire049
100
AcDbCircle
 10
-156.292
 20
356.694
 40
25.4
  0
LINE
  5
A69
330
A02
100
AcDbEntity
  8
Wire050
100
AcDbLine
 10
-281.012
 20
280.484
 30
0
 11
-656.009
 21
279.102
 31
0
  0
LINE
  5
A6A
330
A02
100
AcDbEntity
  8
Wire050
100
AcDbLine
 10
-656.009
 20
279.102
 30
0
 11
-655.943
 21
261.102
 31
0
  0
LINE
  5
A6B
330
A02
100
AcDbEntity
  8
Wire050
100
AcDbLine
 10
-655.943
 20
261.102
 30
0
 11
-280.945
 21
262.484
 31
0
  0
LINE
  5
A6C
330
A02
100
AcDbEntity
  8
Wire050
100
AcDbLine
 10
-280.945
 20
262.484
 30
0
 11
-281.012
 21
280.484
 31
0
  0
CIRCLE
  5
A6D
330
A02
100
AcDbEntity
  8
Wire051
100
AcDbCircle
 10
-638.601
 20
439.667
 40
3
  0
CIRCLE
  5
A6E
330
A02
100
AcDbEntity
  8
Wire052
100
AcDbCircle
 10
-621.651
 20
439.73
 40
3
  0
CIRCLE
  5
A6F
330
A02
100
AcDbEntity
  8
Wire053
100
AcDbCircle
 10
-604.701
 20
439.792
 40
3
  0
CIRCLE
  5
A70
330
A02
100
AcDbEntity
  8
Wire054
100
AcDbCircle
 10
-587.751
 20
439.855
 40
3
  0
CIRCLE
  5
A71
330
A02
100
AcDbEntity
  8
Wire055
100
AcDbCircle
 10
-570.801
 20
439.917
 40
3
  0
CIRCLE
  5
A72
330
A02
100
AcDbEntity
  8
Wire056
100
AcDbCircle
 10
-553.851
 20
439.98
 40
3
  0
CIRCLE
  5
A73
330
A02
100
AcDbEntity
  8
Wire057
100
AcDbCircle
 10
-536.901
 20
440.042
 40
3
  0
CIRCLE
  5
A74
330
A02
100
AcDbEntity
  8
Wire058
100
AcDbCircle
 10
-519.951
 20
440.104
 40
3
  0
CIRCLE
  5
A75
330
A02
100
AcDbEntity
  8
Wire059
100
AcDbCircle
 10
-503.001
 20
440.167
 40
3
  0
CIRCLE
  5
A76
330
A02
100
AcDbEntity
  8
Wire060
100
AcDbCircle
 10
-486.052
 20
440.229
 40
3
  0
CIRCLE
  5
A77
330
A02
100
AcDbEntity
  8
Wire061
100
AcDbCircle
 10
-469.102
 20
440.292
 40
3
  0
CIRCLE
  5
A78
330
A02
100
AcDbEntity
  8
Wire062
100
AcDbCircle
 10
-452.152
 20
440.354
 40
3
  0
CIRCLE
  5
A79
330
A02
100
AcDbEntity
  8
Wire063
100
AcDbCircle
 10
-435.202
 20
440.417
 40
3
  0
CIRCLE
  5
A7A
330
A02
100
AcDbEntity
  8
Wire064
100
AcDbCircle
 10
-418.252
 20
440.479
 40
3
  0
CIRCLE
  5
A7B
330
A02
100
AcDbEntity
  8
Wire065
100
AcDbCircle
 10
-401.302
 20
440.542
 40
3
  0
CIRCLE
  5
A7C
330
A02
100
AcDbEntity
  8
Wire066
100
AcDbCircle
 10
-384.352
 20
440.604
 40
3
  0
CIRCLE
  5
A7D
330
A02
100
AcDbEntity
  8
Wire067
100
AcDbCircle
 10
-367.402
 20
440.666
 40
3
  0
CIRCLE
  5
A7E
330
A02
100
AcDbEntity
  8
Wire068
100
AcDbCircle
 10
-350.452
 20
440.729
 40
3
  0
CIRCLE
  5
A7F
330
A02
100
AcDbEntity
  8
Wire069
100
AcDbCircle
 10
-333.503
 20
440.791
 40
3
  0
CIRCLE
  5
A80
330
A02
100
AcDbEntity
  8
Wire070
100
AcDbCircle
 10
-316.553
 20
440.854
 40
3
  0
CIRCLE
  5
A81
330
A02
100
AcDbEntity
  8
Wire071
100
AcDbCircle
 10
-299.603
 20
440.916
 40
3
  0
CIRCLE
  5
A82
330
A02
100
AcDbEntity
  8
Wire072
100
AcDbCircle
 10
-637.976
 20
270.169
 40
3
  0
CIRCLE
  5
A83
330
A02
100
AcDbEntity
  8
Wire073
100
AcDbCircle
 10
-621.026
 20
270.231
 40
3
  0
CIRCLE
  5
A84
330
A02
100
AcDbEntity
  8
Wire074
100
AcDbCircle
 10
-604.076
 20
270.293
 40
3
  0
CIRCLE
  5
A85
330
A02
100
AcDbEntity
  8
Wire075
100
AcDbCircle
 10
-587.126
 20
270.356
 40
3
  0
CIRCLE
  5
A86
330
A02
100
AcDbEntity
  8
Wire076
100
AcDbCircle
 10
-570.177
 20
270.418
 40
3
  0
CIRCLE
  5
A87
330
A02
100
AcDbEntity
  8
Wire077
100
AcDbCircle
 10
-553.227
 20
270.481
 40
3
  0
CIRCLE
  5
A88
330
A02
100
AcDbEntity
  8
Wire078
100
AcDbCircle
 10
-536.277
 20
270.543
 40
3
  0
CIRCLE
  5
A89
330
A02
100
AcDbEntity
  8
Wire079
100
AcDbCircle
 10
-519.327
 20
270.606
 40
3
  0
CIRCLE
  5
A8A
330
A02
100
AcDbEntity
  8
Wire080
100
AcDbCircle
 10
-156.292
 20
356.694
 40
15
  0
CIRCLE
  5
A8B
330
A02
100
AcDbEntity
  8
Wire081
100
AcDbCircle
 10
-502.377
 20
270.668
 40
3
  0
CIRCLE
  5
A8C
330
A02
100
AcDbEntity
  8
Wire082
100
AcDbCircle
 10
-485.427
 20
270.73
 40
3
  0
CIRCLE
  5
A8D
330
A02
100
AcDbEntity
  8
Wire083
100
AcDbCircle
 10
-468.477
 20
270.793
 40
3
  0
CIRCLE
  5
A8E
330
A02
100
AcDbEntity
  8
Wire084
100
AcDbCircle
 10
-451.527
 20
270.855
 40
3
  0
CIRCLE
  5
A8F
330
A02
100
AcDbEntity
  8
Wire085
100
AcDbCircle
 10
-434.578
 20
270.918
 40
3
  0
CIRCLE
  5
A90
330
A02
100
AcDbEntity
  8
Wire086
100
AcDbCircle
 10
-417.628
 20
270.98
 40
3
  0
CIRCLE
  5
A91
330
A02
100
AcDbEntity
  8
Wire087
100
AcDbCircle
 10
-400.678
 20
271.043
 40
3
  0
CIRCLE
  5
A92
330
A02
100
AcDbEntity
  8
Wire088
100
AcDbCircle
 10
-383.728
 20
271.105
 40
3
  0
CIRCLE
  5
A93
330
A02
100
AcDbEntity
  8
Wire089
100
AcDbCircle
 10
-366.778
 20
271.168
 40
3
  0
CIRCLE
  5
A94
330
A02
100
AcDbEntity
  8
Wire090
100
AcDbCircle
 10
-349.828
 20
271.23
 40
3
  0
CIRCLE
  5
A95
330
A02
100
AcDbEntity
  8
Wire091
100
AcDbCircle
 10
-332.878
 20
271.292
 40
3
  0
CIRCLE
  5
A96
330
A02
100
AcDbEntity
  8
Wire092
100
AcDbCircle
 10
-315.928
 20
271.355
 40
3
  0
CIRCLE
  5
A97
330
A02
100
AcDbEntity
  8
Wire093
100
AcDbCircle
 10
-298.978
 20
271.417
 40
3
  0
LINE
  5
A98
330
A02
100
AcDbEntity
  8
Wire094
100
AcDbLine
 10
-1278.46
 20
-193.45
 30
0
 11
-1278.46
 21
556.55
 31
0
  0
LINE
  5
A99
330
A02
100
AcDbEntity
  8
Wire094
100
AcDbLine
 10
-1278.46
 20
556.55
 30
0
 11
-978.456
 21
556.55
 31
0
  0
LINE
  5
A9A
330
A02
100
AcDbEntity
  8
Wire094
100
AcDbLine
 10
-978.456
 20
556.55
 30
0
 11
-978.456
 21
-193.45
 31
0
  0
LINE
  5
A9B
330
A02
100
AcDbEntity
  8
Wire094
100
AcDbLine
 10
-978.456
 20
-193.45
 30
0
 11
-1278.46
 21
-193.45
 31
0
  0
LINE
  5
A9C
330
A02
100
AcDbEntity
  8
Wire095
100
AcDbLine
 10
-1137.66
 20
519.75
 30
0
 11
-1119.26
 21
519.75
 31
0
  0
ARC
  5
A9D
330
A02
100
AcDbEntity
  8
Wire095
100
AcDbCircle
 10
-1119.26
 20
516.25
 30
0
 40
3.5
100
AcDbArc
 50
-90
 51
90
  0
LINE
  5
A9E
330
A02
100
AcDbEntity
  8
Wire095
100
AcDbLine
 10
-1119.26
 20
512.75
 30
0
 11
-1119.26
 21
-149.65
 31
0
  0
ARC
  5
A9F
330
A02
100
AcDbEntity
  8
Wire095
100
AcDbCircle
 10
-1119.26
 20
-153.15
 30
0
 40
3.5
100
AcDbArc
 50
-90
 51
90
  0
LINE
  5
AA0
330
A02
100
AcDbEntity
  8
Wire095
100
AcDbLine
 10
-1119.26
 20
-156.65
 30
0
 11
-1137.66
 21
-156.65
 31
0
  0
ARC
  5
AA1
330
A02
100
AcDbEntity
  8
Wire095
100
AcDbCircle
 10
-1137.66
 20
-153.15
 30
0
 40
3.5
100
AcDbArc
 50
90
 51
-90
  0
LINE
  5
AA2
330
A02
100
AcDbEntity
  8
Wire095
100
AcDbLine
 10
-1137.66
 20
-149.65
 30
0
 11
-1137.66
 21
512.75
 31
0
  0
ARC
  5
AA3
330
A02
100
AcDbEntity
  8
Wire095
100
AcDbCircle
 10
-1137.66
 20
516.25
 30
0
 40
3.5
100
AcDbArc
 50
90
 51
-90
  0
LINE
  5
AA4
330
A02
100
AcDbEntity
  8
Wire096
100
AcDbLine
 10
-400.239
 20
-354.418
 30
0
 11
-352.039
 21
-354.516
 31
0
  0
LINE
  5
AA5
330
A02
100
AcDbEntity
  8
Wire096
100
AcDbLine
 10
-352.039
 20
-354.516
 30
0
 11
-352.507
 21
-586.115
 31
0
  0
LINE
  5
AA6
330
A02
100
AcDbEntity
  8
Wire096
100
AcDbLine
 10
-352.507
 20
-586.115
 30
0
 11
-389.307
 21
-586.041
 31
0
  0
LINE
  5
AA7
330
A02
100
AcDbEntity
  8
Wire096
100
AcDbLine
 10
-389.307
 20
-586.041
 30
0
 11
-501.381
 21
-391.014
 31
0
  0
LINE
  5
AA8
330
A02
100
AcDbEntity
  8
Wire096
100
AcDbLine
 10
-501.381
 20
-391.014
 30
0
 11
-989.644
 21
-390.028
 31
0
  0
LINE
  5
AA9
330
A02
100
AcDbEntity
  8
Wire096
100
AcDbLine
 10
-989.644
 20
-390.028
 30
0
 11
-1102.51
 21
-584.6
 31
0
  0
LINE
  5
AAA
330
A02
100
AcDbEntity
  8
Wire096
100
AcDbLine
 10
-1102.51
 20
-584.6
 30
0
 11
-1139.31
 21
-584.526
 31
0
  0
LINE
  5
AAB
330
A02
100
AcDbEntity
  8
Wire096
100
AcDbLine
 10
-1139.31
 20
-584.526
 30
0
 11
-1138.84
 21
-352.926
 31
0
  0
LINE
  5
AAC
330
A02
100
AcDbEntity
  8
Wire096
100
AcDbLine
 10
-1138.84
 20
-352.926
 30
0
 11
-1090.64
 21
-353.024
 31
0
  0
ARC
  5
AAD
330
A02
100
AcDbEntity
  8
Wire096
100
AcDbCircle
 10
-1087.14
 20
-353.031
 30
0
 40
3.5
100
AcDbArc
 50
179.884
 51
-0.115738
  0
LINE
  5
AAE
330
A02
100
AcDbEntity
  8
Wire096
100
AcDbLine
 10
-1083.64
 20
-353.038
 30
0
 11
-1083.61
 21
-338.038
 31
0
  0
LINE
  5
AAF
330
A02
100
AcDbEntity
  8
Wire096
100
AcDbLine
 10
-1083.61
 20
-338.038
 30
0
 11
-407.209
 21
-339.404
 31
0
  0
LINE
  5
AB0
330
A02
100
AcDbEntity
  8
Wire096
100
AcDbLine
 10
-407.209
 20
-339.404
 30
0
 11
-407.239
 21
-354.404
 31
0
  0
ARC
  5
AB1
330
A02
100
AcDbEntity
  8
Wire096
100
AcDbCircle
 10
-403.739
 20
-354.411
 30
0
 40
3.5
100
AcDbArc
 50
179.884
 51
-0.115738
  0
LINE
  5
AB2
330
A02
100
AcDbEntity
  8
Wire097
100
AcDbLine
 10
-379.713
 20
-391.26
 30
0
 11
-361.313
 21
-391.297
 31
0
  0
LINE
  5
AB3
330
A02
100
AcDbEntity
  8
Wire097
100
AcDbLine
 10
-361.313
 20
-391.297
 30
0
 11
-361.276
 21
-372.897
 31
0
  0
LINE
  5
AB4
330
A02
100
AcDbEntity
  8
Wire097
100
AcDbLine
 10
-361.276
 20
-372.897
 30
0
 11
-379.676
 21
-372.86
 31
0
  0
LINE
  5
AB5
330
A02
100
AcDbEntity
  8
Wire097
100
AcDbLine
 10
-379.676
 20
-372.86
 30
0
 11
-379.713
 21
-391.26
 31
0
  0
LINE
  5
AB6
330
A02
100
AcDbEntity
  8
Wire098
100
AcDbLine
 10
-380.07
 20
-567.659
 30
0
 11
-361.67
 21
-567.697
 31
0
  0
LINE
  5
AB7
330
A02
100
AcDbEntity
  8
Wire098
100
AcDbLine
 10
-361.67
 20
-567.697
 30
0
 11
-361.633
 21
-549.297
 31
0
  0
LINE
  5
AB8
330
A02
100
AcDbEntity
  8
Wire098
100
AcDbLine
 10
-361.633
 20
-549.297
 30
0
 11
-380.033
 21
-549.26
 31
0
  0
LINE
  5
AB9
330
A02
100
AcDbEntity
  8
Wire098
100
AcDbLine
 10
-380.033
 20
-549.26
 30
0
 11
-380.07
 21
-567.659
 31
0
  0
LINE
  5
ABA
330
A02
100
AcDbEntity
  8
Wire099
100
AcDbLine
 10
-1130.07
 20
-566.144
 30
0
 11
-1111.67
 21
-566.182
 31
0
  0
LINE
  5
ABB
330
A02
100
AcDbEntity
  8
Wire099
100
AcDbLine
 10
-1111.67
 20
-566.182
 30
0
 11
-1111.63
 21
-547.782
 31
0
  0
LINE
  5
ABC
330
A02
100
AcDbEntity
  8
Wire099
100
AcDbLine
 10
-1111.63
 20
-547.782
 30
0
 11
-1130.03
 21
-547.745
 31
0
  0
LINE
  5
ABD
330
A02
100
AcDbEntity
  8
Wire099
100
AcDbLine
 10
-1130.03
 20
-547.745
 30
0
 11
-1130.07
 21
-566.144
 31
0
  0
LINE
  5
ABE
330
A02
100
AcDbEntity
  8
Wire100
100
AcDbLine
 10
-1129.71
 20
-389.745
 30
0
 11
-1111.31
 21
-389.782
 31
0
  0
LINE
  5
ABF
330
A02
100
AcDbEntity
  8
Wire100
100
AcDbLine
 10
-1111.31
 20
-389.782
 30
0
 11
-1111.27
 21
-371.382
 31
0
  0
LINE
  5
AC0
330
A02
100
AcDbEntity
  8
Wire100
100
AcDbLine
 10
-1111.27
 20
-371.382
 30
0
 11
-1129.67
 21
-371.345
 31
0
  0
LINE
  5
AC1
330
A02
100
AcDbEntity
  8
Wire100
100
AcDbLine
 10
-1129.67
 20
-371.345
 30
0
 11
-1129.71
 21
-389.745
 31
0
  0
ENDSEC
  0
SECTION
  2
OBJECTS
  0
DICTIONARY
  5
F000
330
0
100
AcDbDictionary
  3
ACAD_GROUP
350
F001
  0
DICTIONARY
  5
F001
330
F000
100
AcDbDictionary
  0
ENDSEC
  0
EOF