  0
SECTION
  2
HEADER
  9
$ACADVER
  1
AC1009
  9
$DWGCODEPAGE
  3
ansi_1252
  9
$INSBASE
 10
0.0
 20
0.0
 30
0.0
  9
$EXTMIN
 10
42.83786486933803
 20
23.96300637132617
 30
0.0
  9
$EXTMAX
 10
385.8940719673191
 20
254.1644752045016
 30
0.0
  9
$LIMMIN
 10
0.0
 20
0.0
  9
$LIMMAX
 10
12.0
 20
9.0
  9
$ORTHOMODE
 70
     0
  9
$REGENMODE
 70
     1
  9
$FILLMODE
 70
     1
  9
$QTEXTMODE
 70
     0
  9
$MIRRTEXT
 70
     1
  9
$DRAGMODE
 70
     2
  9
$LTSCALE
 40
1.0
  9
$OSMODE
 70
    37
  9
$ATTMODE
 70
     1
  9
$TEXTSIZE
 40
0.2
  9
$TRACEWID
 40
0.05
  9
$TEXTSTYLE
  7
STANDARD
  9
$CLAYER
  8
0
  9
$CELTYPE
  6
BYLAYER
  9
$CECOLOR
 62
   256
  9
$DIMSCALE
 40
1.0
  9
$DIMASZ
 40
0.18
  9
$DIMEXO
 40
0.0625
  9
$DIMDLI
 40
0.38
  9
$DIMRND
 40
0.0
  9
$DIMDLE
 40
0.0
  9
$DIMEXE
 40
0.18
  9
$DIMTP
 40
0.0
  9
$DIMTM
 40
0.0
  9
$DIMTXT
 40
0.18
  9
$DIMCEN
 40
0.09
  9
$DIMTSZ
 40
0.0
  9
$DIMTOL
 70
     0
  9
$DIMLIM
 70
     0
  9
$DIMTIH
 70
     1
  9
$DIMTOH
 70
     1
  9
$DIMSE1
 70
     0
  9
$DIMSE2
 70
     0
  9
$DIMTAD
 70
     0
  9
$DIMZIN
 70
     0
  9
$DIMBLK
  1

  9
$DIMASO
 70
     1
  9
$DIMSHO
 70
     1
  9
$DIMPOST
  1

  9
$DIMAPOST
  1

  9
$DIMALT
 70
     0
  9
$DIMALTD
 70
     2
  9
$DIMALTF
 40
25.4
  9
$DIMLFAC
 40
1.0
  9
$DIMTOFL
 70
     0
  9
$DIMTVP
 40
0.0
  9
$DIMTIX
 70
     0
  9
$DIMSOXD
 70
     0
  9
$DIMSAH
 70
     0
  9
$DIMBLK1
  1

  9
$DIMBLK2
  1

  9
$DIMSTYLE
  2
STANDARD
  9
$DIMCLRD
 70
     0
  9
$DIMCLRE
 70
     0
  9
$DIMCLRT
 70
     0
  9
$DIMTFAC
 40
1.0
  9
$DIMGAP
 40
0.09
  9
$LUNITS
 70
     2
  9
$LUPREC
 70
     4
  9
$SKETCHINC
 40
0.1
  9
$FILLETRAD
 40
0.5
  9
$AUNITS
 70
     0
  9
$AUPREC
 70
     0
  9
$MENU
  1
.
  9
$ELEVATION
 40
0.0
  9
$PELEVATION
 40
0.0
  9
$THICKNESS
 40
0.0
  9
$LIMCHECK
 70
     0
  9
$CHAMFERA
 40
0.0
  9
$CHAMFERB
 40
0.0
  9
$SKPOLY
 70
     0
  9
$TDCREATE
 40
2454910.5
  9
$TDUPDATE
 40
2459289.781857766
  9
$TDINDWG
 40
0.0000000116
  9
$TDUSRTIMER
 40
0.0000000116
  9
$USRTIMER
 70
     1
  9
$ANGBASE
 50
0.0
  9
$ANGDIR
 70
     0
  9
$PDMODE
 70
     0
  9
$PDSIZE
 40
0.0
  9
$PLINEWID
 40
0.0
  9
$COORDS
 70
     1
  9
$SPLFRAME
 70
     0
  9
$SPLINETYPE
 70
     6
  9
$SPLINESEGS
 70
     8
  9
$ATTDIA
 70
     0
  9
$ATTREQ
 70
     1
  9
$HANDLING
 70
     1
  9
$HANDSEED
  5
661
  9
$SURFTAB1
 70
     6
  9
$SURFTAB2
 70
     6
  9
$SURFTYPE
 70
     6
  9
$SURFU
 70
     6
  9
$SURFV
 70
     6
  9
$UCSNAME
  2

  9
$UCSORG
 10
0.0
 20
0.0
 30
0.0
  9
$UCSXDIR
 10
1.0
 20
0.0
 30
0.0
  9
$UCSYDIR
 10
0.0
 20
1.0
 30
0.0
  9
$PUCSNAME
  2

  9
$PUCSORG
 10
0.0
 20
0.0
 30
0.0
  9
$PUCSXDIR
 10
1.0
 20
0.0
 30
0.0
  9
$PUCSYDIR
 10
0.0
 20
1.0
 30
0.0
  9
$USERI1
 70
     0
  9
$USERI2
 70
     0
  9
$USERI3
 70
     0
  9
$USERI4
 70
     0
  9
$USERI5
 70
     0
  9
$USERR1
 40
0.0
  9
$USERR2
 40
0.0
  9
$USERR3
 40
0.0
  9
$USERR4
 40
0.0
  9
$USERR5
 40
0.0
  9
$WORLDVIEW
 70
     1
  9
$SHADEDGE
 70
     3
  9
$SHADEDIF
 70
    70
  9
$TILEMODE
 70
     1
  9
$MAXACTVP
 70
    64
  9
$PLIMCHECK
 70
     0
  9
$PEXTMIN
 10
1.000000000000000E+20
 20
1.000000000000000E+20
 30
1.000000000000000E+20
  9
$PEXTMAX
 10
-1.000000000000000E+20
 20
-1.000000000000000E+20
 30
-1.000000000000000E+20
  9
$PLIMMIN
 10
0.0
 20
0.0
  9
$PLIMMAX
 10
12.0
 20
9.0
  9
$UNITMODE
 70
     0
  9
$VISRETAIN
 70
     1
  9
$PLINEGEN
 70
     0
  9
$PSLTSCALE
 70
     1
  0
ENDSEC
  0
SECTION
  2
TABLES
  0
TABLE
  2
VPORT
 70
     1
  0
VPORT
  2
*ACTIVE
 70
     0
 10
0.0
 20
0.0
 11
1.0
 21
1.0
 12
10.42990654205607
 22
4.5
 13
0.0
 23
0.0
 14
0.5
 24
0.5
 15
0.5
 25
0.5
 16
0.0
 26
0.0
 36
1.0
 17
0.0
 27
0.0
 37
0.0
 40
9.0
 41
1.972972972850329
 42
50.0
 43
0.0
 44
0.0
 50
0.0
 51
0.0
 71
     0
 72
   100
 73
     1
 74
     3
 75
     0
 76
     0
 77
     0
 78
     0
  0
ENDTAB
  0
TABLE
  2
LTYPE
 70
     2
  0
LTYPE
  2
CONTINUOUS
 70
     0
  3
Solid line
 72
    65
 73
     0
 40
0.0
  0
LTYPE
  2
CONTINUOUS2
 70
     0
  3
Solid Line
 72
    65
 73
     0
 40
0.0
  0
ENDTAB
  0
TABLE
  2
LAYER
 70
     1
  0
LAYER
  2
0
 70
     0
 62
     7
  6
CONTINUOUS
  0
ENDTAB
  0
TABLE
  2
STYLE
 70
     1
  0
STYLE
  2
STANDARD
 70
     0
 40
0.0
 41
1.0
 50
0.0
 71
     0
 42
0.2
  3
txt
  4

  0
ENDTAB
  0
TABLE
  2
VIEW
 70
     0
  0
ENDTAB
  0
TABLE
  2
UCS
 70
     0
  0
ENDTAB
  0
TABLE
  2
APPID
 70
     1
  0
APPID
  2
ACAD
 70
     0
  0
ENDTAB
  0
TABLE
  2
DIMSTYLE
 70
     1
  0
DIMSTYLE
  2
STANDARD
 70
     0
  3

  4

  5

  6

  7

 40
1.0
 41
0.18
 42
0.0625
 43
0.38
 44
0.18
 45
0.0
 46
0.0
 47
0.0
 48
0.0
140
0.18
141
0.09
142
0.0
143
25.4
144
1.0
145
0.0
146
1.0
147
0.09
 71
     0
 72
     0
 73
     1
 74
     1
 75
     0
 76
     0
 77
     0
 78
     0
170
     0
171
     2
172
     0
173
     0
174
     0
175
     0
176
     0
177
     0
178
     0
  0
ENDTAB
  0
ENDSEC
  0
SECTION
  2
BLOCKS
  0
BLOCK
  8
0
  2
$MODEL_SPACE
 70
     0
 10
0.0
 20
0.0
 30
0.0
  3
$MODEL_SPACE
  1

  0
ENDBLK
  5
21
  8
0
  0
BLOCK
 67
     1
  8
0
  2
$PAPER_SPACE
 70
     0
 10
0.0
 20
0.0
 30
0.0
  3
$PAPER_SPACE
  1

  0
ENDBLK
  5
1D
 67
     1
  8
0
  0
ENDSEC
  0
SECTION
  2
ENTITIES
  0
POLYLINE
  5
6F
  8
0
 66
     1
 10
0.0
 20
0.0
 30
0.0
 70
     1
  0
VERTEX
  5
97
  8
0
 10
175.9459466567606
 20
101.3570304831078
 30
0.0
 42
-0.9999999999999999
  0
VERTEX
  5
98
  8
0
 10
169.5959466567606
 20
101.3570304831078
 30
0.0
  0
VERTEX
  5
99
  8
0
 10
163.8459466567606
 20
101.3570304831078
 30
0.0
  0
VERTEX
  5
9A
  8
0
 10
163.8459466567606
 20
51.35703048310779
 30
0.0
  0
VERTEX
  5
9B
  8
0
 10
169.5959466567625
 20
51.3570304831078
 30
0.0
 42
-0.9999999999999999
  0
VERTEX
  5
9C
  8
0
 10
175.9459466567625
 20
51.35703048310778
 30
0.0
  0
VERTEX
  5
9D
  8
0
 10
175.9459466567629
 20
39.25703048310778
 30
0.0
  0
VERTEX
  5
9E
  8
0
 10
250.1459466567606
 20
39.25703048310778
 30
0.0
  0
VERTEX
  5
9F
  8
0
 10
250.1459466567606
 20
51.35703048310778
 30
0.0
  0
VERTEX
  5
A0
  8
0
 10
238.0459466567606
 20
51.35703048310778
 30
0.0
 42
-0.9999999999999999
  0
VERTEX
  5
A1
  8
0
 10
238.0459466567606
 20
57.70703048310779
 30
0.0
  0
VERTEX
  5
A2
  8
0
 10
238.0459466567606
 20
101.3570304831077
 30
0.0
  0
VERTEX
  5
A3
  8
0
 10
232.2959466567606
 20
101.3570304831077
 30
0.0
 42
-0.9999999999999999
  0
VERTEX
  5
A4
  8
0
 10
225.9459466567606
 20
101.3570304831077
 30
0.0
  0
VERTEX
  5
A5
  8
0
 10
225.9459466567606
 20
113.4570304831078
 30
0.0
  0
VERTEX
  5
A6
  8
0
 10
175.9459466567606
 20
113.4570304831078
 30
0.0
  0
SEQEND
  5
640
  8
0
  0
POLYLINE
  5
70
  8
0
 66
     1
 10
0.0
 20
0.0
 30
0.0
 70
     1
  0
VERTEX
  5
A7
  8
0
 10
201.2459466567606
 20
51.35703048310776
 30
0.0
 42
-0.9999999999999999
  0
VERTEX
  5
A8
  8
0
 10
194.8959466567606
 20
51.35703048310778
 30
0.0
  0
VERTEX
  5
A9
  8
0
 10
194.8959466567607
 20
63.45703048310779
 30
0.0
 42
-0.9999999999999999
  0
VERTEX
  5
AA
  8
0
 10
201.2459466567606
 20
63.45703048310779
 30
0.0
  0
VERTEX
  5
AB
  8
0
 10
212.7459466567606
 20
63.45703048310779
 30
0.0
 42
-0.9999999999999999
  0
VERTEX
  5
AC
  8
0
 10
219.0959466567606
 20
63.45703048310779
 30
0.0
  0
VERTEX
  5
AD
  8
0
 10
219.0959466567606
 20
51.35703048310776
 30
0.0
 42
-0.9999999999999999
  0
VERTEX
  5
AE
  8
0
 10
212.7459466567606
 20
51.35703048310778
 30
0.0
  0
SEQEND
  5
641
  8
0
  0
POLYLINE
  5
71
  8
0
 66
     1
 10
0.0
 20
0.0
 30
0.0
 70
     1
  0
VERTEX
  5
AF
  8
0
 10
212.7459466567606
 20
91.78164648310774
 30
0.0
 42
-0.9999999999999999
  0
VERTEX
  5
B0
  8
0
 10
219.0959466567606
 20
91.78164648310774
 30
0.0
  0
VERTEX
  5
B1
  8
0
 10
219.0959466567606
 20
79.68164648310774
 30
0.0
 42
-0.9999999999999999
  0
VERTEX
  5
B2
  8
0
 10
212.7459466567606
 20
79.68164648310774
 30
0.0
  0
VERTEX
  5
B3
  8
0
 10
189.1459466567607
 20
79.68164648310776
 30
0.0
 42
-0.9999999999999999
  0
VERTEX
  5
B4
  8
0
 10
182.7959466567606
 20
79.68164648310774
 30
0.0
  0
VERTEX
  5
B5
  8
0
 10
182.7959466567606
 20
91.78164648310772
 30
0.0
 42
-0.9999999999999999
  0
VERTEX
  5
B6
  8
0
 10
189.1459466567606
 20
91.78164648310774
 30
0.0
  0
SEQEND
  5
642
  8
0
  0
POLYLINE
  5
72
  8
0
 66
     1
 10
0.0
 20
0.0
 30
0.0
 70
     1
  0
VERTEX
  5
B7
  8
0
 10
61.28786486933842
 20
122.3630063713262
 30
0.0
 42
-0.9999999999999999
  0
VERTEX
  5
B8
  8
0
 10
54.93786486933843
 20
122.3630063713262
 30
0.0
  0
VERTEX
  5
B9
  8
0
 10
54.93786486933843
 20
134.4630063713262
 30
0.0
  0
VERTEX
  5
BA
  8
0
 10
42.83786486933843
 20
134.4630063713262
 30
0.0
  0
VERTEX
  5
BB
  8
0
 10
42.83786486933803
 20
23.96300637132617
 30
0.0
  0
VERTEX
  5
BC
  8
0
 10
129.1378648693384
 20
23.96300637132617
 30
0.0
  0
VERTEX
  5
BD
  8
0
 10
129.1378648693384
 20
60.26300637132618
 30
0.0
  0
VERTEX
  5
BE
  8
0
 10
117.0378648693384
 20
60.26300637132618
 30
0.0
 42
-0.9999999999999999
  0
VERTEX
  5
BF
  8
0
 10
117.0378648693384
 20
66.6130063713262
 30
0.0
  0
VERTEX
  5
C0
  8
0
 10
117.0378648693384
 20
103.9130063713262
 30
0.0
 42
-0.9999999999999999
  0
VERTEX
  5
C1
  8
0
 10
117.0378648693384
 20
110.2630063713262
 30
0.0
  0
VERTEX
  5
C2
  8
0
 10
129.1378648693384
 20
110.2630063713262
 30
0.0
  0
VERTEX
  5
C3
  8
0
 10
129.1378648693384
 20
134.4630063713262
 30
0.0
  0
VERTEX
  5
C4
  8
0
 10
104.9378648693384
 20
134.4630063713262
 30
0.0
  0
VERTEX
  5
C5
  8
0
 10
104.9378648693384
 20
122.3630063713262
 30
0.0
 42
-0.9999999999999999
  0
VERTEX
  5
C6
  8
0
 10
98.5878648693384
 20
122.3630063713262
 30
0.0
  0
SEQEND
  5
643
  8
0
  0
POLYLINE
  5
73
  8
0
 66
     1
 10
0.0
 20
0.0
 30
0.0
 70
     1
  0
VERTEX
  5
C7
  8
0
 10
98.08786486933838
 20
91.31300637132615
 30
0.0
 42
-0.9999999999999999
  0
VERTEX
  5
C8
  8
0
 10
98.08786486933843
 20
84.96300637132614
 30
0.0
  0
VERTEX
  5
C9
  8
0
 10
98.08786486933843
 20
79.21300637132617
 30
0.0
 42
-0.9999999999999999
  0
VERTEX
  5
CA
  8
0
 10
91.73786486933841
 20
79.21300637132616
 30
0.0
  0
VERTEX
  5
CB
  8
0
 10
85.98786486933844
 20
79.21300637132614
 30
0.0
 42
-0.9999999999999999
  0
VERTEX
  5
CC
  8
0
 10
85.98786486933844
 20
85.56300637132617
 30
0.0
  0
VERTEX
  5
CD
  8
0
 10
85.98786486933844
 20
91.31300637132617
 30
0.0
 42
-0.9999999999999999
  0
VERTEX
  5
CE
  8
0
 10
92.33786486933843
 20
91.31300637132615
 30
0.0
  0
SEQEND
  5
644
  8
0
  0
POLYLINE
  5
74
  8
0
 66
     1
 10
0.0
 20
0.0
 30
0.0
 70
     1
  0
VERTEX
  5
CF
  8
0
 10
110.9878648693382
 20
36.0630063713262
 30
0.0
 42
-0.9999999999999999
  0
VERTEX
  5
D0
  8
0
 10
104.6378648693382
 20
36.06300637132618
 30
0.0
  0
VERTEX
  5
D1
  8
0
 10
67.3378648693382
 20
36.06300637132615
 30
0.0
 42
-0.9999999999999999
  0
VERTEX
  5
D2
  8
0
 10
60.98786486933821
 20
36.06300637132618
 30
0.0
  0
VERTEX
  5
D3
  8
0
 10
60.98786486933824
 20
48.16300637132615
 30
0.0
 42
-0.9999999999999999
  0
VERTEX
  5
D4
  8
0
 10
67.33786486933823
 20
48.16300637132618
 30
0.0
  0
VERTEX
  5
D5
  8
0
 10
104.6378648693382
 20
48.16300637132617
 30
0.0
 42
-0.9999999999999999
  0
VERTEX
  5
D6
  8
0
 10
110.9878648693382
 20
48.16300637132618
 30
0.0
  0
SEQEND
  5
645
  8
0
  0
POLYLINE
  5
75
  8
0
 66
     1
 10
0.0
 20
0.0
 30
0.0
 70
     1
  0
VERTEX
  5
D7
  8
0
 10
54.93786486933843
 20
60.26300637132618
 30
0.0
 42
-0.9999999999999999
  0
VERTEX
  5
D8
  8
0
 10
54.93786486933843
 20
66.61300637132616
 30
0.0
  0
VERTEX
  5
D9
  8
0
 10
54.93786486933843
 20
103.9130063713262
 30
0.0
 42
-0.9999999999999999
  0
VERTEX
  5
DA
  8
0
 10
54.93786486933843
 20
110.2630063713262
 30
0.0
  0
VERTEX
  5
DB
  8
0
 10
67.03786486933842
 20
110.2630063713262
 30
0.0
 42
-0.9999999999999999
  0
VERTEX
  5
DC
  8
0
 10
67.03786486933842
 20
103.9130063713262
 30
0.0
  0
VERTEX
  5
DD
  8
0
 10
67.03786486933842
 20
66.61300637132618
 30
0.0
 42
-0.9999999999999999
  0
VERTEX
  5
DE
  8
0
 10
67.03786486933842
 20
60.26300637132619
 30
0.0
  0
SEQEND
  5
646
  8
0
  0
POLYLINE
  5
76
  8
0
 66
     1
 10
0.0
 20
0.0
 30
0.0
 70
     1
  0
VERTEX
  5
DF
  8
0
 10
117.7444426453921
 20
176.4762650462083
 30
0.0
 42
-0.9999999999999999
  0
VERTEX
  5
E0
  8
0
 10
124.0944426453921
 20
176.4762650462083
 30
0.0
  0
VERTEX
  5
E1
  8
0
 10
129.9444426453921
 20
176.4762650462083
 30
0.0
  0
VERTEX
  5
E2
  8
0
 10
129.9444426453921
 20
226.4762650462083
 30
0.0
  0
VERTEX
  5
E3
  8
0
 10
124.0944426453903
 20
226.4762650462083
 30
0.0
 42
-0.9999999999999999
  0
VERTEX
  5
E4
  8
0
 10
117.7444426453903
 20
226.4762650462083
 30
0.0
  0
VERTEX
  5
E5
  8
0
 10
117.7444426453898
 20
238.6762650462083
 30
0.0
  0
VERTEX
  5
E6
  8
0
 10
43.34444264539209
 20
238.6762650462084
 30
0.0
  0
VERTEX
  5
E7
  8
0
 10
43.34444264539209
 20
226.4762650462084
 30
0.0
  0
VERTEX
  5
E8
  8
0
 10
55.54444264539208
 20
226.4762650462084
 30
0.0
 42
-0.9999999999999999
  0
VERTEX
  5
E9
  8
0
 10
55.54444264539208
 20
220.1262650462084
 30
0.0
  0
VERTEX
  5
EA
  8
0
 10
55.54444264539208
 20
176.4762650462084
 30
0.0
  0
VERTEX
  5
EB
  8
0
 10
61.3944426453921
 20
176.4762650462084
 30
0.0
 42
-0.9999999999999999
  0
VERTEX
  5
EC
  8
0
 10
67.74444264539207
 20
176.4762650462084
 30
0.0
  0
VERTEX
  5
ED
  8
0
 10
67.74444264539207
 20
164.2762650462084
 30
0.0
  0
VERTEX
  5
EE
  8
0
 10
117.7444426453921
 20
164.2762650462083
 30
0.0
  0
SEQEND
  5
647
  8
0
  0
POLYLINE
  5
77
  8
0
 66
     1
 10
0.0
 20
0.0
 30
0.0
 70
     1
  0
VERTEX
  5
EF
  8
0
 10
92.4944426453921
 20
226.4762650462084
 30
0.0
 42
-0.9999999999999999
  0
VERTEX
  5
F0
  8
0
 10
98.84444264539212
 20
226.4762650462083
 30
0.0
  0
VERTEX
  5
F1
  8
0
 10
98.84444264539209
 20
214.2762650462083
 30
0.0
 42
-0.9999999999999999
  0
VERTEX
  5
F2
  8
0
 10
92.4944426453921
 20
214.2762650462084
 30
0.0
  0
VERTEX
  5
F3
  8
0
 10
80.79444264539211
 20
214.2762650462084
 30
0.0
 42
-0.9999999999999999
  0
VERTEX
  5
F4
  8
0
 10
74.44444264539212
 20
214.2762650462084
 30
0.0
  0
VERTEX
  5
F5
  8
0
 10
74.44444264539212
 20
226.4762650462084
 30
0.0
 42
-0.9999999999999999
  0
VERTEX
  5
F6
  8
0
 10
80.79444264539211
 20
226.4762650462084
 30
0.0
  0
SEQEND
  5
648
  8
0
  0
POLYLINE
  5
78
  8
0
 66
     1
 10
0.0
 20
0.0
 30
0.0
 70
     1
  0
VERTEX
  5
F7
  8
0
 10
80.79444264539211
 20
186.0516490462084
 30
0.0
 42
-0.9999999999999999
  0
VERTEX
  5
F8
  8
0
 10
74.44444264539212
 20
186.0516490462084
 30
0.0
  0
VERTEX
  5
F9
  8
0
 10
74.44444264539212
 20
198.2516490462084
 30
0.0
 42
-0.9999999999999999
  0
VERTEX
  5
FA
  8
0
 10
80.79444264539211
 20
198.2516490462084
 30
0.0
  0
VERTEX
  5
FB
  8
0
 10
104.6944426453921
 20
198.2516490462084
 30
0.0
 42
-0.9999999999999999
  0
VERTEX
  5
FC
  8
0
 10
111.0444426453921
 20
198.2516490462083
 30
0.0
  0
VERTEX
  5
FD
  8
0
 10
111.0444426453921
 20
186.0516490462084
 30
0.0
 42
-0.9999999999999999
  0
VERTEX
  5
FE
  8
0
 10
104.6944426453921
 20
186.0516490462084
 30
0.0
  0
SEQEND
  5
649
  8
0
  0
POLYLINE
  5
79
  8
0
 66
     1
 10
0.0
 20
0.0
 30
0.0
 70
     1
  0
VERTEX
  5
FF
  8
0
 10
232.3708171157412
 20
155.3644752045016
 30
0.0
 42
-0.9999999999999999
  0
VERTEX
  5
100
  8
0
 10
238.7208171157412
 20
155.3644752045016
 30
0.0
  0
VERTEX
  5
101
  8
0
 10
238.7208171157411
 20
143.1644752045016
 30
0.0
  0
VERTEX
  5
102
  8
0
 10
250.9208171157411
 20
143.1644752045016
 30
0.0
  0
VERTEX
  5
103
  8
0
 10
250.9208171157415
 20
254.1644752045016
 30
0.0
  0
VERTEX
  5
104
  8
0
 10
164.3208171157411
 20
254.1644752045016
 30
0.0
  0
VERTEX
  5
105
  8
0
 10
164.3208171157411
 20
217.5644752045015
 30
0.0
  0
VERTEX
  5
106
  8
0
 10
176.5208171157411
 20
217.5644752045016
 30
0.0
 42
-0.9999999999999999
  0
VERTEX
  5
107
  8
0
 10
176.5208171157412
 20
211.2144752045016
 30
0.0
  0
VERTEX
  5
108
  8
0
 10
176.5208171157411
 20
173.9144752045016
 30
0.0
 42
-0.9999999999999999
  0
VERTEX
  5
109
  8
0
 10
176.5208171157412
 20
167.5644752045015
 30
0.0
  0
VERTEX
  5
10A
  8
0
 10
164.3208171157411
 20
167.5644752045015
 30
0.0
  0
VERTEX
  5
10B
  8
0
 10
164.3208171157411
 20
143.1644752045016
 30
0.0
  0
VERTEX
  5
10C
  8
0
 10
188.7208171157411
 20
143.1644752045016
 30
0.0
  0
VERTEX
  5
10D
  8
0
 10
188.7208171157411
 20
155.3644752045016
 30
0.0
 42
-0.9999999999999999
  0
VERTEX
  5
10E
  8
0
 10
195.0708171157412
 20
155.3644752045016
 30
0.0
  0
SEQEND
  5
64A
  8
0
  0
POLYLINE
  5
7A
  8
0
 66
     1
 10
0.0
 20
0.0
 30
0.0
 70
     1
  0
VERTEX
  5
10F
  8
0
 10
195.4208171157412
 20
186.4644752045016
 30
0.0
 42
-0.9999999999999999
  0
VERTEX
  5
110
  8
0
 10
195.4208171157412
 20
192.8144752045016
 30
0.0
  0
VERTEX
  5
111
  8
0
 10
195.4208171157412
 20
198.6644752045016
 30
0.0
 42
-0.9999999999999999
  0
VERTEX
  5
112
  8
0
 10
201.7708171157412
 20
198.6644752045016
 30
0.0
  0
VERTEX
  5
113
  8
0
 10
207.6208171157411
 20
198.6644752045016
 30
0.0
 42
-0.9999999999999999
  0
VERTEX
  5
114
  8
0
 10
207.6208171157411
 20
192.3144752045016
 30
0.0
  0
VERTEX
  5
115
  8
0
 10
207.6208171157411
 20
186.4644752045016
 30
0.0
 42
-0.9999999999999999
  0
VERTEX
  5
116
  8
0
 10
201.2708171157412
 20
186.4644752045016
 30
0.0
  0
SEQEND
  5
64B
  8
0
  0
POLYLINE
  5
7B
  8
0
 66
     1
 10
0.0
 20
0.0
 30
0.0
 70
     1
  0
VERTEX
  5
117
  8
0
 10
182.6208171157413
 20
241.9644752045016
 30
0.0
 42
-0.9999999999999999
  0
VERTEX
  5
118
  8
0
 10
188.9708171157413
 20
241.9644752045016
 30
0.0
  0
VERTEX
  5
119
  8
0
 10
226.2708171157413
 20
241.9644752045016
 30
0.0
 42
-0.9999999999999999
  0
VERTEX
  5
11A
  8
0
 10
232.6208171157413
 20
241.9644752045016
 30
0.0
  0
VERTEX
  5
11B
  8
0
 10
232.6208171157413
 20
229.7644752045015
 30
0.0
 42
-0.9999999999999999
  0
VERTEX
  5
11C
  8
0
 10
226.2708171157413
 20
229.7644752045016
 30
0.0
  0
VERTEX
  5
11D
  8
0
 10
188.9708171157413
 20
229.7644752045015
 30
0.0
 42
-0.9999999999999999
  0
VERTEX
  5
11E
  8
0
 10
182.6208171157413
 20
229.7644752045016
 30
0.0
  0
SEQEND
  5
64C
  8
0
  0
POLYLINE
  5
7C
  8
0
 66
     1
 10
0.0
 20
0.0
 30
0.0
 70
     1
  0
VERTEX
  5
11F
  8
0
 10
238.7208171157411
 20
217.5644752045015
 30
0.0
 42
-0.9999999999999999
  0
VERTEX
  5
120
  8
0
 10
238.7208171157411
 20
211.2144752045016
 30
0.0
  0
VERTEX
  5
121
  8
0
 10
238.7208171157411
 20
173.9144752045016
 30
0.0
 42
-0.9999999999999999
  0
VERTEX
  5
122
  8
0
 10
238.7208171157411
 20
167.5644752045016
 30
0.0
  0
VERTEX
  5
123
  8
0
 10
226.5208171157412
 20
167.5644752045016
 30
0.0
 42
-0.9999999999999999
  0
VERTEX
  5
124
  8
0
 10
226.5208171157412
 20
173.9144752045016
 30
0.0
  0
VERTEX
  5
125
  8
0
 10
226.5208171157412
 20
211.2144752045016
 30
0.0
 42
-0.9999999999999999
  0
VERTEX
  5
126
  8
0
 10
226.5208171157412
 20
217.5644752045015
 30
0.0
  0
SEQEND
  5
64D
  8
0
  0
POLYLINE
  5
7D
  8
0
 66
     1
 10
0.0
 20
0.0
 30
0.0
 70
     1
  0
VERTEX
  5
127
  8
0
 10
301.6022111912116
 20
152.0144472926994
 30
0.0
 42
-0.9999999999999999
  0
VERTEX
  5
128
  8
0
 10
301.6022111912116
 20
145.6644472926995
 30
0.0
  0
VERTEX
  5
129
  8
0
 10
301.6022111912116
 20
139.7144472926994
 30
0.0
  0
VERTEX
  5
12A
  8
0
 10
351.6022111912116
 20
139.7144472926994
 30
0.0
  0
VERTEX
  5
12B
  8
0
 10
351.6022111912116
 20
145.6644472927013
 30
0.0
 42
-0.9999999999999999
  0
VERTEX
  5
12C
  8
0
 10
351.6022111912116
 20
152.0144472927012
 30
0.0
  0
VERTEX
  5
12D
  8
0
 10
363.9022111912115
 20
152.0144472927017
 30
0.0
  0
VERTEX
  5
12E
  8
0
 10
363.9022111912115
 20
226.6144472926994
 30
0.0
  0
VERTEX
  5
12F
  8
0
 10
351.6022111912116
 20
226.6144472926994
 30
0.0
  0
VERTEX
  5
130
  8
0
 10
351.6022111912116
 20
214.3144472926994
 30
0.0
 42
-0.9999999999999999
  0
VERTEX
  5
131
  8
0
 10
345.2522111912115
 20
214.3144472926994
 30
0.0
  0
VERTEX
  5
132
  8
0
 10
301.6022111912116
 20
214.3144472926994
 30
0.0
  0
VERTEX
  5
133
  8
0
 10
301.6022111912116
 20
208.3644472926994
 30
0.0
 42
-0.9999999999999999
  0
VERTEX
  5
134
  8
0
 10
301.6022111912116
 20
202.0144472926995
 30
0.0
  0
VERTEX
  5
135
  8
0
 10
289.3022111912115
 20
202.0144472926995
 30
0.0
  0
VERTEX
  5
136
  8
0
 10
289.3022111912115
 20
152.0144472926994
 30
0.0
  0
SEQEND
  5
64E
  8
0
  0
POLYLINE
  5
7E
  8
0
 66
     1
 10
0.0
 20
0.0
 30
0.0
 70
     1
  0
VERTEX
  5
137
  8
0
 10
351.6022111912116
 20
177.2144472926994
 30
0.0
 42
-0.9999999999999999
  0
VERTEX
  5
138
  8
0
 10
351.6022111912116
 20
170.8644472926994
 30
0.0
  0
VERTEX
  5
139
  8
0
 10
339.3022111912115
 20
170.8644472926994
 30
0.0
 42
-0.9999999999999999
  0
VERTEX
  5
13A
  8
0
 10
339.3022111912115
 20
177.2144472926994
 30
0.0
  0
VERTEX
  5
13B
  8
0
 10
339.3022111912115
 20
189.1144472926994
 30
0.0
 42
-0.9999999999999999
  0
VERTEX
  5
13C
  8
0
 10
339.3022111912115
 20
195.4644472926994
 30
0.0
  0
VERTEX
  5
13D
  8
0
 10
351.6022111912116
 20
195.4644472926994
 30
0.0
 42
-0.9999999999999999
  0
VERTEX
  5
13E
  8
0
 10
351.6022111912116
 20
189.1144472926994
 30
0.0
  0
SEQEND
  5
64F
  8
0
  0
POLYLINE
  5
7F
  8
0
 66
     1
 10
0.0
 20
0.0
 30
0.0
 70
     1
  0
VERTEX
  5
13F
  8
0
 10
311.1775951912115
 20
189.1144472926994
 30
0.0
 42
-0.9999999999999999
  0
VERTEX
  5
140
  8
0
 10
311.1775951912115
 20
195.4644472926994
 30
0.0
  0
VERTEX
  5
141
  8
0
 10
323.4775951912116
 20
195.4644472926994
 30
0.0
 42
-0.9999999999999999
  0
VERTEX
  5
142
  8
0
 10
323.4775951912116
 20
189.1144472926994
 30
0.0
  0
VERTEX
  5
143
  8
0
 10
323.4775951912116
 20
164.9144472926994
 30
0.0
 42
-0.9999999999999999
  0
VERTEX
  5
144
  8
0
 10
323.4775951912116
 20
158.5644472926994
 30
0.0
  0
VERTEX
  5
145
  8
0
 10
311.1775951912115
 20
158.5644472926994
 30
0.0
 42
-0.9999999999999999
  0
VERTEX
  5
146
  8
0
 10
311.1775951912115
 20
164.9144472926994
 30
0.0
  0
SEQEND
  5
650
  8
0
  0
POLYLINE
  5
80
  8
0
 66
     1
 10
0.0
 20
0.0
 30
0.0
 70
     1
  0
VERTEX
  5
147
  8
0
 10
286.6940719673191
 20
46.88397699637761
 30
0.0
 42
-0.9999999999999999
  0
VERTEX
  5
148
  8
0
 10
286.6940719673192
 20
40.53397699637765
 30
0.0
  0
VERTEX
  5
149
  8
0
 10
274.3940719673191
 20
40.53397699637765
 30
0.0
  0
VERTEX
  5
14A
  8
0
 10
274.3940719673191
 20
28.23397699637763
 30
0.0
  0
VERTEX
  5
14B
  8
0
 10
385.8940719673191
 20
28.23397699637724
 30
0.0
  0
VERTEX
  5
14C
  8
0
 10
385.8940719673191
 20
115.1339769963777
 30
0.0
  0
VERTEX
  5
14D
  8
0
 10
348.9940719673191
 20
115.1339769963777
 30
0.0
  0
VERTEX
  5
14E
  8
0
 10
348.9940719673191
 20
102.8339769963777
 30
0.0
 42
-0.9999999999999999
  0
VERTEX
  5
14F
  8
0
 10
342.6440719673191
 20
102.8339769963777
 30
0.0
  0
VERTEX
  5
150
  8
0
 10
305.3440719673192
 20
102.8339769963777
 30
0.0
 42
-0.9999999999999999
  0
VERTEX
  5
151
  8
0
 10
298.9940719673191
 20
102.8339769963777
 30
0.0
  0
VERTEX
  5
152
  8
0
 10
298.9940719673191
 20
115.1339769963777
 30
0.0
  0
VERTEX
  5
153
  8
0
 10
274.3940719673191
 20
115.1339769963777
 30
0.0
  0
VERTEX
  5
154
  8
0
 10
274.3940719673191
 20
90.5339769963777
 30
0.0
  0
VERTEX
  5
155
  8
0
 10
286.6940719673191
 20
90.5339769963777
 30
0.0
 42
-0.9999999999999999
  0
VERTEX
  5
156
  8
0
 10
286.6940719673191
 20
84.18397699637768
 30
0.0
  0
SEQEND
  5
651
  8
0
  0
POLYLINE
  5
81
  8
0
 66
     1
 10
0.0
 20
0.0
 30
0.0
 70
     1
  0
VERTEX
  5
157
  8
0
 10
317.8440719673192
 20
83.98397699637763
 30
0.0
 42
-0.9999999999999999
  0
VERTEX
  5
158
  8
0
 10
324.1940719673192
 20
83.98397699637763
 30
0.0
  0
VERTEX
  5
159
  8
0
 10
330.1440719673192
 20
83.98397699637763
 30
0.0
 42
-0.9999999999999999
  0
VERTEX
  5
15A
  8
0
 10
330.1440719673192
 20
77.63397699637767
 30
0.0
  0
VERTEX
  5
15B
  8
0
 10
330.1440719673192
 20
71.68397699637768
 30
0.0
 42
-0.9999999999999999
  0
VERTEX
  5
15C
  8
0
 10
323.7940719673192
 20
71.68397699637768
 30
0.0
  0
VERTEX
  5
15D
  8
0
 10
317.8440719673192
 20
71.68397699637768
 30
0.0
 42
-0.9999999999999999
  0
VERTEX
  5
15E
  8
0
 10
317.8440719673192
 20
78.0339769963777
 30
0.0
  0
SEQEND
  5
652
  8
0
  0
POLYLINE
  5
82
  8
0
 66
     1
 10
0.0
 20
0.0
 30
0.0
 70
     1
  0
VERTEX
  5
15F
  8
0
 10
373.5940719673192
 20
96.68397699637745
 30
0.0
 42
-0.9999999999999999
  0
VERTEX
  5
160
  8
0
 10
373.5940719673192
 20
90.33397699637743
 30
0.0
  0
VERTEX
  5
161
  8
0
 10
373.5940719673192
 20
53.03397699637748
 30
0.0
 42
-0.9999999999999999
  0
VERTEX
  5
162
  8
0
 10
373.5940719673192
 20
46.68397699637745
 30
0.0
  0
VERTEX
  5
163
  8
0
 10
361.2940719673191
 20
46.68397699637745
 30
0.0
 42
-0.9999999999999999
  0
VERTEX
  5
164
  8
0
 10
361.2940719673192
 20
53.03397699637736
 30
0.0
  0
VERTEX
  5
165
  8
0
 10
361.2940719673192
 20
90.33397699637743
 30
0.0
 42
-0.9999999999999999
  0
VERTEX
  5
166
  8
0
 10
361.2940719673192
 20
96.68397699637745
 30
0.0
  0
SEQEND
  5
653
  8
0
  0
POLYLINE
  5
83
  8
0
 66
     1
 10
0.0
 20
0.0
 30
0.0
 70
     1
  0
VERTEX
  5
167
  8
0
 10
348.9940719673191
 20
40.53397699637765
 30
0.0
 42
-0.9999999999999999
  0
VERTEX
  5
168
  8
0
 10
342.6440719673191
 20
40.53397699637765
 30
0.0
  0
VERTEX
  5
169
  8
0
 10
305.3440719673192
 20
40.53397699637765
 30
0.0
 42
-0.9999999999999999
  0
VERTEX
  5
16A
  8
0
 10
298.9940719673191
 20
40.53397699637765
 30
0.0
  0
VERTEX
  5
16B
  8
0
 10
298.9940719673191
 20
52.83397699637771
 30
0.0
 42
-0.9999999999999999
  0
VERTEX
  5
16C
  8
0
 10
305.3440719673192
 20
52.83397699637766
 30
0.0
  0
VERTEX
  5
16D
  8
0
 10
342.6440719673191
 20
52.83397699637771
 30
0.0
 42
-0.9999999999999999
  0
VERTEX
  5
16E
  8
0
 10
348.9940719673191
 20
52.83397699637766
 30
0.0
  0
SEQEND
  5
654
  8
0
  0
POLYLINE
  5
84
  8
0
 66
     1
 10
0.0
 20
0.0
 30
0.0
 70
     1
  0
VERTEX
  5
16F
  8
0
 10
125.7421061551042
 20
88.19766781464908
 30
0.0
  0
VERTEX
  5
170
  8
0
 10
128.6624601374051
 20
89.62244657571102
 30
0.0
  0
VERTEX
  5
171
  8
0
 10
128.9544955356352
 20
89.62244657571102
 30
0.0
  0
VERTEX
  5
172
  8
0
 10
128.9544955356352
 20
79.48970321287916
 30
0.0
  0
VERTEX
  5
173
  8
0
 10
128.9597499604139
 20
79.03284480579953
 30
0.0
  0
VERTEX
  5
174
  8
0
 10
128.9755132347502
 20
78.67111914208272
 30
0.0
  0
VERTEX
  5
175
  8
0
 10
129.001785358644
 20
78.40452622172872
 30
0.0
  0
VERTEX
  5
176
  8
0
 10
129.018862239175
 20
78.30690454031279
 30
0.0
  0
VERTEX
  5
177
  8
0
 10
129.0385663320954
 20
78.23306604473757
 30
0.0
  0
VERTEX
  5
178
  8
0
 10
129.0919402259007
 20
78.11636250491455
 30
0.0
  0
VERTEX
  5
179
  8
0
 10
129.1679911108564
 20
78.01403949606501
 30
0.0
  0
VERTEX
  5
17A
  8
0
 10
129.2667189869626
 20
77.9260970181889
 30
0.0
  0
VERTEX
  5
17B
  8
0
 10
129.3881238542193
 20
77.85253507128624
 30
0.0
  0
VERTEX
  5
17C
  8
0
 10
129.4630685444847
 20
77.82114679694996
 30
0.0
  0
VERTEX
  5
17D
  8
0
 10
129.5551592524494
 20
77.79335365535704
 30
0.0
  0
VERTEX
  5
17E
  8
0
 10
129.7907787214759
 20
77.74855277040129
 30
0.0
  0
VERTEX
  5
17F
  8
0
 10
130.0949822612989
 20
77.718132416419
 30
0.0
  0
VERTEX
  5
180
  8
0
 10
130.4677698719184
 20
77.70209259341014
 30
0.0
  0
VERTEX
  5
181
  8
0
 10
130.4677698719184
 20
77.37465896509156
 30
0.0
  0
VERTEX
  5
182
  8
0
 10
125.9544955356352
 20
77.37465896509156
 30
0.0
  0
VERTEX
  5
183
  8
0
 10
125.9544955356352
 20
77.70209259341014
 30
0.0
  0
VERTEX
  5
184
  8
0
 10
126.3416636772281
 20
77.71785586774644
 30
0.0
  0
VERTEX
  5
185
  8
0
 10
126.653610579883
 20
77.74744657571102
 30
0.0
  0
VERTEX
  5
186
  8
0
 10
126.8903362435998
 20
77.79086471730395
 30
0.0
  0
VERTEX
  5
187
  8
0
 10
126.9804911108564
 20
77.81775907571102
 30
0.0
  0
VERTEX
  5
188
  8
0
 10
127.0518406683785
 20
77.84811029252518
 30
0.0
  0
VERTEX
  5
189
  8
0
 10
127.166331818821
 20
77.9178005580119
 30
0.0
  0
VERTEX
  5
18A
  8
0
 10
127.262017659529
 20
77.99855277040129
 30
0.0
  0
VERTEX
  5
18B
  8
0
 10
127.3388981905024
 20
78.09036692969333
 30
0.0
  0
VERTEX
  5
18C
  8
0
 10
127.3969734117414
 20
78.19324303588802
 30
0.0
  0
VERTEX
  5
18D
  8
0
 10
127.4197886772281
 20
78.26092832349863
 30
0.0
  0
VERTEX
  5
18E
  8
0
 10
127.4395619073166
 20
78.35557710668446
 30
0.0
  0
VERTEX
  5
18F
  8
0
 10
127.4699822612989
 20
78.62576515978182
 30
0.0
  0
VERTEX
  5
190
  8
0
 10
127.4882344736883
 20
79.00380719518006
 30
0.0
  0
VERTEX
  5
191
  8
0
 10
127.4943185444847
 20
79.48970321287916
 30
0.0
  0
VERTEX
  5
192
  8
0
 10
127.4943185444847
 20
85.96757931907385
 30
0.0
  0
VERTEX
  5
193
  8
0
 10
127.4887875710334
 20
86.56381825712695
 30
0.0
  0
VERTEX
  5
194
  8
0
 10
127.4721946506794
 20
87.04280055801192
 30
0.0
  0
VERTEX
  5
195
  8
0
 10
127.4445397834228
 20
87.40452622172873
 30
0.0
  0
VERTEX
  5
196
  8
0
 10
127.4058229692635
 20
87.6489952482774
 30
0.0
  0
VERTEX
  5
197
  8
0
 10
127.368488898467
 20
87.78118551376411
 30
0.0
  0
VERTEX
  5
198
  8
0
 10
127.3184335887325
 20
87.89457046951634
 30
0.0
  0
VERTEX
  5
199
  8
0
 10
127.25565704006
 20
87.98915011553403
 30
0.0
  0
VERTEX
  5
19A
  8
0
 10
127.1801592524493
 20
88.06492445181722
 30
0.0
  0
VERTEX
  5
19B
  8
0
 10
127.0941526152812
 20
88.12299967305616
 30
0.0
  0
VERTEX
  5
19C
  8
0
 10
126.9998495179361
 20
88.16448197394112
 30
0.0
  0
VERTEX
  5
19D
  8
0
 10
126.8972499604139
 20
88.18937135447209
 30
0.0
  0
VERTEX
  5
19E
  8
0
 10
126.7863539427148
 20
88.19766781464908
 30
0.0
  0
VERTEX
  5
19F
  8
0
 10
126.700485579883
 20
88.1933813102243
 30
0.0
  0
VERTEX
  5
1A0
  8
0
 10
126.6065973055467
 20
88.18052179694996
 30
0.0
  0
VERTEX
  5
1A1
  8
0
 10
126.3947610223609
 20
88.12908374385262
 30
0.0
  0
VERTEX
  5
1A2
  8
0
 10
126.1508450931573
 20
88.04335365535704
 30
0.0
  0
VERTEX
  5
1A3
  8
0
 10
125.8748495179361
 20
87.92333153146323
 30
0.0
  0
SEQEND
  5
655
  8
0
  0
POLYLINE
  5
85
  8
0
 66
     1
 10
0.0
 20
0.0
 30
0.0
 70
     1
  0
VERTEX
  5
1A4
  8
0
 10
140.9898937657237
 20
79.68439347836589
 30
0.0
  0
VERTEX
  5
1A5
  8
0
 10
140.1491858011219
 20
77.37465896509156
 30
0.0
  0
VERTEX
  5
1A6
  8
0
 10
133.0695397834228
 20
77.37465896509156
 30
0.0
  0
VERTEX
  5
1A7
  8
0
 10
133.0695397834228
 20
77.70209259341014
 30
0.0
  0
VERTEX
  5
1A8
  8
0
 10
133.8216138984671
 20
78.3981656022597
 30
0.0
  0
VERTEX
  5
1A9
  8
0
 10
134.515889340945
 20
79.06160586774642
 30
0.0
  0
VERTEX
  5
1AA
  8
0
 10
135.1523661108565
 20
79.69241338987032
 30
0.0
  0
VERTEX
  5
1AB
  8
0
 10
135.7310442082016
 20
80.29058816863139
 30
0.0
  0
VERTEX
  5
1AC
  8
0
 10
136.2519236329804
 20
80.85613020402963
 30
0.0
  0
VERTEX
  5
1AD
  8
0
 10
136.7150043851927
 20
81.38903949606501
 30
0.0
  0
VERTEX
  5
1AE
  8
0
 10
137.1202864648387
 20
81.88931604473757
 30
0.0
  0
VERTEX
  5
1AF
  8
0
 10
137.4677698719184
 20
82.3569598500473
 30
0.0
  0
VERTEX
  5
1B0
  8
0
 10
137.7664424382901
 20
82.80344768190571
 30
0.0
  0
VERTEX
  5
1B1
  8
0
 10
138.0252919958122
 20
83.24025631022428
 30
0.0
  0
VERTEX
  5
1B2
  8
0
 10
138.1397831462546
 20
83.45503092305614
 30
0.0
  0
VERTEX
  5
1B3
  8
0
 10
138.2443185444848
 20
83.66738573500305
 30
0.0
  0
VERTEX
  5
1B4
  8
0
 10
138.3388981905024
 20
83.877320746065
 30
0.0
  0
VERTEX
  5
1B5
  8
0
 10
138.4235220843078
 20
84.08483595624199
 30
0.0
  0
VERTEX
  5
1B6
  8
0
 10
138.4981902259007
 20
84.28993136553402
 30
0.0
  0
VERTEX
  5
1B7
  8
0
 10
138.5629026152812
 20
84.49260697394111
 30
0.0
  0
VERTEX
  5
1B8
  8
0
 10
138.6176592524493
 20
84.69286278146322
 30
0.0
  0
VERTEX
  5
1B9
  8
0
 10
138.6624601374051
 20
84.8906987881004
 30
0.0
  0
VERTEX
  5
1BA
  8
0
 10
138.6973052701485
 20
85.08611499385262
 30
0.0
  0
VERTEX
  5
1BB
  8
0
 10
138.7221946506795
 20
85.27911139871988
 30
0.0
  0
VERTEX
  5
1BC
  8
0
 10
138.737128278998
 20
85.46968800270217
 30
0.0
  0
VERTEX
  5
1BD
  8
0
 10
138.7421061551042
 20
85.65784480579953
 30
0.0
  0
VERTEX
  5
1BE
  8
0
 10
138.7311824825378
 20
85.936882416419
 30
0.0
  0
VERTEX
  5
1BF
  8
0
 10
138.6984114648387
 20
86.20319878810041
 30
0.0
  0
VERTEX
  5
1C0
  8
0
 10
138.6437931020068
 20
86.45679392084378
 30
0.0
  0
VERTEX
  5
1C1
  8
0
 10
138.5673273940423
 20
86.69766781464908
 30
0.0
  0
VERTEX
  5
1C2
  8
0
 10
138.4690143409449
 20
86.92582046951634
 30
0.0
  0
VERTEX
  5
1C3
  8
0
 10
138.3488539427148
 20
87.14125188544554
 30
0.0
  0
VERTEX
  5
1C4
  8
0
 10
138.206846199352
 20
87.34396206243667
 30
0.0
  0
VERTEX
  5
1C5
  8
0
 10
138.0429911108564
 20
87.53395100048978
 30
0.0
  0
VERTEX
  5
1C6
  8
0
 10
137.8639258453697
 20
87.70610254916234
 30
0.0
  0
VERTEX
  5
1C7
  8
0
 10
137.6762875710334
 20
87.85530055801189
 30
0.0
  0
VERTEX
  5
1C8
  8
0
 10
137.4800762878476
 20
87.98154502703845
 30
0.0
  0
VERTEX
  5
1C9
  8
0
 10
137.2752919958122
 20
88.08483595624199
 30
0.0
  0
VERTEX
  5
1CA
  8
0
 10
137.0619346949272
 20
88.16517334562252
 30
0.0
  0
VERTEX
  5
1CB
  8
0
 10
136.8400043851927
 20
88.22255719518004
 30
0.0
  0
VERTEX
  5
1CC
  8
0
 10
136.6095010666086
 20
88.25698750491456
 30
0.0
  0
VERTEX
  5
1CD
  8
0
 10
136.370424739175
 20
88.26846427482607
 30
0.0
  0
VERTEX
  5
1CE
  8
0
 10
136.1520204250157
 20
88.26037522615351
 30
0.0
  0
VERTEX
  5
1CF
  8
0
 10
135.939285358644
 20
88.2361080801358
 30
0.0
  0
VERTEX
  5
1D0
  8
0
 10
135.73221954006
 20
88.19566283677297
 30
0.0
  0
VERTEX
  5
1D1
  8
0
 10
135.5308229692635
 20
88.13903949606501
 30
0.0
  0
VERTEX
  5
1D2
  8
0
 10
135.3350956462547
 20
88.06623805801192
 30
0.0
  0
VERTEX
  5
1D3
  8
0
 10
135.1450375710334
 20
87.97725852261368
 30
0.0
  0
VERTEX
  5
1D4
  8
0
 10
134.9606487435998
 20
87.87210088987032
 30
0.0
  0
VERTEX
  5
1D5
  8
0
 10
134.7819291639538
 20
87.75076515978182
 30
0.0
  0
VERTEX
  5
1D6
  8
0
 10
134.6117825931573
 20
87.61380442969335
 30
0.0
  0
VERTEX
  5
1D7
  8
0
 10
134.4531127922723
 20
87.46177179694996
 30
0.0
  0
VERTEX
  5
1D8
  8
0
 10
134.3059197612989
 20
87.29466726155175
 30
0.0
  0
VERTEX
  5
1D9
  8
0
 10
134.170203500237
 20
87.11249082349863
 30
0.0
  0
VERTEX
  5
1DA
  8
0
 10
134.0459640090865
 20
86.91524248279069
 30
0.0
  0
VERTEX
  5
1DB
  8
0
 10
133.9332012878476
 20
86.70292223942783
 30
0.0
  0
VERTEX
  5
1DC
  8
0
 10
133.8319153365202
 20
86.47553009341016
 30
0.0
  0
VERTEX
  5
1DD
  8
0
 10
133.7421061551042
 20
86.23306604473757
 30
0.0
  0
VERTEX
  5
1DE
  8
0
 10
133.4146725267856
 20
86.23306604473757
 30
0.0
  0
VERTEX
  5
1DF
  8
0
 10
133.4808367966971
 20
86.63046648721544
 30
0.0
  0
VERTEX
  5
1E0
  8
0
 10
133.5687101374051
 20
87.00408374385262
 30
0.0
  0
VERTEX
  5
1E1
  8
0
 10
133.6782925489096
 20
87.35391781464907
 30
0.0
  0
VERTEX
  5
1E2
  8
0
 10
133.8095840312104
 20
87.67996869960481
 30
0.0
  0
VERTEX
  5
1E3
  8
0
 10
133.8833706739095
 20
87.83407544739242
 30
0.0
  0
VERTEX
  5
1E4
  8
0
 10
133.9625845843078
 20
87.98223639871986
 30
0.0
  0
VERTEX
  5
1E5
  8
0
 10
134.0472257624051
 20
88.12445155358712
 30
0.0
  0
VERTEX
  5
1E6
  8
0
 10
134.1372942082016
 20
88.26072091199421
 30
0.0
  0
VERTEX
  5
1E7
  8
0
 10
134.2327899216971
 20
88.39104447394112
 30
0.0
  0
VERTEX
  5
1E8
  8
0
 10
134.3337129028918
 20
88.51542223942783
 30
0.0
  0
VERTEX
  5
1E9
  8
0
 10
134.4400631517856
 20
88.63385420845438
 30
0.0
  0
VERTEX
  5
1EA
  8
0
 10
134.5518406683786
 20
88.74634038102076
 30
0.0
  0
VERTEX
  5
1EB
  8
0
 10
134.6681121009007
 20
88.85243136553403
 30
0.0
  0
VERTEX
  5
1EC
  8
0
 10
134.7879440975821
 20
88.95167777040129
 30
0.0
  0
VERTEX
  5
1ED
  8
0
 10
134.9113366584228
 20
89.04407959562253
 30
0.0
  0
VERTEX
  5
1EE
  8
0
 10
135.0382897834228
 20
89.12963684119777
 30
0.0
  0
VERTEX
  5
1EF
  8
0
 10
135.1688034725821
 20
89.20834950712697
 30
0.0
  0
VERTEX
  5
1F0
  8
0
 10
135.3028777259007
 20
89.28021759341016
 30
0.0
  0
VERTEX
  5
1F1
  8
0
 10
135.4405125433786
 20
89.34524110004732
 30
0.0
  0
VERTEX
  5
1F2
  8
0
 10
135.5817079250157
 20
89.40342002703846
 30
0.0
  0
VERTEX
  5
1F3
  8
0
 10
135.7264638708122
 20
89.45475437438358
 30
0.0
  0
VERTEX
  5
1F4
  8
0
 10
135.874780380768
 20
89.4992441420827
 30
0.0
  0
VERTEX
  5
1F5
  8
0
 10
136.1820950931573
 20
89.56768993854288
 30
0.0
  0
VERTEX
  5
1F6
  8
0
 10
136.5036520621839
 20
89.608757416419
 30
0.0
  0
VERTEX
  5
1F7
  8
0
 10
136.8394512878476
 20
89.62244657571102
 30
0.0
  0
VERTEX
  5
1F8
  8
0
 10
137.1969595843078
 20
89.60778949606501
 30
0.0
  0
VERTEX
  5
1F9
  8
0
 10
137.3700617690423
 20
89.58946814650749
 30
0.0
  0
VERTEX
  5
1FA
  8
0
 10
137.5393959781131
 20
89.56381825712695
 30
0.0
  0
VERTEX
  5
1FB
  8
0
 10
137.7049622115202
 20
89.53083982792342
 30
0.0
  0
VERTEX
  5
1FC
  8
0
 10
137.8667604692635
 20
89.49053285889687
 30
0.0
  0
VERTEX
  5
1FD
  8
0
 10
138.0247907513432
 20
89.4428973500473
 30
0.0
  0
VERTEX
  5
1FE
  8
0
 10
138.1790530577591
 20
89.38793330137474
 30
0.0
  0
VERTEX
  5
1FF
  8
0
 10
138.3295473885113
 20
89.32564071287916
 30
0.0
  0
VERTEX
  5
200
  8
0
 10
138.4762737435998
 20
89.25601958456059
 30
0.0
  0
VERTEX
  5
201
  8
0
 10
138.6192321230246
 20
89.179069916419
 30
0.0
  0
VERTEX
  5
202
  8
0
 10
138.7584225267856
 20
89.0947917084544
 30
0.0
  0
VERTEX
  5
203
  8
0
 10
138.893844954883
 20
89.00318496066679
 30
0.0
  0
VERTEX
  5
204
  8
0
 10
139.0254994073166
 20
88.90424967305617
 30
0.0
  0
VERTEX
  5
205
  8
0
 10
139.1533858840865
 20
88.79798584562255
 30
0.0
  0
VERTEX
  5
206
  8
0
 10
139.2775043851927
 20
88.68439347836589
 30
0.0
  0
VERTEX
  5
207
  8
0
 10
139.5066940975821
 20
88.44462577925084
 30
0.0
  0
VERTEX
  5
208
  8
0
 10
139.6098294681573
 20
88.32080111110926
 30
0.0
  0
VERTEX
  5
209
  8
0
 10
139.7053251816529
 20
88.19434923057828
 30
0.0
  0
VERTEX
  5
20A
  8
0
 10
139.7931812380688
 20
88.06527013765793
 30
0.0
  0
VERTEX
  5
20B
  8
0
 10
139.8733976374051
 20
87.9335638323482
 30
0.0
  0
VERTEX
  5
20C
  8
0
 10
139.9459743796617
 20
87.79923031464908
 30
0.0
  0
VERTEX
  5
20D
  8
0
 10
140.0109114648387
 20
87.66226958456059
 30
0.0
  0
VERTEX
  5
20E
  8
0
 10
140.0682088929361
 20
87.52268164208272
 30
0.0
  0
VERTEX
  5
20F
  8
0
 10
140.1178666639537
 20
87.38046648721546
 30
0.0
  0
VERTEX
  5
210
  8
0
 10
140.1598847778918
 20
87.23562411995883
 30
0.0
  0
VERTEX
  5
211
  8
0
 10
140.1942632347502
 20
87.08815454031281
 30
0.0
  0
VERTEX
  5
212
  8
0
 10
140.221002034529
 20
86.93805774827742
 30
0.0
  0
VERTEX
  5
213
  8
0
 10
140.2401011772281
 20
86.78533374385262
 30
0.0
  0
VERTEX
  5
214
  8
0
 10
140.2515606628476
 20
86.62998252703846
 30
0.0
  0
VERTEX
  5
215
  8
0
 10
140.2553804913874
 20
86.47200409783491
 30
0.0
  0
VERTEX
  5
216
  8
0
 10
140.2487433232458
 20
86.24412799164023
 30
0.0
  0
VERTEX
  5
217
  8
0
 10
140.228831818821
 20
86.01625188544554
 30
0.0
  0
VERTEX
  5
218
  8
0
 10
140.1956459781131
 20
85.78837577925086
 30
0.0
  0
VERTEX
  5
219
  8
0
 10
140.1491858011219
 20
85.56049967305616
 30
0.0
  0
VERTEX
  5
21A
  8
0
 10
140.0894512878476
 20
85.33262356686146
 30
0.0
  0
VERTEX
  5
21B
  8
0
 10
140.0164424382901
 20
85.10474746066677
 30
0.0
  0
VERTEX
  5
21C
  8
0
 10
139.9301592524494
 20
84.87687135447209
 30
0.0
  0
VERTEX
  5
21D
  8
0
 10
139.8306017303255
 20
84.6489952482774
 30
0.0
  0
VERTEX
  5
21E
  8
0
 10
139.6541636772281
 20
84.287960956242
 30
0.0
  0
VERTEX
  5
21F
  8
0
 10
139.4522831462547
 20
83.92167223942785
 30
0.0
  0
VERTEX
  5
220
  8
0
 10
139.2249601374051
 20
83.55012909783491
 30
0.0
  0
VERTEX
  5
221
  8
0
 10
138.9721946506794
 20
83.17333153146323
 30
0.0
  0
VERTEX
  5
222
  8
0
 10
138.6939866860776
 20
82.79127954031279
 30
0.0
  0
VERTEX
  5
223
  8
0
 10
138.3903362435998
 20
82.40397312438358
 30
0.0
  0
VERTEX
  5
224
  8
0
 10
138.0612433232458
 20
82.01141228367561
 30
0.0
  0
VERTEX
  5
225
  8
0
 10
137.7067079250157
 20
81.6135970181889
 30
0.0
  0
VERTEX
  5
226
  8
0
 10
136.7083672170511
 20
80.52952622172873
 30
0.0
  0
VERTEX
  5
227
  8
0
 10
135.9168849161662
 20
79.68439347836589
 30
0.0
  0
VERTEX
  5
228
  8
0
 10
135.3322610223609
 20
79.07819878810041
 30
0.0
  0
VERTEX
  5
229
  8
0
 10
134.9544955356352
 20
78.71094215093227
 30
0.0
  0
VERTEX
  5
22A
  8
0
 10
138.0872388984671
 20
78.71094215093227
 30
0.0
  0
VERTEX
  5
22B
  8
0
 10
138.5294402259007
 20
78.71536692969333
 30
0.0
  0
VERTEX
  5
22C
  8
0
 10
138.9002919958122
 20
78.72864126597652
 30
0.0
  0
VERTEX
  5
22D
  8
0
 10
139.1997942082016
 20
78.75076515978182
 30
0.0
  0
VERTEX
  5
22E
  8
0
 10
139.4279468630688
 20
78.78173861110925
 30
0.0
  0
VERTEX
  5
22F
  8
0
 10
139.6157234117414
 20
78.82626294739245
 30
0.0
  0
VERTEX
  5
230
  8
0
 10
139.7940973055467
 20
78.88903949606501
 30
0.0
  0
VERTEX
  5
231
  8
0
 10
139.9630685444847
 20
78.97006825712697
 30
0.0
  0
VERTEX
  5
232
  8
0
 10
140.1226371285555
 20
79.06934923057828
 30
0.0
  0
VERTEX
  5
233
  8
0
 10
140.2725265090865
 20
79.18909480579951
 30
0.0
  0
VERTEX
  5
234
  8
0
 10
140.4124601374051
 20
79.33151737217119
 30
0.0
  0
VERTEX
  5
235
  8
0
 10
140.5424380135113
 20
79.49661692969332
 30
0.0
  0
VERTEX
  5
236
  8
0
 10
140.6624601374051
 20
79.68439347836589
 30
0.0
  0
SEQEND
  5
656
  8
0
  0
POLYLINE
  5
86
  8
0
 66
     1
 10
0.0
 20
0.0
 30
0.0
 70
     1
  0
VERTEX
  5
237
  8
0
 10
144.0075928807679
 20
79.0914731243836
 30
0.0
  0
VERTEX
  5
238
  8
0
 10
144.1095010666086
 20
79.0869792084544
 30
0.0
  0
VERTEX
  5
239
  8
0
 10
144.2072610223609
 20
79.07349746066679
 30
0.0
  0
VERTEX
  5
23A
  8
0
 10
144.3008727480246
 20
79.05102788102077
 30
0.0
  0
VERTEX
  5
23B
  8
0
 10
144.3903362435998
 20
79.01957046951634
 30
0.0
  0
VERTEX
  5
23C
  8
0
 10
144.4756515090865
 20
78.97912522615351
 30
0.0
  0
VERTEX
  5
23D
  8
0
 10
144.5568185444847
 20
78.92969215093227
 30
0.0
  0
VERTEX
  5
23E
  8
0
 10
144.6338373497945
 20
78.87127124385262
 30
0.0
  0
VERTEX
  5
23F
  8
0
 10
144.7067079250157
 20
78.80386250491456
 30
0.0
  0
VERTEX
  5
240
  8
0
 10
144.7730796064316
 20
78.73009314650749
 30
0.0
  0
VERTEX
  5
241
  8
0
 10
144.8306017303254
 20
78.65259038102077
 30
0.0
  0
VERTEX
  5
242
  8
0
 10
144.8792742966971
 20
78.5713542084544
 30
0.0
  0
VERTEX
  5
243
  8
0
 10
144.9190973055467
 20
78.48638462880837
 30
0.0
  0
VERTEX
  5
244
  8
0
 10
144.9500707568741
 20
78.3976816420827
 30
0.0
  0
VERTEX
  5
245
  8
0
 10
144.9721946506794
 20
78.3052452482774
 30
0.0
  0
VERTEX
  5
246
  8
0
 10
144.9854689869626
 20
78.20907544739244
 30
0.0
  0
VERTEX
  5
247
  8
0
 10
144.9898937657237
 20
78.10917223942783
 30
0.0
  0
VERTEX
  5
248
  8
0
 10
144.9853998497945
 20
78.00926903146323
 30
0.0
  0
VERTEX
  5
249
  8
0
 10
144.9719181020069
 20
77.91309923057827
 30
0.0
  0
VERTEX
  5
24A
  8
0
 10
144.9494485223609
 20
77.82066283677297
 30
0.0
  0
VERTEX
  5
24B
  8
0
 10
144.9179911108564
 20
77.7319598500473
 30
0.0
  0
VERTEX
  5
24C
  8
0
 10
144.8775458674936
 20
77.64699027040129
 30
0.0
  0
VERTEX
  5
24D
  8
0
 10
144.8281127922723
 20
77.56575409783491
 30
0.0
  0
VERTEX
  5
24E
  8
0
 10
144.7696918851927
 20
77.48825133234818
 30
0.0
  0
VERTEX
  5
24F
  8
0
 10
144.7022831462546
 20
77.41448197394111
 30
0.0
  0
VERTEX
  5
250
  8
0
 10
144.6285137878476
 20
77.34707323500305
 30
0.0
  0
VERTEX
  5
251
  8
0
 10
144.5510110223609
 20
77.28865232792342
 30
0.0
  0
VERTEX
  5
252
  8
0
 10
144.4697748497945
 20
77.23921925270217
 30
0.0
  0
VERTEX
  5
253
  8
0
 10
144.3848052701485
 20
77.19877400933935
 30
0.0
  0
VERTEX
  5
254
  8
0
 10
144.2961022834228
 20
77.16731659783491
 30
0.0
  0
VERTEX
  5
255
  8
0
 10
144.2036658896175
 20
77.1448470181889
 30
0.0
  0
VERTEX
  5
256
  8
0
 10
144.1074960887325
 20
77.13136527040129
 30
0.0
  0
VERTEX
  5
257
  8
0
 10
144.0075928807679
 20
77.12687135447209
 30
0.0
  0
VERTEX
  5
258
  8
0
 10
143.9076896728033
 20
77.13136527040129
 30
0.0
  0
VERTEX
  5
259
  8
0
 10
143.8115198719184
 20
77.1448470181889
 30
0.0
  0
VERTEX
  5
25A
  8
0
 10
143.7190834781131
 20
77.16731659783491
 30
0.0
  0
VERTEX
  5
25B
  8
0
 10
143.6303804913874
 20
77.19877400933935
 30
0.0
  0
VERTEX
  5
25C
  8
0
 10
143.5454109117414
 20
77.23921925270217
 30
0.0
  0
VERTEX
  5
25D
  8
0
 10
143.464174739175
 20
77.28865232792342
 30
0.0
  0
VERTEX
  5
25E
  8
0
 10
143.3866719736883
 20
77.34707323500305
 30
0.0
  0
VERTEX
  5
25F
  8
0
 10
143.3129026152812
 20
77.41448197394111
 30
0.0
  0
VERTEX
  5
260
  8
0
 10
143.2454938763431
 20
77.48825133234818
 30
0.0
  0
VERTEX
  5
261
  8
0
 10
143.1870729692635
 20
77.56575409783491
 30
0.0
  0
VERTEX
  5
262
  8
0
 10
143.1376398940423
 20
77.64699027040129
 30
0.0
  0
VERTEX
  5
263
  8
0
 10
143.0971946506794
 20
77.7319598500473
 30
0.0
  0
VERTEX
  5
264
  8
0
 10
143.065737239175
 20
77.82066283677297
 30
0.0
  0
VERTEX
  5
265
  8
0
 10
143.043267659529
 20
77.91309923057827
 30
0.0
  0
VERTEX
  5
266
  8
0
 10
143.0297859117414
 20
78.00926903146323
 30
0.0
  0
VERTEX
  5
267
  8
0
 10
143.0252919958122
 20
78.10917223942783
 30
0.0
  0
VERTEX
  5
268
  8
0
 10
143.0297859117414
 20
78.21108042526853
 30
0.0
  0
VERTEX
  5
269
  8
0
 10
143.043267659529
 20
78.30884038102076
 30
0.0
  0
VERTEX
  5
26A
  8
0
 10
143.065737239175
 20
78.40245210668448
 30
0.0
  0
VERTEX
  5
26B
  8
0
 10
143.0971946506794
 20
78.4919156022597
 30
0.0
  0
VERTEX
  5
26C
  8
0
 10
143.1376398940423
 20
78.57723086774641
 30
0.0
  0
VERTEX
  5
26D
  8
0
 10
143.1870729692635
 20
78.65839790314465
 30
0.0
  0
VERTEX
  5
26E
  8
0
 10
143.2454938763431
 20
78.73541670845438
 30
0.0
  0
VERTEX
  5
26F
  8
0
 10
143.3129026152812
 20
78.80828728367563
 30
0.0
  0
VERTEX
  5
270
  8
0
 10
143.3866719736883
 20
78.87465896509157
 30
0.0
  0
VERTEX
  5
271
  8
0
 10
143.464174739175
 20
78.93218108898537
 30
0.0
  0
VERTEX
  5
272
  8
0
 10
143.5454109117414
 20
78.98085365535707
 30
0.0
  0
VERTEX
  5
273
  8
0
 10
143.6303804913874
 20
79.0206766642066
 30
0.0
  0
VERTEX
  5
274
  8
0
 10
143.7190834781131
 20
79.05165011553404
 30
0.0
  0
VERTEX
  5
275
  8
0
 10
143.8115198719184
 20
79.07377400933935
 30
0.0
  0
VERTEX
  5
276
  8
0
 10
143.9076896728033
 20
79.08704834562253
 30
0.0
  0
SEQEND
  5
657
  8
0
  0
POLYLINE
  5
87
  8
0
 66
     1
 10
0.0
 20
0.0
 30
0.0
 70
     1
  0
VERTEX
  5
277
  8
0
 10
148.3969734117414
 20
88.19766781464908
 30
0.0
  0
VERTEX
  5
278
  8
0
 10
151.3173273940423
 20
89.62244657571102
 30
0.0
  0
VERTEX
  5
279
  8
0
 10
151.6093627922723
 20
89.62244657571102
 30
0.0
  0
VERTEX
  5
27A
  8
0
 10
151.6093627922723
 20
79.48970321287916
 30
0.0
  0
VERTEX
  5
27B
  8
0
 10
151.6146172170511
 20
79.03284480579953
 30
0.0
  0
VERTEX
  5
27C
  8
0
 10
151.6303804913874
 20
78.67111914208272
 30
0.0
  0
VERTEX
  5
27D
  8
0
 10
151.6566526152812
 20
78.40452622172872
 30
0.0
  0
VERTEX
  5
27E
  8
0
 10
151.6737294958122
 20
78.30690454031279
 30
0.0
  0
VERTEX
  5
27F
  8
0
 10
151.6934335887325
 20
78.23306604473757
 30
0.0
  0
VERTEX
  5
280
  8
0
 10
151.7468074825379
 20
78.11636250491455
 30
0.0
  0
VERTEX
  5
281
  8
0
 10
151.8228583674936
 20
78.01403949606501
 30
0.0
  0
VERTEX
  5
282
  8
0
 10
151.9215862435998
 20
77.9260970181889
 30
0.0
  0
VERTEX
  5
283
  8
0
 10
152.0429911108564
 20
77.85253507128624
 30
0.0
  0
VERTEX
  5
284
  8
0
 10
152.1179358011219
 20
77.82114679694996
 30
0.0
  0
VERTEX
  5
285
  8
0
 10
152.2100265090865
 20
77.79335365535704
 30
0.0
  0
VERTEX
  5
286
  8
0
 10
152.445645978113
 20
77.74855277040129
 30
0.0
  0
VERTEX
  5
287
  8
0
 10
152.7498495179361
 20
77.718132416419
 30
0.0
  0
VERTEX
  5
288
  8
0
 10
153.1226371285555
 20
77.70209259341014
 30
0.0
  0
VERTEX
  5
289
  8
0
 10
153.1226371285555
 20
77.37465896509156
 30
0.0
  0
VERTEX
  5
28A
  8
0
 10
148.6093627922723
 20
77.37465896509156
 30
0.0
  0
VERTEX
  5
28B
  8
0
 10
148.6093627922723
 20
77.70209259341014
 30
0.0
  0
VERTEX
  5
28C
  8
0
 10
148.9965309338652
 20
77.71785586774644
 30
0.0
  0
VERTEX
  5
28D
  8
0
 10
149.3084778365201
 20
77.74744657571102
 30
0.0
  0
VERTEX
  5
28E
  8
0
 10
149.5452035002369
 20
77.79086471730395
 30
0.0
  0
VERTEX
  5
28F
  8
0
 10
149.6353583674936
 20
77.81775907571102
 30
0.0
  0
VERTEX
  5
290
  8
0
 10
149.7067079250157
 20
77.84811029252518
 30
0.0
  0
VERTEX
  5
291
  8
0
 10
149.8211990754582
 20
77.9178005580119
 30
0.0
  0
VERTEX
  5
292
  8
0
 10
149.9168849161662
 20
77.99855277040129
 30
0.0
  0
VERTEX
  5
293
  8
0
 10
149.9937654471396
 20
78.09036692969333
 30
0.0
  0
VERTEX
  5
294
  8
0
 10
150.0518406683786
 20
78.19324303588802
 30
0.0
  0
VERTEX
  5
295
  8
0
 10
150.0746559338653
 20
78.26092832349863
 30
0.0
  0
VERTEX
  5
296
  8
0
 10
150.0944291639538
 20
78.35557710668446
 30
0.0
  0
VERTEX
  5
297
  8
0
 10
150.1248495179361
 20
78.62576515978182
 30
0.0
  0
VERTEX
  5
298
  8
0
 10
150.1431017303254
 20
79.00380719518006
 30
0.0
  0
VERTEX
  5
299
  8
0
 10
150.1491858011219
 20
79.48970321287916
 30
0.0
  0
VERTEX
  5
29A
  8
0
 10
150.1491858011219
 20
85.96757931907385
 30
0.0
  0
VERTEX
  5
29B
  8
0
 10
150.1436548276706
 20
86.56381825712695
 30
0.0
  0
VERTEX
  5
29C
  8
0
 10
150.1270619073166
 20
87.04280055801192
 30
0.0
  0
VERTEX
  5
29D
  8
0
 10
150.0994070400599
 20
87.40452622172873
 30
0.0
  0
VERTEX
  5
29E
  8
0
 10
150.0606902259007
 20
87.6489952482774
 30
0.0
  0
VERTEX
  5
29F
  8
0
 10
150.0233561551042
 20
87.78118551376411
 30
0.0
  0
VERTEX
  5
2A0
  8
0
 10
149.9733008453697
 20
87.89457046951634
 30
0.0
  0
VERTEX
  5
2A1
  8
0
 10
149.9105242966971
 20
87.98915011553403
 30
0.0
  0
VERTEX
  5
2A2
  8
0
 10
149.8350265090865
 20
88.06492445181722
 30
0.0
  0
VERTEX
  5
2A3
  8
0
 10
149.7490198719184
 20
88.12299967305616
 30
0.0
  0
VERTEX
  5
2A4
  8
0
 10
149.6547167745732
 20
88.16448197394112
 30
0.0
  0
VERTEX
  5
2A5
  8
0
 10
149.5521172170511
 20
88.18937135447209
 30
0.0
  0
VERTEX
  5
2A6
  8
0
 10
149.441221199352
 20
88.19766781464908
 30
0.0
  0
VERTEX
  5
2A7
  8
0
 10
149.3553528365202
 20
88.1933813102243
 30
0.0
  0
VERTEX
  5
2A8
  8
0
 10
149.2614645621839
 20
88.18052179694996
 30
0.0
  0
VERTEX
  5
2A9
  8
0
 10
149.049628278998
 20
88.12908374385262
 30
0.0
  0
VERTEX
  5
2AA
  8
0
 10
148.8057123497945
 20
88.04335365535704
 30
0.0
  0
VERTEX
  5
2AB
  8
0
 10
148.5297167745732
 20
87.92333153146323
 30
0.0
  0
SEQEND
  5
658
  8
0
  0
POLYLINE
  5
88
  8
0
 66
     1
 10
0.0
 20
0.0
 30
0.0
 70
     1
  0
VERTEX
  5
2AC
  8
0
 10
138.5774694591873
 20
200.3869675778394
 30
0.0
  0
VERTEX
  5
2AD
  8
0
 10
141.4978234414882
 20
201.8117463389013
 30
0.0
  0
VERTEX
  5
2AE
  8
0
 10
141.7898588397182
 20
201.8117463389013
 30
0.0
  0
VERTEX
  5
2AF
  8
0
 10
141.7898588397182
 20
191.6790029760695
 30
0.0
  0
VERTEX
  5
2B0
  8
0
 10
141.795113264497
 20
191.2221445689898
 30
0.0
  0
VERTEX
  5
2B1
  8
0
 10
141.8108765388333
 20
190.860418905273
 30
0.0
  0
VERTEX
  5
2B2
  8
0
 10
141.8371486627271
 20
190.593825984919
 30
0.0
  0
VERTEX
  5
2B3
  8
0
 10
141.8542255432581
 20
190.4962043035031
 30
0.0
  0
VERTEX
  5
2B4
  8
0
 10
141.8739296361784
 20
190.4223658079279
 30
0.0
  0
VERTEX
  5
2B5
  8
0
 10
141.9273035299837
 20
190.3056622681049
 30
0.0
  0
VERTEX
  5
2B6
  8
0
 10
142.0033544149395
 20
190.2033392592553
 30
0.0
  0
VERTEX
  5
2B7
  8
0
 10
142.1020822910457
 20
190.1153967813792
 30
0.0
  0
VERTEX
  5
2B8
  8
0
 10
142.2234871583023
 20
190.0418348344766
 30
0.0
  0
VERTEX
  5
2B9
  8
0
 10
142.2984318485678
 20
190.0104465601403
 30
0.0
  0
VERTEX
  5
2BA
  8
0
 10
142.3905225565324
 20
189.9826534185473
 30
0.0
  0
VERTEX
  5
2BB
  8
0
 10
142.6261420255589
 20
189.9378525335916
 30
0.0
  0
VERTEX
  5
2BC
  8
0
 10
142.9303455653819
 20
189.9074321796093
 30
0.0
  0
VERTEX
  5
2BD
  8
0
 10
143.3031331760014
 20
189.8913923566004
 30
0.0
  0
VERTEX
  5
2BE
  8
0
 10
143.3031331760014
 20
189.5639587282819
 30
0.0
  0
VERTEX
  5
2BF
  8
0
 10
138.7898588397182
 20
189.5639587282819
 30
0.0
  0
VERTEX
  5
2C0
  8
0
 10
138.7898588397182
 20
189.8913923566004
 30
0.0
  0
VERTEX
  5
2C1
  8
0
 10
139.1770269813111
 20
189.9071556309367
 30
0.0
  0
VERTEX
  5
2C2
  8
0
 10
139.488973883966
 20
189.9367463389013
 30
0.0
  0
VERTEX
  5
2C3
  8
0
 10
139.7256995476828
 20
189.9801644804943
 30
0.0
  0
VERTEX
  5
2C4
  8
0
 10
139.8158544149395
 20
190.0070588389013
 30
0.0
  0
VERTEX
  5
2C5
  8
0
 10
139.8872039724616
 20
190.0374100557155
 30
0.0
  0
VERTEX
  5
2C6
  8
0
 10
140.0016951229041
 20
190.1071003212022
 30
0.0
  0
VERTEX
  5
2C7
  8
0
 10
140.097380963612
 20
190.1878525335916
 30
0.0
  0
VERTEX
  5
2C8
  8
0
 10
140.1742614945855
 20
190.2796666928836
 30
0.0
  0
VERTEX
  5
2C9
  8
0
 10
140.2323367158244
 20
190.3825427990783
 30
0.0
  0
VERTEX
  5
2CA
  8
0
 10
140.2551519813111
 20
190.450228086689
 30
0.0
  0
VERTEX
  5
2CB
  8
0
 10
140.2749252113996
 20
190.5448768698748
 30
0.0
  0
VERTEX
  5
2CC
  8
0
 10
140.3053455653819
 20
190.8150649229721
 30
0.0
  0
VERTEX
  5
2CD
  8
0
 10
140.3235977777713
 20
191.1931069583704
 30
0.0
  0
VERTEX
  5
2CE
  8
0
 10
140.3296818485678
 20
191.6790029760695
 30
0.0
  0
VERTEX
  5
2CF
  8
0
 10
140.3296818485678
 20
198.1568790822642
 30
0.0
  0
VERTEX
  5
2D0
  8
0
 10
140.3241508751165
 20
198.7531180203173
 30
0.0
  0
VERTEX
  5
2D1
  8
0
 10
140.3075579547625
 20
199.2321003212022
 30
0.0
  0
VERTEX
  5
2D2
  8
0
 10
140.2799030875058
 20
199.593825984919
 30
0.0
  0
VERTEX
  5
2D3
  8
0
 10
140.2411862733466
 20
199.8382950114677
 30
0.0
  0
VERTEX
  5
2D4
  8
0
 10
140.2038522025501
 20
199.9704852769544
 30
0.0
  0
VERTEX
  5
2D5
  8
0
 10
140.1537968928156
 20
200.0838702327067
 30
0.0
  0
VERTEX
  5
2D6
  8
0
 10
140.091020344143
 20
200.1784498787243
 30
0.0
  0
VERTEX
  5
2D7
  8
0
 10
140.0155225565324
 20
200.2542242150075
 30
0.0
  0
VERTEX
  5
2D8
  8
0
 10
139.9295159193642
 20
200.3122994362465
 30
0.0
  0
VERTEX
  5
2D9
  8
0
 10
139.8352128220191
 20
200.3537817371314
 30
0.0
  0
VERTEX
  5
2DA
  8
0
 10
139.732613264497
 20
200.3786711176624
 30
0.0
  0
VERTEX
  5
2DB
  8
0
 10
139.6217172467979
 20
200.3869675778394
 30
0.0
  0
VERTEX
  5
2DC
  8
0
 10
139.535848883966
 20
200.3826810734146
 30
0.0
  0
VERTEX
  5
2DD
  8
0
 10
139.4419606096297
 20
200.3698215601403
 30
0.0
  0
VERTEX
  5
2DE
  8
0
 10
139.2301243264439
 20
200.3183835070429
 30
0.0
  0
VERTEX
  5
2DF
  8
0
 10
138.9862083972404
 20
200.2326534185474
 30
0.0
  0
VERTEX
  5
2E0
  8
0
 10
138.7102128220191
 20
200.1126312946536
 30
0.0
  0
SEQEND
  5
659
  8
0
  0
POLYLINE
  5
89
  8
0
 66
     1
 10
0.0
 20
0.0
 30
0.0
 70
     1
  0
VERTEX
  5
2E1
  8
0
 10
153.8252570698068
 20
191.8736932415562
 30
0.0
  0
VERTEX
  5
2E2
  8
0
 10
152.984549105205
 20
189.5639587282819
 30
0.0
  0
VERTEX
  5
2E3
  8
0
 10
145.9049030875059
 20
189.5639587282819
 30
0.0
  0
VERTEX
  5
2E4
  8
0
 10
145.9049030875059
 20
189.8913923566004
 30
0.0
  0
VERTEX
  5
2E5
  8
0
 10
146.6569772025501
 20
190.58746536545
 30
0.0
  0
VERTEX
  5
2E6
  8
0
 10
147.351252645028
 20
191.2509056309367
 30
0.0
  0
VERTEX
  5
2E7
  8
0
 10
147.9877294149395
 20
191.8817131530606
 30
0.0
  0
VERTEX
  5
2E8
  8
0
 10
148.5664075122846
 20
192.4798879318217
 30
0.0
  0
VERTEX
  5
2E9
  8
0
 10
149.0872869370634
 20
193.0454299672199
 30
0.0
  0
VERTEX
  5
2EA
  8
0
 10
149.5503676892758
 20
193.5783392592553
 30
0.0
  0
VERTEX
  5
2EB
  8
0
 10
149.9556497689218
 20
194.0786158079279
 30
0.0
  0
VERTEX
  5
2EC
  8
0
 10
150.3031331760014
 20
194.5462596132376
 30
0.0
  0
VERTEX
  5
2ED
  8
0
 10
150.6018057423731
 20
194.992747445096
 30
0.0
  0
VERTEX
  5
2EE
  8
0
 10
150.8606552998953
 20
195.4295560734146
 30
0.0
  0
VERTEX
  5
2EF
  8
0
 10
150.9751464503377
 20
195.6443306862465
 30
0.0
  0
VERTEX
  5
2F0
  8
0
 10
151.0796818485678
 20
195.8566854981934
 30
0.0
  0
VERTEX
  5
2F1
  8
0
 10
151.1742614945855
 20
196.0666205092553
 30
0.0
  0
VERTEX
  5
2F2
  8
0
 10
151.2588853883908
 20
196.2741357194323
 30
0.0
  0
VERTEX
  5
2F3
  8
0
 10
151.3335535299837
 20
196.4792311287243
 30
0.0
  0
VERTEX
  5
2F4
  8
0
 10
151.3982659193643
 20
196.6819067371314
 30
0.0
  0
VERTEX
  5
2F5
  8
0
 10
151.4530225565324
 20
196.8821625446535
 30
0.0
  0
VERTEX
  5
2F6
  8
0
 10
151.4978234414882
 20
197.0799985512907
 30
0.0
  0
VERTEX
  5
2F7
  8
0
 10
151.5326685742315
 20
197.2754147570429
 30
0.0
  0
VERTEX
  5
2F8
  8
0
 10
151.5575579547625
 20
197.4684111619102
 30
0.0
  0
VERTEX
  5
2F9
  8
0
 10
151.5724915830811
 20
197.6589877658925
 30
0.0
  0
VERTEX
  5
2FA
  8
0
 10
151.5774694591873
 20
197.8471445689898
 30
0.0
  0
VERTEX
  5
2FB
  8
0
 10
151.5665457866209
 20
198.1261821796093
 30
0.0
  0
VERTEX
  5
2FC
  8
0
 10
151.5337747689218
 20
198.3924985512907
 30
0.0
  0
VERTEX
  5
2FD
  8
0
 10
151.4791564060899
 20
198.6460936840341
 30
0.0
  0
VERTEX
  5
2FE
  8
0
 10
151.4026906981254
 20
198.8869675778394
 30
0.0
  0
VERTEX
  5
2FF
  8
0
 10
151.304377645028
 20
199.1151202327067
 30
0.0
  0
VERTEX
  5
300
  8
0
 10
151.1842172467979
 20
199.3305516486359
 30
0.0
  0
VERTEX
  5
301
  8
0
 10
151.0422095034351
 20
199.533261825627
 30
0.0
  0
VERTEX
  5
302
  8
0
 10
150.8783544149395
 20
199.7232507636801
 30
0.0
  0
VERTEX
  5
303
  8
0
 10
150.6992891494528
 20
199.8954023123526
 30
0.0
  0
VERTEX
  5
304
  8
0
 10
150.5116508751165
 20
200.0446003212022
 30
0.0
  0
VERTEX
  5
305
  8
0
 10
150.3154395919306
 20
200.1708447902288
 30
0.0
  0
VERTEX
  5
306
  8
0
 10
150.1106552998953
 20
200.2741357194323
 30
0.0
  0
VERTEX
  5
307
  8
0
 10
149.8972979990103
 20
200.3544731088128
 30
0.0
  0
VERTEX
  5
308
  8
0
 10
149.6753676892758
 20
200.4118569583704
 30
0.0
  0
VERTEX
  5
309
  8
0
 10
149.4448643706917
 20
200.4462872681049
 30
0.0
  0
VERTEX
  5
30A
  8
0
 10
149.2057880432581
 20
200.4577640380164
 30
0.0
  0
VERTEX
  5
30B
  8
0
 10
148.9873837290988
 20
200.4496749893438
 30
0.0
  0
VERTEX
  5
30C
  8
0
 10
148.7746486627271
 20
200.4254078433261
 30
0.0
  0
VERTEX
  5
30D
  8
0
 10
148.5675828441431
 20
200.3849625999633
 30
0.0
  0
VERTEX
  5
30E
  8
0
 10
148.3661862733466
 20
200.3283392592553
 30
0.0
  0
VERTEX
  5
30F
  8
0
 10
148.1704589503377
 20
200.2555378212022
 30
0.0
  0
VERTEX
  5
310
  8
0
 10
147.9804008751165
 20
200.166558285804
 30
0.0
  0
VERTEX
  5
311
  8
0
 10
147.7960120476829
 20
200.0614006530606
 30
0.0
  0
VERTEX
  5
312
  8
0
 10
147.6172924680369
 20
199.9400649229721
 30
0.0
  0
VERTEX
  5
313
  8
0
 10
147.4471458972404
 20
199.8031041928836
 30
0.0
  0
VERTEX
  5
314
  8
0
 10
147.2884760963554
 20
199.6510715601403
 30
0.0
  0
VERTEX
  5
315
  8
0
 10
147.141283065382
 20
199.483967024742
 30
0.0
  0
VERTEX
  5
316
  8
0
 10
147.00556680432
 20
199.301790586689
 30
0.0
  0
VERTEX
  5
317
  8
0
 10
146.8813273131696
 20
199.104542245981
 30
0.0
  0
VERTEX
  5
318
  8
0
 10
146.7685645919306
 20
198.8922220026182
 30
0.0
  0
VERTEX
  5
319
  8
0
 10
146.6672786406032
 20
198.6648298566004
 30
0.0
  0
VERTEX
  5
31A
  8
0
 10
146.5774694591873
 20
198.4223658079279
 30
0.0
  0
VERTEX
  5
31B
  8
0
 10
146.2500358308687
 20
198.4223658079279
 30
0.0
  0
VERTEX
  5
31C
  8
0
 10
146.3162001007802
 20
198.8197662504058
 30
0.0
  0
VERTEX
  5
31D
  8
0
 10
146.4040734414882
 20
199.1933835070429
 30
0.0
  0
VERTEX
  5
31E
  8
0
 10
146.5136558529926
 20
199.5432175778394
 30
0.0
  0
VERTEX
  5
31F
  8
0
 10
146.6449473352935
 20
199.8692684627952
 30
0.0
  0
VERTEX
  5
320
  8
0
 10
146.7187339779925
 20
200.0233752105828
 30
0.0
  0
VERTEX
  5
321
  8
0
 10
146.7979478883908
 20
200.1715361619102
 30
0.0
  0
VERTEX
  5
322
  8
0
 10
146.8825890664882
 20
200.3137513167774
 30
0.0
  0
VERTEX
  5
323
  8
0
 10
146.9726575122846
 20
200.4500206751845
 30
0.0
  0
VERTEX
  5
324
  8
0
 10
147.0681532257802
 20
200.5803442371314
 30
0.0
  0
VERTEX
  5
325
  8
0
 10
147.1690762069749
 20
200.7047220026182
 30
0.0
  0
VERTEX
  5
326
  8
0
 10
147.2754264558687
 20
200.8231539716447
 30
0.0
  0
VERTEX
  5
327
  8
0
 10
147.3872039724616
 20
200.9356401442111
 30
0.0
  0
VERTEX
  5
328
  8
0
 10
147.5034754049838
 20
201.0417311287243
 30
0.0
  0
VERTEX
  5
329
  8
0
 10
147.6233074016652
 20
201.1409775335916
 30
0.0
  0
VERTEX
  5
32A
  8
0
 10
147.7466999625059
 20
201.2333793588128
 30
0.0
  0
VERTEX
  5
32B
  8
0
 10
147.8736530875059
 20
201.3189366043881
 30
0.0
  0
VERTEX
  5
32C
  8
0
 10
148.0041667766652
 20
201.3976492703172
 30
0.0
  0
VERTEX
  5
32D
  8
0
 10
148.1382410299838
 20
201.4695173566004
 30
0.0
  0
VERTEX
  5
32E
  8
0
 10
148.2758758474616
 20
201.5345408632376
 30
0.0
  0
VERTEX
  5
32F
  8
0
 10
148.4170712290988
 20
201.5927197902288
 30
0.0
  0
VERTEX
  5
330
  8
0
 10
148.5618271748953
 20
201.6440541375739
 30
0.0
  0
VERTEX
  5
331
  8
0
 10
148.710143684851
 20
201.688543905273
 30
0.0
  0
VERTEX
  5
332
  8
0
 10
149.0174583972404
 20
201.7569897017332
 30
0.0
  0
VERTEX
  5
333
  8
0
 10
149.3390153662669
 20
201.7980571796093
 30
0.0
  0
VERTEX
  5
334
  8
0
 10
149.6748145919307
 20
201.8117463389013
 30
0.0
  0
VERTEX
  5
335
  8
0
 10
150.0323228883908
 20
201.7970892592553
 30
0.0
  0
VERTEX
  5
336
  8
0
 10
150.2054250731254
 20
201.7787679096978
 30
0.0
  0
VERTEX
  5
337
  8
0
 10
150.3747592821962
 20
201.7531180203173
 30
0.0
  0
VERTEX
  5
338
  8
0
 10
150.5403255156032
 20
201.7201395911137
 30
0.0
  0
VERTEX
  5
339
  8
0
 10
150.7021237733466
 20
201.6798326220872
 30
0.0
  0
VERTEX
  5
33A
  8
0
 10
150.8601540554262
 20
201.6321971132376
 30
0.0
  0
VERTEX
  5
33B
  8
0
 10
151.0144163618422
 20
201.5772330645651
 30
0.0
  0
VERTEX
  5
33C
  8
0
 10
151.1649106925944
 20
201.5149404760695
 30
0.0
  0
VERTEX
  5
33D
  8
0
 10
151.3116370476829
 20
201.4453193477509
 30
0.0
  0
VERTEX
  5
33E
  8
0
 10
151.4545954271077
 20
201.3683696796093
 30
0.0
  0
VERTEX
  5
33F
  8
0
 10
151.5937858308687
 20
201.2840914716447
 30
0.0
  0
VERTEX
  5
340
  8
0
 10
151.7292082589661
 20
201.1924847238571
 30
0.0
  0
VERTEX
  5
341
  8
0
 10
151.8608627113997
 20
201.0935494362465
 30
0.0
  0
VERTEX
  5
342
  8
0
 10
151.9887491881696
 20
200.9872856088129
 30
0.0
  0
VERTEX
  5
343
  8
0
 10
152.1128676892758
 20
200.8736932415562
 30
0.0
  0
VERTEX
  5
344
  8
0
 10
152.3420574016652
 20
200.6339255424412
 30
0.0
  0
VERTEX
  5
345
  8
0
 10
152.4451927722404
 20
200.5101008742996
 30
0.0
  0
VERTEX
  5
346
  8
0
 10
152.540688485736
 20
200.3836489937686
 30
0.0
  0
VERTEX
  5
347
  8
0
 10
152.6285445421519
 20
200.2545699008482
 30
0.0
  0
VERTEX
  5
348
  8
0
 10
152.7087609414882
 20
200.1228635955385
 30
0.0
  0
VERTEX
  5
349
  8
0
 10
152.7813376837448
 20
199.9885300778394
 30
0.0
  0
VERTEX
  5
34A
  8
0
 10
152.8462747689218
 20
199.8515693477509
 30
0.0
  0
VERTEX
  5
34B
  8
0
 10
152.9035721970192
 20
199.711981405273
 30
0.0
  0
VERTEX
  5
34C
  8
0
 10
152.9532299680369
 20
199.5697662504057
 30
0.0
  0
VERTEX
  5
34D
  8
0
 10
152.9952480819749
 20
199.4249238831491
 30
0.0
  0
VERTEX
  5
34E
  8
0
 10
153.0296265388333
 20
199.2774543035031
 30
0.0
  0
VERTEX
  5
34F
  8
0
 10
153.0563653386121
 20
199.1273575114677
 30
0.0
  0
VERTEX
  5
350
  8
0
 10
153.0754644813112
 20
198.9746335070429
 30
0.0
  0
VERTEX
  5
351
  8
0
 10
153.0869239669306
 20
198.8192822902288
 30
0.0
  0
VERTEX
  5
352
  8
0
 10
153.0907437954705
 20
198.6613038610252
 30
0.0
  0
VERTEX
  5
353
  8
0
 10
153.0841066273289
 20
198.4334277548305
 30
0.0
  0
VERTEX
  5
354
  8
0
 10
153.0641951229041
 20
198.2055516486358
 30
0.0
  0
VERTEX
  5
355
  8
0
 10
153.0310092821961
 20
197.9776755424411
 30
0.0
  0
VERTEX
  5
356
  8
0
 10
152.984549105205
 20
197.7497994362465
 30
0.0
  0
VERTEX
  5
357
  8
0
 10
152.9248145919306
 20
197.5219233300518
 30
0.0
  0
VERTEX
  5
358
  8
0
 10
152.8518057423731
 20
197.2940472238571
 30
0.0
  0
VERTEX
  5
359
  8
0
 10
152.7655225565324
 20
197.0661711176624
 30
0.0
  0
VERTEX
  5
35A
  8
0
 10
152.6659650344085
 20
196.8382950114677
 30
0.0
  0
VERTEX
  5
35B
  8
0
 10
152.4895269813112
 20
196.4772607194323
 30
0.0
  0
VERTEX
  5
35C
  8
0
 10
152.2876464503377
 20
196.1109720026182
 30
0.0
  0
VERTEX
  5
35D
  8
0
 10
152.0603234414882
 20
195.7394288610253
 30
0.0
  0
VERTEX
  5
35E
  8
0
 10
151.8075579547625
 20
195.3626312946536
 30
0.0
  0
VERTEX
  5
35F
  8
0
 10
151.5293499901607
 20
194.9805793035031
 30
0.0
  0
VERTEX
  5
360
  8
0
 10
151.2256995476829
 20
194.5932728875739
 30
0.0
  0
VERTEX
  5
361
  8
0
 10
150.8966066273289
 20
194.2007120468659
 30
0.0
  0
VERTEX
  5
362
  8
0
 10
150.5420712290988
 20
193.8028967813792
 30
0.0
  0
VERTEX
  5
363
  8
0
 10
149.5437305211342
 20
192.718825984919
 30
0.0
  0
VERTEX
  5
364
  8
0
 10
148.7522482202492
 20
191.8736932415562
 30
0.0
  0
VERTEX
  5
365
  8
0
 10
148.1676243264439
 20
191.2674985512907
 30
0.0
  0
VERTEX
  5
366
  8
0
 10
147.7898588397183
 20
190.9002419141226
 30
0.0
  0
VERTEX
  5
367
  8
0
 10
150.9226022025501
 20
190.9002419141226
 30
0.0
  0
VERTEX
  5
368
  8
0
 10
151.3648035299838
 20
190.9046666928836
 30
0.0
  0
VERTEX
  5
369
  8
0
 10
151.7356552998953
 20
190.9179410291668
 30
0.0
  0
VERTEX
  5
36A
  8
0
 10
152.0351575122847
 20
190.9400649229721
 30
0.0
  0
VERTEX
  5
36B
  8
0
 10
152.2633101671519
 20
190.9710383742996
 30
0.0
  0
VERTEX
  5
36C
  8
0
 10
152.4510867158244
 20
191.0155627105828
 30
0.0
  0
VERTEX
  5
36D
  8
0
 10
152.6294606096297
 20
191.0783392592553
 30
0.0
  0
VERTEX
  5
36E
  8
0
 10
152.7984318485678
 20
191.1593680203173
 30
0.0
  0
VERTEX
  5
36F
  8
0
 10
152.9580004326386
 20
191.2586489937686
 30
0.0
  0
VERTEX
  5
370
  8
0
 10
153.1078898131696
 20
191.3783945689898
 30
0.0
  0
VERTEX
  5
371
  8
0
 10
153.2478234414882
 20
191.5208171353615
 30
0.0
  0
VERTEX
  5
372
  8
0
 10
153.3778013175943
 20
191.6859166928837
 30
0.0
  0
VERTEX
  5
373
  8
0
 10
153.4978234414882
 20
191.8736932415562
 30
0.0
  0
SEQEND
  5
65A
  8
0
  0
POLYLINE
  5
8A
  8
0
 66
     1
 10
0.0
 20
0.0
 30
0.0
 70
     1
  0
VERTEX
  5
374
  8
0
 10
156.842956184851
 20
191.2807728875739
 30
0.0
  0
VERTEX
  5
375
  8
0
 10
156.9448643706917
 20
191.2762789716447
 30
0.0
  0
VERTEX
  5
376
  8
0
 10
157.0426243264439
 20
191.2627972238571
 30
0.0
  0
VERTEX
  5
377
  8
0
 10
157.1362360521076
 20
191.240327644211
 30
0.0
  0
VERTEX
  5
378
  8
0
 10
157.2256995476828
 20
191.2088702327066
 30
0.0
  0
VERTEX
  5
379
  8
0
 10
157.3110148131696
 20
191.1684249893438
 30
0.0
  0
VERTEX
  5
37A
  8
0
 10
157.3921818485678
 20
191.1189919141226
 30
0.0
  0
VERTEX
  5
37B
  8
0
 10
157.4692006538776
 20
191.0605710070429
 30
0.0
  0
VERTEX
  5
37C
  8
0
 10
157.5420712290988
 20
190.9931622681049
 30
0.0
  0
VERTEX
  5
37D
  8
0
 10
157.6084429105147
 20
190.9193929096978
 30
0.0
  0
VERTEX
  5
37E
  8
0
 10
157.6659650344085
 20
190.8418901442111
 30
0.0
  0
VERTEX
  5
37F
  8
0
 10
157.7146376007802
 20
190.7606539716447
 30
0.0
  0
VERTEX
  5
380
  8
0
 10
157.7544606096297
 20
190.6756843919987
 30
0.0
  0
VERTEX
  5
381
  8
0
 10
157.7854340609572
 20
190.586981405273
 30
0.0
  0
VERTEX
  5
382
  8
0
 10
157.8075579547625
 20
190.4945450114677
 30
0.0
  0
VERTEX
  5
383
  8
0
 10
157.8208322910457
 20
190.3983752105827
 30
0.0
  0
VERTEX
  5
384
  8
0
 10
157.8252570698068
 20
190.2984720026182
 30
0.0
  0
VERTEX
  5
385
  8
0
 10
157.8207631538776
 20
190.1985687946536
 30
0.0
  0
VERTEX
  5
386
  8
0
 10
157.8072814060899
 20
190.1023989937686
 30
0.0
  0
VERTEX
  5
387
  8
0
 10
157.7848118264439
 20
190.0099625999633
 30
0.0
  0
VERTEX
  5
388
  8
0
 10
157.7533544149395
 20
189.9212596132376
 30
0.0
  0
VERTEX
  5
389
  8
0
 10
157.7129091715767
 20
189.8362900335916
 30
0.0
  0
VERTEX
  5
38A
  8
0
 10
157.6634760963554
 20
189.7550538610252
 30
0.0
  0
VERTEX
  5
38B
  8
0
 10
157.6050551892758
 20
189.6775510955385
 30
0.0
  0
VERTEX
  5
38C
  8
0
 10
157.5376464503377
 20
189.6037817371314
 30
0.0
  0
VERTEX
  5
38D
  8
0
 10
157.4638770919306
 20
189.5363729981934
 30
0.0
  0
VERTEX
  5
38E
  8
0
 10
157.3863743264439
 20
189.4779520911138
 30
0.0
  0
VERTEX
  5
38F
  8
0
 10
157.3051381538776
 20
189.4285190158925
 30
0.0
  0
VERTEX
  5
390
  8
0
 10
157.2201685742315
 20
189.3880737725297
 30
0.0
  0
VERTEX
  5
391
  8
0
 10
157.1314655875059
 20
189.3566163610253
 30
0.0
  0
VERTEX
  5
392
  8
0
 10
157.0390291937006
 20
189.3341467813792
 30
0.0
  0
VERTEX
  5
393
  8
0
 10
156.9428593928156
 20
189.3206650335916
 30
0.0
  0
VERTEX
  5
394
  8
0
 10
156.842956184851
 20
189.3161711176624
 30
0.0
  0
VERTEX
  5
395
  8
0
 10
156.7430529768864
 20
189.3206650335916
 30
0.0
  0
VERTEX
  5
396
  8
0
 10
156.6468831760014
 20
189.3341467813792
 30
0.0
  0
VERTEX
  5
397
  8
0
 10
156.5544467821962
 20
189.3566163610253
 30
0.0
  0
VERTEX
  5
398
  8
0
 10
156.4657437954705
 20
189.3880737725297
 30
0.0
  0
VERTEX
  5
399
  8
0
 10
156.3807742158245
 20
189.4285190158925
 30
0.0
  0
VERTEX
  5
39A
  8
0
 10
156.2995380432581
 20
189.4779520911138
 30
0.0
  0
VERTEX
  5
39B
  8
0
 10
156.2220352777714
 20
189.5363729981934
 30
0.0
  0
VERTEX
  5
39C
  8
0
 10
156.1482659193643
 20
189.6037817371314
 30
0.0
  0
VERTEX
  5
39D
  8
0
 10
156.0808571804262
 20
189.6775510955385
 30
0.0
  0
VERTEX
  5
39E
  8
0
 10
156.0224362733466
 20
189.7550538610252
 30
0.0
  0
VERTEX
  5
39F
  8
0
 10
155.9730031981254
 20
189.8362900335916
 30
0.0
  0
VERTEX
  5
3A0
  8
0
 10
155.9325579547625
 20
189.9212596132376
 30
0.0
  0
VERTEX
  5
3A1
  8
0
 10
155.9011005432581
 20
190.0099625999633
 30
0.0
  0
VERTEX
  5
3A2
  8
0
 10
155.8786309636121
 20
190.1023989937686
 30
0.0
  0
VERTEX
  5
3A3
  8
0
 10
155.8651492158245
 20
190.1985687946536
 30
0.0
  0
VERTEX
  5
3A4
  8
0
 10
155.8606552998953
 20
190.2984720026182
 30
0.0
  0
VERTEX
  5
3A5
  8
0
 10
155.8651492158245
 20
190.4003801884589
 30
0.0
  0
VERTEX
  5
3A6
  8
0
 10
155.8786309636121
 20
190.4981401442111
 30
0.0
  0
VERTEX
  5
3A7
  8
0
 10
155.9011005432581
 20
190.5917518698748
 30
0.0
  0
VERTEX
  5
3A8
  8
0
 10
155.9325579547625
 20
190.68121536545
 30
0.0
  0
VERTEX
  5
3A9
  8
0
 10
155.9730031981254
 20
190.7665306309368
 30
0.0
  0
VERTEX
  5
3AA
  8
0
 10
156.0224362733466
 20
190.847697666335
 30
0.0
  0
VERTEX
  5
3AB
  8
0
 10
156.0808571804262
 20
190.9247164716447
 30
0.0
  0
VERTEX
  5
3AC
  8
0
 10
156.1482659193643
 20
190.997587046866
 30
0.0
  0
VERTEX
  5
3AD
  8
0
 10
156.2220352777714
 20
191.0639587282819
 30
0.0
  0
VERTEX
  5
3AE
  8
0
 10
156.2995380432581
 20
191.1214808521757
 30
0.0
  0
VERTEX
  5
3AF
  8
0
 10
156.3807742158245
 20
191.1701534185474
 30
0.0
  0
VERTEX
  5
3B0
  8
0
 10
156.4657437954705
 20
191.2099764273969
 30
0.0
  0
VERTEX
  5
3B1
  8
0
 10
156.5544467821962
 20
191.2409498787243
 30
0.0
  0
VERTEX
  5
3B2
  8
0
 10
156.6468831760014
 20
191.2630737725297
 30
0.0
  0
VERTEX
  5
3B3
  8
0
 10
156.7430529768864
 20
191.2763481088128
 30
0.0
  0
SEQEND
  5
65B
  8
0
  0
POLYLINE
  5
8B
  8
0
 66
     1
 10
0.0
 20
0.0
 30
0.0
 70
     1
  0
VERTEX
  5
3B4
  8
0
 10
167.418177423789
 20
191.8736932415562
 30
0.0
  0
VERTEX
  5
3B5
  8
0
 10
166.5774694591873
 20
189.5639587282819
 30
0.0
  0
VERTEX
  5
3B6
  8
0
 10
159.4978234414882
 20
189.5639587282819
 30
0.0
  0
VERTEX
  5
3B7
  8
0
 10
159.4978234414882
 20
189.8913923566004
 30
0.0
  0
VERTEX
  5
3B8
  8
0
 10
160.2498975565324
 20
190.58746536545
 30
0.0
  0
VERTEX
  5
3B9
  8
0
 10
160.9441729990103
 20
191.2509056309367
 30
0.0
  0
VERTEX
  5
3BA
  8
0
 10
161.5806497689218
 20
191.8817131530606
 30
0.0
  0
VERTEX
  5
3BB
  8
0
 10
162.1593278662669
 20
192.4798879318217
 30
0.0
  0
VERTEX
  5
3BC
  8
0
 10
162.6802072910457
 20
193.0454299672199
 30
0.0
  0
VERTEX
  5
3BD
  8
0
 10
163.1432880432581
 20
193.5783392592553
 30
0.0
  0
VERTEX
  5
3BE
  8
0
 10
163.5485701229041
 20
194.0786158079279
 30
0.0
  0
VERTEX
  5
3BF
  8
0
 10
163.8960535299837
 20
194.5462596132376
 30
0.0
  0
VERTEX
  5
3C0
  8
0
 10
164.1947260963554
 20
194.992747445096
 30
0.0
  0
VERTEX
  5
3C1
  8
0
 10
164.4535756538775
 20
195.4295560734146
 30
0.0
  0
VERTEX
  5
3C2
  8
0
 10
164.56806680432
 20
195.6443306862465
 30
0.0
  0
VERTEX
  5
3C3
  8
0
 10
164.6726022025501
 20
195.8566854981934
 30
0.0
  0
VERTEX
  5
3C4
  8
0
 10
164.7671818485678
 20
196.0666205092553
 30
0.0
  0
VERTEX
  5
3C5
  8
0
 10
164.8518057423731
 20
196.2741357194323
 30
0.0
  0
VERTEX
  5
3C6
  8
0
 10
164.926473883966
 20
196.4792311287243
 30
0.0
  0
VERTEX
  5
3C7
  8
0
 10
164.9911862733466
 20
196.6819067371314
 30
0.0
  0
VERTEX
  5
3C8
  8
0
 10
165.0459429105147
 20
196.8821625446535
 30
0.0
  0
VERTEX
  5
3C9
  8
0
 10
165.0907437954704
 20
197.0799985512907
 30
0.0
  0
VERTEX
  5
3CA
  8
0
 10
165.1255889282138
 20
197.2754147570429
 30
0.0
  0
VERTEX
  5
3CB
  8
0
 10
165.1504783087448
 20
197.4684111619102
 30
0.0
  0
VERTEX
  5
3CC
  8
0
 10
165.1654119370633
 20
197.6589877658925
 30
0.0
  0
VERTEX
  5
3CD
  8
0
 10
165.1703898131695
 20
197.8471445689898
 30
0.0
  0
VERTEX
  5
3CE
  8
0
 10
165.1594661406032
 20
198.1261821796093
 30
0.0
  0
VERTEX
  5
3CF
  8
0
 10
165.1266951229041
 20
198.3924985512907
 30
0.0
  0
VERTEX
  5
3D0
  8
0
 10
165.0720767600722
 20
198.6460936840341
 30
0.0
  0
VERTEX
  5
3D1
  8
0
 10
164.9956110521076
 20
198.8869675778394
 30
0.0
  0
VERTEX
  5
3D2
  8
0
 10
164.8972979990103
 20
199.1151202327067
 30
0.0
  0
VERTEX
  5
3D3
  8
0
 10
164.7771376007802
 20
199.3305516486359
 30
0.0
  0
VERTEX
  5
3D4
  8
0
 10
164.6351298574173
 20
199.533261825627
 30
0.0
  0
VERTEX
  5
3D5
  8
0
 10
164.4712747689218
 20
199.7232507636801
 30
0.0
  0
VERTEX
  5
3D6
  8
0
 10
164.292209503435
 20
199.8954023123526
 30
0.0
  0
VERTEX
  5
3D7
  8
0
 10
164.1045712290988
 20
200.0446003212022
 30
0.0
  0
VERTEX
  5
3D8
  8
0
 10
163.9083599459129
 20
200.1708447902288
 30
0.0
  0
VERTEX
  5
3D9
  8
0
 10
163.7035756538775
 20
200.2741357194323
 30
0.0
  0
VERTEX
  5
3DA
  8
0
 10
163.4902183529926
 20
200.3544731088128
 30
0.0
  0
VERTEX
  5
3DB
  8
0
 10
163.2682880432581
 20
200.4118569583704
 30
0.0
  0
VERTEX
  5
3DC
  8
0
 10
163.037784724674
 20
200.4462872681049
 30
0.0
  0
VERTEX
  5
3DD
  8
0
 10
162.7987083972403
 20
200.4577640380164
 30
0.0
  0
VERTEX
  5
3DE
  8
0
 10
162.580304083081
 20
200.4496749893438
 30
0.0
  0
VERTEX
  5
3DF
  8
0
 10
162.3675690167094
 20
200.4254078433261
 30
0.0
  0
VERTEX
  5
3E0
  8
0
 10
162.1605031981253
 20
200.3849625999633
 30
0.0
  0
VERTEX
  5
3E1
  8
0
 10
161.9591066273289
 20
200.3283392592553
 30
0.0
  0
VERTEX
  5
3E2
  8
0
 10
161.76337930432
 20
200.2555378212022
 30
0.0
  0
VERTEX
  5
3E3
  8
0
 10
161.5733212290988
 20
200.166558285804
 30
0.0
  0
VERTEX
  5
3E4
  8
0
 10
161.3889324016652
 20
200.0614006530606
 30
0.0
  0
VERTEX
  5
3E5
  8
0
 10
161.2102128220191
 20
199.9400649229721
 30
0.0
  0
VERTEX
  5
3E6
  8
0
 10
161.0400662512226
 20
199.8031041928836
 30
0.0
  0
VERTEX
  5
3E7
  8
0
 10
160.8813964503377
 20
199.6510715601403
 30
0.0
  0
VERTEX
  5
3E8
  8
0
 10
160.7342034193642
 20
199.483967024742
 30
0.0
  0
VERTEX
  5
3E9
  8
0
 10
160.5984871583023
 20
199.301790586689
 30
0.0
  0
VERTEX
  5
3EA
  8
0
 10
160.4742476671518
 20
199.104542245981
 30
0.0
  0
VERTEX
  5
3EB
  8
0
 10
160.3614849459129
 20
198.8922220026182
 30
0.0
  0
VERTEX
  5
3EC
  8
0
 10
160.2601989945855
 20
198.6648298566004
 30
0.0
  0
VERTEX
  5
3ED
  8
0
 10
160.1703898131695
 20
198.4223658079279
 30
0.0
  0
VERTEX
  5
3EE
  8
0
 10
159.842956184851
 20
198.4223658079279
 30
0.0
  0
VERTEX
  5
3EF
  8
0
 10
159.9091204547625
 20
198.8197662504058
 30
0.0
  0
VERTEX
  5
3F0
  8
0
 10
159.9969937954704
 20
199.1933835070429
 30
0.0
  0
VERTEX
  5
3F1
  8
0
 10
160.1065762069749
 20
199.5432175778394
 30
0.0
  0
VERTEX
  5
3F2
  8
0
 10
160.2378676892757
 20
199.8692684627952
 30
0.0
  0
VERTEX
  5
3F3
  8
0
 10
160.3116543319748
 20
200.0233752105828
 30
0.0
  0
VERTEX
  5
3F4
  8
0
 10
160.3908682423731
 20
200.1715361619102
 30
0.0
  0
VERTEX
  5
3F5
  8
0
 10
160.4755094204704
 20
200.3137513167774
 30
0.0
  0
VERTEX
  5
3F6
  8
0
 10
160.5655778662669
 20
200.4500206751845
 30
0.0
  0
VERTEX
  5
3F7
  8
0
 10
160.6610735797625
 20
200.5803442371314
 30
0.0
  0
VERTEX
  5
3F8
  8
0
 10
160.7619965609572
 20
200.7047220026182
 30
0.0
  0
VERTEX
  5
3F9
  8
0
 10
160.868346809851
 20
200.8231539716447
 30
0.0
  0
VERTEX
  5
3FA
  8
0
 10
160.9801243264439
 20
200.9356401442111
 30
0.0
  0
VERTEX
  5
3FB
  8
0
 10
161.096395758966
 20
201.0417311287243
 30
0.0
  0
VERTEX
  5
3FC
  8
0
 10
161.2162277556475
 20
201.1409775335916
 30
0.0
  0
VERTEX
  5
3FD
  8
0
 10
161.3396203164882
 20
201.2333793588128
 30
0.0
  0
VERTEX
  5
3FE
  8
0
 10
161.4665734414882
 20
201.3189366043881
 30
0.0
  0
VERTEX
  5
3FF
  8
0
 10
161.5970871306474
 20
201.3976492703172
 30
0.0
  0
VERTEX
  5
400
  8
0
 10
161.731161383966
 20
201.4695173566004
 30
0.0
  0
VERTEX
  5
401
  8
0
 10
161.8687962014439
 20
201.5345408632376
 30
0.0
  0
VERTEX
  5
402
  8
0
 10
162.009991583081
 20
201.5927197902288
 30
0.0
  0
VERTEX
  5
403
  8
0
 10
162.1547475288775
 20
201.6440541375739
 30
0.0
  0
VERTEX
  5
404
  8
0
 10
162.3030640388333
 20
201.688543905273
 30
0.0
  0
VERTEX
  5
405
  8
0
 10
162.6103787512226
 20
201.7569897017332
 30
0.0
  0
VERTEX
  5
406
  8
0
 10
162.9319357202492
 20
201.7980571796093
 30
0.0
  0
VERTEX
  5
407
  8
0
 10
163.2677349459129
 20
201.8117463389013
 30
0.0
  0
VERTEX
  5
408
  8
0
 10
163.6252432423731
 20
201.7970892592553
 30
0.0
  0
VERTEX
  5
409
  8
0
 10
163.7983454271076
 20
201.7787679096978
 30
0.0
  0
VERTEX
  5
40A
  8
0
 10
163.9676796361784
 20
201.7531180203173
 30
0.0
  0
VERTEX
  5
40B
  8
0
 10
164.1332458695855
 20
201.7201395911137
 30
0.0
  0
VERTEX
  5
40C
  8
0
 10
164.2950441273289
 20
201.6798326220872
 30
0.0
  0
VERTEX
  5
40D
  8
0
 10
164.4530744094085
 20
201.6321971132376
 30
0.0
  0
VERTEX
  5
40E
  8
0
 10
164.6073367158244
 20
201.5772330645651
 30
0.0
  0
VERTEX
  5
40F
  8
0
 10
164.7578310465767
 20
201.5149404760695
 30
0.0
  0
VERTEX
  5
410
  8
0
 10
164.9045574016651
 20
201.4453193477509
 30
0.0
  0
VERTEX
  5
411
  8
0
 10
165.0475157810899
 20
201.3683696796093
 30
0.0
  0
VERTEX
  5
412
  8
0
 10
165.186706184851
 20
201.2840914716447
 30
0.0
  0
VERTEX
  5
413
  8
0
 10
165.3221286129483
 20
201.1924847238571
 30
0.0
  0
VERTEX
  5
414
  8
0
 10
165.4537830653819
 20
201.0935494362465
 30
0.0
  0
VERTEX
  5
415
  8
0
 10
165.5816695421519
 20
200.9872856088129
 30
0.0
  0
VERTEX
  5
416
  8
0
 10
165.7057880432581
 20
200.8736932415562
 30
0.0
  0
VERTEX
  5
417
  8
0
 10
165.9349777556474
 20
200.6339255424412
 30
0.0
  0
VERTEX
  5
418
  8
0
 10
166.0381131262227
 20
200.5101008742996
 30
0.0
  0
VERTEX
  5
419
  8
0
 10
166.1336088397182
 20
200.3836489937686
 30
0.0
  0
VERTEX
  5
41A
  8
0
 10
166.2214648961342
 20
200.2545699008482
 30
0.0
  0
VERTEX
  5
41B
  8
0
 10
166.3016812954704
 20
200.1228635955385
 30
0.0
  0
VERTEX
  5
41C
  8
0
 10
166.3742580377271
 20
199.9885300778394
 30
0.0
  0
VERTEX
  5
41D
  8
0
 10
166.4391951229041
 20
199.8515693477509
 30
0.0
  0
VERTEX
  5
41E
  8
0
 10
166.4964925510014
 20
199.711981405273
 30
0.0
  0
VERTEX
  5
41F
  8
0
 10
166.5461503220191
 20
199.5697662504057
 30
0.0
  0
VERTEX
  5
420
  8
0
 10
166.5881684359572
 20
199.4249238831491
 30
0.0
  0
VERTEX
  5
421
  8
0
 10
166.6225468928156
 20
199.2774543035031
 30
0.0
  0
VERTEX
  5
422
  8
0
 10
166.6492856925943
 20
199.1273575114677
 30
0.0
  0
VERTEX
  5
423
  8
0
 10
166.6683848352934
 20
198.9746335070429
 30
0.0
  0
VERTEX
  5
424
  8
0
 10
166.6798443209129
 20
198.8192822902288
 30
0.0
  0
VERTEX
  5
425
  8
0
 10
166.6836641494527
 20
198.6613038610252
 30
0.0
  0
VERTEX
  5
426
  8
0
 10
166.6770269813111
 20
198.4334277548305
 30
0.0
  0
VERTEX
  5
427
  8
0
 10
166.6571154768864
 20
198.2055516486358
 30
0.0
  0
VERTEX
  5
428
  8
0
 10
166.6239296361784
 20
197.9776755424411
 30
0.0
  0
VERTEX
  5
429
  8
0
 10
166.5774694591872
 20
197.7497994362465
 30
0.0
  0
VERTEX
  5
42A
  8
0
 10
166.5177349459129
 20
197.5219233300518
 30
0.0
  0
VERTEX
  5
42B
  8
0
 10
166.4447260963554
 20
197.2940472238571
 30
0.0
  0
VERTEX
  5
42C
  8
0
 10
166.3584429105147
 20
197.0661711176624
 30
0.0
  0
VERTEX
  5
42D
  8
0
 10
166.2588853883908
 20
196.8382950114677
 30
0.0
  0
VERTEX
  5
42E
  8
0
 10
166.0824473352935
 20
196.4772607194323
 30
0.0
  0
VERTEX
  5
42F
  8
0
 10
165.88056680432
 20
196.1109720026182
 30
0.0
  0
VERTEX
  5
430
  8
0
 10
165.6532437954705
 20
195.7394288610253
 30
0.0
  0
VERTEX
  5
431
  8
0
 10
165.4004783087448
 20
195.3626312946536
 30
0.0
  0
VERTEX
  5
432
  8
0
 10
165.122270344143
 20
194.9805793035031
 30
0.0
  0
VERTEX
  5
433
  8
0
 10
164.8186199016651
 20
194.5932728875739
 30
0.0
  0
VERTEX
  5
434
  8
0
 10
164.4895269813111
 20
194.2007120468659
 30
0.0
  0
VERTEX
  5
435
  8
0
 10
164.1349915830811
 20
193.8028967813792
 30
0.0
  0
VERTEX
  5
436
  8
0
 10
163.1366508751165
 20
192.718825984919
 30
0.0
  0
VERTEX
  5
437
  8
0
 10
162.3451685742315
 20
191.8736932415562
 30
0.0
  0
VERTEX
  5
438
  8
0
 10
161.7605446804262
 20
191.2674985512907
 30
0.0
  0
VERTEX
  5
439
  8
0
 10
161.3827791937005
 20
190.9002419141226
 30
0.0
  0
VERTEX
  5
43A
  8
0
 10
164.5155225565324
 20
190.9002419141226
 30
0.0
  0
VERTEX
  5
43B
  8
0
 10
164.957723883966
 20
190.9046666928836
 30
0.0
  0
VERTEX
  5
43C
  8
0
 10
165.3285756538775
 20
190.9179410291668
 30
0.0
  0
VERTEX
  5
43D
  8
0
 10
165.6280778662669
 20
190.9400649229721
 30
0.0
  0
VERTEX
  5
43E
  8
0
 10
165.8562305211342
 20
190.9710383742996
 30
0.0
  0
VERTEX
  5
43F
  8
0
 10
166.0440070698067
 20
191.0155627105828
 30
0.0
  0
VERTEX
  5
440
  8
0
 10
166.222380963612
 20
191.0783392592553
 30
0.0
  0
VERTEX
  5
441
  8
0
 10
166.3913522025501
 20
191.1593680203173
 30
0.0
  0
VERTEX
  5
442
  8
0
 10
166.5509207866209
 20
191.2586489937686
 30
0.0
  0
VERTEX
  5
443
  8
0
 10
166.7008101671518
 20
191.3783945689898
 30
0.0
  0
VERTEX
  5
444
  8
0
 10
166.8407437954704
 20
191.5208171353615
 30
0.0
  0
VERTEX
  5
445
  8
0
 10
166.9707216715766
 20
191.6859166928837
 30
0.0
  0
VERTEX
  5
446
  8
0
 10
167.0907437954704
 20
191.8736932415562
 30
0.0
  0
SEQEND
  5
65C
  8
0
  0
POLYLINE
  5
8C
  8
0
 66
     1
 10
0.0
 20
0.0
 30
0.0
 70
     1
  0
VERTEX
  5
447
  8
0
 10
309.6354843710517
 20
126.1610120525304
 30
0.0
  0
VERTEX
  5
448
  8
0
 10
312.5558383533527
 20
127.5857908135924
 30
0.0
  0
VERTEX
  5
449
  8
0
 10
312.8478737515828
 20
127.5857908135924
 30
0.0
  0
VERTEX
  5
44A
  8
0
 10
312.8478737515828
 20
117.4530474507605
 30
0.0
  0
VERTEX
  5
44B
  8
0
 10
312.8531281763615
 20
116.9961890436809
 30
0.0
  0
VERTEX
  5
44C
  8
0
 10
312.8688914506978
 20
116.6344633799641
 30
0.0
  0
VERTEX
  5
44D
  8
0
 10
312.8951635745916
 20
116.3678704596101
 30
0.0
  0
VERTEX
  5
44E
  8
0
 10
312.9122404551225
 20
116.2702487781941
 30
0.0
  0
VERTEX
  5
44F
  8
0
 10
312.9319445480429
 20
116.1964102826189
 30
0.0
  0
VERTEX
  5
450
  8
0
 10
312.9853184418482
 20
116.0797067427959
 30
0.0
  0
VERTEX
  5
451
  8
0
 10
313.061369326804
 20
115.9773837339464
 30
0.0
  0
VERTEX
  5
452
  8
0
 10
313.1600972029103
 20
115.8894412560703
 30
0.0
  0
VERTEX
  5
453
  8
0
 10
313.2815020701668
 20
115.8158793091676
 30
0.0
  0
VERTEX
  5
454
  8
0
 10
313.3564467604323
 20
115.7844910348313
 30
0.0
  0
VERTEX
  5
455
  8
0
 10
313.4485374683969
 20
115.7566978932384
 30
0.0
  0
VERTEX
  5
456
  8
0
 10
313.6841569374234
 20
115.7118970082826
 30
0.0
  0
VERTEX
  5
457
  8
0
 10
313.9883604772465
 20
115.6814766543004
 30
0.0
  0
VERTEX
  5
458
  8
0
 10
314.361148087866
 20
115.6654368312915
 30
0.0
  0
VERTEX
  5
459
  8
0
 10
314.361148087866
 20
115.3380032029729
 30
0.0
  0
VERTEX
  5
45A
  8
0
 10
309.8478737515828
 20
115.3380032029729
 30
0.0
  0
VERTEX
  5
45B
  8
0
 10
309.8478737515828
 20
115.6654368312915
 30
0.0
  0
VERTEX
  5
45C
  8
0
 10
310.2350418931757
 20
115.6812001056278
 30
0.0
  0
VERTEX
  5
45D
  8
0
 10
310.5469887958305
 20
115.7107908135924
 30
0.0
  0
VERTEX
  5
45E
  8
0
 10
310.7837144595474
 20
115.7542089551853
 30
0.0
  0
VERTEX
  5
45F
  8
0
 10
310.873869326804
 20
115.7811033135924
 30
0.0
  0
VERTEX
  5
460
  8
0
 10
310.9452188843261
 20
115.8114545304065
 30
0.0
  0
VERTEX
  5
461
  8
0
 10
311.0597100347685
 20
115.8811447958933
 30
0.0
  0
VERTEX
  5
462
  8
0
 10
311.1553958754765
 20
115.9618970082826
 30
0.0
  0
VERTEX
  5
463
  8
0
 10
311.23227640645
 20
116.0537111675747
 30
0.0
  0
VERTEX
  5
464
  8
0
 10
311.2903516276889
 20
116.1565872737694
 30
0.0
  0
VERTEX
  5
465
  8
0
 10
311.3131668931757
 20
116.22427256138
 30
0.0
  0
VERTEX
  5
466
  8
0
 10
311.3329401232642
 20
116.3189213445658
 30
0.0
  0
VERTEX
  5
467
  8
0
 10
311.3633604772464
 20
116.5891093976632
 30
0.0
  0
VERTEX
  5
468
  8
0
 10
311.3816126896358
 20
116.9671514330614
 30
0.0
  0
VERTEX
  5
469
  8
0
 10
311.3876967604323
 20
117.4530474507605
 30
0.0
  0
VERTEX
  5
46A
  8
0
 10
311.3876967604323
 20
123.9309235569552
 30
0.0
  0
VERTEX
  5
46B
  8
0
 10
311.382165786981
 20
124.5271624950083
 30
0.0
  0
VERTEX
  5
46C
  8
0
 10
311.365572866627
 20
125.0061447958933
 30
0.0
  0
VERTEX
  5
46D
  8
0
 10
311.3379179993703
 20
125.3678704596101
 30
0.0
  0
VERTEX
  5
46E
  8
0
 10
311.2992011852111
 20
125.6123394861588
 30
0.0
  0
VERTEX
  5
46F
  8
0
 10
311.2618671144146
 20
125.7445297516455
 30
0.0
  0
VERTEX
  5
470
  8
0
 10
311.2118118046801
 20
125.8579147073977
 30
0.0
  0
VERTEX
  5
471
  8
0
 10
311.1490352560076
 20
125.9524943534154
 30
0.0
  0
VERTEX
  5
472
  8
0
 10
311.0735374683969
 20
126.0282686896986
 30
0.0
  0
VERTEX
  5
473
  8
0
 10
310.9875308312288
 20
126.0863439109375
 30
0.0
  0
VERTEX
  5
474
  8
0
 10
310.8932277338837
 20
126.1278262118225
 30
0.0
  0
VERTEX
  5
475
  8
0
 10
310.7906281763616
 20
126.1527155923534
 30
0.0
  0
VERTEX
  5
476
  8
0
 10
310.6797321586624
 20
126.1610120525304
 30
0.0
  0
VERTEX
  5
477
  8
0
 10
310.5938637958305
 20
126.1567255481057
 30
0.0
  0
VERTEX
  5
478
  8
0
 10
310.4999755214943
 20
126.1438660348313
 30
0.0
  0
VERTEX
  5
479
  8
0
 10
310.2881392383084
 20
126.092427981734
 30
0.0
  0
VERTEX
  5
47A
  8
0
 10
310.0442233091049
 20
126.0066978932384
 30
0.0
  0
VERTEX
  5
47B
  8
0
 10
309.7682277338836
 20
125.8866757693446
 30
0.0
  0
SEQEND
  5
65D
  8
0
  0
POLYLINE
  5
8D
  8
0
 66
     1
 10
0.0
 20
0.0
 30
0.0
 70
     1
  0
VERTEX
  5
47C
  8
0
 10
324.8832719816712
 20
117.6477377162472
 30
0.0
  0
VERTEX
  5
47D
  8
0
 10
324.0425640170695
 20
115.3380032029729
 30
0.0
  0
VERTEX
  5
47E
  8
0
 10
316.9629179993703
 20
115.3380032029729
 30
0.0
  0
VERTEX
  5
47F
  8
0
 10
316.9629179993703
 20
115.6654368312915
 30
0.0
  0
VERTEX
  5
480
  8
0
 10
317.7149921144146
 20
116.3615098401411
 30
0.0
  0
VERTEX
  5
481
  8
0
 10
318.4092675568925
 20
117.0249501056278
 30
0.0
  0
VERTEX
  5
482
  8
0
 10
319.045744326804
 20
117.6557576277517
 30
0.0
  0
VERTEX
  5
483
  8
0
 10
319.6244224241491
 20
118.2539324065127
 30
0.0
  0
VERTEX
  5
484
  8
0
 10
320.1453018489278
 20
118.819474441911
 30
0.0
  0
VERTEX
  5
485
  8
0
 10
320.6083826011402
 20
119.3523837339464
 30
0.0
  0
VERTEX
  5
486
  8
0
 10
321.0136646807862
 20
119.8526602826189
 30
0.0
  0
VERTEX
  5
487
  8
0
 10
321.3611480878659
 20
120.3203040879287
 30
0.0
  0
VERTEX
  5
488
  8
0
 10
321.6598206542376
 20
120.7667919197871
 30
0.0
  0
VERTEX
  5
489
  8
0
 10
321.9186702117597
 20
121.2036005481056
 30
0.0
  0
VERTEX
  5
48A
  8
0
 10
322.0331613622022
 20
121.4183751609375
 30
0.0
  0
VERTEX
  5
48B
  8
0
 10
322.1376967604323
 20
121.6307299728844
 30
0.0
  0
VERTEX
  5
48C
  8
0
 10
322.23227640645
 20
121.8406649839464
 30
0.0
  0
VERTEX
  5
48D
  8
0
 10
322.3169003002553
 20
122.0481801941233
 30
0.0
  0
VERTEX
  5
48E
  8
0
 10
322.3915684418482
 20
122.2532756034154
 30
0.0
  0
VERTEX
  5
48F
  8
0
 10
322.4562808312288
 20
122.4559512118225
 30
0.0
  0
VERTEX
  5
490
  8
0
 10
322.5110374683969
 20
122.6562070193446
 30
0.0
  0
VERTEX
  5
491
  8
0
 10
322.5558383533527
 20
122.8540430259818
 30
0.0
  0
VERTEX
  5
492
  8
0
 10
322.5906834860961
 20
123.049459231734
 30
0.0
  0
VERTEX
  5
493
  8
0
 10
322.615572866627
 20
123.2424556366012
 30
0.0
  0
VERTEX
  5
494
  8
0
 10
322.6305064949456
 20
123.4330322405835
 30
0.0
  0
VERTEX
  5
495
  8
0
 10
322.6354843710517
 20
123.6211890436809
 30
0.0
  0
VERTEX
  5
496
  8
0
 10
322.6245606984854
 20
123.9002266543004
 30
0.0
  0
VERTEX
  5
497
  8
0
 10
322.5917896807862
 20
124.1665430259818
 30
0.0
  0
VERTEX
  5
498
  8
0
 10
322.5371713179544
 20
124.4201381587251
 30
0.0
  0
VERTEX
  5
499
  8
0
 10
322.4607056099898
 20
124.6610120525304
 30
0.0
  0
VERTEX
  5
49A
  8
0
 10
322.3623925568925
 20
124.8891647073977
 30
0.0
  0
VERTEX
  5
49B
  8
0
 10
322.2422321586624
 20
125.1045961233269
 30
0.0
  0
VERTEX
  5
49C
  8
0
 10
322.1002244152996
 20
125.307306300318
 30
0.0
  0
VERTEX
  5
49D
  8
0
 10
321.936369326804
 20
125.4972952383711
 30
0.0
  0
VERTEX
  5
49E
  8
0
 10
321.7573040613172
 20
125.6694467870437
 30
0.0
  0
VERTEX
  5
49F
  8
0
 10
321.569665786981
 20
125.8186447958932
 30
0.0
  0
VERTEX
  5
4A0
  8
0
 10
321.3734545037951
 20
125.9448892649198
 30
0.0
  0
VERTEX
  5
4A1
  8
0
 10
321.1686702117597
 20
126.0481801941233
 30
0.0
  0
VERTEX
  5
4A2
  8
0
 10
320.9553129108748
 20
126.1285175835039
 30
0.0
  0
VERTEX
  5
4A3
  8
0
 10
320.7333826011403
 20
126.1859014330614
 30
0.0
  0
VERTEX
  5
4A4
  8
0
 10
320.5028792825562
 20
126.2203317427959
 30
0.0
  0
VERTEX
  5
4A5
  8
0
 10
320.2638029551226
 20
126.2318085127074
 30
0.0
  0
VERTEX
  5
4A6
  8
0
 10
320.0453986409632
 20
126.2237194640349
 30
0.0
  0
VERTEX
  5
4A7
  8
0
 10
319.8326635745916
 20
126.1994523180172
 30
0.0
  0
VERTEX
  5
4A8
  8
0
 10
319.6255977560076
 20
126.1590070746543
 30
0.0
  0
VERTEX
  5
4A9
  8
0
 10
319.424201185211
 20
126.1023837339464
 30
0.0
  0
VERTEX
  5
4AA
  8
0
 10
319.2284738622022
 20
126.0295822958933
 30
0.0
  0
VERTEX
  5
4AB
  8
0
 10
319.038415786981
 20
125.940602760495
 30
0.0
  0
VERTEX
  5
4AC
  8
0
 10
318.8540269595474
 20
125.8354451277517
 30
0.0
  0
VERTEX
  5
4AD
  8
0
 10
318.6753073799013
 20
125.7141093976632
 30
0.0
  0
VERTEX
  5
4AE
  8
0
 10
318.5051608091048
 20
125.5771486675747
 30
0.0
  0
VERTEX
  5
4AF
  8
0
 10
318.3464910082199
 20
125.4251160348313
 30
0.0
  0
VERTEX
  5
4B0
  8
0
 10
318.1992979772465
 20
125.2580114994331
 30
0.0
  0
VERTEX
  5
4B1
  8
0
 10
318.0635817161846
 20
125.07583506138
 30
0.0
  0
VERTEX
  5
4B2
  8
0
 10
317.9393422250341
 20
124.878586720672
 30
0.0
  0
VERTEX
  5
4B3
  8
0
 10
317.8265795037952
 20
124.6662664773092
 30
0.0
  0
VERTEX
  5
4B4
  8
0
 10
317.7252935524677
 20
124.4388743312915
 30
0.0
  0
VERTEX
  5
4B5
  8
0
 10
317.6354843710517
 20
124.1964102826189
 30
0.0
  0
VERTEX
  5
4B6
  8
0
 10
317.3080507427331
 20
124.1964102826189
 30
0.0
  0
VERTEX
  5
4B7
  8
0
 10
317.3742150126447
 20
124.5938107250968
 30
0.0
  0
VERTEX
  5
4B8
  8
0
 10
317.4620883533527
 20
124.967427981734
 30
0.0
  0
VERTEX
  5
4B9
  8
0
 10
317.5716707648571
 20
125.3172620525304
 30
0.0
  0
VERTEX
  5
4BA
  8
0
 10
317.702962247158
 20
125.6433129374862
 30
0.0
  0
VERTEX
  5
4BB
  8
0
 10
317.7767488898571
 20
125.7974196852738
 30
0.0
  0
VERTEX
  5
4BC
  8
0
 10
317.8559628002553
 20
125.9455806366012
 30
0.0
  0
VERTEX
  5
4BD
  8
0
 10
317.9406039783527
 20
126.0877957914685
 30
0.0
  0
VERTEX
  5
4BE
  8
0
 10
318.0306724241491
 20
126.2240651498756
 30
0.0
  0
VERTEX
  5
4BF
  8
0
 10
318.1261681376447
 20
126.3543887118225
 30
0.0
  0
VERTEX
  5
4C0
  8
0
 10
318.2270911188394
 20
126.4787664773092
 30
0.0
  0
VERTEX
  5
4C1
  8
0
 10
318.3334413677332
 20
126.5971984463357
 30
0.0
  0
VERTEX
  5
4C2
  8
0
 10
318.4452188843261
 20
126.7096846189021
 30
0.0
  0
VERTEX
  5
4C3
  8
0
 10
318.5614903168482
 20
126.8157756034154
 30
0.0
  0
VERTEX
  5
4C4
  8
0
 10
318.6813223135296
 20
126.9150220082826
 30
0.0
  0
VERTEX
  5
4C5
  8
0
 10
318.8047148743703
 20
127.0074238335039
 30
0.0
  0
VERTEX
  5
4C6
  8
0
 10
318.9316679993703
 20
127.0929810790791
 30
0.0
  0
VERTEX
  5
4C7
  8
0
 10
319.0621816885296
 20
127.1716937450083
 30
0.0
  0
VERTEX
  5
4C8
  8
0
 10
319.1962559418482
 20
127.2435618312915
 30
0.0
  0
VERTEX
  5
4C9
  8
0
 10
319.3338907593261
 20
127.3085853379287
 30
0.0
  0
VERTEX
  5
4CA
  8
0
 10
319.4750861409632
 20
127.3667642649198
 30
0.0
  0
VERTEX
  5
4CB
  8
0
 10
319.6198420867597
 20
127.4180986122649
 30
0.0
  0
VERTEX
  5
4CC
  8
0
 10
319.7681585967155
 20
127.4625883799641
 30
0.0
  0
VERTEX
  5
4CD
  8
0
 10
320.0754733091048
 20
127.5310341764242
 30
0.0
  0
VERTEX
  5
4CE
  8
0
 10
320.3970302781314
 20
127.5721016543004
 30
0.0
  0
VERTEX
  5
4CF
  8
0
 10
320.7328295037951
 20
127.5857908135924
 30
0.0
  0
VERTEX
  5
4D0
  8
0
 10
321.0903378002553
 20
127.5711337339464
 30
0.0
  0
VERTEX
  5
4D1
  8
0
 10
321.2634399849898
 20
127.5528123843888
 30
0.0
  0
VERTEX
  5
4D2
  8
0
 10
321.4327741940606
 20
127.5271624950083
 30
0.0
  0
VERTEX
  5
4D3
  8
0
 10
321.5983404274677
 20
127.4941840658048
 30
0.0
  0
VERTEX
  5
4D4
  8
0
 10
321.7601386852111
 20
127.4538770967782
 30
0.0
  0
VERTEX
  5
4D5
  8
0
 10
321.9181689672907
 20
127.4062415879287
 30
0.0
  0
VERTEX
  5
4D6
  8
0
 10
322.0724312737066
 20
127.3512775392561
 30
0.0
  0
VERTEX
  5
4D7
  8
0
 10
322.2229256044589
 20
127.2889849507605
 30
0.0
  0
VERTEX
  5
4D8
  8
0
 10
322.3696519595474
 20
127.2193638224419
 30
0.0
  0
VERTEX
  5
4D9
  8
0
 10
322.5126103389721
 20
127.1424141543004
 30
0.0
  0
VERTEX
  5
4DA
  8
0
 10
322.6518007427331
 20
127.0581359463358
 30
0.0
  0
VERTEX
  5
4DB
  8
0
 10
322.7872231708305
 20
126.9665291985481
 30
0.0
  0
VERTEX
  5
4DC
  8
0
 10
322.9188776232642
 20
126.8675939109375
 30
0.0
  0
VERTEX
  5
4DD
  8
0
 10
323.046764100034
 20
126.7613300835039
 30
0.0
  0
VERTEX
  5
4DE
  8
0
 10
323.1708826011402
 20
126.6477377162472
 30
0.0
  0
VERTEX
  5
4DF
  8
0
 10
323.4000723135296
 20
126.4079700171322
 30
0.0
  0
VERTEX
  5
4E0
  8
0
 10
323.5032076841048
 20
126.2841453489906
 30
0.0
  0
VERTEX
  5
4E1
  8
0
 10
323.5987033976004
 20
126.1576934684596
 30
0.0
  0
VERTEX
  5
4E2
  8
0
 10
323.6865594540163
 20
126.0286143755393
 30
0.0
  0
VERTEX
  5
4E3
  8
0
 10
323.7667758533526
 20
125.8969080702296
 30
0.0
  0
VERTEX
  5
4E4
  8
0
 10
323.8393525956092
 20
125.7625745525304
 30
0.0
  0
VERTEX
  5
4E5
  8
0
 10
323.9042896807862
 20
125.6256138224419
 30
0.0
  0
VERTEX
  5
4E6
  8
0
 10
323.9615871088836
 20
125.4860258799641
 30
0.0
  0
VERTEX
  5
4E7
  8
0
 10
324.0112448799013
 20
125.3438107250968
 30
0.0
  0
VERTEX
  5
4E8
  8
0
 10
324.0532629938393
 20
125.1989683578402
 30
0.0
  0
VERTEX
  5
4E9
  8
0
 10
324.0876414506978
 20
125.0514987781942
 30
0.0
  0
VERTEX
  5
4EA
  8
0
 10
324.1143802504765
 20
124.9014019861588
 30
0.0
  0
VERTEX
  5
4EB
  8
0
 10
324.1334793931757
 20
124.748677981734
 30
0.0
  0
VERTEX
  5
4EC
  8
0
 10
324.1449388787951
 20
124.5933267649198
 30
0.0
  0
VERTEX
  5
4ED
  8
0
 10
324.1487587073349
 20
124.4353483357163
 30
0.0
  0
VERTEX
  5
4EE
  8
0
 10
324.1421215391933
 20
124.2074722295216
 30
0.0
  0
VERTEX
  5
4EF
  8
0
 10
324.1222100347686
 20
123.9795961233269
 30
0.0
  0
VERTEX
  5
4F0
  8
0
 10
324.0890241940606
 20
123.7517200171322
 30
0.0
  0
VERTEX
  5
4F1
  8
0
 10
324.0425640170695
 20
123.5238439109375
 30
0.0
  0
VERTEX
  5
4F2
  8
0
 10
323.9828295037951
 20
123.2959678047428
 30
0.0
  0
VERTEX
  5
4F3
  8
0
 10
323.9098206542376
 20
123.0680916985481
 30
0.0
  0
VERTEX
  5
4F4
  8
0
 10
323.8235374683969
 20
122.8402155923534
 30
0.0
  0
VERTEX
  5
4F5
  8
0
 10
323.723979946273
 20
122.6123394861588
 30
0.0
  0
VERTEX
  5
4F6
  8
0
 10
323.5475418931757
 20
122.2513051941234
 30
0.0
  0
VERTEX
  5
4F7
  8
0
 10
323.3456613622021
 20
121.8850164773092
 30
0.0
  0
VERTEX
  5
4F8
  8
0
 10
323.1183383533526
 20
121.5134733357163
 30
0.0
  0
VERTEX
  5
4F9
  8
0
 10
322.865572866627
 20
121.1366757693446
 30
0.0
  0
VERTEX
  5
4FA
  8
0
 10
322.5873649020251
 20
120.7546237781941
 30
0.0
  0
VERTEX
  5
4FB
  8
0
 10
322.2837144595472
 20
120.3673173622649
 30
0.0
  0
VERTEX
  5
4FC
  8
0
 10
321.9546215391933
 20
119.974756521557
 30
0.0
  0
VERTEX
  5
4FD
  8
0
 10
321.6000861409632
 20
119.5769412560703
 30
0.0
  0
VERTEX
  5
4FE
  8
0
 10
320.6017454329987
 20
118.4928704596101
 30
0.0
  0
VERTEX
  5
4FF
  8
0
 10
319.8102631321137
 20
117.6477377162472
 30
0.0
  0
VERTEX
  5
500
  8
0
 10
319.2256392383084
 20
117.0415430259818
 30
0.0
  0
VERTEX
  5
501
  8
0
 10
318.8478737515827
 20
116.6742863888136
 30
0.0
  0
VERTEX
  5
502
  8
0
 10
321.9806171144146
 20
116.6742863888136
 30
0.0
  0
VERTEX
  5
503
  8
0
 10
322.4228184418482
 20
116.6787111675747
 30
0.0
  0
VERTEX
  5
504
  8
0
 10
322.7936702117597
 20
116.6919855038579
 30
0.0
  0
VERTEX
  5
505
  8
0
 10
323.0931724241491
 20
116.7141093976632
 30
0.0
  0
VERTEX
  5
506
  8
0
 10
323.3213250790163
 20
116.7450828489906
 30
0.0
  0
VERTEX
  5
507
  8
0
 10
323.5091016276889
 20
116.7896071852738
 30
0.0
  0
VERTEX
  5
508
  8
0
 10
323.6874755214942
 20
116.8523837339464
 30
0.0
  0
VERTEX
  5
509
  8
0
 10
323.8564467604323
 20
116.9334124950083
 30
0.0
  0
VERTEX
  5
50A
  8
0
 10
324.0160153445031
 20
117.0326934684596
 30
0.0
  0
VERTEX
  5
50B
  8
0
 10
324.1659047250341
 20
117.1524390436809
 30
0.0
  0
VERTEX
  5
50C
  8
0
 10
324.3058383533527
 20
117.2948616100525
 30
0.0
  0
VERTEX
  5
50D
  8
0
 10
324.4358162294589
 20
117.4599611675747
 30
0.0
  0
VERTEX
  5
50E
  8
0
 10
324.5558383533526
 20
117.6477377162472
 30
0.0
  0
SEQEND
  5
65E
  8
0
  0
POLYLINE
  5
8E
  8
0
 66
     1
 10
0.0
 20
0.0
 30
0.0
 70
     1
  0
VERTEX
  5
50F
  8
0
 10
327.9009710967155
 20
117.054817362265
 30
0.0
  0
VERTEX
  5
510
  8
0
 10
328.0028792825561
 20
117.0503234463358
 30
0.0
  0
VERTEX
  5
511
  8
0
 10
328.1006392383084
 20
117.0368416985481
 30
0.0
  0
VERTEX
  5
512
  8
0
 10
328.1942509639721
 20
117.0143721189021
 30
0.0
  0
VERTEX
  5
513
  8
0
 10
328.2837144595474
 20
116.9829147073977
 30
0.0
  0
VERTEX
  5
514
  8
0
 10
328.369029725034
 20
116.9424694640349
 30
0.0
  0
VERTEX
  5
515
  8
0
 10
328.4501967604323
 20
116.8930363888136
 30
0.0
  0
VERTEX
  5
516
  8
0
 10
328.527215565742
 20
116.834615481734
 30
0.0
  0
VERTEX
  5
517
  8
0
 10
328.6000861409632
 20
116.7672067427959
 30
0.0
  0
VERTEX
  5
518
  8
0
 10
328.6664578223792
 20
116.6934373843888
 30
0.0
  0
VERTEX
  5
519
  8
0
 10
328.723979946273
 20
116.6159346189021
 30
0.0
  0
VERTEX
  5
51A
  8
0
 10
328.7726525126447
 20
116.5346984463358
 30
0.0
  0
VERTEX
  5
51B
  8
0
 10
328.8124755214943
 20
116.4497288666897
 30
0.0
  0
VERTEX
  5
51C
  8
0
 10
328.8434489728217
 20
116.3610258799641
 30
0.0
  0
VERTEX
  5
51D
  8
0
 10
328.865572866627
 20
116.2685894861588
 30
0.0
  0
VERTEX
  5
51E
  8
0
 10
328.8788472029102
 20
116.1724196852738
 30
0.0
  0
VERTEX
  5
51F
  8
0
 10
328.8832719816712
 20
116.0725164773092
 30
0.0
  0
VERTEX
  5
520
  8
0
 10
328.878778065742
 20
115.9726132693446
 30
0.0
  0
VERTEX
  5
521
  8
0
 10
328.8652963179544
 20
115.8764434684596
 30
0.0
  0
VERTEX
  5
522
  8
0
 10
328.8428267383084
 20
115.7840070746543
 30
0.0
  0
VERTEX
  5
523
  8
0
 10
328.811369326804
 20
115.6953040879287
 30
0.0
  0
VERTEX
  5
524
  8
0
 10
328.7709240834412
 20
115.6103345082826
 30
0.0
  0
VERTEX
  5
525
  8
0
 10
328.7214910082199
 20
115.5290983357163
 30
0.0
  0
VERTEX
  5
526
  8
0
 10
328.6630701011402
 20
115.4515955702295
 30
0.0
  0
VERTEX
  5
527
  8
0
 10
328.5956613622022
 20
115.3778262118225
 30
0.0
  0
VERTEX
  5
528
  8
0
 10
328.5218920037951
 20
115.3104174728844
 30
0.0
  0
VERTEX
  5
529
  8
0
 10
328.4443892383084
 20
115.2519965658048
 30
0.0
  0
VERTEX
  5
52A
  8
0
 10
328.363153065742
 20
115.2025634905835
 30
0.0
  0
VERTEX
  5
52B
  8
0
 10
328.2781834860961
 20
115.1621182472207
 30
0.0
  0
VERTEX
  5
52C
  8
0
 10
328.1894804993704
 20
115.1306608357163
 30
0.0
  0
VERTEX
  5
52D
  8
0
 10
328.097044105565
 20
115.1081912560703
 30
0.0
  0
VERTEX
  5
52E
  8
0
 10
328.0008743046801
 20
115.0947095082826
 30
0.0
  0
VERTEX
  5
52F
  8
0
 10
327.9009710967155
 20
115.0902155923534
 30
0.0
  0
VERTEX
  5
530
  8
0
 10
327.8010678887508
 20
115.0947095082826
 30
0.0
  0
VERTEX
  5
531
  8
0
 10
327.7048980878659
 20
115.1081912560703
 30
0.0
  0
VERTEX
  5
532
  8
0
 10
327.6124616940605
 20
115.1306608357163
 30
0.0
  0
VERTEX
  5
533
  8
0
 10
327.5237587073349
 20
115.1621182472207
 30
0.0
  0
VERTEX
  5
534
  8
0
 10
327.4387891276889
 20
115.2025634905835
 30
0.0
  0
VERTEX
  5
535
  8
0
 10
327.3575529551225
 20
115.2519965658048
 30
0.0
  0
VERTEX
  5
536
  8
0
 10
327.2800501896358
 20
115.3104174728844
 30
0.0
  0
VERTEX
  5
537
  8
0
 10
327.2062808312288
 20
115.3778262118225
 30
0.0
  0
VERTEX
  5
538
  8
0
 10
327.1388720922907
 20
115.4515955702295
 30
0.0
  0
VERTEX
  5
539
  8
0
 10
327.080451185211
 20
115.5290983357163
 30
0.0
  0
VERTEX
  5
53A
  8
0
 10
327.0310181099898
 20
115.6103345082826
 30
0.0
  0
VERTEX
  5
53B
  8
0
 10
326.990572866627
 20
115.6953040879287
 30
0.0
  0
VERTEX
  5
53C
  8
0
 10
326.9591154551226
 20
115.7840070746543
 30
0.0
  0
VERTEX
  5
53D
  8
0
 10
326.9366458754765
 20
115.8764434684596
 30
0.0
  0
VERTEX
  5
53E
  8
0
 10
326.9231641276889
 20
115.9726132693446
 30
0.0
  0
VERTEX
  5
53F
  8
0
 10
326.9186702117597
 20
116.0725164773092
 30
0.0
  0
VERTEX
  5
540
  8
0
 10
326.9231641276889
 20
116.1744246631499
 30
0.0
  0
VERTEX
  5
541
  8
0
 10
326.9366458754765
 20
116.2721846189021
 30
0.0
  0
VERTEX
  5
542
  8
0
 10
326.9591154551226
 20
116.3657963445658
 30
0.0
  0
VERTEX
  5
543
  8
0
 10
326.990572866627
 20
116.4552598401411
 30
0.0
  0
VERTEX
  5
544
  8
0
 10
327.0310181099898
 20
116.5405751056278
 30
0.0
  0
VERTEX
  5
545
  8
0
 10
327.080451185211
 20
116.621742141026
 30
0.0
  0
VERTEX
  5
546
  8
0
 10
327.1388720922907
 20
116.6987609463357
 30
0.0
  0
VERTEX
  5
547
  8
0
 10
327.2062808312288
 20
116.771631521557
 30
0.0
  0
VERTEX
  5
548
  8
0
 10
327.2800501896358
 20
116.8380032029729
 30
0.0
  0
VERTEX
  5
549
  8
0
 10
327.3575529551225
 20
116.8955253268667
 30
0.0
  0
VERTEX
  5
54A
  8
0
 10
327.4387891276889
 20
116.9441978932384
 30
0.0
  0
VERTEX
  5
54B
  8
0
 10
327.5237587073349
 20
116.984020902088
 30
0.0
  0
VERTEX
  5
54C
  8
0
 10
327.6124616940605
 20
117.0149943534154
 30
0.0
  0
VERTEX
  5
54D
  8
0
 10
327.7048980878659
 20
117.0371182472207
 30
0.0
  0
VERTEX
  5
54E
  8
0
 10
327.8010678887508
 20
117.0503925835039
 30
0.0
  0
SEQEND
  5
65F
  8
0
  0
POLYLINE
  5
8F
  8
0
 66
     1
 10
0.0
 20
0.0
 30
0.0
 70
     1
  0
VERTEX
  5
54F
  8
0
 10
331.0868118046801
 20
125.0548173622649
 30
0.0
  0
VERTEX
  5
550
  8
0
 10
331.2193477560075
 20
125.34927256138
 30
0.0
  0
VERTEX
  5
551
  8
0
 10
331.3603184418482
 20
125.6264434684596
 30
0.0
  0
VERTEX
  5
552
  8
0
 10
331.5097238622021
 20
125.8863300835039
 30
0.0
  0
VERTEX
  5
553
  8
0
 10
331.6675640170694
 20
126.1289324065127
 30
0.0
  0
VERTEX
  5
554
  8
0
 10
331.83383890645
 20
126.3542504374862
 30
0.0
  0
VERTEX
  5
555
  8
0
 10
332.0085485303438
 20
126.5622841764242
 30
0.0
  0
VERTEX
  5
556
  8
0
 10
332.1916928887509
 20
126.7530336233269
 30
0.0
  0
VERTEX
  5
557
  8
0
 10
332.3832719816712
 20
126.9264987781941
 30
0.0
  0
VERTEX
  5
558
  8
0
 10
332.5850833754765
 20
127.0810203489906
 30
0.0
  0
VERTEX
  5
559
  8
0
 10
332.7989246365385
 20
127.2149390436809
 30
0.0
  0
VERTEX
  5
55A
  8
0
 10
333.0247957648571
 20
127.3282548622649
 30
0.0
  0
VERTEX
  5
55B
  8
0
 10
333.2626967604323
 20
127.4209678047428
 30
0.0
  0
VERTEX
  5
55C
  8
0
 10
333.5126276232642
 20
127.4930778711145
 30
0.0
  0
VERTEX
  5
55D
  8
0
 10
333.7745883533527
 20
127.54458506138
 30
0.0
  0
VERTEX
  5
55E
  8
0
 10
334.0485789506978
 20
127.5754893755393
 30
0.0
  0
VERTEX
  5
55F
  8
0
 10
334.3345994152995
 20
127.5857908135924
 30
0.0
  0
VERTEX
  5
560
  8
0
 10
334.5122819374234
 20
127.5821265436809
 30
0.0
  0
VERTEX
  5
561
  8
0
 10
334.6847100347686
 20
127.5711337339464
 30
0.0
  0
VERTEX
  5
562
  8
0
 10
334.8518837073349
 20
127.5528123843888
 30
0.0
  0
VERTEX
  5
563
  8
0
 10
335.0138029551226
 20
127.5271624950083
 30
0.0
  0
VERTEX
  5
564
  8
0
 10
335.1704677781314
 20
127.4941840658048
 30
0.0
  0
VERTEX
  5
565
  8
0
 10
335.3218781763615
 20
127.4538770967782
 30
0.0
  0
VERTEX
  5
566
  8
0
 10
335.4680341498128
 20
127.4062415879287
 30
0.0
  0
VERTEX
  5
567
  8
0
 10
335.6089356984854
 20
127.3512775392561
 30
0.0
  0
VERTEX
  5
568
  8
0
 10
335.7445828223791
 20
127.2889849507605
 30
0.0
  0
VERTEX
  5
569
  8
0
 10
335.8749755214942
 20
127.2193638224419
 30
0.0
  0
VERTEX
  5
56A
  8
0
 10
336.0001137958304
 20
127.1424141543004
 30
0.0
  0
VERTEX
  5
56B
  8
0
 10
336.119997645388
 20
127.0581359463358
 30
0.0
  0
VERTEX
  5
56C
  8
0
 10
336.2346270701668
 20
126.9665291985481
 30
0.0
  0
VERTEX
  5
56D
  8
0
 10
336.3440020701668
 20
126.8675939109375
 30
0.0
  0
VERTEX
  5
56E
  8
0
 10
336.448122645388
 20
126.7613300835039
 30
0.0
  0
VERTEX
  5
56F
  8
0
 10
336.5469887958305
 20
126.6477377162472
 30
0.0
  0
VERTEX
  5
570
  8
0
 10
336.6838803887508
 20
126.4714379374862
 30
0.0
  0
VERTEX
  5
571
  8
0
 10
336.8025197692818
 20
126.2920961233269
 30
0.0
  0
VERTEX
  5
572
  8
0
 10
336.9029069374234
 20
126.1097122737694
 30
0.0
  0
VERTEX
  5
573
  8
0
 10
336.9850418931757
 20
125.9242863888136
 30
0.0
  0
VERTEX
  5
574
  8
0
 10
337.0489246365385
 20
125.7358184684596
 30
0.0
  0
VERTEX
  5
575
  8
0
 10
337.0945551675119
 20
125.5443085127074
 30
0.0
  0
VERTEX
  5
576
  8
0
 10
337.121933486096
 20
125.349756521557
 30
0.0
  0
VERTEX
  5
577
  8
0
 10
337.1310595922907
 20
125.1521624950083
 30
0.0
  0
VERTEX
  5
578
  8
0
 10
337.1246298356535
 20
124.9880999950083
 30
0.0
  0
VERTEX
  5
579
  8
0
 10
337.105340565742
 20
124.8233461233269
 30
0.0
  0
VERTEX
  5
57A
  8
0
 10
337.0731917825562
 20
124.6579008799641
 30
0.0
  0
VERTEX
  5
57B
  8
0
 10
337.028183486096
 20
124.4917642649198
 30
0.0
  0
VERTEX
  5
57C
  8
0
 10
336.9703156763615
 20
124.3249362781941
 30
0.0
  0
VERTEX
  5
57D
  8
0
 10
336.8995883533526
 20
124.1574169197871
 30
0.0
  0
VERTEX
  5
57E
  8
0
 10
336.8160015170695
 20
123.9892061896986
 30
0.0
  0
VERTEX
  5
57F
  8
0
 10
336.7195551675119
 20
123.8203040879287
 30
0.0
  0
VERTEX
  5
580
  8
0
 10
336.6102493046801
 20
123.6507106144773
 30
0.0
  0
VERTEX
  5
581
  8
0
 10
336.4880839285739
 20
123.4804257693446
 30
0.0
  0
VERTEX
  5
582
  8
0
 10
336.3530590391933
 20
123.3094495525304
 30
0.0
  0
VERTEX
  5
583
  8
0
 10
336.2051746365385
 20
123.1377819640349
 30
0.0
  0
VERTEX
  5
584
  8
0
 10
336.0444307206093
 20
122.9654230038579
 30
0.0
  0
VERTEX
  5
585
  8
0
 10
335.8708272914057
 20
122.7923726719995
 30
0.0
  0
VERTEX
  5
586
  8
0
 10
335.6843643489278
 20
122.6186309684596
 30
0.0
  0
VERTEX
  5
587
  8
0
 10
335.4850418931756
 20
122.4441978932384
 30
0.0
  0
VERTEX
  5
588
  8
0
 10
335.7531558312287
 20
122.3299832914685
 30
0.0
  0
VERTEX
  5
589
  8
0
 10
336.0044003002553
 20
122.2041536454508
 30
0.0
  0
VERTEX
  5
58A
  8
0
 10
336.2387753002553
 20
122.0667089551853
 30
0.0
  0
VERTEX
  5
58B
  8
0
 10
336.4562808312287
 20
121.917649220672
 30
0.0
  0
VERTEX
  5
58C
  8
0
 10
336.6569168931756
 20
121.756974441911
 30
0.0
  0
VERTEX
  5
58D
  8
0
 10
336.8406834860959
 20
121.5846846189021
 30
0.0
  0
VERTEX
  5
58E
  8
0
 10
337.0075806099898
 20
121.4007797516455
 30
0.0
  0
VERTEX
  5
58F
  8
0
 10
337.1576082648571
 20
121.2052598401411
 30
0.0
  0
VERTEX
  5
590
  8
0
 10
337.2903516276889
 20
120.9995076277517
 30
0.0
  0
VERTEX
  5
591
  8
0
 10
337.4053958754765
 20
120.7849058578402
 30
0.0
  0
VERTEX
  5
592
  8
0
 10
337.5027410082199
 20
120.5614545304066
 30
0.0
  0
VERTEX
  5
593
  8
0
 10
337.582387025919
 20
120.3291536454508
 30
0.0
  0
VERTEX
  5
594
  8
0
 10
337.6443339285738
 20
120.0880032029729
 30
0.0
  0
VERTEX
  5
595
  8
0
 10
337.6885817161844
 20
119.8380032029729
 30
0.0
  0
VERTEX
  5
596
  8
0
 10
337.7151303887508
 20
119.5791536454508
 30
0.0
  0
VERTEX
  5
597
  8
0
 10
337.7239799462729
 20
119.3114545304065
 30
0.0
  0
VERTEX
  5
598
  8
0
 10
337.7201082648571
 20
119.1183889883712
 30
0.0
  0
VERTEX
  5
599
  8
0
 10
337.7084932206093
 20
118.9285728932384
 30
0.0
  0
VERTEX
  5
59A
  8
0
 10
337.6891348135297
 20
118.7420062450083
 30
0.0
  0
VERTEX
  5
59B
  8
0
 10
337.6620330436181
 20
118.5586890436809
 30
0.0
  0
VERTEX
  5
59C
  8
0
 10
337.6271879108748
 20
118.3786212892561
 30
0.0
  0
VERTEX
  5
59D
  8
0
 10
337.5845994152995
 20
118.201802981734
 30
0.0
  0
VERTEX
  5
59E
  8
0
 10
337.5342675568925
 20
118.0282341211145
 30
0.0
  0
VERTEX
  5
59F
  8
0
 10
337.4761923356535
 20
117.8579147073977
 30
0.0
  0
VERTEX
  5
5A0
  8
0
 10
337.4103737515827
 20
117.6908447405835
 30
0.0
  0
VERTEX
  5
5A1
  8
0
 10
337.3368118046801
 20
117.527024220672
 30
0.0
  0
VERTEX
  5
5A2
  8
0
 10
337.2555064949456
 20
117.3664531476632
 30
0.0
  0
VERTEX
  5
5A3
  8
0
 10
337.1664578223791
 20
117.209131521557
 30
0.0
  0
VERTEX
  5
5A4
  8
0
 10
337.0696657869809
 20
117.0550593423535
 30
0.0
  0
VERTEX
  5
5A5
  8
0
 10
336.9651303887508
 20
116.9042366100526
 30
0.0
  0
VERTEX
  5
5A6
  8
0
 10
336.8528516276889
 20
116.7566633246543
 30
0.0
  0
VERTEX
  5
5A7
  8
0
 10
336.7328295037951
 20
116.6123394861588
 30
0.0
  0
VERTEX
  5
5A8
  8
0
 10
336.566796594503
 20
116.4323063003181
 30
0.0
  0
VERTEX
  5
5A9
  8
0
 10
336.3917067161844
 20
116.2638881587251
 30
0.0
  0
VERTEX
  5
5AA
  8
0
 10
336.2075598688393
 20
116.10708506138
 30
0.0
  0
VERTEX
  5
5AB
  8
0
 10
336.0143560524676
 20
115.9618970082827
 30
0.0
  0
VERTEX
  5
5AC
  8
0
 10
335.8120952670694
 20
115.8283239994331
 30
0.0
  0
VERTEX
  5
5AD
  8
0
 10
335.6007775126445
 20
115.7063660348313
 30
0.0
  0
VERTEX
  5
5AE
  8
0
 10
335.3804027891932
 20
115.5960231144774
 30
0.0
  0
VERTEX
  5
5AF
  8
0
 10
335.1509710967154
 20
115.4972952383712
 30
0.0
  0
VERTEX
  5
5B0
  8
0
 10
334.912482435211
 20
115.4101824065127
 30
0.0
  0
VERTEX
  5
5B1
  8
0
 10
334.66493680468
 20
115.3346846189021
 30
0.0
  0
VERTEX
  5
5B2
  8
0
 10
334.4083342051225
 20
115.2708018755393
 30
0.0
  0
VERTEX
  5
5B3
  8
0
 10
334.1426746365385
 20
115.2185341764242
 30
0.0
  0
VERTEX
  5
5B4
  8
0
 10
333.8679580989278
 20
115.177881521557
 30
0.0
  0
VERTEX
  5
5B5
  8
0
 10
333.5841845922906
 20
115.1488439109375
 30
0.0
  0
VERTEX
  5
5B6
  8
0
 10
333.2913541166269
 20
115.1314213445658
 30
0.0
  0
VERTEX
  5
5B7
  8
0
 10
332.9894666719367
 20
115.1256138224419
 30
0.0
  0
VERTEX
  5
5B8
  8
0
 10
332.6984683312287
 20
115.1303151498756
 30
0.0
  0
VERTEX
  5
5B9
  8
0
 10
332.4316679993703
 20
115.1444191321765
 30
0.0
  0
VERTEX
  5
5BA
  8
0
 10
332.1890656763615
 20
115.1679257693446
 30
0.0
  0
VERTEX
  5
5BB
  8
0
 10
331.9706613622022
 20
115.20083506138
 30
0.0
  0
VERTEX
  5
5BC
  8
0
 10
331.7764550568925
 20
115.2431470082826
 30
0.0
  0
VERTEX
  5
5BD
  8
0
 10
331.6064467604323
 20
115.2948616100526
 30
0.0
  0
VERTEX
  5
5BE
  8
0
 10
331.4606364728216
 20
115.3559788666897
 30
0.0
  0
VERTEX
  5
5BF
  8
0
 10
331.3390241940606
 20
115.4264987781942
 30
0.0
  0
VERTEX
  5
5C0
  8
0
 10
331.2363554993703
 20
115.5024113888136
 30
0.0
  0
VERTEX
  5
5C1
  8
0
 10
331.1473759639721
 20
115.5797067427959
 30
0.0
  0
VERTEX
  5
5C2
  8
0
 10
331.0720855878659
 20
115.658384840141
 30
0.0
  0
VERTEX
  5
5C3
  8
0
 10
331.0104843710517
 20
115.738445680849
 30
0.0
  0
VERTEX
  5
5C4
  8
0
 10
330.9625723135296
 20
115.8198892649198
 30
0.0
  0
VERTEX
  5
5C5
  8
0
 10
330.9283494152995
 20
115.9027155923534
 30
0.0
  0
VERTEX
  5
5C6
  8
0
 10
330.9078156763615
 20
115.9869246631499
 30
0.0
  0
VERTEX
  5
5C7
  8
0
 10
330.9009710967155
 20
116.0725164773092
 30
0.0
  0
VERTEX
  5
5C8
  8
0
 10
330.9139688843261
 20
116.1969633799641
 30
0.0
  0
VERTEX
  5
5C9
  8
0
 10
330.952962247158
 20
116.3136669197871
 30
0.0
  0
VERTEX
  5
5CA
  8
0
 10
331.017951185211
 20
116.4226270967782
 30
0.0
  0
VERTEX
  5
5CB
  8
0
 10
331.1089356984854
 20
116.5238439109375
 30
0.0
  0
VERTEX
  5
5CC
  8
0
 10
331.2181724241491
 20
116.609020902088
 30
0.0
  0
VERTEX
  5
5CD
  8
0
 10
331.3379179993703
 20
116.6698616100526
 30
0.0
  0
VERTEX
  5
5CE
  8
0
 10
331.4681724241491
 20
116.7063660348313
 30
0.0
  0
VERTEX
  5
5CF
  8
0
 10
331.6089356984854
 20
116.7185341764242
 30
0.0
  0
VERTEX
  5
5D0
  8
0
 10
331.720108264857
 20
116.7141093976632
 30
0.0
  0
VERTEX
  5
5D1
  8
0
 10
331.8323870259189
 20
116.70083506138
 30
0.0
  0
VERTEX
  5
5D2
  8
0
 10
331.9457719816712
 20
116.6787111675747
 30
0.0
  0
VERTEX
  5
5D3
  8
0
 10
332.0602631321137
 20
116.6477377162472
 30
0.0
  0
VERTEX
  5
5D4
  8
0
 10
332.1592675568925
 20
116.6109567427959
 30
0.0
  0
VERTEX
  5
5D5
  8
0
 10
332.3058383533526
 20
116.5448616100525
 30
0.0
  0
VERTEX
  5
5D6
  8
0
 10
332.7416790613172
 20
116.3247288666897
 30
0.0
  0
VERTEX
  5
5D7
  8
0
 10
333.190794105565
 20
116.1023837339464
 30
0.0
  0
VERTEX
  5
5D8
  8
0
 10
333.3539578223792
 20
116.0335231144773
 30
0.0
  0
VERTEX
  5
5D9
  8
0
 10
333.4761923356535
 20
115.9928704596101
 30
0.0
  0
VERTEX
  5
5DA
  8
0
 10
333.6426746365385
 20
115.9502819640349
 30
0.0
  0
VERTEX
  5
5DB
  8
0
 10
333.8146879108748
 20
115.9198616100526
 30
0.0
  0
VERTEX
  5
5DC
  8
0
 10
333.9922321586624
 20
115.9016093976632
 30
0.0
  0
VERTEX
  5
5DD
  8
0
 10
334.1753073799013
 20
115.8955253268667
 30
0.0
  0
VERTEX
  5
5DE
  8
0
 10
334.397306826804
 20
115.9064489994331
 30
0.0
  0
VERTEX
  5
5DF
  8
0
 10
334.6119777338836
 20
115.9392200171322
 30
0.0
  0
VERTEX
  5
5E0
  8
0
 10
334.8193201011402
 20
115.9938383799641
 30
0.0
  0
VERTEX
  5
5E1
  8
0
 10
335.0193339285739
 20
116.0703040879287
 30
0.0
  0
VERTEX
  5
5E2
  8
0
 10
335.2120192161845
 20
116.168617141026
 30
0.0
  0
VERTEX
  5
5E3
  8
0
 10
335.3973759639721
 20
116.2887775392561
 30
0.0
  0
VERTEX
  5
5E4
  8
0
 10
335.5754041719367
 20
116.4307852826189
 30
0.0
  0
VERTEX
  5
5E5
  8
0
 10
335.7461038400783
 20
116.5946403711145
 30
0.0
  0
VERTEX
  5
5E6
  8
0
 10
335.902699525919
 20
116.7734290879287
 30
0.0
  0
VERTEX
  5
5E7
  8
0
 10
336.038415786981
 20
116.9602377162473
 30
0.0
  0
VERTEX
  5
5E8
  8
0
 10
336.1532526232642
 20
117.1550662560703
 30
0.0
  0
VERTEX
  5
5E9
  8
0
 10
336.2472100347686
 20
117.3579147073977
 30
0.0
  0
VERTEX
  5
5EA
  8
0
 10
336.3202880214942
 20
117.5687830702296
 30
0.0
  0
VERTEX
  5
5EB
  8
0
 10
336.3724865834412
 20
117.7876713445658
 30
0.0
  0
VERTEX
  5
5EC
  8
0
 10
336.4038057206093
 20
118.0145795304065
 30
0.0
  0
VERTEX
  5
5ED
  8
0
 10
336.4142454329987
 20
118.2495076277517
 30
0.0
  0
VERTEX
  5
5EE
  8
0
 10
336.4094058312287
 20
118.4237332914685
 30
0.0
  0
VERTEX
  5
5EF
  8
0
 10
336.394887025919
 20
118.596852760495
 30
0.0
  0
VERTEX
  5
5F0
  8
0
 10
336.3706890170694
 20
118.7688660348313
 30
0.0
  0
VERTEX
  5
5F1
  8
0
 10
336.3368118046801
 20
118.9397731144773
 30
0.0
  0
VERTEX
  5
5F2
  8
0
 10
336.2932553887508
 20
119.1095739994331
 30
0.0
  0
VERTEX
  5
5F3
  8
0
 10
336.2400197692818
 20
119.2782686896986
 30
0.0
  0
VERTEX
  5
5F4
  8
0
 10
336.1771049462729
 20
119.4458571852738
 30
0.0
  0
VERTEX
  5
5F5
  8
0
 10
336.1045109197243
 20
119.6123394861588
 30
0.0
  0
VERTEX
  5
5F6
  8
0
 10
335.986701185211
 20
119.8451934684596
 30
0.0
  0
VERTEX
  5
5F7
  8
0
 10
335.8633604772464
 20
120.0481801941233
 30
0.0
  0
VERTEX
  5
5F8
  8
0
 10
335.7344887958305
 20
120.2212996631499
 30
0.0
  0
VERTEX
  5
5F9
  8
0
 10
335.6000861409632
 20
120.3645518755393
 30
0.0
  0
VERTEX
  5
5FA
  8
0
 10
335.3921215391933
 20
120.5373947958933
 30
0.0
  0
VERTEX
  5
5FB
  8
0
 10
335.1487587073349
 20
120.7019412560703
 30
0.0
  0
VERTEX
  5
5FC
  8
0
 10
334.869997645388
 20
120.8581912560703
 30
0.0
  0
VERTEX
  5
5FD
  8
0
 10
334.5558383533526
 20
121.0061447958933
 30
0.0
  0
VERTEX
  5
5FE
  8
0
 10
334.389494326804
 20
121.0735535348313
 30
0.0
  0
VERTEX
  5
5FF
  8
0
 10
334.2223206542376
 20
121.131974441911
 30
0.0
  0
VERTEX
  5
600
  8
0
 10
334.0543173356535
 20
121.1814075171322
 30
0.0
  0
VERTEX
  5
601
  8
0
 10
333.8854843710517
 20
121.221852760495
 30
0.0
  0
VERTEX
  5
602
  8
0
 10
333.7158217604323
 20
121.2533101719995
 30
0.0
  0
VERTEX
  5
603
  8
0
 10
333.5453295037951
 20
121.2757797516455
 30
0.0
  0
VERTEX
  5
604
  8
0
 10
333.3740076011402
 20
121.2892614994331
 30
0.0
  0
VERTEX
  5
605
  8
0
 10
333.2018560524676
 20
121.2937554153623
 30
0.0
  0
VERTEX
  5
606
  8
0
 10
332.9186702117597
 20
121.2937554153623
 30
0.0
  0
VERTEX
  5
607
  8
0
 10
332.9186702117597
 20
121.559242141026
 30
0.0
  0
VERTEX
  5
608
  8
0
 10
333.0935181099898
 20
121.5864821852738
 30
0.0
  0
VERTEX
  5
609
  8
0
 10
333.2685042825561
 20
121.6239545304065
 30
0.0
  0
VERTEX
  5
60A
  8
0
 10
333.4436287294588
 20
121.6716591764242
 30
0.0
  0
VERTEX
  5
60B
  8
0
 10
333.6188914506977
 20
121.7295961233269
 30
0.0
  0
VERTEX
  5
60C
  8
0
 10
333.794292446273
 20
121.7977653711145
 30
0.0
  0
VERTEX
  5
60D
  8
0
 10
333.9698317161844
 20
121.8761669197871
 30
0.0
  0
VERTEX
  5
60E
  8
0
 10
334.1455092604323
 20
121.9648007693446
 30
0.0
  0
VERTEX
  5
60F
  8
0
 10
334.3213250790163
 20
122.0636669197871
 30
0.0
  0
VERTEX
  5
610
  8
0
 10
334.4911951011402
 20
122.1702764330614
 30
0.0
  0
VERTEX
  5
611
  8
0
 10
334.6490352560074
 20
122.2821403711145
 30
0.0
  0
VERTEX
  5
612
  8
0
 10
334.7948455436181
 20
122.3992587339464
 30
0.0
  0
VERTEX
  5
613
  8
0
 10
334.9286259639721
 20
122.521631521557
 30
0.0
  0
VERTEX
  5
614
  8
0
 10
335.0503765170694
 20
122.6492587339464
 30
0.0
  0
VERTEX
  5
615
  8
0
 10
335.1600972029101
 20
122.7821403711145
 30
0.0
  0
VERTEX
  5
616
  8
0
 10
335.2577880214942
 20
122.9202764330614
 30
0.0
  0
VERTEX
  5
617
  8
0
 10
335.3434489728216
 20
123.0636669197871
 30
0.0
  0
VERTEX
  5
618
  8
0
 10
335.4181171144146
 20
123.2114821852738
 30
0.0
  0
VERTEX
  5
619
  8
0
 10
335.4828295037951
 20
123.3628925835039
 30
0.0
  0
VERTEX
  5
61A
  8
0
 10
335.5375861409633
 20
123.5178981144773
 30
0.0
  0
VERTEX
  5
61B
  8
0
 10
335.582387025919
 20
123.6764987781942
 30
0.0
  0
VERTEX
  5
61C
  8
0
 10
335.6172321586624
 20
123.8386945746543
 30
0.0
  0
VERTEX
  5
61D
  8
0
 10
335.6421215391933
 20
124.0044855038579
 30
0.0
  0
VERTEX
  5
61E
  8
0
 10
335.6570551675119
 20
124.1738715658048
 30
0.0
  0
VERTEX
  5
61F
  8
0
 10
335.6620330436181
 20
124.346852760495
 30
0.0
  0
VERTEX
  5
620
  8
0
 10
335.6531143489278
 20
124.5692670304065
 30
0.0
  0
VERTEX
  5
621
  8
0
 10
335.6263582648571
 20
124.7807576277517
 30
0.0
  0
VERTEX
  5
622
  8
0
 10
335.5817647914058
 20
124.9813245525304
 30
0.0
  0
VERTEX
  5
623
  8
0
 10
335.5193339285739
 20
125.1709678047428
 30
0.0
  0
VERTEX
  5
624
  8
0
 10
335.4390656763615
 20
125.3496873843888
 30
0.0
  0
VERTEX
  5
625
  8
0
 10
335.3409600347686
 20
125.5174832914685
 30
0.0
  0
VERTEX
  5
626
  8
0
 10
335.2250170037951
 20
125.6743555259818
 30
0.0
  0
VERTEX
  5
627
  8
0
 10
335.0912365834411
 20
125.8203040879287
 30
0.0
  0
VERTEX
  5
628
  8
0
 10
334.944181826804
 20
125.9520103932384
 30
0.0
  0
VERTEX
  5
629
  8
0
 10
334.788415786981
 20
126.0661558578402
 30
0.0
  0
VERTEX
  5
62A
  8
0
 10
334.6239384639721
 20
126.162740481734
 30
0.0
  0
VERTEX
  5
62B
  8
0
 10
334.4507498577774
 20
126.2417642649198
 30
0.0
  0
VERTEX
  5
62C
  8
0
 10
334.2688499683969
 20
126.3032272073977
 30
0.0
  0
VERTEX
  5
62D
  8
0
 10
334.0782387958305
 20
126.3471293091676
 30
0.0
  0
VERTEX
  5
62E
  8
0
 10
333.8789163400783
 20
126.3734705702295
 30
0.0
  0
VERTEX
  5
62F
  8
0
 10
333.6708826011402
 20
126.3822509905835
 30
0.0
  0
VERTEX
  5
630
  8
0
 10
333.5011854219367
 20
126.3765126056278
 30
0.0
  0
VERTEX
  5
631
  8
0
 10
333.3350142383084
 20
126.3592974507605
 30
0.0
  0
VERTEX
  5
632
  8
0
 10
333.1723690502553
 20
126.3306055259818
 30
0.0
  0
VERTEX
  5
633
  8
0
 10
333.0132498577774
 20
126.2904368312915
 30
0.0
  0
VERTEX
  5
634
  8
0
 10
332.8576566608747
 20
126.2387913666897
 30
0.0
  0
VERTEX
  5
635
  8
0
 10
332.7055894595473
 20
126.1756691321764
 30
0.0
  0
VERTEX
  5
636
  8
0
 10
332.5570482537951
 20
126.1010701277517
 30
0.0
  0
VERTEX
  5
637
  8
0
 10
332.4120330436181
 20
126.0149943534154
 30
0.0
  0
VERTEX
  5
638
  8
0
 10
332.2705438290163
 20
125.9174418091676
 30
0.0
  0
VERTEX
  5
639
  8
0
 10
332.1325806099898
 20
125.8084124950083
 30
0.0
  0
VERTEX
  5
63A
  8
0
 10
331.9981433865385
 20
125.6879064109375
 30
0.0
  0
VERTEX
  5
63B
  8
0
 10
331.8672321586624
 20
125.5559235569552
 30
0.0
  0
VERTEX
  5
63C
  8
0
 10
331.7398469263615
 20
125.4124639330614
 30
0.0
  0
VERTEX
  5
63D
  8
0
 10
331.6159876896359
 20
125.2575275392561
 30
0.0
  0
VERTEX
  5
63E
  8
0
 10
331.4956544484853
 20
125.0911143755393
 30
0.0
  0
VERTEX
  5
63F
  8
0
 10
331.3788472029102
 20
124.913224441911
 30
0.0
  0
SEQEND
  5
660
  8
0
  0
ENDSEC
  0
EOF
