  0
SECTION
  2
HEADER
  9
$ACADVER
  1
AC1009
  9
$DWGCODEPAGE
  3
ansi_1252
  9
$INSBASE
 10
0.0
 20
0.0
 30
0.0
  9
$EXTMIN
 10
-1232.159825321519
 20
30.67005313697277
 30
0.0
  9
$EXTMAX
 10
3841.804050877155
 20
2404.86645304691
 30
0.0
  9
$LIMMIN
 10
0.0
 20
0.0
  9
$LIMMAX
 10
12.0
 20
9.0
  9
$ORTHOMODE
 70
     0
  9
$REGENMODE
 70
     1
  9
$FILLMODE
 70
     1
  9
$QTEXTMODE
 70
     0
  9
$MIRRTEXT
 70
     1
  9
$DRAGMODE
 70
     2
  9
$LTSCALE
 40
1.0
  9
$OSMODE
 70
    37
  9
$ATTMODE
 70
     1
  9
$TEXTSIZE
 40
0.2
  9
$TRACEWID
 40
0.05
  9
$TEXTSTYLE
  7
STANDARD
  9
$CLAYER
  8
0
  9
$CELTYPE
  6
BYLAYER
  9
$CECOLOR
 62
   256
  9
$DIMSCALE
 40
1.0
  9
$DIMASZ
 40
0.18
  9
$DIMEXO
 40
0.0625
  9
$DIMDLI
 40
0.38
  9
$DIMRND
 40
0.0
  9
$DIMDLE
 40
0.0
  9
$DIMEXE
 40
0.18
  9
$DIMTP
 40
0.0
  9
$DIMTM
 40
0.0
  9
$DIMTXT
 40
0.18
  9
$DIMCEN
 40
0.09
  9
$DIMTSZ
 40
0.0
  9
$DIMTOL
 70
     0
  9
$DIMLIM
 70
     0
  9
$DIMTIH
 70
     1
  9
$DIMTOH
 70
     1
  9
$DIMSE1
 70
     0
  9
$DIMSE2
 70
     0
  9
$DIMTAD
 70
     0
  9
$DIMZIN
 70
     0
  9
$DIMBLK
  1

  9
$DIMASO
 70
     1
  9
$DIMSHO
 70
     1
  9
$DIMPOST
  1

  9
$DIMAPOST
  1

  9
$DIMALT
 70
     0
  9
$DIMALTD
 70
     2
  9
$DIMALTF
 40
25.4
  9
$DIMLFAC
 40
1.0
  9
$DIMTOFL
 70
     0
  9
$DIMTVP
 40
0.0
  9
$DIMTIX
 70
     0
  9
$DIMSOXD
 70
     0
  9
$DIMSAH
 70
     0
  9
$DIMBLK1
  1

  9
$DIMBLK2
  1

  9
$DIMSTYLE
  2
STANDARD
  9
$DIMCLRD
 70
     0
  9
$DIMCLRE
 70
     0
  9
$DIMCLRT
 70
     0
  9
$DIMTFAC
 40
1.0
  9
$DIMGAP
 40
0.09
  9
$LUNITS
 70
     2
  9
$LUPREC
 70
     4
  9
$SKETCHINC
 40
0.1
  9
$FILLETRAD
 40
0.5
  9
$AUNITS
 70
     0
  9
$AUPREC
 70
     0
  9
$MENU
  1
.
  9
$ELEVATION
 40
0.0
  9
$PELEVATION
 40
0.0
  9
$THICKNESS
 40
0.0
  9
$LIMCHECK
 70
     0
  9
$CHAMFERA
 40
0.0
  9
$CHAMFERB
 40
0.0
  9
$SKPOLY
 70
     0
  9
$TDCREATE
 40
2454910.5
  9
$TDUPDATE
 40
2459289.999439687
  9
$TDINDWG
 40
0.0000000116
  9
$TDUSRTIMER
 40
0.0000000116
  9
$USRTIMER
 70
     1
  9
$ANGBASE
 50
0.0
  9
$ANGDIR
 70
     0
  9
$PDMODE
 70
     0
  9
$PDSIZE
 40
0.0
  9
$PLINEWID
 40
0.0
  9
$COORDS
 70
     1
  9
$SPLFRAME
 70
     0
  9
$SPLINETYPE
 70
     6
  9
$SPLINESEGS
 70
     8
  9
$ATTDIA
 70
     0
  9
$ATTREQ
 70
     1
  9
$HANDLING
 70
     1
  9
$HANDSEED
  5
6F4
  9
$SURFTAB1
 70
     6
  9
$SURFTAB2
 70
     6
  9
$SURFTYPE
 70
     6
  9
$SURFU
 70
     6
  9
$SURFV
 70
     6
  9
$UCSNAME
  2

  9
$UCSORG
 10
0.0
 20
0.0
 30
0.0
  9
$UCSXDIR
 10
1.0
 20
0.0
 30
0.0
  9
$UCSYDIR
 10
0.0
 20
1.0
 30
0.0
  9
$PUCSNAME
  2

  9
$PUCSORG
 10
0.0
 20
0.0
 30
0.0
  9
$PUCSXDIR
 10
1.0
 20
0.0
 30
0.0
  9
$PUCSYDIR
 10
0.0
 20
1.0
 30
0.0
  9
$USERI1
 70
     0
  9
$USERI2
 70
     0
  9
$USERI3
 70
     0
  9
$USERI4
 70
     0
  9
$USERI5
 70
     0
  9
$USERR1
 40
0.0
  9
$USERR2
 40
0.0
  9
$USERR3
 40
0.0
  9
$USERR4
 40
0.0
  9
$USERR5
 40
0.0
  9
$WORLDVIEW
 70
     1
  9
$SHADEDGE
 70
     3
  9
$SHADEDIF
 70
    70
  9
$TILEMODE
 70
     1
  9
$MAXACTVP
 70
    64
  9
$PLIMCHECK
 70
     0
  9
$PEXTMIN
 10
1.000000000000000E+20
 20
1.000000000000000E+20
 30
1.000000000000000E+20
  9
$PEXTMAX
 10
-1.000000000000000E+20
 20
-1.000000000000000E+20
 30
-1.000000000000000E+20
  9
$PLIMMIN
 10
0.0
 20
0.0
  9
$PLIMMAX
 10
12.0
 20
9.0
  9
$UNITMODE
 70
     0
  9
$VISRETAIN
 70
     1
  9
$PLINEGEN
 70
     0
  9
$PSLTSCALE
 70
     1
  0
ENDSEC
  0
SECTION
  2
TABLES
  0
TABLE
  2
VPORT
 70
     1
  0
VPORT
  2
*ACTIVE
 70
     0
 10
0.0
 20
0.0
 11
1.0
 21
1.0
 12
10.42990654205607
 22
4.5
 13
0.0
 23
0.0
 14
0.5
 24
0.5
 15
0.5
 25
0.5
 16
0.0
 26
0.0
 36
1.0
 17
0.0
 27
0.0
 37
0.0
 40
9.0
 41
1.972972972850329
 42
50.0
 43
0.0
 44
0.0
 50
0.0
 51
0.0
 71
     0
 72
   100
 73
     1
 74
     3
 75
     0
 76
     0
 77
     0
 78
     0
  0
ENDTAB
  0
TABLE
  2
LTYPE
 70
     2
  0
LTYPE
  2
CONTINUOUS
 70
     0
  3
Solid line
 72
    65
 73
     0
 40
0.0
  0
LTYPE
  2
CONTINUOUS2
 70
     0
  3
Solid Line
 72
    65
 73
     0
 40
0.0
  0
ENDTAB
  0
TABLE
  2
LAYER
 70
     1
  0
LAYER
  2
0
 70
     0
 62
     7
  6
CONTINUOUS
  0
ENDTAB
  0
TABLE
  2
STYLE
 70
     1
  0
STYLE
  2
STANDARD
 70
     0
 40
0.0
 41
1.0
 50
0.0
 71
     0
 42
0.2
  3
txt
  4

  0
ENDTAB
  0
TABLE
  2
VIEW
 70
     0
  0
ENDTAB
  0
TABLE
  2
UCS
 70
     0
  0
ENDTAB
  0
TABLE
  2
APPID
 70
     1
  0
APPID
  2
ACAD
 70
     0
  0
ENDTAB
  0
TABLE
  2
DIMSTYLE
 70
     1
  0
DIMSTYLE
  2
STANDARD
 70
     0
  3

  4

  5

  6

  7

 40
1.0
 41
0.18
 42
0.0625
 43
0.38
 44
0.18
 45
0.0
 46
0.0
 47
0.0
 48
0.0
140
0.18
141
0.09
142
0.0
143
25.4
144
1.0
145
0.0
146
1.0
147
0.09
 71
     0
 72
     0
 73
     1
 74
     1
 75
     0
 76
     0
 77
     0
 78
     0
170
     0
171
     2
172
     0
173
     0
174
     0
175
     0
176
     0
177
     0
178
     0
  0
ENDTAB
  0
ENDSEC
  0
SECTION
  2
BLOCKS
  0
BLOCK
  8
0
  2
$MODEL_SPACE
 70
     0
 10
0.0
 20
0.0
 30
0.0
  3
$MODEL_SPACE
  1

  0
ENDBLK
  5
21
  8
0
  0
BLOCK
 67
     1
  8
0
  2
$PAPER_SPACE
 70
     0
 10
0.0
 20
0.0
 30
0.0
  3
$PAPER_SPACE
  1

  0
ENDBLK
  5
1D
 67
     1
  8
0
  0
ENDSEC
  0
SECTION
  2
ENTITIES
  0
POLYLINE
  5
6F
  8
0
 66
     1
 10
0.0
 20
0.0
 30
0.0
 70
     1
  0
VERTEX
  5
F3
  8
0
 10
3555.190094801019
 20
2272.556284422393
 30
0.0
  0
VERTEX
  5
F4
  8
0
 10
3567.490094801019
 20
2272.556284422393
 30
0.0
  0
VERTEX
  5
F5
  8
0
 10
3567.490094801019
 20
2229.936284422392
 30
0.0
  0
VERTEX
  5
F6
  8
0
 10
3561.34009480102
 20
2229.936284422392
 30
0.0
 42
0.9999999999999999
  0
VERTEX
  5
F7
  8
0
 10
3561.34009480102
 20
2223.586284422393
 30
0.0
  0
VERTEX
  5
F8
  8
0
 10
3561.34009480102
 20
2221.526284422393
 30
0.0
 42
0.9999999999999999
  0
VERTEX
  5
F9
  8
0
 10
3561.34009480102
 20
2215.176284422392
 30
0.0
  0
VERTEX
  5
FA
  8
0
 10
3567.490094801019
 20
2215.176284422392
 30
0.0
  0
VERTEX
  5
FB
  8
0
 10
3567.490094801019
 20
2172.556284422393
 30
0.0
  0
VERTEX
  5
FC
  8
0
 10
3555.190094801019
 20
2172.556284422393
 30
0.0
 42
0.9999999999999999
  0
VERTEX
  5
FD
  8
0
 10
3555.190094801019
 20
2166.206284422393
 30
0.0
  0
VERTEX
  5
FE
  8
0
 10
3555.190094801019
 20
2122.556284422393
 30
0.0
  0
VERTEX
  5
FF
  8
0
 10
3361.94009480102
 20
2122.556284422393
 30
0.0
  0
VERTEX
  5
100
  8
0
 10
3361.94009480102
 20
2134.856284422392
 30
0.0
 42
0.9999999999999999
  0
VERTEX
  5
101
  8
0
 10
3355.59009480102
 20
2134.856284422392
 30
0.0
  0
VERTEX
  5
102
  8
0
 10
2918.290094801022
 20
2134.856284422392
 30
0.0
 42
0.9999999999999999
  0
VERTEX
  5
103
  8
0
 10
2911.940094801022
 20
2134.856284422392
 30
0.0
  0
VERTEX
  5
104
  8
0
 10
2911.940094801022
 20
2122.556284422393
 30
0.0
  0
VERTEX
  5
105
  8
0
 10
2718.690094801023
 20
2122.556284422393
 30
0.0
  0
VERTEX
  5
106
  8
0
 10
2718.690094801023
 20
2166.206284422393
 30
0.0
 42
0.9999999999999999
  0
VERTEX
  5
107
  8
0
 10
2718.690094801023
 20
2172.556284422393
 30
0.0
  0
VERTEX
  5
108
  8
0
 10
2706.390094801024
 20
2172.556284422393
 30
0.0
  0
VERTEX
  5
109
  8
0
 10
2706.390094801024
 20
2215.176284422392
 30
0.0
  0
VERTEX
  5
10A
  8
0
 10
2712.540094801024
 20
2215.176284422392
 30
0.0
 42
0.9999999999999999
  0
VERTEX
  5
10B
  8
0
 10
2712.540094801024
 20
2221.526284422393
 30
0.0
  0
VERTEX
  5
10C
  8
0
 10
2712.540094801024
 20
2223.586284422393
 30
0.0
 42
0.9999999999999999
  0
VERTEX
  5
10D
  8
0
 10
2712.540094801024
 20
2229.936284422392
 30
0.0
  0
VERTEX
  5
10E
  8
0
 10
2706.390094801024
 20
2229.936284422392
 30
0.0
  0
VERTEX
  5
10F
  8
0
 10
2706.390094801024
 20
2272.556284422393
 30
0.0
  0
VERTEX
  5
110
  8
0
 10
2718.690094801023
 20
2272.556284422393
 30
0.0
 42
0.9999999999999999
  0
VERTEX
  5
111
  8
0
 10
2718.690094801023
 20
2278.906284422393
 30
0.0
  0
VERTEX
  5
112
  8
0
 10
2718.690094801023
 20
2322.556284422393
 30
0.0
  0
VERTEX
  5
113
  8
0
 10
3555.190094801019
 20
2322.556284422393
 30
0.0
  0
VERTEX
  5
114
  8
0
 10
3555.190094801019
 20
2278.906284422393
 30
0.0
 42
0.9999999999999999
  0
SEQEND
  5
677
  8
0
  0
POLYLINE
  5
70
  8
0
 66
     1
 10
0.0
 20
0.0
 30
0.0
 70
     1
  0
VERTEX
  5
115
  8
0
 10
3691.804050877156
 20
1075.895960849921
 30
0.0
  0
VERTEX
  5
116
  8
0
 10
3691.804050877156
 20
1088.195960849921
 30
0.0
  0
VERTEX
  5
117
  8
0
 10
3734.424050877155
 20
1088.195960849921
 30
0.0
  0
VERTEX
  5
118
  8
0
 10
3734.424050877155
 20
1082.045960849921
 30
0.0
 42
0.9999999999999999
  0
VERTEX
  5
119
  8
0
 10
3740.774050877154
 20
1082.045960849921
 30
0.0
  0
VERTEX
  5
11A
  8
0
 10
3742.834050877155
 20
1082.045960849921
 30
0.0
 42
0.9999999999999999
  0
VERTEX
  5
11B
  8
0
 10
3749.184050877155
 20
1082.045960849921
 30
0.0
  0
VERTEX
  5
11C
  8
0
 10
3749.184050877155
 20
1088.195960849921
 30
0.0
  0
VERTEX
  5
11D
  8
0
 10
3791.804050877155
 20
1088.195960849921
 30
0.0
  0
VERTEX
  5
11E
  8
0
 10
3791.804050877155
 20
1075.895960849921
 30
0.0
 42
0.9999999999999999
  0
VERTEX
  5
11F
  8
0
 10
3798.154050877155
 20
1075.895960849921
 30
0.0
  0
VERTEX
  5
120
  8
0
 10
3841.804050877155
 20
1075.895960849921
 30
0.0
  0
VERTEX
  5
121
  8
0
 10
3841.804050877155
 20
882.6459608499208
 30
0.0
  0
VERTEX
  5
122
  8
0
 10
3829.504050877155
 20
882.6459608499208
 30
0.0
 42
0.9999999999999999
  0
VERTEX
  5
123
  8
0
 10
3829.504050877155
 20
876.2959608499209
 30
0.0
  0
VERTEX
  5
124
  8
0
 10
3829.504050877155
 20
438.9959608499207
 30
0.0
 42
0.9999999999999999
  0
VERTEX
  5
125
  8
0
 10
3829.504050877155
 20
432.6459608499208
 30
0.0
  0
VERTEX
  5
126
  8
0
 10
3841.804050877155
 20
432.6459608499208
 30
0.0
  0
VERTEX
  5
127
  8
0
 10
3841.804050877155
 20
239.3959608499208
 30
0.0
  0
VERTEX
  5
128
  8
0
 10
3798.154050877155
 20
239.3959608499208
 30
0.0
 42
0.9999999999999999
  0
VERTEX
  5
129
  8
0
 10
3791.804050877155
 20
239.3959608499208
 30
0.0
  0
VERTEX
  5
12A
  8
0
 10
3791.804050877155
 20
227.0959608499211
 30
0.0
  0
VERTEX
  5
12B
  8
0
 10
3749.184050877155
 20
227.0959608499211
 30
0.0
  0
VERTEX
  5
12C
  8
0
 10
3749.184050877155
 20
233.2459608499212
 30
0.0
 42
0.9999999999999999
  0
VERTEX
  5
12D
  8
0
 10
3742.834050877155
 20
233.2459608499212
 30
0.0
  0
VERTEX
  5
12E
  8
0
 10
3740.774050877154
 20
233.2459608499212
 30
0.0
 42
0.9999999999999999
  0
VERTEX
  5
12F
  8
0
 10
3734.424050877155
 20
233.2459608499212
 30
0.0
  0
VERTEX
  5
130
  8
0
 10
3734.424050877155
 20
227.0959608499211
 30
0.0
  0
VERTEX
  5
131
  8
0
 10
3691.804050877155
 20
227.0959608499211
 30
0.0
  0
VERTEX
  5
132
  8
0
 10
3691.804050877155
 20
239.3959608499213
 30
0.0
 42
0.9999999999999999
  0
VERTEX
  5
133
  8
0
 10
3685.454050877155
 20
239.3959608499213
 30
0.0
  0
VERTEX
  5
134
  8
0
 10
3641.804050877154
 20
239.3959608499213
 30
0.0
  0
VERTEX
  5
135
  8
0
 10
3641.804050877155
 20
1075.895960849921
 30
0.0
  0
VERTEX
  5
136
  8
0
 10
3685.454050877156
 20
1075.895960849921
 30
0.0
 42
0.9999999999999999
  0
SEQEND
  5
678
  8
0
  0
POLYLINE
  5
71
  8
0
 66
     1
 10
0.0
 20
0.0
 30
0.0
 70
     1
  0
VERTEX
  5
137
  8
0
 10
3784.77074194597
 20
2126.89793742386
 30
0.0
  0
VERTEX
  5
138
  8
0
 10
3784.770741945969
 20
1251.49793742386
 30
0.0
  0
VERTEX
  5
139
  8
0
 10
3753.420741945969
 20
1251.49793742386
 30
0.0
 42
0.9999999999999999
  0
VERTEX
  5
13A
  8
0
 10
3747.070741945969
 20
1251.49793742386
 30
0.0
  0
VERTEX
  5
13B
  8
0
 10
3747.070741945969
 20
1239.19793742386
 30
0.0
  0
VERTEX
  5
13C
  8
0
 10
3684.770741945968
 20
1239.19793742386
 30
0.0
  0
VERTEX
  5
13D
  8
0
 10
3684.770741945968
 20
1339.19793742386
 30
0.0
  0
VERTEX
  5
13E
  8
0
 10
3697.070741945968
 20
1339.19793742386
 30
0.0
 42
0.9999999999999999
  0
VERTEX
  5
13F
  8
0
 10
3697.070741945968
 20
1345.54793742386
 30
0.0
  0
VERTEX
  5
140
  8
0
 10
3697.070741945969
 20
2032.84793742386
 30
0.0
 42
0.9999999999999999
  0
VERTEX
  5
141
  8
0
 10
3697.070741945969
 20
2039.19793742386
 30
0.0
  0
VERTEX
  5
142
  8
0
 10
3684.770741945969
 20
2039.19793742386
 30
0.0
  0
VERTEX
  5
143
  8
0
 10
3684.770741945969
 20
2139.19793742386
 30
0.0
  0
VERTEX
  5
144
  8
0
 10
3747.07074194597
 20
2139.19793742386
 30
0.0
  0
VERTEX
  5
145
  8
0
 10
3747.07074194597
 20
2126.89793742386
 30
0.0
 42
0.9999999999999999
  0
VERTEX
  5
146
  8
0
 10
3753.420741945969
 20
2126.89793742386
 30
0.0
  0
SEQEND
  5
679
  8
0
  0
POLYLINE
  5
72
  8
0
 66
     1
 10
0.0
 20
0.0
 30
0.0
 70
     1
  0
VERTEX
  5
147
  8
0
 10
3146.77919729004
 20
1856.672553822102
 30
0.0
  0
VERTEX
  5
148
  8
0
 10
3146.77919729004
 20
1406.672553822102
 30
0.0
  0
VERTEX
  5
149
  8
0
 10
3134.47919729004
 20
1406.672553822102
 30
0.0
 42
0.9999999999999999
  0
VERTEX
  5
14A
  8
0
 10
3134.47919729004
 20
1400.322553822102
 30
0.0
  0
VERTEX
  5
14B
  8
0
 10
3134.47919729004
 20
1213.422553822102
 30
0.0
  0
VERTEX
  5
14C
  8
0
 10
3012.35419729004
 20
1213.422553822102
 30
0.0
 42
0.9999999999999999
  0
VERTEX
  5
14D
  8
0
 10
3006.004197290041
 20
1213.422553822102
 30
0.0
  0
VERTEX
  5
14E
  8
0
 10
3006.004197290041
 20
1201.122553822102
 30
0.0
  0
VERTEX
  5
14F
  8
0
 10
2856.004197290042
 20
1201.122553822102
 30
0.0
  0
VERTEX
  5
150
  8
0
 10
2856.004197290042
 20
1213.422553822102
 30
0.0
 42
0.9999999999999999
  0
VERTEX
  5
151
  8
0
 10
2849.654197290041
 20
1213.422553822102
 30
0.0
  0
VERTEX
  5
152
  8
0
 10
2715.229197290042
 20
1213.422553822102
 30
0.0
  0
VERTEX
  5
153
  8
0
 10
2715.229197290042
 20
2049.922553822102
 30
0.0
  0
VERTEX
  5
154
  8
0
 10
2849.654197290041
 20
2049.922553822102
 30
0.0
 42
0.9999999999999999
  0
VERTEX
  5
155
  8
0
 10
2856.004197290042
 20
2049.922553822102
 30
0.0
  0
VERTEX
  5
156
  8
0
 10
2856.004197290042
 20
2062.222553822102
 30
0.0
  0
VERTEX
  5
157
  8
0
 10
3006.004197290041
 20
2062.222553822102
 30
0.0
  0
VERTEX
  5
158
  8
0
 10
3006.004197290041
 20
2049.922553822102
 30
0.0
 42
0.9999999999999999
  0
VERTEX
  5
159
  8
0
 10
3012.35419729004
 20
2049.922553822102
 30
0.0
  0
VERTEX
  5
15A
  8
0
 10
3134.47919729004
 20
2049.922553822102
 30
0.0
  0
VERTEX
  5
15B
  8
0
 10
3134.47919729004
 20
1863.022553822102
 30
0.0
 42
0.9999999999999999
  0
VERTEX
  5
15C
  8
0
 10
3134.47919729004
 20
1856.672553822102
 30
0.0
  0
SEQEND
  5
67A
  8
0
  0
POLYLINE
  5
73
  8
0
 66
     1
 10
0.0
 20
0.0
 30
0.0
 70
     1
  0
VERTEX
  5
15D
  8
0
 10
3632.921510613611
 20
1856.672553822102
 30
0.0
  0
VERTEX
  5
15E
  8
0
 10
3632.921510613611
 20
1406.672553822102
 30
0.0
  0
VERTEX
  5
15F
  8
0
 10
3620.621510613611
 20
1406.672553822102
 30
0.0
 42
0.9999999999999999
  0
VERTEX
  5
160
  8
0
 10
3620.621510613611
 20
1400.322553822102
 30
0.0
  0
VERTEX
  5
161
  8
0
 10
3620.621510613611
 20
1213.422553822102
 30
0.0
  0
VERTEX
  5
162
  8
0
 10
3498.496510613611
 20
1213.422553822102
 30
0.0
 42
0.9999999999999999
  0
VERTEX
  5
163
  8
0
 10
3492.146510613611
 20
1213.422553822102
 30
0.0
  0
VERTEX
  5
164
  8
0
 10
3492.146510613611
 20
1201.122553822102
 30
0.0
  0
VERTEX
  5
165
  8
0
 10
3342.146510613612
 20
1201.122553822102
 30
0.0
  0
VERTEX
  5
166
  8
0
 10
3342.146510613612
 20
1213.422553822102
 30
0.0
 42
0.9999999999999999
  0
VERTEX
  5
167
  8
0
 10
3335.796510613611
 20
1213.422553822102
 30
0.0
  0
VERTEX
  5
168
  8
0
 10
3201.371510613613
 20
1213.422553822102
 30
0.0
  0
VERTEX
  5
169
  8
0
 10
3201.371510613613
 20
2049.922553822102
 30
0.0
  0
VERTEX
  5
16A
  8
0
 10
3335.796510613611
 20
2049.922553822102
 30
0.0
 42
0.9999999999999999
  0
VERTEX
  5
16B
  8
0
 10
3342.146510613612
 20
2049.922553822102
 30
0.0
  0
VERTEX
  5
16C
  8
0
 10
3342.146510613612
 20
2062.222553822102
 30
0.0
  0
VERTEX
  5
16D
  8
0
 10
3492.146510613611
 20
2062.222553822102
 30
0.0
  0
VERTEX
  5
16E
  8
0
 10
3492.146510613611
 20
2049.922553822102
 30
0.0
 42
0.9999999999999999
  0
VERTEX
  5
16F
  8
0
 10
3498.496510613611
 20
2049.922553822102
 30
0.0
  0
VERTEX
  5
170
  8
0
 10
3620.621510613611
 20
2049.922553822102
 30
0.0
  0
VERTEX
  5
171
  8
0
 10
3620.621510613611
 20
1863.022553822102
 30
0.0
 42
0.9999999999999999
  0
VERTEX
  5
172
  8
0
 10
3620.621510613611
 20
1856.672553822102
 30
0.0
  0
SEQEND
  5
67B
  8
0
  0
POLYLINE
  5
74
  8
0
 66
     1
 10
0.0
 20
0.0
 30
0.0
 70
     1
  0
VERTEX
  5
173
  8
0
 10
3365.689468153877
 20
237.43611458345
 30
0.0
  0
VERTEX
  5
174
  8
0
 10
2915.689468153879
 20
237.43611458345
 30
0.0
  0
VERTEX
  5
175
  8
0
 10
2915.689468153879
 20
249.7361145834502
 30
0.0
 42
0.9999999999999999
  0
VERTEX
  5
176
  8
0
 10
2909.339468153879
 20
249.7361145834502
 30
0.0
  0
VERTEX
  5
177
  8
0
 10
2722.43946815388
 20
249.7361145834502
 30
0.0
  0
VERTEX
  5
178
  8
0
 10
2722.43946815388
 20
371.8611145834498
 30
0.0
 42
0.9999999999999999
  0
VERTEX
  5
179
  8
0
 10
2722.43946815388
 20
378.2111145834501
 30
0.0
  0
VERTEX
  5
17A
  8
0
 10
2710.13946815388
 20
378.2111145834501
 30
0.0
  0
VERTEX
  5
17B
  8
0
 10
2710.13946815388
 20
528.2111145834501
 30
0.0
  0
VERTEX
  5
17C
  8
0
 10
2722.43946815388
 20
528.2111145834501
 30
0.0
 42
0.9999999999999999
  0
VERTEX
  5
17D
  8
0
 10
2722.43946815388
 20
534.56111458345
 30
0.0
  0
VERTEX
  5
17E
  8
0
 10
2722.43946815388
 20
668.9861145834502
 30
0.0
  0
VERTEX
  5
17F
  8
0
 10
3558.939468153876
 20
668.9861145834502
 30
0.0
  0
VERTEX
  5
180
  8
0
 10
3558.939468153876
 20
534.56111458345
 30
0.0
 42
0.9999999999999999
  0
VERTEX
  5
181
  8
0
 10
3558.939468153876
 20
528.2111145834497
 30
0.0
  0
VERTEX
  5
182
  8
0
 10
3571.239468153876
 20
528.2111145834497
 30
0.0
  0
VERTEX
  5
183
  8
0
 10
3571.239468153876
 20
378.2111145834497
 30
0.0
  0
VERTEX
  5
184
  8
0
 10
3558.939468153876
 20
378.2111145834497
 30
0.0
 42
0.9999999999999999
  0
VERTEX
  5
185
  8
0
 10
3558.939468153876
 20
371.8611145834498
 30
0.0
  0
VERTEX
  5
186
  8
0
 10
3558.939468153876
 20
249.7361145834502
 30
0.0
  0
VERTEX
  5
187
  8
0
 10
3372.039468153876
 20
249.7361145834502
 30
0.0
 42
0.9999999999999999
  0
VERTEX
  5
188
  8
0
 10
3365.689468153877
 20
249.7361145834502
 30
0.0
  0
SEQEND
  5
67C
  8
0
  0
POLYLINE
  5
75
  8
0
 66
     1
 10
0.0
 20
0.0
 30
0.0
 70
     1
  0
VERTEX
  5
189
  8
0
 10
3595.379453512587
 20
942.3149945248852
 30
0.0
  0
VERTEX
  5
18A
  8
0
 10
3501.729453512585
 20
942.3149945248852
 30
0.0
 42
0.9999999999999999
  0
VERTEX
  5
18B
  8
0
 10
3495.379453512586
 20
942.3149945248852
 30
0.0
  0
VERTEX
  5
18C
  8
0
 10
3495.379453512586
 20
930.014994524885
 30
0.0
 42
0.9999999999999999
  0
VERTEX
  5
18D
  8
0
 10
3501.729453512585
 20
930.014994524885
 30
0.0
  0
VERTEX
  5
18E
  8
0
 10
3595.379453512587
 20
930.014994524885
 30
0.0
  0
VERTEX
  5
18F
  8
0
 10
3595.379453512587
 20
880.014994524885
 30
0.0
  0
VERTEX
  5
190
  8
0
 10
3583.079453512586
 20
880.014994524885
 30
0.0
 42
0.9999999999999999
  0
VERTEX
  5
191
  8
0
 10
3583.079453512586
 20
873.6649945248855
 30
0.0
  0
VERTEX
  5
192
  8
0
 10
3583.079453512586
 20
761.3649945248853
 30
0.0
 42
0.9999999999999999
  0
VERTEX
  5
193
  8
0
 10
3583.079453512586
 20
755.0149945248854
 30
0.0
  0
VERTEX
  5
194
  8
0
 10
3595.379453512587
 20
755.0149945248854
 30
0.0
  0
VERTEX
  5
195
  8
0
 10
3595.379453512587
 20
705.0149945248854
 30
0.0
  0
VERTEX
  5
196
  8
0
 10
3545.379453512586
 20
705.0149945248854
 30
0.0
  0
VERTEX
  5
197
  8
0
 10
3545.368369386671
 20
717.317855004816
 30
0.0
 42
0.9995496320895666
  0
VERTEX
  5
198
  8
0
 10
3539.018370675229
 20
717.3149945248847
 30
0.0
  0
VERTEX
  5
199
  8
0
 10
2751.740536349947
 20
717.3149945248856
 30
0.0
 42
0.9995496320893817
  0
VERTEX
  5
19A
  8
0
 10
2745.390537638505
 20
717.3178550048165
 30
0.0
  0
VERTEX
  5
19B
  8
0
 10
2745.37945351259
 20
705.0149945248854
 30
0.0
  0
VERTEX
  5
19C
  8
0
 10
2695.37945351259
 20
705.0149945248854
 30
0.0
  0
VERTEX
  5
19D
  8
0
 10
2695.37945351259
 20
755.0149945248854
 30
0.0
  0
VERTEX
  5
19E
  8
0
 10
2707.67945351259
 20
755.0149945248854
 30
0.0
 42
0.9999999999999999
  0
VERTEX
  5
19F
  8
0
 10
2707.67945351259
 20
761.3649945248853
 30
0.0
  0
VERTEX
  5
1A0
  8
0
 10
2707.67945351259
 20
873.6649945248855
 30
0.0
 42
0.9999999999999999
  0
VERTEX
  5
1A1
  8
0
 10
2707.67945351259
 20
880.0149945248854
 30
0.0
  0
VERTEX
  5
1A2
  8
0
 10
2695.37945351259
 20
880.0149945248854
 30
0.0
  0
VERTEX
  5
1A3
  8
0
 10
2695.37945351259
 20
930.0149945248854
 30
0.0
  0
VERTEX
  5
1A4
  8
0
 10
2789.029453512589
 20
930.0149945248854
 30
0.0
 42
0.9999999999999999
  0
VERTEX
  5
1A5
  8
0
 10
2795.37945351259
 20
930.0149945248854
 30
0.0
  0
VERTEX
  5
1A6
  8
0
 10
2795.37945351259
 20
942.3149945248852
 30
0.0
 42
0.9999999999999999
  0
VERTEX
  5
1A7
  8
0
 10
2789.029453512589
 20
942.3149945248852
 30
0.0
  0
VERTEX
  5
1A8
  8
0
 10
2695.37945351259
 20
942.3149945248852
 30
0.0
  0
VERTEX
  5
1A9
  8
0
 10
2695.37945351259
 20
992.3149945248852
 30
0.0
  0
VERTEX
  5
1AA
  8
0
 10
2707.67945351259
 20
992.3149945248852
 30
0.0
 42
0.9999999999999999
  0
VERTEX
  5
1AB
  8
0
 10
2707.67945351259
 20
998.6649945248855
 30
0.0
  0
VERTEX
  5
1AC
  8
0
 10
2707.67945351259
 20
1110.964994524885
 30
0.0
 42
0.9999999999999999
  0
VERTEX
  5
1AD
  8
0
 10
2707.67945351259
 20
1117.314994524885
 30
0.0
  0
VERTEX
  5
1AE
  8
0
 10
2695.37945351259
 20
1117.314994524885
 30
0.0
  0
VERTEX
  5
1AF
  8
0
 10
2695.37945351259
 20
1167.314994524885
 30
0.0
  0
VERTEX
  5
1B0
  8
0
 10
2745.37945351259
 20
1167.314994524885
 30
0.0
  0
VERTEX
  5
1B1
  8
0
 10
2745.390537638505
 20
1155.012134044954
 30
0.0
 42
0.9995496320895666
  0
VERTEX
  5
1B2
  8
0
 10
2751.740536349947
 20
1155.014994524886
 30
0.0
  0
VERTEX
  5
1B3
  8
0
 10
3539.018370675229
 20
1155.014994524885
 30
0.0
 42
0.9995496320895666
  0
VERTEX
  5
1B4
  8
0
 10
3545.368369386671
 20
1155.012134044955
 30
0.0
  0
VERTEX
  5
1B5
  8
0
 10
3545.379453512586
 20
1167.314994524885
 30
0.0
  0
VERTEX
  5
1B6
  8
0
 10
3595.379453512587
 20
1167.314994524885
 30
0.0
  0
VERTEX
  5
1B7
  8
0
 10
3595.379453512587
 20
1117.314994524885
 30
0.0
  0
VERTEX
  5
1B8
  8
0
 10
3583.079453512586
 20
1117.314994524885
 30
0.0
 42
0.9999999999999999
  0
VERTEX
  5
1B9
  8
0
 10
3583.079453512586
 20
1110.964994524885
 30
0.0
  0
VERTEX
  5
1BA
  8
0
 10
3583.079453512586
 20
998.6649945248855
 30
0.0
 42
0.9999999999999999
  0
VERTEX
  5
1BB
  8
0
 10
3583.079453512586
 20
992.3149945248852
 30
0.0
  0
VERTEX
  5
1BC
  8
0
 10
3595.379453512587
 20
992.3149945248852
 30
0.0
  0
SEQEND
  5
67D
  8
0
  0
POLYLINE
  5
76
  8
0
 66
     1
 10
0.0
 20
0.0
 30
0.0
 70
     1
  0
VERTEX
  5
1BD
  8
0
 10
-1157.159825321509
 20
1264.597833217042
 30
0.0
  0
VERTEX
  5
1BE
  8
0
 10
-1072.780083479448
 20
1118.44783321703
 30
0.0
  0
VERTEX
  5
1BF
  8
0
 10
-491.5395671635965
 20
1118.447833217027
 30
0.0
  0
VERTEX
  5
1C0
  8
0
 10
-407.159825321533
 20
1264.597833217038
 30
0.0
  0
VERTEX
  5
1C1
  8
0
 10
-344.4598253215287
 20
1264.597833217049
 30
0.0
  0
VERTEX
  5
1C2
  8
0
 10
-344.4598253215332
 20
1214.797833217053
 30
0.0
 42
0.9999999999999999
  0
VERTEX
  5
1C3
  8
0
 10
-344.4598253215332
 20
1208.447833217053
 30
0.0
  0
VERTEX
  5
1C4
  8
0
 10
-332.159825321533
 20
1208.447833217053
 30
0.0
  0
VERTEX
  5
1C5
  8
0
 10
-332.159825321533
 20
1080.747833217049
 30
0.0
  0
VERTEX
  5
1C6
  8
0
 10
-344.4598253214705
 20
1080.747833217049
 30
0.0
 42
0.9999999999999999
  0
VERTEX
  5
1C7
  8
0
 10
-344.4598253214687
 20
1074.397833217049
 30
0.0
  0
VERTEX
  5
1C8
  8
0
 10
-344.4598253214486
 20
1030.747833217058
 30
0.0
  0
VERTEX
  5
1C9
  8
0
 10
-375.8098253215281
 20
1030.747833217047
 30
0.0
 42
0.9999999999999999
  0
VERTEX
  5
1CA
  8
0
 10
-382.1598253215275
 20
1030.747833217049
 30
0.0
  0
VERTEX
  5
1CB
  8
0
 10
-382.1598253213747
 20
1018.447833217047
 30
0.0
 42
0.9999999999999999
  0
VERTEX
  5
1CC
  8
0
 10
-375.8098253213744
 20
1018.447833217048
 30
0.0
  0
VERTEX
  5
1CD
  8
0
 10
-344.4598253215451
 20
1018.447833217053
 30
0.0
  0
VERTEX
  5
1CE
  8
0
 10
-344.4598253215332
 20
974.7978332170528
 30
0.0
 42
0.9999999999999999
  0
VERTEX
  5
1CF
  8
0
 10
-344.4598253215332
 20
968.4478332170529
 30
0.0
  0
VERTEX
  5
1D0
  8
0
 10
-332.159825321533
 20
968.4478332170529
 30
0.0
  0
VERTEX
  5
1D1
  8
0
 10
-332.159825321533
 20
840.747833217049
 30
0.0
  0
VERTEX
  5
1D2
  8
0
 10
-344.4598253214705
 20
840.747833217049
 30
0.0
 42
0.9999999999999999
  0
VERTEX
  5
1D3
  8
0
 10
-344.4598253214687
 20
834.3978332170491
 30
0.0
  0
VERTEX
  5
1D4
  8
0
 10
-344.4598253214486
 20
790.7478332170581
 30
0.0
  0
VERTEX
  5
1D5
  8
0
 10
-375.8098253215281
 20
790.7478332170467
 30
0.0
 42
0.9999999999999999
  0
VERTEX
  5
1D6
  8
0
 10
-382.1598253215275
 20
790.7478332170485
 30
0.0
  0
VERTEX
  5
1D7
  8
0
 10
-382.1598253213747
 20
778.4478332170474
 30
0.0
 42
0.9999999999999999
  0
VERTEX
  5
1D8
  8
0
 10
-375.8098253213744
 20
778.4478332170484
 30
0.0
  0
VERTEX
  5
1D9
  8
0
 10
-344.4598253215451
 20
778.4478332170529
 30
0.0
  0
VERTEX
  5
1DA
  8
0
 10
-344.4598253215332
 20
734.7978332170528
 30
0.0
 42
0.9999999999999999
  0
VERTEX
  5
1DB
  8
0
 10
-344.4598253215332
 20
728.4478332170529
 30
0.0
  0
VERTEX
  5
1DC
  8
0
 10
-332.159825321533
 20
728.4478332170529
 30
0.0
  0
VERTEX
  5
1DD
  8
0
 10
-332.159825321533
 20
600.7478332170485
 30
0.0
  0
VERTEX
  5
1DE
  8
0
 10
-344.4598253214705
 20
600.747833217049
 30
0.0
 42
0.9999999999999999
  0
VERTEX
  5
1DF
  8
0
 10
-344.4598253214687
 20
594.3978332170491
 30
0.0
  0
VERTEX
  5
1E0
  8
0
 10
-344.4598253214486
 20
550.7478332170581
 30
0.0
  0
VERTEX
  5
1E1
  8
0
 10
-375.8098253215281
 20
550.7478332170472
 30
0.0
 42
0.9999999999999999
  0
VERTEX
  5
1E2
  8
0
 10
-382.1598253215275
 20
550.7478332170485
 30
0.0
  0
VERTEX
  5
1E3
  8
0
 10
-382.1598253213747
 20
538.4478332170474
 30
0.0
 42
0.9999999999999999
  0
VERTEX
  5
1E4
  8
0
 10
-375.8098253213744
 20
538.4478332170484
 30
0.0
  0
VERTEX
  5
1E5
  8
0
 10
-344.4598253215451
 20
538.4478332170529
 30
0.0
  0
VERTEX
  5
1E6
  8
0
 10
-344.4598253215332
 20
494.7978332170528
 30
0.0
 42
0.9999999999999999
  0
VERTEX
  5
1E7
  8
0
 10
-344.4598253215332
 20
488.4478332170529
 30
0.0
  0
VERTEX
  5
1E8
  8
0
 10
-332.159825321533
 20
488.4478332170529
 30
0.0
  0
VERTEX
  5
1E9
  8
0
 10
-332.159825321533
 20
360.7478332170485
 30
0.0
  0
VERTEX
  5
1EA
  8
0
 10
-344.4598253214714
 20
360.747833217049
 30
0.0
 42
0.9999999999999999
  0
VERTEX
  5
1EB
  8
0
 10
-344.4598253214687
 20
354.3978332170491
 30
0.0
  0
VERTEX
  5
1EC
  8
0
 10
-344.4598253214486
 20
310.7478332170581
 30
0.0
  0
VERTEX
  5
1ED
  8
0
 10
-375.8098253215281
 20
310.7478332170472
 30
0.0
 42
0.9999999999999999
  0
VERTEX
  5
1EE
  8
0
 10
-382.1598253215275
 20
310.7478332170485
 30
0.0
  0
VERTEX
  5
1EF
  8
0
 10
-382.1598253213747
 20
298.4478332170474
 30
0.0
 42
0.9999999999999999
  0
VERTEX
  5
1F0
  8
0
 10
-375.8098253213744
 20
298.4478332170484
 30
0.0
  0
VERTEX
  5
1F1
  8
0
 10
-344.4598253215451
 20
298.4478332170529
 30
0.0
  0
VERTEX
  5
1F2
  8
0
 10
-344.4598253215314
 20
254.7978332170524
 30
0.0
 42
0.9999999999999999
  0
VERTEX
  5
1F3
  8
0
 10
-344.4598253215332
 20
248.4478332170529
 30
0.0
  0
VERTEX
  5
1F4
  8
0
 10
-332.159825321533
 20
248.4478332170529
 30
0.0
  0
VERTEX
  5
1F5
  8
0
 10
-332.159825321533
 20
120.747833217049
 30
0.0
  0
VERTEX
  5
1F6
  8
0
 10
-344.4598253214714
 20
120.747833217049
 30
0.0
 42
0.9999999999999999
  0
VERTEX
  5
1F7
  8
0
 10
-344.4598253214687
 20
114.3978332170491
 30
0.0
  0
VERTEX
  5
1F8
  8
0
 10
-344.4598253214486
 20
70.74783321705809
 30
0.0
  0
VERTEX
  5
1F9
  8
0
 10
-375.809825321529
 20
70.74783321704672
 30
0.0
 42
0.9999999999999999
  0
VERTEX
  5
1FA
  8
0
 10
-382.1598253215275
 20
70.74783321704854
 30
0.0
  0
VERTEX
  5
1FB
  8
0
 10
-382.1598253215275
 20
58.44783321704881
 30
0.0
  0
VERTEX
  5
1FC
  8
0
 10
-1182.159825321524
 20
58.44783321705199
 30
0.0
  0
VERTEX
  5
1FD
  8
0
 10
-1182.159825321524
 20
70.74783321705218
 30
0.0
 42
0.9999999999999999
  0
VERTEX
  5
1FE
  8
0
 10
-1188.509825321524
 20
70.74783321705218
 30
0.0
  0
VERTEX
  5
1FF
  8
0
 10
-1219.859825321605
 20
70.74783321706173
 30
0.0
  0
VERTEX
  5
200
  8
0
 10
-1219.859825321572
 20
114.3978332170532
 30
0.0
 42
0.9999999999999999
  0
VERTEX
  5
201
  8
0
 10
-1219.859825321583
 20
120.7478332170531
 30
0.0
  0
VERTEX
  5
202
  8
0
 10
-1232.159825321519
 20
120.7478332170531
 30
0.0
  0
VERTEX
  5
203
  8
0
 10
-1232.159825321517
 20
248.4478332170565
 30
0.0
  0
VERTEX
  5
204
  8
0
 10
-1219.859825321514
 20
248.4478332170565
 30
0.0
 42
0.9999999999999999
  0
VERTEX
  5
205
  8
0
 10
-1219.859825321518
 20
254.7978332170564
 30
0.0
  0
VERTEX
  5
206
  8
0
 10
-1219.859825321507
 20
298.4478332170565
 30
0.0
  0
VERTEX
  5
207
  8
0
 10
-1188.509825321675
 20
298.4478332170506
 30
0.0
 42
0.9999999999999999
  0
VERTEX
  5
208
  8
0
 10
-1182.159825321675
 20
298.447833217052
 30
0.0
  0
VERTEX
  5
209
  8
0
 10
-1182.159825321524
 20
310.7478332170522
 30
0.0
 42
0.9999999999999999
  0
VERTEX
  5
20A
  8
0
 10
-1188.509825321524
 20
310.7478332170522
 30
0.0
  0
VERTEX
  5
20B
  8
0
 10
-1219.859825321605
 20
310.7478332170622
 30
0.0
  0
VERTEX
  5
20C
  8
0
 10
-1219.859825321572
 20
354.3978332170527
 30
0.0
 42
0.9999999999999999
  0
VERTEX
  5
20D
  8
0
 10
-1219.859825321583
 20
360.7478332170531
 30
0.0
  0
VERTEX
  5
20E
  8
0
 10
-1232.159825321519
 20
360.7478332170526
 30
0.0
  0
VERTEX
  5
20F
  8
0
 10
-1232.159825321517
 20
488.4478332170565
 30
0.0
  0
VERTEX
  5
210
  8
0
 10
-1219.859825321514
 20
488.4478332170565
 30
0.0
 42
0.9999999999999999
  0
VERTEX
  5
211
  8
0
 10
-1219.859825321518
 20
494.7978332170564
 30
0.0
  0
VERTEX
  5
212
  8
0
 10
-1219.859825321507
 20
538.4478332170565
 30
0.0
  0
VERTEX
  5
213
  8
0
 10
-1188.509825321675
 20
538.4478332170506
 30
0.0
 42
0.9999999999999999
  0
VERTEX
  5
214
  8
0
 10
-1182.159825321675
 20
538.447833217052
 30
0.0
  0
VERTEX
  5
215
  8
0
 10
-1182.159825321524
 20
550.7478332170522
 30
0.0
 42
0.9999999999999999
  0
VERTEX
  5
216
  8
0
 10
-1188.509825321524
 20
550.7478332170522
 30
0.0
  0
VERTEX
  5
217
  8
0
 10
-1219.859825321605
 20
550.7478332170622
 30
0.0
  0
VERTEX
  5
218
  8
0
 10
-1219.859825321572
 20
594.3978332170527
 30
0.0
 42
0.9999999999999999
  0
VERTEX
  5
219
  8
0
 10
-1219.859825321583
 20
600.7478332170531
 30
0.0
  0
VERTEX
  5
21A
  8
0
 10
-1232.159825321519
 20
600.7478332170526
 30
0.0
  0
VERTEX
  5
21B
  8
0
 10
-1232.159825321517
 20
728.4478332170565
 30
0.0
  0
VERTEX
  5
21C
  8
0
 10
-1219.859825321514
 20
728.4478332170565
 30
0.0
 42
0.9999999999999999
  0
VERTEX
  5
21D
  8
0
 10
-1219.859825321518
 20
734.7978332170569
 30
0.0
  0
VERTEX
  5
21E
  8
0
 10
-1219.859825321507
 20
778.4478332170565
 30
0.0
  0
VERTEX
  5
21F
  8
0
 10
-1188.509825321675
 20
778.4478332170506
 30
0.0
 42
0.9999999999999999
  0
VERTEX
  5
220
  8
0
 10
-1182.159825321675
 20
778.447833217052
 30
0.0
  0
VERTEX
  5
221
  8
0
 10
-1182.159825321524
 20
790.7478332170522
 30
0.0
 42
0.9999999999999999
  0
VERTEX
  5
222
  8
0
 10
-1188.509825321524
 20
790.7478332170522
 30
0.0
  0
VERTEX
  5
223
  8
0
 10
-1219.859825321605
 20
790.7478332170622
 30
0.0
  0
VERTEX
  5
224
  8
0
 10
-1219.859825321572
 20
834.3978332170527
 30
0.0
 42
0.9999999999999999
  0
VERTEX
  5
225
  8
0
 10
-1219.859825321583
 20
840.7478332170531
 30
0.0
  0
VERTEX
  5
226
  8
0
 10
-1232.159825321519
 20
840.7478332170526
 30
0.0
  0
VERTEX
  5
227
  8
0
 10
-1232.159825321517
 20
968.4478332170565
 30
0.0
  0
VERTEX
  5
228
  8
0
 10
-1219.859825321514
 20
968.4478332170565
 30
0.0
 42
0.9999999999999999
  0
VERTEX
  5
229
  8
0
 10
-1219.859825321518
 20
974.7978332170569
 30
0.0
  0
VERTEX
  5
22A
  8
0
 10
-1219.859825321507
 20
1018.447833217057
 30
0.0
  0
VERTEX
  5
22B
  8
0
 10
-1188.509825321675
 20
1018.447833217051
 30
0.0
 42
0.9999999999999999
  0
VERTEX
  5
22C
  8
0
 10
-1182.159825321675
 20
1018.447833217052
 30
0.0
  0
VERTEX
  5
22D
  8
0
 10
-1182.159825321524
 20
1030.747833217052
 30
0.0
 42
0.9999999999999999
  0
VERTEX
  5
22E
  8
0
 10
-1188.509825321524
 20
1030.747833217052
 30
0.0
  0
VERTEX
  5
22F
  8
0
 10
-1219.859825321605
 20
1030.747833217062
 30
0.0
  0
VERTEX
  5
230
  8
0
 10
-1219.859825321572
 20
1074.397833217052
 30
0.0
 42
0.9999999999999999
  0
VERTEX
  5
231
  8
0
 10
-1219.859825321583
 20
1080.747833217053
 30
0.0
  0
VERTEX
  5
232
  8
0
 10
-1232.159825321511
 20
1080.747833217053
 30
0.0
  0
VERTEX
  5
233
  8
0
 10
-1232.15982532151
 20
1208.447833217057
 30
0.0
  0
VERTEX
  5
234
  8
0
 10
-1219.859825321514
 20
1208.447833217057
 30
0.0
 42
0.9999999999999999
  0
VERTEX
  5
235
  8
0
 10
-1219.859825321509
 20
1214.797833217057
 30
0.0
  0
VERTEX
  5
236
  8
0
 10
-1219.859825321512
 20
1264.597833217053
 30
0.0
  0
SEQEND
  5
67E
  8
0
  0
POLYLINE
  5
77
  8
0
 66
     1
 10
0.0
 20
0.0
 30
0.0
 70
     1
  0
VERTEX
  5
237
  8
0
 10
-356.7598253169496
 20
184.397833218512
 30
0.0
  0
VERTEX
  5
238
  8
0
 10
-356.7598253166185
 20
178.4478332180643
 30
0.0
 42
0.9999999999999999
  0
VERTEX
  5
239
  8
0
 10
-350.409825316619
 20
178.4478332185117
 30
0.0
  0
VERTEX
  5
23A
  8
0
 10
-344.4598253175542
 20
178.447833218931
 30
0.0
 42
0.9999999999999999
  0
VERTEX
  5
23B
  8
0
 10
-344.459825317325
 20
184.7978332189305
 30
0.0
  0
VERTEX
  5
23C
  8
0
 10
-344.4598253171104
 20
190.7478332131686
 30
0.0
 42
0.9999999999999999
  0
VERTEX
  5
23D
  8
0
 10
-350.8098253171098
 20
190.7478332159271
 30
0.0
  0
VERTEX
  5
23E
  8
0
 10
-356.7598253173024
 20
190.7478332185119
 30
0.0
 42
0.9999999999999999
  0
SEQEND
  5
67F
  8
0
  0
POLYLINE
  5
78
  8
0
 66
     1
 10
0.0
 20
0.0
 30
0.0
  0
VERTEX
  5
23F
  8
0
 10
-1207.559825326102
 20
184.3978332185156
 30
0.0
  0
VERTEX
  5
240
  8
0
 10
-1207.559825326432
 20
178.4478332185154
 30
0.0
  0
SEQEND
  5
680
  8
0
  0
POLYLINE
  5
79
  8
0
 66
     1
 10
0.0
 20
0.0
 30
0.0
  0
VERTEX
  5
241
  8
0
 10
-1213.909825326433
 20
178.4478332182916
 30
0.0
 42
0.414213562373112
  0
VERTEX
  5
242
  8
0
 10
-1210.734825326433
 20
175.2728332182915
 30
0.0
 42
0.4142135623731119
  0
VERTEX
  5
243
  8
0
 10
-1207.559825326432
 20
178.4478332182916
 30
0.0
  0
SEQEND
  5
681
  8
0
  0
POLYLINE
  5
7A
  8
0
 66
     1
 10
0.0
 20
0.0
 30
0.0
  0
VERTEX
  5
244
  8
0
 10
-1213.909825326433
 20
178.4478332180684
 30
0.0
  0
VERTEX
  5
245
  8
0
 10
-1219.859825325727
 20
178.4478332189346
 30
0.0
  0
SEQEND
  5
682
  8
0
  0
POLYLINE
  5
7B
  8
0
 66
     1
 10
0.0
 20
0.0
 30
0.0
  0
VERTEX
  5
246
  8
0
 10
-1219.859825325727
 20
184.7978332189346
 30
0.0
 42
0.9999999998788385
  0
VERTEX
  5
247
  8
0
 10
-1219.859825325727
 20
178.4478332189346
 30
0.0
  0
SEQEND
  5
683
  8
0
  0
POLYLINE
  5
7C
  8
0
 66
     1
 10
0.0
 20
0.0
 30
0.0
  0
VERTEX
  5
248
  8
0
 10
-1219.859825325727
 20
184.7978332189346
 30
0.0
  0
VERTEX
  5
249
  8
0
 10
-1219.859825325942
 20
190.7478332159308
 30
0.0
  0
SEQEND
  5
684
  8
0
  0
POLYLINE
  5
7D
  8
0
 66
     1
 10
0.0
 20
0.0
 30
0.0
  0
VERTEX
  5
24A
  8
0
 10
-1213.509825325942
 20
190.7478332145511
 30
0.0
 42
0.414213562373112
  0
VERTEX
  5
24B
  8
0
 10
-1216.684825325942
 20
193.9228332145512
 30
0.0
 42
0.4142135623731119
  0
VERTEX
  5
24C
  8
0
 10
-1219.859825325942
 20
190.7478332145511
 30
0.0
  0
SEQEND
  5
685
  8
0
  0
POLYLINE
  5
7E
  8
0
 66
     1
 10
0.0
 20
0.0
 30
0.0
  0
VERTEX
  5
24D
  8
0
 10
-1213.509825325942
 20
190.7478332159308
 30
0.0
  0
VERTEX
  5
24E
  8
0
 10
-1207.559825326105
 20
190.7478332185156
 30
0.0
  0
SEQEND
  5
686
  8
0
  0
POLYLINE
  5
7F
  8
0
 66
     1
 10
0.0
 20
0.0
 30
0.0
  0
VERTEX
  5
24F
  8
0
 10
-1207.559825325746
 20
184.3978332185156
 30
0.0
 42
0.999999999999982
  0
VERTEX
  5
250
  8
0
 10
-1207.559825326105
 20
190.7478332185156
 30
0.0
  0
SEQEND
  5
687
  8
0
  0
POLYLINE
  5
80
  8
0
 66
     1
 10
0.0
 20
0.0
 30
0.0
  0
VERTEX
  5
251
  8
0
 10
-344.459825317325
 20
418.4478332189306
 30
0.0
  0
VERTEX
  5
252
  8
0
 10
-350.409825316619
 20
418.4478332185117
 30
0.0
  0
SEQEND
  5
688
  8
0
  0
POLYLINE
  5
81
  8
0
 66
     1
 10
0.0
 20
0.0
 30
0.0
  0
VERTEX
  5
253
  8
0
 10
-356.7598253166185
 20
418.447833218288
 30
0.0
 42
1.0
  0
VERTEX
  5
254
  8
0
 10
-350.409825316619
 20
418.447833218288
 30
0.0
  0
SEQEND
  5
689
  8
0
  0
POLYLINE
  5
82
  8
0
 66
     1
 10
0.0
 20
0.0
 30
0.0
  0
VERTEX
  5
255
  8
0
 10
-356.7598253166185
 20
418.4478332180643
 30
0.0
  0
VERTEX
  5
256
  8
0
 10
-356.7598253169496
 20
424.3978332185116
 30
0.0
  0
SEQEND
  5
68A
  8
0
  0
POLYLINE
  5
83
  8
0
 66
     1
 10
0.0
 20
0.0
 30
0.0
  0
VERTEX
  5
257
  8
0
 10
-356.7598253173024
 20
430.7478332185115
 30
0.0
 42
0.9999999999999912
  0
VERTEX
  5
258
  8
0
 10
-356.7598253169496
 20
424.3978332185116
 30
0.0
  0
SEQEND
  5
68B
  8
0
  0
POLYLINE
  5
84
  8
0
 66
     1
 10
0.0
 20
0.0
 30
0.0
  0
VERTEX
  5
259
  8
0
 10
-356.7598253169468
 20
430.7478332185115
 30
0.0
  0
VERTEX
  5
25A
  8
0
 10
-350.8098253171098
 20
430.7478332159271
 30
0.0
  0
SEQEND
  5
68C
  8
0
  0
POLYLINE
  5
85
  8
0
 66
     1
 10
0.0
 20
0.0
 30
0.0
  0
VERTEX
  5
25B
  8
0
 10
-344.4598253171104
 20
430.7478332145479
 30
0.0
 42
1.0
  0
VERTEX
  5
25C
  8
0
 10
-350.8098253171098
 20
430.7478332145479
 30
0.0
  0
SEQEND
  5
68D
  8
0
  0
POLYLINE
  5
86
  8
0
 66
     1
 10
0.0
 20
0.0
 30
0.0
  0
VERTEX
  5
25D
  8
0
 10
-344.4598253171104
 20
430.7478332159271
 30
0.0
  0
VERTEX
  5
25E
  8
0
 10
-344.459825317325
 20
424.7978332189309
 30
0.0
  0
SEQEND
  5
68E
  8
0
  0
POLYLINE
  5
87
  8
0
 66
     1
 10
0.0
 20
0.0
 30
0.0
  0
VERTEX
  5
25F
  8
0
 10
-344.459825317325
 20
418.4478332189306
 30
0.0
 42
0.4142135623730762
  0
VERTEX
  5
260
  8
0
 10
-341.2848253174403
 20
421.6228332190453
 30
0.0
 42
0.4142135623730814
  0
VERTEX
  5
261
  8
0
 10
-344.4598253175542
 20
424.7978332189309
 30
0.0
  0
SEQEND
  5
68F
  8
0
  0
POLYLINE
  5
88
  8
0
 66
     1
 10
0.0
 20
0.0
 30
0.0
  0
VERTEX
  5
262
  8
0
 10
-1213.909825326433
 20
418.4478332185154
 30
0.0
  0
VERTEX
  5
263
  8
0
 10
-1219.859825325727
 20
418.4478332189346
 30
0.0
  0
SEQEND
  5
690
  8
0
  0
POLYLINE
  5
89
  8
0
 66
     1
 10
0.0
 20
0.0
 30
0.0
  0
VERTEX
  5
264
  8
0
 10
-1219.859825324957
 20
424.797833218935
 30
0.0
 42
0.9999999999999643
  0
VERTEX
  5
265
  8
0
 10
-1219.859825325727
 20
418.4478332189346
 30
0.0
  0
SEQEND
  5
691
  8
0
  0
POLYLINE
  5
8A
  8
0
 66
     1
 10
0.0
 20
0.0
 30
0.0
  0
VERTEX
  5
266
  8
0
 10
-1219.859825324957
 20
424.797833218935
 30
0.0
  0
VERTEX
  5
267
  8
0
 10
-1219.859825325942
 20
430.7478332159308
 30
0.0
  0
SEQEND
  5
692
  8
0
  0
POLYLINE
  5
8B
  8
0
 66
     1
 10
0.0
 20
0.0
 30
0.0
  0
VERTEX
  5
268
  8
0
 10
-1213.509825325942
 20
430.7478332145511
 30
0.0
 42
1.0
  0
VERTEX
  5
269
  8
0
 10
-1219.859825325942
 20
430.7478332145511
 30
0.0
  0
SEQEND
  5
693
  8
0
  0
POLYLINE
  5
8C
  8
0
 66
     1
 10
0.0
 20
0.0
 30
0.0
  0
VERTEX
  5
26A
  8
0
 10
-1213.509825325942
 20
430.7478332159308
 30
0.0
  0
VERTEX
  5
26B
  8
0
 10
-1207.559825326105
 20
430.7478332185156
 30
0.0
  0
SEQEND
  5
694
  8
0
  0
POLYLINE
  5
8D
  8
0
 66
     1
 10
0.0
 20
0.0
 30
0.0
  0
VERTEX
  5
26C
  8
0
 10
-1207.559825325746
 20
424.3978332185156
 30
0.0
 42
0.999999999999973
  0
VERTEX
  5
26D
  8
0
 10
-1207.559825326105
 20
430.7478332185151
 30
0.0
  0
SEQEND
  5
695
  8
0
  0
POLYLINE
  5
8E
  8
0
 66
     1
 10
0.0
 20
0.0
 30
0.0
  0
VERTEX
  5
26E
  8
0
 10
-1207.559825326102
 20
424.3978332185152
 30
0.0
  0
VERTEX
  5
26F
  8
0
 10
-1207.559825326432
 20
418.4478332185154
 30
0.0
  0
SEQEND
  5
696
  8
0
  0
POLYLINE
  5
8F
  8
0
 66
     1
 10
0.0
 20
0.0
 30
0.0
  0
VERTEX
  5
270
  8
0
 10
-1213.909825326433
 20
418.4478332182916
 30
0.0
 42
0.9999999999999822
  0
VERTEX
  5
271
  8
0
 10
-1207.559825326432
 20
418.4478332182916
 30
0.0
  0
SEQEND
  5
697
  8
0
  0
POLYLINE
  5
90
  8
0
 66
     1
 10
0.0
 20
0.0
 30
0.0
  0
VERTEX
  5
272
  8
0
 10
-344.459825317325
 20
658.447833218931
 30
0.0
  0
VERTEX
  5
273
  8
0
 10
-350.409825316619
 20
658.4478332185117
 30
0.0
  0
SEQEND
  5
698
  8
0
  0
POLYLINE
  5
91
  8
0
 66
     1
 10
0.0
 20
0.0
 30
0.0
  0
VERTEX
  5
274
  8
0
 10
-356.7598253166185
 20
658.447833218288
 30
0.0
 42
1.0
  0
VERTEX
  5
275
  8
0
 10
-350.409825316619
 20
658.447833218288
 30
0.0
  0
SEQEND
  5
699
  8
0
  0
POLYLINE
  5
92
  8
0
 66
     1
 10
0.0
 20
0.0
 30
0.0
  0
VERTEX
  5
276
  8
0
 10
-356.7598253166185
 20
658.4478332180643
 30
0.0
  0
VERTEX
  5
277
  8
0
 10
-356.7598253169496
 20
664.3978332185116
 30
0.0
  0
SEQEND
  5
69A
  8
0
  0
POLYLINE
  5
93
  8
0
 66
     1
 10
0.0
 20
0.0
 30
0.0
  0
VERTEX
  5
278
  8
0
 10
-356.7598253173024
 20
670.7478332185115
 30
0.0
 42
0.4142135623730863
  0
VERTEX
  5
279
  8
0
 10
-359.9348253171262
 20
667.5728332183353
 30
0.0
 42
0.414213562373081
  0
VERTEX
  5
27A
  8
0
 10
-356.7598253169496
 20
664.3978332185116
 30
0.0
  0
SEQEND
  5
69B
  8
0
  0
POLYLINE
  5
94
  8
0
 66
     1
 10
0.0
 20
0.0
 30
0.0
  0
VERTEX
  5
27B
  8
0
 10
-356.7598253169468
 20
670.7478332185115
 30
0.0
  0
VERTEX
  5
27C
  8
0
 10
-350.8098253171098
 20
670.7478332159271
 30
0.0
  0
SEQEND
  5
69C
  8
0
  0
POLYLINE
  5
95
  8
0
 66
     1
 10
0.0
 20
0.0
 30
0.0
  0
VERTEX
  5
27D
  8
0
 10
-344.4598253171104
 20
670.7478332145479
 30
0.0
 42
0.414213562373102
  0
VERTEX
  5
27E
  8
0
 10
-347.6348253171097
 20
673.9228332145476
 30
0.0
 42
0.414213562373102
  0
VERTEX
  5
27F
  8
0
 10
-350.8098253171098
 20
670.7478332145479
 30
0.0
  0
SEQEND
  5
69D
  8
0
  0
POLYLINE
  5
96
  8
0
 66
     1
 10
0.0
 20
0.0
 30
0.0
  0
VERTEX
  5
280
  8
0
 10
-344.4598253171104
 20
670.7478332159271
 30
0.0
  0
VERTEX
  5
281
  8
0
 10
-344.459825317325
 20
664.7978332189305
 30
0.0
  0
SEQEND
  5
69E
  8
0
  0
POLYLINE
  5
97
  8
0
 66
     1
 10
0.0
 20
0.0
 30
0.0
  0
VERTEX
  5
282
  8
0
 10
-344.459825317325
 20
658.447833218931
 30
0.0
 42
0.4142135623731005
  0
VERTEX
  5
283
  8
0
 10
-341.2848253174403
 20
661.6228332190453
 30
0.0
 42
0.4142135623730863
  0
VERTEX
  5
284
  8
0
 10
-344.4598253175542
 20
664.7978332189305
 30
0.0
  0
SEQEND
  5
69F
  8
0
  0
POLYLINE
  5
98
  8
0
 66
     1
 10
0.0
 20
0.0
 30
0.0
  0
VERTEX
  5
285
  8
0
 10
-1213.909825326433
 20
658.4478332185154
 30
0.0
  0
VERTEX
  5
286
  8
0
 10
-1219.859825325727
 20
658.4478332189346
 30
0.0
  0
SEQEND
  5
6A0
  8
0
  0
POLYLINE
  5
99
  8
0
 66
     1
 10
0.0
 20
0.0
 30
0.0
  0
VERTEX
  5
287
  8
0
 10
-1219.859825324957
 20
664.797833218935
 30
0.0
 42
0.9999999999999822
  0
VERTEX
  5
288
  8
0
 10
-1219.859825325727
 20
658.4478332189346
 30
0.0
  0
SEQEND
  5
6A1
  8
0
  0
POLYLINE
  5
9A
  8
0
 66
     1
 10
0.0
 20
0.0
 30
0.0
  0
VERTEX
  5
289
  8
0
 10
-1219.859825324957
 20
664.797833218935
 30
0.0
  0
VERTEX
  5
28A
  8
0
 10
-1219.859825325942
 20
670.7478332159308
 30
0.0
  0
SEQEND
  5
6A2
  8
0
  0
POLYLINE
  5
9B
  8
0
 66
     1
 10
0.0
 20
0.0
 30
0.0
  0
VERTEX
  5
28B
  8
0
 10
-1213.509825325942
 20
670.7478332145515
 30
0.0
 42
1.0
  0
VERTEX
  5
28C
  8
0
 10
-1219.859825325942
 20
670.7478332145515
 30
0.0
  0
SEQEND
  5
6A3
  8
0
  0
POLYLINE
  5
9C
  8
0
 66
     1
 10
0.0
 20
0.0
 30
0.0
  0
VERTEX
  5
28D
  8
0
 10
-1213.509825325942
 20
670.7478332159308
 30
0.0
  0
VERTEX
  5
28E
  8
0
 10
-1207.559825326105
 20
670.7478332185156
 30
0.0
  0
SEQEND
  5
6A4
  8
0
  0
POLYLINE
  5
9D
  8
0
 66
     1
 10
0.0
 20
0.0
 30
0.0
  0
VERTEX
  5
28F
  8
0
 10
-1207.559825325746
 20
664.3978332185156
 30
0.0
 42
0.999999999999982
  0
VERTEX
  5
290
  8
0
 10
-1207.559825326105
 20
670.7478332185156
 30
0.0
  0
SEQEND
  5
6A5
  8
0
  0
POLYLINE
  5
9E
  8
0
 66
     1
 10
0.0
 20
0.0
 30
0.0
  0
VERTEX
  5
291
  8
0
 10
-1207.559825326102
 20
664.3978332185156
 30
0.0
  0
VERTEX
  5
292
  8
0
 10
-1207.559825326432
 20
658.4478332185154
 30
0.0
  0
SEQEND
  5
6A6
  8
0
  0
POLYLINE
  5
9F
  8
0
 66
     1
 10
0.0
 20
0.0
 30
0.0
  0
VERTEX
  5
293
  8
0
 10
-1213.909825326433
 20
658.4478332182916
 30
0.0
 42
0.4142135623731005
  0
VERTEX
  5
294
  8
0
 10
-1210.734825326433
 20
655.2728332182915
 30
0.0
 42
0.4142135623731004
  0
VERTEX
  5
295
  8
0
 10
-1207.559825326432
 20
658.4478332182916
 30
0.0
  0
SEQEND
  5
6A7
  8
0
  0
POLYLINE
  5
A0
  8
0
 66
     1
 10
0.0
 20
0.0
 30
0.0
  0
VERTEX
  5
296
  8
0
 10
-344.459825317325
 20
898.447833218931
 30
0.0
  0
VERTEX
  5
297
  8
0
 10
-350.409825316619
 20
898.4478332185117
 30
0.0
  0
SEQEND
  5
6A8
  8
0
  0
POLYLINE
  5
A1
  8
0
 66
     1
 10
0.0
 20
0.0
 30
0.0
  0
VERTEX
  5
298
  8
0
 10
-356.7598253166185
 20
898.447833218288
 30
0.0
 42
0.4142135623730944
  0
VERTEX
  5
299
  8
0
 10
-353.5848253166192
 20
895.2728332182878
 30
0.0
 42
0.4142135623730943
  0
VERTEX
  5
29A
  8
0
 10
-350.409825316619
 20
898.447833218288
 30
0.0
  0
SEQEND
  5
6A9
  8
0
  0
POLYLINE
  5
A2
  8
0
 66
     1
 10
0.0
 20
0.0
 30
0.0
  0
VERTEX
  5
29B
  8
0
 10
-356.7598253166185
 20
898.4478332180643
 30
0.0
  0
VERTEX
  5
29C
  8
0
 10
-356.7598253169496
 20
904.3978332185116
 30
0.0
  0
SEQEND
  5
6AA
  8
0
  0
POLYLINE
  5
A3
  8
0
 66
     1
 10
0.0
 20
0.0
 30
0.0
  0
VERTEX
  5
29D
  8
0
 10
-356.7598253173024
 20
910.7478332185115
 30
0.0
 42
0.9999999999999843
  0
VERTEX
  5
29E
  8
0
 10
-356.7598253169496
 20
904.3978332185116
 30
0.0
  0
SEQEND
  5
6AB
  8
0
  0
POLYLINE
  5
A4
  8
0
 66
     1
 10
0.0
 20
0.0
 30
0.0
  0
VERTEX
  5
29F
  8
0
 10
-356.7598253169468
 20
910.7478332185115
 30
0.0
  0
VERTEX
  5
2A0
  8
0
 10
-350.8098253171098
 20
910.7478332159271
 30
0.0
  0
SEQEND
  5
6AC
  8
0
  0
POLYLINE
  5
A5
  8
0
 66
     1
 10
0.0
 20
0.0
 30
0.0
  0
VERTEX
  5
2A1
  8
0
 10
-344.4598253171104
 20
910.7478332145479
 30
0.0
 42
0.4142135623731059
  0
VERTEX
  5
2A2
  8
0
 10
-347.6348253171097
 20
913.9228332145476
 30
0.0
 42
0.4142135623731059
  0
VERTEX
  5
2A3
  8
0
 10
-350.8098253171098
 20
910.7478332145479
 30
0.0
  0
SEQEND
  5
6AD
  8
0
  0
POLYLINE
  5
A6
  8
0
 66
     1
 10
0.0
 20
0.0
 30
0.0
  0
VERTEX
  5
2A4
  8
0
 10
-344.4598253171104
 20
910.7478332159271
 30
0.0
  0
VERTEX
  5
2A5
  8
0
 10
-344.459825317325
 20
904.7978332189309
 30
0.0
  0
SEQEND
  5
6AE
  8
0
  0
POLYLINE
  5
A7
  8
0
 66
     1
 10
0.0
 20
0.0
 30
0.0
  0
VERTEX
  5
2A6
  8
0
 10
-344.459825317325
 20
898.447833218931
 30
0.0
 42
0.4142135623730953
  0
VERTEX
  5
2A7
  8
0
 10
-341.2848253174403
 20
901.6228332190453
 30
0.0
 42
0.4142135623730964
  0
VERTEX
  5
2A8
  8
0
 10
-344.4598253175542
 20
904.7978332189305
 30
0.0
  0
SEQEND
  5
6AF
  8
0
  0
POLYLINE
  5
A8
  8
0
 66
     1
 10
0.0
 20
0.0
 30
0.0
  0
VERTEX
  5
2A9
  8
0
 10
-1213.909825326433
 20
898.4478332185154
 30
0.0
  0
VERTEX
  5
2AA
  8
0
 10
-1219.859825325727
 20
898.4478332189346
 30
0.0
  0
SEQEND
  5
6B0
  8
0
  0
POLYLINE
  5
A9
  8
0
 66
     1
 10
0.0
 20
0.0
 30
0.0
  0
VERTEX
  5
2AB
  8
0
 10
-1219.859825324957
 20
904.797833218935
 30
0.0
 42
0.9999999999999841
  0
VERTEX
  5
2AC
  8
0
 10
-1219.859825325727
 20
898.4478332189346
 30
0.0
  0
SEQEND
  5
6B1
  8
0
  0
POLYLINE
  5
AA
  8
0
 66
     1
 10
0.0
 20
0.0
 30
0.0
  0
VERTEX
  5
2AD
  8
0
 10
-1219.859825324957
 20
904.797833218935
 30
0.0
  0
VERTEX
  5
2AE
  8
0
 10
-1219.859825325942
 20
910.7478332159308
 30
0.0
  0
SEQEND
  5
6B2
  8
0
  0
POLYLINE
  5
AB
  8
0
 66
     1
 10
0.0
 20
0.0
 30
0.0
  0
VERTEX
  5
2AF
  8
0
 10
-1213.509825325942
 20
910.7478332145515
 30
0.0
 42
0.4142135623730891
  0
VERTEX
  5
2B0
  8
0
 10
-1216.684825325942
 20
913.9228332145512
 30
0.0
 42
0.414213562373089
  0
VERTEX
  5
2B1
  8
0
 10
-1219.859825325942
 20
910.7478332145515
 30
0.0
  0
SEQEND
  5
6B3
  8
0
  0
POLYLINE
  5
AC
  8
0
 66
     1
 10
0.0
 20
0.0
 30
0.0
  0
VERTEX
  5
2B2
  8
0
 10
-1213.509825325942
 20
910.7478332159308
 30
0.0
  0
VERTEX
  5
2B3
  8
0
 10
-1207.559825326105
 20
910.7478332185156
 30
0.0
  0
SEQEND
  5
6B4
  8
0
  0
POLYLINE
  5
AD
  8
0
 66
     1
 10
0.0
 20
0.0
 30
0.0
  0
VERTEX
  5
2B4
  8
0
 10
-1207.559825325746
 20
904.3978332185156
 30
0.0
 42
0.9999999999999956
  0
VERTEX
  5
2B5
  8
0
 10
-1207.559825326105
 20
910.7478332185156
 30
0.0
  0
SEQEND
  5
6B5
  8
0
  0
POLYLINE
  5
AE
  8
0
 66
     1
 10
0.0
 20
0.0
 30
0.0
  0
VERTEX
  5
2B6
  8
0
 10
-1207.559825326102
 20
904.3978332185152
 30
0.0
  0
VERTEX
  5
2B7
  8
0
 10
-1207.559825326432
 20
898.4478332185154
 30
0.0
  0
SEQEND
  5
6B6
  8
0
  0
POLYLINE
  5
AF
  8
0
 66
     1
 10
0.0
 20
0.0
 30
0.0
  0
VERTEX
  5
2B8
  8
0
 10
-1213.909825326433
 20
898.4478332182916
 30
0.0
 42
0.4142135623731056
  0
VERTEX
  5
2B9
  8
0
 10
-1210.734825326433
 20
895.2728332182915
 30
0.0
 42
0.4142135623731056
  0
VERTEX
  5
2BA
  8
0
 10
-1207.559825326432
 20
898.4478332182916
 30
0.0
  0
SEQEND
  5
6B7
  8
0
  0
POLYLINE
  5
B0
  8
0
 66
     1
 10
0.0
 20
0.0
 30
0.0
 70
     1
  0
VERTEX
  5
2BB
  8
0
 10
-668.9657916031896
 20
2284.866453046815
 30
0.0
 42
-0.9999999999999999
  0
VERTEX
  5
2BC
  8
0
 10
-668.9657916031832
 20
2278.516453046829
 30
0.0
  0
VERTEX
  5
2BD
  8
0
 10
-668.965791603185
 20
2272.566453046811
 30
0.0
 42
-0.9999999999999999
  0
VERTEX
  5
2BE
  8
0
 10
-675.3157916031727
 20
2272.56645304681
 30
0.0
  0
VERTEX
  5
2BF
  8
0
 10
-681.2657916031861
 20
2272.566453046825
 30
0.0
 42
-0.9999999999999999
  0
VERTEX
  5
2C0
  8
0
 10
-681.265791603177
 20
2278.916453046825
 30
0.0
  0
VERTEX
  5
2C1
  8
0
 10
-681.2657916031898
 20
2284.866453046803
 30
0.0
 42
-0.9999999999999999
  0
VERTEX
  5
2C2
  8
0
 10
-674.9157916031767
 20
2284.866453046809
 30
0.0
  0
SEQEND
  5
6B8
  8
0
  0
POLYLINE
  5
B1
  8
0
 66
     1
 10
0.0
 20
0.0
 30
0.0
 70
     1
  0
VERTEX
  5
2C3
  8
0
 10
-1018.965791603191
 20
2278.916453046918
 30
0.0
 42
-0.9999999999999999
  0
VERTEX
  5
2C4
  8
0
 10
-1018.965791603192
 20
2272.566453046918
 30
0.0
  0
VERTEX
  5
2C5
  8
0
 10
-1024.915791603189
 20
2272.566453046938
 30
0.0
 42
-0.9999999999999999
  0
VERTEX
  5
2C6
  8
0
 10
-1031.265791603189
 20
2272.566453046958
 30
0.0
  0
VERTEX
  5
2C7
  8
0
 10
-1031.26579160319
 20
2278.516453046933
 30
0.0
 42
-0.9999999999999999
  0
VERTEX
  5
2C8
  8
0
 10
-1031.265791603191
 20
2284.866453046933
 30
0.0
  0
VERTEX
  5
2C9
  8
0
 10
-1025.315791603188
 20
2284.866453046958
 30
0.0
 42
-0.9999999999999999
  0
VERTEX
  5
2CA
  8
0
 10
-1018.965791603189
 20
2284.866453046984
 30
0.0
  0
SEQEND
  5
6B9
  8
0
  0
POLYLINE
  5
B2
  8
0
 66
     1
 10
0.0
 20
0.0
 30
0.0
 70
     1
  0
VERTEX
  5
2CB
  8
0
 10
-668.965791603185
 20
2032.56645304681
 30
0.0
 42
-0.9999999999999999
  0
VERTEX
  5
2CC
  8
0
 10
-675.3157916031727
 20
2032.566453046809
 30
0.0
  0
VERTEX
  5
2CD
  8
0
 10
-681.2657916031861
 20
2032.566453046825
 30
0.0
 42
-0.9999999999999999
  0
VERTEX
  5
2CE
  8
0
 10
-681.265791603177
 20
2038.916453046825
 30
0.0
  0
VERTEX
  5
2CF
  8
0
 10
-681.2657916031898
 20
2044.866453046802
 30
0.0
 42
-0.9999999999999999
  0
VERTEX
  5
2D0
  8
0
 10
-674.9157916031767
 20
2044.86645304681
 30
0.0
  0
VERTEX
  5
2D1
  8
0
 10
-668.9657916031896
 20
2044.866453046815
 30
0.0
 42
-0.9999999999999999
  0
VERTEX
  5
2D2
  8
0
 10
-668.9657916031832
 20
2038.516453046828
 30
0.0
  0
SEQEND
  5
6BA
  8
0
  0
POLYLINE
  5
B3
  8
0
 66
     1
 10
0.0
 20
0.0
 30
0.0
 70
     1
  0
VERTEX
  5
2D3
  8
0
 10
-1025.315791603188
 20
1804.866453046957
 30
0.0
 42
-0.9999999999999999
  0
VERTEX
  5
2D4
  8
0
 10
-1018.965791603189
 20
1804.866453046983
 30
0.0
  0
VERTEX
  5
2D5
  8
0
 10
-1018.965791603192
 20
1798.916453046918
 30
0.0
 42
-0.9999999999999999
  0
VERTEX
  5
2D6
  8
0
 10
-1018.965791603191
 20
1792.566453046918
 30
0.0
  0
VERTEX
  5
2D7
  8
0
 10
-1024.915791603189
 20
1792.566453046956
 30
0.0
 42
-0.9999999999999999
  0
VERTEX
  5
2D8
  8
0
 10
-1031.265791603189
 20
1792.566453046936
 30
0.0
  0
VERTEX
  5
2D9
  8
0
 10
-1031.26579160319
 20
1798.516453046933
 30
0.0
 42
-0.9999999999999999
  0
VERTEX
  5
2DA
  8
0
 10
-1031.265791603191
 20
1804.866453046932
 30
0.0
  0
SEQEND
  5
6BB
  8
0
  0
POLYLINE
  5
B4
  8
0
 66
     1
 10
0.0
 20
0.0
 30
0.0
 70
     1
  0
VERTEX
  5
2DB
  8
0
 10
-1025.315791603188
 20
1564.866453046957
 30
0.0
 42
-0.9999999999999999
  0
VERTEX
  5
2DC
  8
0
 10
-1018.965791603189
 20
1564.866453046983
 30
0.0
  0
VERTEX
  5
2DD
  8
0
 10
-1018.965791603192
 20
1558.916453046918
 30
0.0
 42
-0.9999999999999999
  0
VERTEX
  5
2DE
  8
0
 10
-1018.965791603191
 20
1552.566453046918
 30
0.0
  0
VERTEX
  5
2DF
  8
0
 10
-1024.915791603189
 20
1552.566453046956
 30
0.0
 42
-0.9999999999999999
  0
VERTEX
  5
2E0
  8
0
 10
-1031.265791603189
 20
1552.566453046936
 30
0.0
  0
VERTEX
  5
2E1
  8
0
 10
-1031.26579160319
 20
1558.516453046933
 30
0.0
 42
-0.9999999999999999
  0
VERTEX
  5
2E2
  8
0
 10
-1031.265791603191
 20
1564.866453046932
 30
0.0
  0
SEQEND
  5
6BC
  8
0
  0
POLYLINE
  5
B5
  8
0
 66
     1
 10
0.0
 20
0.0
 30
0.0
 70
     1
  0
VERTEX
  5
2E3
  8
0
 10
-843.9657916032398
 20
1388.916453046916
 30
0.0
  0
VERTEX
  5
2E4
  8
0
 10
-843.9657916032417
 20
1432.566453046908
 30
0.0
  0
VERTEX
  5
2E5
  8
0
 10
-800.3157916032401
 20
1432.566453046908
 30
0.0
 42
0.9999999999999999
  0
VERTEX
  5
2E6
  8
0
 10
-793.9657916032406
 20
1432.566453046908
 30
0.0
  0
VERTEX
  5
2E7
  8
0
 10
-793.9657916032379
 20
1444.866453046909
 30
0.0
 42
0.9999999999999999
  0
VERTEX
  5
2E8
  8
0
 10
-800.3157916032383
 20
1444.866453046909
 30
0.0
  0
VERTEX
  5
2E9
  8
0
 10
-899.9157916031651
 20
1444.866453046906
 30
0.0
 42
0.9999999999999999
  0
VERTEX
  5
2EA
  8
0
 10
-906.2657916031645
 20
1444.866453046906
 30
0.0
  0
VERTEX
  5
2EB
  8
0
 10
-906.2657916031645
 20
1432.566453046907
 30
0.0
 42
0.9999999999999999
  0
VERTEX
  5
2EC
  8
0
 10
-899.9157916031651
 20
1432.566453046907
 30
0.0
  0
VERTEX
  5
2ED
  8
0
 10
-856.2657916031627
 20
1432.566453046907
 30
0.0
  0
VERTEX
  5
2EE
  8
0
 10
-856.2657916031663
 20
1388.916453046916
 30
0.0
 42
0.9999999999999999
  0
VERTEX
  5
2EF
  8
0
 10
-856.2657916031663
 20
1382.566453046916
 30
0.0
  0
VERTEX
  5
2F0
  8
0
 10
-843.9657916032398
 20
1382.566453046916
 30
0.0
 42
0.9999999999999999
  0
SEQEND
  5
6BD
  8
0
  0
POLYLINE
  5
B6
  8
0
 66
     1
 10
0.0
 20
0.0
 30
0.0
 70
     1
  0
VERTEX
  5
2F1
  8
0
 10
-668.965791603185
 20
1552.56645304681
 30
0.0
 42
-0.9999999999999999
  0
VERTEX
  5
2F2
  8
0
 10
-675.3157916031727
 20
1552.566453046809
 30
0.0
  0
VERTEX
  5
2F3
  8
0
 10
-681.2657916031861
 20
1552.566453046824
 30
0.0
 42
-0.9999999999999999
  0
VERTEX
  5
2F4
  8
0
 10
-681.265791603177
 20
1558.916453046824
 30
0.0
  0
VERTEX
  5
2F5
  8
0
 10
-681.2657916031898
 20
1564.866453046801
 30
0.0
 42
-0.9999999999999999
  0
VERTEX
  5
2F6
  8
0
 10
-674.9157916031767
 20
1564.866453046809
 30
0.0
  0
VERTEX
  5
2F7
  8
0
 10
-668.9657916031896
 20
1564.866453046815
 30
0.0
 42
-0.9999999999999999
  0
VERTEX
  5
2F8
  8
0
 10
-668.9657916031832
 20
1558.516453046828
 30
0.0
  0
SEQEND
  5
6BE
  8
0
  0
POLYLINE
  5
B7
  8
0
 66
     1
 10
0.0
 20
0.0
 30
0.0
 70
     1
  0
VERTEX
  5
2F9
  8
0
 10
-1025.315791603188
 20
2044.866453046957
 30
0.0
 42
-0.9999999999999999
  0
VERTEX
  5
2FA
  8
0
 10
-1018.965791603189
 20
2044.866453046984
 30
0.0
  0
VERTEX
  5
2FB
  8
0
 10
-1018.965791603192
 20
2038.916453046918
 30
0.0
 42
-0.9999999999999999
  0
VERTEX
  5
2FC
  8
0
 10
-1018.965791603191
 20
2032.566453046918
 30
0.0
  0
VERTEX
  5
2FD
  8
0
 10
-1024.915791603189
 20
2032.566453046957
 30
0.0
 42
-0.9999999999999999
  0
VERTEX
  5
2FE
  8
0
 10
-1031.265791603189
 20
2032.566453046937
 30
0.0
  0
VERTEX
  5
2FF
  8
0
 10
-1031.26579160319
 20
2038.516453046933
 30
0.0
 42
-0.9999999999999999
  0
VERTEX
  5
300
  8
0
 10
-1031.265791603191
 20
2044.866453046933
 30
0.0
  0
SEQEND
  5
6BF
  8
0
  0
POLYLINE
  5
B8
  8
0
 66
     1
 10
0.0
 20
0.0
 30
0.0
 70
     1
  0
VERTEX
  5
301
  8
0
 10
-668.965791603185
 20
1792.56645304681
 30
0.0
 42
-0.9999999999999999
  0
VERTEX
  5
302
  8
0
 10
-675.3157916031727
 20
1792.566453046809
 30
0.0
  0
VERTEX
  5
303
  8
0
 10
-681.2657916031861
 20
1792.566453046824
 30
0.0
 42
-0.9999999999999999
  0
VERTEX
  5
304
  8
0
 10
-681.265791603177
 20
1798.916453046824
 30
0.0
  0
VERTEX
  5
305
  8
0
 10
-681.2657916031898
 20
1804.866453046801
 30
0.0
 42
-0.9999999999999999
  0
VERTEX
  5
306
  8
0
 10
-674.9157916031767
 20
1804.866453046809
 30
0.0
  0
VERTEX
  5
307
  8
0
 10
-668.9657916031896
 20
1804.866453046815
 30
0.0
 42
-0.9999999999999999
  0
VERTEX
  5
308
  8
0
 10
-668.9657916031832
 20
1798.516453046827
 30
0.0
  0
SEQEND
  5
6C0
  8
0
  0
POLYLINE
  5
B9
  8
0
 66
     1
 10
0.0
 20
0.0
 30
0.0
 70
     1
  0
VERTEX
  5
309
  8
0
 10
-1081.265791603199
 20
1382.566453046908
 30
0.0
  0
VERTEX
  5
30A
  8
0
 10
-1081.265791603199
 20
1432.566453046906
 30
0.0
  0
VERTEX
  5
30B
  8
0
 10
-1037.615791603173
 20
1432.566453046907
 30
0.0
 42
0.9999999999999999
  0
VERTEX
  5
30C
  8
0
 10
-1031.26579160318
 20
1432.566453046906
 30
0.0
  0
VERTEX
  5
30D
  8
0
 10
-1031.265791603179
 20
1444.866453046926
 30
0.0
 42
0.9999999999999999
  0
VERTEX
  5
30E
  8
0
 10
-1037.61579160318
 20
1444.866453046926
 30
0.0
  0
VERTEX
  5
30F
  8
0
 10
-1068.965791603198
 20
1444.866453046928
 30
0.0
  0
VERTEX
  5
310
  8
0
 10
-1068.9657916032
 20
1672.566453046909
 30
0.0
  0
VERTEX
  5
311
  8
0
 10
-1037.6157916032
 20
1672.566453046909
 30
0.0
 42
0.9999999999999999
  0
VERTEX
  5
312
  8
0
 10
-1031.265791603199
 20
1672.566453046909
 30
0.0
  0
VERTEX
  5
313
  8
0
 10
-1031.265791603179
 20
1684.866453046926
 30
0.0
 42
0.9999999999999999
  0
VERTEX
  5
314
  8
0
 10
-1037.615791603179
 20
1684.866453046926
 30
0.0
  0
VERTEX
  5
315
  8
0
 10
-1068.965791603198
 20
1684.866453046928
 30
0.0
  0
VERTEX
  5
316
  8
0
 10
-1068.9657916032
 20
1912.566453046909
 30
0.0
  0
VERTEX
  5
317
  8
0
 10
-1037.6157916032
 20
1912.566453046909
 30
0.0
 42
0.9999999999999999
  0
VERTEX
  5
318
  8
0
 10
-1031.265791603199
 20
1912.566453046909
 30
0.0
  0
VERTEX
  5
319
  8
0
 10
-1031.265791603179
 20
1924.866453046926
 30
0.0
 42
0.9999999999999999
  0
VERTEX
  5
31A
  8
0
 10
-1037.615791603179
 20
1924.866453046926
 30
0.0
  0
VERTEX
  5
31B
  8
0
 10
-1068.965791603198
 20
1924.866453046928
 30
0.0
  0
VERTEX
  5
31C
  8
0
 10
-1068.965791603198
 20
2152.56645304691
 30
0.0
  0
VERTEX
  5
31D
  8
0
 10
-1037.6157916032
 20
2152.56645304691
 30
0.0
 42
0.9999999999999999
  0
VERTEX
  5
31E
  8
0
 10
-1031.265791603199
 20
2152.56645304691
 30
0.0
  0
VERTEX
  5
31F
  8
0
 10
-1031.265791603179
 20
2164.866453046928
 30
0.0
 42
0.9999999999999999
  0
VERTEX
  5
320
  8
0
 10
-1037.615791603179
 20
2164.866453046928
 30
0.0
  0
VERTEX
  5
321
  8
0
 10
-1068.965791603198
 20
2164.866453046929
 30
0.0
  0
VERTEX
  5
322
  8
0
 10
-1068.965791603198
 20
2392.56645304691
 30
0.0
  0
VERTEX
  5
323
  8
0
 10
-1037.6157916032
 20
2392.56645304691
 30
0.0
 42
0.9999999999999999
  0
VERTEX
  5
324
  8
0
 10
-1031.265791603199
 20
2392.56645304691
 30
0.0
  0
VERTEX
  5
325
  8
0
 10
-1031.2657916032
 20
2404.866453046909
 30
0.0
  0
VERTEX
  5
326
  8
0
 10
-668.9657916032069
 20
2404.86645304691
 30
0.0
  0
VERTEX
  5
327
  8
0
 10
-668.965791603206
 20
2392.566453046912
 30
0.0
 42
0.9999999999999999
  0
VERTEX
  5
328
  8
0
 10
-662.6157916032065
 20
2392.566453046908
 30
0.0
  0
VERTEX
  5
329
  8
0
 10
-618.9657916032069
 20
2392.566453046908
 30
0.0
  0
VERTEX
  5
32A
  8
0
 10
-618.9657916032078
 20
2342.566453046908
 30
0.0
  0
VERTEX
  5
32B
  8
0
 10
-631.2657916032061
 20
2342.566453046908
 30
0.0
 42
0.9999999999999999
  0
VERTEX
  5
32C
  8
0
 10
-631.2657916032061
 20
2336.216453046908
 30
0.0
  0
VERTEX
  5
32D
  8
0
 10
-631.265791603208
 20
2221.216453046704
 30
0.0
 42
0.9999999999999999
  0
VERTEX
  5
32E
  8
0
 10
-631.265791603208
 20
2214.866453046715
 30
0.0
  0
VERTEX
  5
32F
  8
0
 10
-618.9657916032069
 20
2214.866453046717
 30
0.0
  0
VERTEX
  5
330
  8
0
 10
-618.9657916032069
 20
2164.866453046908
 30
0.0
  0
VERTEX
  5
331
  8
0
 10
-662.6157916031656
 20
2164.86645304691
 30
0.0
 42
0.9999999999999999
  0
VERTEX
  5
332
  8
0
 10
-668.965791603165
 20
2164.86645304691
 30
0.0
  0
VERTEX
  5
333
  8
0
 10
-668.965791603206
 20
2152.566453046908
 30
0.0
 42
0.9999999999999999
  0
VERTEX
  5
334
  8
0
 10
-662.6157916032065
 20
2152.566453046908
 30
0.0
  0
VERTEX
  5
335
  8
0
 10
-618.9657916032069
 20
2152.566453046908
 30
0.0
  0
VERTEX
  5
336
  8
0
 10
-618.9657916032078
 20
2102.566453046908
 30
0.0
  0
VERTEX
  5
337
  8
0
 10
-631.2657916032061
 20
2102.566453046908
 30
0.0
 42
0.9999999999999999
  0
VERTEX
  5
338
  8
0
 10
-631.2657916032061
 20
2096.216453046908
 30
0.0
  0
VERTEX
  5
339
  8
0
 10
-631.265791603208
 20
1981.216453046704
 30
0.0
 42
0.9999999999999999
  0
VERTEX
  5
33A
  8
0
 10
-631.265791603208
 20
1974.866453046714
 30
0.0
  0
VERTEX
  5
33B
  8
0
 10
-618.9657916032069
 20
1974.866453046715
 30
0.0
  0
VERTEX
  5
33C
  8
0
 10
-618.9657916032069
 20
1924.866453046907
 30
0.0
  0
VERTEX
  5
33D
  8
0
 10
-662.6157916031656
 20
1924.86645304691
 30
0.0
 42
0.9999999999999999
  0
VERTEX
  5
33E
  8
0
 10
-668.965791603165
 20
1924.866453046908
 30
0.0
  0
VERTEX
  5
33F
  8
0
 10
-668.965791603206
 20
1912.566453046908
 30
0.0
 42
0.9999999999999999
  0
VERTEX
  5
340
  8
0
 10
-662.6157916032065
 20
1912.566453046908
 30
0.0
  0
VERTEX
  5
341
  8
0
 10
-618.9657916032069
 20
1912.566453046908
 30
0.0
  0
VERTEX
  5
342
  8
0
 10
-618.9657916032087
 20
1862.566453046908
 30
0.0
  0
VERTEX
  5
343
  8
0
 10
-631.2657916032061
 20
1862.566453046908
 30
0.0
 42
0.9999999999999999
  0
VERTEX
  5
344
  8
0
 10
-631.2657916032061
 20
1856.216453046908
 30
0.0
  0
VERTEX
  5
345
  8
0
 10
-631.265791603208
 20
1741.216453046704
 30
0.0
 42
0.9999999999999999
  0
VERTEX
  5
346
  8
0
 10
-631.265791603208
 20
1734.866453046714
 30
0.0
  0
VERTEX
  5
347
  8
0
 10
-618.9657916032069
 20
1734.866453046715
 30
0.0
  0
VERTEX
  5
348
  8
0
 10
-618.9657916032069
 20
1684.866453046907
 30
0.0
  0
VERTEX
  5
349
  8
0
 10
-662.6157916031665
 20
1684.86645304691
 30
0.0
 42
0.9999999999999999
  0
VERTEX
  5
34A
  8
0
 10
-668.9657916031659
 20
1684.866453046908
 30
0.0
  0
VERTEX
  5
34B
  8
0
 10
-668.965791603206
 20
1672.566453046908
 30
0.0
 42
0.9999999999999999
  0
VERTEX
  5
34C
  8
0
 10
-662.6157916032065
 20
1672.566453046908
 30
0.0
  0
VERTEX
  5
34D
  8
0
 10
-618.9657916032069
 20
1672.566453046908
 30
0.0
  0
VERTEX
  5
34E
  8
0
 10
-618.9657916032087
 20
1622.566453046908
 30
0.0
  0
VERTEX
  5
34F
  8
0
 10
-631.2657916032061
 20
1622.566453046908
 30
0.0
 42
0.9999999999999999
  0
VERTEX
  5
350
  8
0
 10
-631.2657916032061
 20
1616.216453046908
 30
0.0
  0
VERTEX
  5
351
  8
0
 10
-631.265791603208
 20
1501.216453046704
 30
0.0
 42
0.9999999999999999
  0
VERTEX
  5
352
  8
0
 10
-631.265791603208
 20
1494.866453046714
 30
0.0
  0
VERTEX
  5
353
  8
0
 10
-618.9657916032069
 20
1494.866453046715
 30
0.0
  0
VERTEX
  5
354
  8
0
 10
-618.9657916032069
 20
1444.866453046907
 30
0.0
  0
VERTEX
  5
355
  8
0
 10
-662.6157916031665
 20
1444.86645304691
 30
0.0
 42
0.9999999999999999
  0
VERTEX
  5
356
  8
0
 10
-668.9657916031659
 20
1444.866453046908
 30
0.0
  0
VERTEX
  5
357
  8
0
 10
-668.9657916031641
 20
1432.566453046908
 30
0.0
 42
0.9999999999999999
  0
VERTEX
  5
358
  8
0
 10
-662.6157916031647
 20
1432.566453046909
 30
0.0
  0
VERTEX
  5
359
  8
0
 10
-618.9657916032069
 20
1432.566453046909
 30
0.0
  0
VERTEX
  5
35A
  8
0
 10
-618.9657916032069
 20
1382.566453046911
 30
0.0
  0
VERTEX
  5
35B
  8
0
 10
-631.2657916032189
 20
1382.56645304691
 30
0.0
 42
0.9999999999999999
  0
VERTEX
  5
35C
  8
0
 10
-631.2657916032189
 20
1376.21645304691
 30
0.0
  0
VERTEX
  5
35D
  8
0
 10
-631.2657916032207
 20
1261.216453046706
 30
0.0
 42
0.9999999999999999
  0
VERTEX
  5
35E
  8
0
 10
-631.2657916032207
 20
1254.866453046709
 30
0.0
  0
VERTEX
  5
35F
  8
0
 10
-618.9657916032069
 20
1254.866453046709
 30
0.0
  0
VERTEX
  5
360
  8
0
 10
-618.9657916032069
 20
1198.716453046909
 30
0.0
  0
VERTEX
  5
361
  8
0
 10
-693.965791603205
 20
1198.716453046909
 30
0.0
  0
VERTEX
  5
362
  8
0
 10
-778.3455334452688
 20
1344.86645304691
 30
0.0
  0
VERTEX
  5
363
  8
0
 10
-921.8860497611337
 20
1344.866453046907
 30
0.0
  0
VERTEX
  5
364
  8
0
 10
-1006.2657916032
 20
1198.716453046908
 30
0.0
  0
VERTEX
  5
365
  8
0
 10
-1081.265791603199
 20
1198.716453046908
 30
0.0
  0
VERTEX
  5
366
  8
0
 10
-1081.265791603199
 20
1254.866453046711
 30
0.0
  0
VERTEX
  5
367
  8
0
 10
-1068.965791603198
 20
1254.866453046711
 30
0.0
 42
0.9999999999999999
  0
VERTEX
  5
368
  8
0
 10
-1068.965791603198
 20
1261.216453046711
 30
0.0
  0
VERTEX
  5
369
  8
0
 10
-1068.965791603198
 20
1376.216453046915
 30
0.0
 42
0.9999999999999999
  0
VERTEX
  5
36A
  8
0
 10
-1068.965791603198
 20
1382.566453046908
 30
0.0
  0
SEQEND
  5
6C1
  8
0
  0
POLYLINE
  5
BA
  8
0
 66
     1
 10
0.0
 20
0.0
 30
0.0
 70
     1
  0
VERTEX
  5
36B
  8
0
 10
-151.1456334772836
 20
2284.866453046815
 30
0.0
 42
-0.9999999999999999
  0
VERTEX
  5
36C
  8
0
 10
-151.1456334772764
 20
2278.516453046829
 30
0.0
  0
VERTEX
  5
36D
  8
0
 10
-151.1456334772782
 20
2272.566453046811
 30
0.0
 42
-0.9999999999999999
  0
VERTEX
  5
36E
  8
0
 10
-157.4956334772658
 20
2272.56645304681
 30
0.0
  0
VERTEX
  5
36F
  8
0
 10
-163.4456334772802
 20
2272.566453046825
 30
0.0
 42
-0.9999999999999999
  0
VERTEX
  5
370
  8
0
 10
-163.4456334772711
 20
2278.916453046825
 30
0.0
  0
VERTEX
  5
371
  8
0
 10
-163.4456334772829
 20
2284.866453046803
 30
0.0
 42
-0.9999999999999999
  0
VERTEX
  5
372
  8
0
 10
-157.0956334772698
 20
2284.866453046809
 30
0.0
  0
SEQEND
  5
6C2
  8
0
  0
POLYLINE
  5
BB
  8
0
 66
     1
 10
0.0
 20
0.0
 30
0.0
 70
     1
  0
VERTEX
  5
373
  8
0
 10
-501.1456334772851
 20
2278.916453046918
 30
0.0
 42
-0.9999999999999999
  0
VERTEX
  5
374
  8
0
 10
-501.145633477286
 20
2272.566453046918
 30
0.0
  0
VERTEX
  5
375
  8
0
 10
-507.095633477284
 20
2272.566453046938
 30
0.0
 42
-0.9999999999999999
  0
VERTEX
  5
376
  8
0
 10
-513.4456334772843
 20
2272.566453046958
 30
0.0
  0
VERTEX
  5
377
  8
0
 10
-513.4456334772843
 20
2278.516453046933
 30
0.0
 42
-0.9999999999999999
  0
VERTEX
  5
378
  8
0
 10
-513.4456334772862
 20
2284.866453046933
 30
0.0
  0
VERTEX
  5
379
  8
0
 10
-507.4956334772836
 20
2284.866453046958
 30
0.0
 42
-0.9999999999999999
  0
VERTEX
  5
37A
  8
0
 10
-501.1456334772833
 20
2284.866453046984
 30
0.0
  0
SEQEND
  5
6C3
  8
0
  0
POLYLINE
  5
BC
  8
0
 66
     1
 10
0.0
 20
0.0
 30
0.0
 70
     1
  0
VERTEX
  5
37B
  8
0
 10
-151.1456334772782
 20
2032.56645304681
 30
0.0
 42
-0.9999999999999999
  0
VERTEX
  5
37C
  8
0
 10
-157.4956334772658
 20
2032.566453046809
 30
0.0
  0
VERTEX
  5
37D
  8
0
 10
-163.4456334772802
 20
2032.566453046825
 30
0.0
 42
-0.9999999999999999
  0
VERTEX
  5
37E
  8
0
 10
-163.4456334772711
 20
2038.916453046825
 30
0.0
  0
VERTEX
  5
37F
  8
0
 10
-163.4456334772829
 20
2044.866453046802
 30
0.0
 42
-0.9999999999999999
  0
VERTEX
  5
380
  8
0
 10
-157.0956334772698
 20
2044.86645304681
 30
0.0
  0
VERTEX
  5
381
  8
0
 10
-151.1456334772836
 20
2044.866453046815
 30
0.0
 42
-0.9999999999999999
  0
VERTEX
  5
382
  8
0
 10
-151.1456334772764
 20
2038.516453046828
 30
0.0
  0
SEQEND
  5
6C4
  8
0
  0
POLYLINE
  5
BD
  8
0
 66
     1
 10
0.0
 20
0.0
 30
0.0
 70
     1
  0
VERTEX
  5
383
  8
0
 10
-507.4956334772836
 20
1804.866453046957
 30
0.0
 42
-0.9999999999999999
  0
VERTEX
  5
384
  8
0
 10
-501.1456334772833
 20
1804.866453046983
 30
0.0
  0
VERTEX
  5
385
  8
0
 10
-501.145633477286
 20
1798.916453046918
 30
0.0
 42
-0.9999999999999999
  0
VERTEX
  5
386
  8
0
 10
-501.1456334772851
 20
1792.566453046918
 30
0.0
  0
VERTEX
  5
387
  8
0
 10
-507.095633477284
 20
1792.566453046956
 30
0.0
 42
-0.9999999999999999
  0
VERTEX
  5
388
  8
0
 10
-513.4456334772843
 20
1792.566453046936
 30
0.0
  0
VERTEX
  5
389
  8
0
 10
-513.4456334772843
 20
1798.516453046933
 30
0.0
 42
-0.9999999999999999
  0
VERTEX
  5
38A
  8
0
 10
-513.4456334772862
 20
1804.866453046932
 30
0.0
  0
SEQEND
  5
6C5
  8
0
  0
POLYLINE
  5
BE
  8
0
 66
     1
 10
0.0
 20
0.0
 30
0.0
 70
     1
  0
VERTEX
  5
38B
  8
0
 10
-507.4956334772836
 20
1564.866453046957
 30
0.0
 42
-0.9999999999999999
  0
VERTEX
  5
38C
  8
0
 10
-501.1456334772833
 20
1564.866453046983
 30
0.0
  0
VERTEX
  5
38D
  8
0
 10
-501.145633477286
 20
1558.916453046918
 30
0.0
 42
-0.9999999999999999
  0
VERTEX
  5
38E
  8
0
 10
-501.1456334772851
 20
1552.566453046918
 30
0.0
  0
VERTEX
  5
38F
  8
0
 10
-507.095633477284
 20
1552.566453046956
 30
0.0
 42
-0.9999999999999999
  0
VERTEX
  5
390
  8
0
 10
-513.4456334772843
 20
1552.566453046936
 30
0.0
  0
VERTEX
  5
391
  8
0
 10
-513.4456334772843
 20
1558.516453046933
 30
0.0
 42
-0.9999999999999999
  0
VERTEX
  5
392
  8
0
 10
-513.4456334772862
 20
1564.866453046932
 30
0.0
  0
SEQEND
  5
6C6
  8
0
  0
POLYLINE
  5
BF
  8
0
 66
     1
 10
0.0
 20
0.0
 30
0.0
 70
     1
  0
VERTEX
  5
393
  8
0
 10
-326.1456334773344
 20
1388.916453046916
 30
0.0
  0
VERTEX
  5
394
  8
0
 10
-326.1456334773362
 20
1432.566453046908
 30
0.0
  0
VERTEX
  5
395
  8
0
 10
-282.4956334773348
 20
1432.566453046908
 30
0.0
 42
0.9999999999999999
  0
VERTEX
  5
396
  8
0
 10
-276.1456334773345
 20
1432.566453046908
 30
0.0
  0
VERTEX
  5
397
  8
0
 10
-276.1456334773326
 20
1444.866453046909
 30
0.0
 42
0.9999999999999999
  0
VERTEX
  5
398
  8
0
 10
-282.4956334773321
 20
1444.866453046909
 30
0.0
  0
VERTEX
  5
399
  8
0
 10
-382.0956334772596
 20
1444.866453046906
 30
0.0
 42
0.9999999999999999
  0
VERTEX
  5
39A
  8
0
 10
-388.4456334772599
 20
1444.866453046906
 30
0.0
  0
VERTEX
  5
39B
  8
0
 10
-388.4456334772599
 20
1432.566453046907
 30
0.0
 42
0.9999999999999999
  0
VERTEX
  5
39C
  8
0
 10
-382.0956334772596
 20
1432.566453046907
 30
0.0
  0
VERTEX
  5
39D
  8
0
 10
-338.4456334772582
 20
1432.566453046907
 30
0.0
  0
VERTEX
  5
39E
  8
0
 10
-338.4456334772609
 20
1388.916453046916
 30
0.0
 42
0.9999999999999999
  0
VERTEX
  5
39F
  8
0
 10
-338.4456334772609
 20
1382.566453046916
 30
0.0
  0
VERTEX
  5
3A0
  8
0
 10
-326.1456334773344
 20
1382.566453046916
 30
0.0
 42
0.9999999999999999
  0
SEQEND
  5
6C7
  8
0
  0
POLYLINE
  5
C0
  8
0
 66
     1
 10
0.0
 20
0.0
 30
0.0
 70
     1
  0
VERTEX
  5
3A1
  8
0
 10
-151.1456334772782
 20
1552.56645304681
 30
0.0
 42
-0.9999999999999999
  0
VERTEX
  5
3A2
  8
0
 10
-157.4956334772658
 20
1552.566453046809
 30
0.0
  0
VERTEX
  5
3A3
  8
0
 10
-163.4456334772802
 20
1552.566453046824
 30
0.0
 42
-0.9999999999999999
  0
VERTEX
  5
3A4
  8
0
 10
-163.4456334772711
 20
1558.916453046824
 30
0.0
  0
VERTEX
  5
3A5
  8
0
 10
-163.4456334772829
 20
1564.866453046801
 30
0.0
 42
-0.9999999999999999
  0
VERTEX
  5
3A6
  8
0
 10
-157.0956334772698
 20
1564.866453046809
 30
0.0
  0
VERTEX
  5
3A7
  8
0
 10
-151.1456334772836
 20
1564.866453046815
 30
0.0
 42
-0.9999999999999999
  0
VERTEX
  5
3A8
  8
0
 10
-151.1456334772764
 20
1558.516453046828
 30
0.0
  0
SEQEND
  5
6C8
  8
0
  0
POLYLINE
  5
C1
  8
0
 66
     1
 10
0.0
 20
0.0
 30
0.0
 70
     1
  0
VERTEX
  5
3A9
  8
0
 10
-507.4956334772836
 20
2044.866453046957
 30
0.0
 42
-0.9999999999999999
  0
VERTEX
  5
3AA
  8
0
 10
-501.1456334772833
 20
2044.866453046984
 30
0.0
  0
VERTEX
  5
3AB
  8
0
 10
-501.145633477286
 20
2038.916453046918
 30
0.0
 42
-0.9999999999999999
  0
VERTEX
  5
3AC
  8
0
 10
-501.1456334772851
 20
2032.566453046918
 30
0.0
  0
VERTEX
  5
3AD
  8
0
 10
-507.095633477284
 20
2032.566453046957
 30
0.0
 42
-0.9999999999999999
  0
VERTEX
  5
3AE
  8
0
 10
-513.4456334772843
 20
2032.566453046937
 30
0.0
  0
VERTEX
  5
3AF
  8
0
 10
-513.4456334772843
 20
2038.516453046933
 30
0.0
 42
-0.9999999999999999
  0
VERTEX
  5
3B0
  8
0
 10
-513.4456334772862
 20
2044.866453046933
 30
0.0
  0
SEQEND
  5
6C9
  8
0
  0
POLYLINE
  5
C2
  8
0
 66
     1
 10
0.0
 20
0.0
 30
0.0
 70
     1
  0
VERTEX
  5
3B1
  8
0
 10
-151.1456334772782
 20
1792.56645304681
 30
0.0
 42
-0.9999999999999999
  0
VERTEX
  5
3B2
  8
0
 10
-157.4956334772658
 20
1792.566453046809
 30
0.0
  0
VERTEX
  5
3B3
  8
0
 10
-163.4456334772802
 20
1792.566453046824
 30
0.0
 42
-0.9999999999999999
  0
VERTEX
  5
3B4
  8
0
 10
-163.4456334772711
 20
1798.916453046824
 30
0.0
  0
VERTEX
  5
3B5
  8
0
 10
-163.4456334772829
 20
1804.866453046801
 30
0.0
 42
-0.9999999999999999
  0
VERTEX
  5
3B6
  8
0
 10
-157.0956334772698
 20
1804.866453046809
 30
0.0
  0
VERTEX
  5
3B7
  8
0
 10
-151.1456334772836
 20
1804.866453046815
 30
0.0
 42
-0.9999999999999999
  0
VERTEX
  5
3B8
  8
0
 10
-151.1456334772764
 20
1798.516453046827
 30
0.0
  0
SEQEND
  5
6CA
  8
0
  0
POLYLINE
  5
C3
  8
0
 66
     1
 10
0.0
 20
0.0
 30
0.0
 70
     1
  0
VERTEX
  5
3B9
  8
0
 10
-563.4456334772934
 20
1382.566453046908
 30
0.0
  0
VERTEX
  5
3BA
  8
0
 10
-563.4456334772934
 20
1432.566453046906
 30
0.0
  0
VERTEX
  5
3BB
  8
0
 10
-519.7956334772683
 20
1432.566453046907
 30
0.0
 42
0.9999999999999999
  0
VERTEX
  5
3BC
  8
0
 10
-513.4456334772752
 20
1432.566453046906
 30
0.0
  0
VERTEX
  5
3BD
  8
0
 10
-513.4456334772743
 20
1444.866453046926
 30
0.0
 42
0.9999999999999999
  0
VERTEX
  5
3BE
  8
0
 10
-519.7956334772747
 20
1444.866453046926
 30
0.0
  0
VERTEX
  5
3BF
  8
0
 10
-551.1456334772942
 20
1444.866453046928
 30
0.0
  0
VERTEX
  5
3C0
  8
0
 10
-551.1456334772942
 20
1672.566453046909
 30
0.0
  0
VERTEX
  5
3C1
  8
0
 10
-519.7956334772947
 20
1672.566453046909
 30
0.0
 42
0.9999999999999999
  0
VERTEX
  5
3C2
  8
0
 10
-513.4456334772943
 20
1672.566453046909
 30
0.0
  0
VERTEX
  5
3C3
  8
0
 10
-513.4456334772743
 20
1684.866453046926
 30
0.0
 42
0.9999999999999999
  0
VERTEX
  5
3C4
  8
0
 10
-519.7956334772738
 20
1684.866453046926
 30
0.0
  0
VERTEX
  5
3C5
  8
0
 10
-551.1456334772942
 20
1684.866453046928
 30
0.0
  0
VERTEX
  5
3C6
  8
0
 10
-551.1456334772942
 20
1912.566453046909
 30
0.0
  0
VERTEX
  5
3C7
  8
0
 10
-519.7956334772947
 20
1912.566453046909
 30
0.0
 42
0.9999999999999999
  0
VERTEX
  5
3C8
  8
0
 10
-513.4456334772943
 20
1912.566453046909
 30
0.0
  0
VERTEX
  5
3C9
  8
0
 10
-513.4456334772743
 20
1924.866453046926
 30
0.0
 42
0.9999999999999999
  0
VERTEX
  5
3CA
  8
0
 10
-519.7956334772738
 20
1924.866453046926
 30
0.0
  0
VERTEX
  5
3CB
  8
0
 10
-551.1456334772942
 20
1924.866453046928
 30
0.0
  0
VERTEX
  5
3CC
  8
0
 10
-551.1456334772942
 20
2152.56645304691
 30
0.0
  0
VERTEX
  5
3CD
  8
0
 10
-519.7956334772947
 20
2152.56645304691
 30
0.0
 42
0.9999999999999999
  0
VERTEX
  5
3CE
  8
0
 10
-513.4456334772943
 20
2152.56645304691
 30
0.0
  0
VERTEX
  5
3CF
  8
0
 10
-513.4456334772743
 20
2164.866453046928
 30
0.0
 42
0.9999999999999999
  0
VERTEX
  5
3D0
  8
0
 10
-519.7956334772738
 20
2164.866453046928
 30
0.0
  0
VERTEX
  5
3D1
  8
0
 10
-551.1456334772942
 20
2164.866453046929
 30
0.0
  0
VERTEX
  5
3D2
  8
0
 10
-551.1456334772942
 20
2392.56645304691
 30
0.0
  0
VERTEX
  5
3D3
  8
0
 10
-519.7956334772947
 20
2392.56645304691
 30
0.0
 42
0.9999999999999999
  0
VERTEX
  5
3D4
  8
0
 10
-513.4456334772943
 20
2392.56645304691
 30
0.0
  0
VERTEX
  5
3D5
  8
0
 10
-513.4456334772952
 20
2404.866453046909
 30
0.0
  0
VERTEX
  5
3D6
  8
0
 10
-151.1456334773
 20
2404.86645304691
 30
0.0
  0
VERTEX
  5
3D7
  8
0
 10
-151.1456334773
 20
2392.566453046912
 30
0.0
 42
0.9999999999999999
  0
VERTEX
  5
3D8
  8
0
 10
-144.7956334772996
 20
2392.566453046908
 30
0.0
  0
VERTEX
  5
3D9
  8
0
 10
-101.1456334773
 20
2392.566453046908
 30
0.0
  0
VERTEX
  5
3DA
  8
0
 10
-101.1456334773009
 20
2342.566453046908
 30
0.0
  0
VERTEX
  5
3DB
  8
0
 10
-113.4456334772993
 20
2342.566453046908
 30
0.0
 42
0.9999999999999999
  0
VERTEX
  5
3DC
  8
0
 10
-113.4456334772993
 20
2336.216453046908
 30
0.0
  0
VERTEX
  5
3DD
  8
0
 10
-113.4456334773011
 20
2221.216453046704
 30
0.0
 42
0.9999999999999999
  0
VERTEX
  5
3DE
  8
0
 10
-113.4456334773011
 20
2214.866453046715
 30
0.0
  0
VERTEX
  5
3DF
  8
0
 10
-101.1456334773
 20
2214.866453046717
 30
0.0
  0
VERTEX
  5
3E0
  8
0
 10
-101.1456334773
 20
2164.866453046908
 30
0.0
  0
VERTEX
  5
3E1
  8
0
 10
-144.7956334772596
 20
2164.86645304691
 30
0.0
 42
0.9999999999999999
  0
VERTEX
  5
3E2
  8
0
 10
-151.1456334772591
 20
2164.86645304691
 30
0.0
  0
VERTEX
  5
3E3
  8
0
 10
-151.1456334773
 20
2152.566453046908
 30
0.0
 42
0.9999999999999999
  0
VERTEX
  5
3E4
  8
0
 10
-144.7956334772996
 20
2152.566453046908
 30
0.0
  0
VERTEX
  5
3E5
  8
0
 10
-101.1456334773
 20
2152.566453046908
 30
0.0
  0
VERTEX
  5
3E6
  8
0
 10
-101.1456334773009
 20
2102.566453046908
 30
0.0
  0
VERTEX
  5
3E7
  8
0
 10
-113.4456334772993
 20
2102.566453046908
 30
0.0
 42
0.9999999999999999
  0
VERTEX
  5
3E8
  8
0
 10
-113.4456334772993
 20
2096.216453046908
 30
0.0
  0
VERTEX
  5
3E9
  8
0
 10
-113.4456334773011
 20
1981.216453046704
 30
0.0
 42
0.9999999999999999
  0
VERTEX
  5
3EA
  8
0
 10
-113.4456334773011
 20
1974.866453046714
 30
0.0
  0
VERTEX
  5
3EB
  8
0
 10
-101.1456334773
 20
1974.866453046715
 30
0.0
  0
VERTEX
  5
3EC
  8
0
 10
-101.1456334773
 20
1924.866453046907
 30
0.0
  0
VERTEX
  5
3ED
  8
0
 10
-144.7956334772596
 20
1924.86645304691
 30
0.0
 42
0.9999999999999999
  0
VERTEX
  5
3EE
  8
0
 10
-151.1456334772591
 20
1924.866453046908
 30
0.0
  0
VERTEX
  5
3EF
  8
0
 10
-151.1456334773
 20
1912.566453046908
 30
0.0
 42
0.9999999999999999
  0
VERTEX
  5
3F0
  8
0
 10
-144.7956334772996
 20
1912.566453046908
 30
0.0
  0
VERTEX
  5
3F1
  8
0
 10
-101.1456334773
 20
1912.566453046908
 30
0.0
  0
VERTEX
  5
3F2
  8
0
 10
-101.1456334773009
 20
1862.566453046908
 30
0.0
  0
VERTEX
  5
3F3
  8
0
 10
-113.4456334772993
 20
1862.566453046908
 30
0.0
 42
0.9999999999999999
  0
VERTEX
  5
3F4
  8
0
 10
-113.4456334772993
 20
1856.216453046908
 30
0.0
  0
VERTEX
  5
3F5
  8
0
 10
-113.4456334773011
 20
1741.216453046704
 30
0.0
 42
0.9999999999999999
  0
VERTEX
  5
3F6
  8
0
 10
-113.4456334773011
 20
1734.866453046714
 30
0.0
  0
VERTEX
  5
3F7
  8
0
 10
-101.1456334773
 20
1734.866453046715
 30
0.0
  0
VERTEX
  5
3F8
  8
0
 10
-101.1456334773
 20
1684.866453046907
 30
0.0
  0
VERTEX
  5
3F9
  8
0
 10
-144.7956334772596
 20
1684.86645304691
 30
0.0
 42
0.9999999999999999
  0
VERTEX
  5
3FA
  8
0
 10
-151.14563347726
 20
1684.866453046908
 30
0.0
  0
VERTEX
  5
3FB
  8
0
 10
-151.1456334773
 20
1672.566453046908
 30
0.0
 42
0.9999999999999999
  0
VERTEX
  5
3FC
  8
0
 10
-144.7956334772996
 20
1672.566453046908
 30
0.0
  0
VERTEX
  5
3FD
  8
0
 10
-101.1456334773
 20
1672.566453046908
 30
0.0
  0
VERTEX
  5
3FE
  8
0
 10
-101.1456334773009
 20
1622.566453046908
 30
0.0
  0
VERTEX
  5
3FF
  8
0
 10
-113.4456334772993
 20
1622.566453046908
 30
0.0
 42
0.9999999999999999
  0
VERTEX
  5
400
  8
0
 10
-113.4456334773002
 20
1616.216453046908
 30
0.0
  0
VERTEX
  5
401
  8
0
 10
-113.4456334773011
 20
1501.216453046704
 30
0.0
 42
0.9999999999999999
  0
VERTEX
  5
402
  8
0
 10
-113.4456334773011
 20
1494.866453046714
 30
0.0
  0
VERTEX
  5
403
  8
0
 10
-101.1456334773
 20
1494.866453046715
 30
0.0
  0
VERTEX
  5
404
  8
0
 10
-101.1456334773
 20
1444.866453046907
 30
0.0
  0
VERTEX
  5
405
  8
0
 10
-144.7956334772596
 20
1444.86645304691
 30
0.0
 42
0.9999999999999999
  0
VERTEX
  5
406
  8
0
 10
-151.14563347726
 20
1444.866453046908
 30
0.0
  0
VERTEX
  5
407
  8
0
 10
-151.1456334772582
 20
1432.566453046908
 30
0.0
 42
0.9999999999999999
  0
VERTEX
  5
408
  8
0
 10
-144.7956334772578
 20
1432.566453046909
 30
0.0
  0
VERTEX
  5
409
  8
0
 10
-101.1456334773
 20
1432.566453046909
 30
0.0
  0
VERTEX
  5
40A
  8
0
 10
-101.1456334773
 20
1382.566453046911
 30
0.0
  0
VERTEX
  5
40B
  8
0
 10
-113.445633477312
 20
1382.56645304691
 30
0.0
 42
0.9999999999999999
  0
VERTEX
  5
40C
  8
0
 10
-113.445633477312
 20
1376.21645304691
 30
0.0
  0
VERTEX
  5
40D
  8
0
 10
-113.4456334773139
 20
1261.216453046706
 30
0.0
 42
0.9999999999999999
  0
VERTEX
  5
40E
  8
0
 10
-113.4456334773139
 20
1254.866453046709
 30
0.0
  0
VERTEX
  5
40F
  8
0
 10
-101.1456334773
 20
1254.866453046709
 30
0.0
  0
VERTEX
  5
410
  8
0
 10
-101.1456334773
 20
1198.716453046909
 30
0.0
  0
VERTEX
  5
411
  8
0
 10
-176.1456334773
 20
1198.716453046909
 30
0.0
  0
VERTEX
  5
412
  8
0
 10
-260.5253753193626
 20
1344.86645304691
 30
0.0
  0
VERTEX
  5
413
  8
0
 10
-404.0658916352291
 20
1344.866453046907
 30
0.0
  0
VERTEX
  5
414
  8
0
 10
-488.4456334772953
 20
1198.716453046908
 30
0.0
  0
VERTEX
  5
415
  8
0
 10
-563.4456334772934
 20
1198.716453046908
 30
0.0
  0
VERTEX
  5
416
  8
0
 10
-563.4456334772934
 20
1254.866453046711
 30
0.0
  0
VERTEX
  5
417
  8
0
 10
-551.1456334772932
 20
1254.866453046711
 30
0.0
 42
0.9999999999999999
  0
VERTEX
  5
418
  8
0
 10
-551.1456334772932
 20
1261.216453046711
 30
0.0
  0
VERTEX
  5
419
  8
0
 10
-551.1456334772932
 20
1376.216453046915
 30
0.0
 42
0.9999999999999999
  0
VERTEX
  5
41A
  8
0
 10
-551.1456334772942
 20
1382.566453046908
 30
0.0
  0
SEQEND
  5
6CB
  8
0
  0
POLYLINE
  5
C4
  8
0
 66
     1
 10
0.0
 20
0.0
 30
0.0
 70
     1
  0
VERTEX
  5
41B
  8
0
 10
1355.367965627864
 20
1817.101000421401
 30
0.0
  0
VERTEX
  5
41C
  8
0
 10
1343.067965627864
 20
1817.1010004214
 30
0.0
  0
VERTEX
  5
41D
  8
0
 10
1343.067965627864
 20
1867.1010004214
 30
0.0
  0
VERTEX
  5
41E
  8
0
 10
2243.06796562787
 20
1867.101000421399
 30
0.0
  0
VERTEX
  5
41F
  8
0
 10
2243.06796562787
 20
1817.101000421399
 30
0.0
  0
VERTEX
  5
420
  8
0
 10
2230.76796562787
 20
1817.1010004214
 30
0.0
 42
0.9999999999999999
  0
VERTEX
  5
421
  8
0
 10
2230.76796562787
 20
1810.7510004214
 30
0.0
  0
VERTEX
  5
422
  8
0
 10
2230.76796562787
 20
1461.151000421403
 30
0.0
 42
0.9999999999999999
  0
VERTEX
  5
423
  8
0
 10
2230.76796562787
 20
1454.801000421403
 30
0.0
  0
VERTEX
  5
424
  8
0
 10
2243.067965627869
 20
1454.801000421403
 30
0.0
  0
VERTEX
  5
425
  8
0
 10
2243.067965627869
 20
1404.801000421403
 30
0.0
  0
VERTEX
  5
426
  8
0
 10
2193.067965627869
 20
1404.801000421403
 30
0.0
  0
VERTEX
  5
427
  8
0
 10
2193.067965627869
 20
1417.101000421403
 30
0.0
 42
0.9999999999999999
  0
VERTEX
  5
428
  8
0
 10
2186.717965627869
 20
1417.101000421403
 30
0.0
  0
VERTEX
  5
429
  8
0
 10
1399.417965627864
 20
1417.101000421404
 30
0.0
 42
0.9999999999999999
  0
VERTEX
  5
42A
  8
0
 10
1393.067965627864
 20
1417.101000421404
 30
0.0
  0
VERTEX
  5
42B
  8
0
 10
1393.067965627864
 20
1404.801000421404
 30
0.0
  0
VERTEX
  5
42C
  8
0
 10
1343.067965627863
 20
1404.801000421404
 30
0.0
  0
VERTEX
  5
42D
  8
0
 10
1343.067965627863
 20
1454.801000421404
 30
0.0
  0
VERTEX
  5
42E
  8
0
 10
1355.367965627864
 20
1454.801000421404
 30
0.0
 42
0.9999999999999999
  0
VERTEX
  5
42F
  8
0
 10
1355.367965627864
 20
1461.151000421404
 30
0.0
  0
VERTEX
  5
430
  8
0
 10
1355.367965627864
 20
1810.751000421401
 30
0.0
 42
0.9999999999999999
  0
SEQEND
  5
6CC
  8
0
  0
POLYLINE
  5
C5
  8
0
 66
     1
 10
0.0
 20
0.0
 30
0.0
 70
     1
  0
VERTEX
  5
431
  8
0
 10
1355.367965627864
 20
2326.1098067181
 30
0.0
  0
VERTEX
  5
432
  8
0
 10
1343.067965627864
 20
2326.1098067181
 30
0.0
  0
VERTEX
  5
433
  8
0
 10
1343.067965627864
 20
2376.1098067181
 30
0.0
  0
VERTEX
  5
434
  8
0
 10
2243.06796562787
 20
2376.109806718099
 30
0.0
  0
VERTEX
  5
435
  8
0
 10
2243.06796562787
 20
2326.109806718099
 30
0.0
  0
VERTEX
  5
436
  8
0
 10
2230.76796562787
 20
2326.109806718099
 30
0.0
 42
0.9999999999999999
  0
VERTEX
  5
437
  8
0
 10
2230.76796562787
 20
2319.759806718099
 30
0.0
  0
VERTEX
  5
438
  8
0
 10
2230.76796562787
 20
1970.1598067181
 30
0.0
 42
0.9999999999999999
  0
VERTEX
  5
439
  8
0
 10
2230.76796562787
 20
1963.809806718099
 30
0.0
  0
VERTEX
  5
43A
  8
0
 10
2243.067965627869
 20
1963.809806718099
 30
0.0
  0
VERTEX
  5
43B
  8
0
 10
2243.067965627869
 20
1913.809806718099
 30
0.0
  0
VERTEX
  5
43C
  8
0
 10
2193.067965627869
 20
1913.809806718099
 30
0.0
  0
VERTEX
  5
43D
  8
0
 10
2193.067965627869
 20
1926.109806718099
 30
0.0
 42
0.9999999999999999
  0
VERTEX
  5
43E
  8
0
 10
2186.717965627869
 20
1926.1098067181
 30
0.0
  0
VERTEX
  5
43F
  8
0
 10
1399.417965627864
 20
1926.1098067181
 30
0.0
 42
0.9999999999999999
  0
VERTEX
  5
440
  8
0
 10
1393.067965627864
 20
1926.1098067181
 30
0.0
  0
VERTEX
  5
441
  8
0
 10
1393.067965627864
 20
1913.8098067181
 30
0.0
  0
VERTEX
  5
442
  8
0
 10
1343.067965627863
 20
1913.8098067181
 30
0.0
  0
VERTEX
  5
443
  8
0
 10
1343.067965627863
 20
1963.8098067181
 30
0.0
  0
VERTEX
  5
444
  8
0
 10
1355.367965627864
 20
1963.8098067181
 30
0.0
 42
0.9999999999999999
  0
VERTEX
  5
445
  8
0
 10
1355.367965627864
 20
1970.159806718101
 30
0.0
  0
VERTEX
  5
446
  8
0
 10
1355.367965627864
 20
2319.759806718101
 30
0.0
 42
0.9999999999999999
  0
SEQEND
  5
6CD
  8
0
  0
POLYLINE
  5
C6
  8
0
 66
     1
 10
0.0
 20
0.0
 30
0.0
 70
     1
  0
VERTEX
  5
447
  8
0
 10
1355.367965627864
 20
799.0833878280075
 30
0.0
  0
VERTEX
  5
448
  8
0
 10
1343.067965627864
 20
799.0833878280071
 30
0.0
  0
VERTEX
  5
449
  8
0
 10
1343.067965627864
 20
849.0833878280066
 30
0.0
  0
VERTEX
  5
44A
  8
0
 10
2243.06796562787
 20
849.0833878280057
 30
0.0
  0
VERTEX
  5
44B
  8
0
 10
2243.06796562787
 20
799.0833878280062
 30
0.0
  0
VERTEX
  5
44C
  8
0
 10
2230.76796562787
 20
799.0833878280066
 30
0.0
 42
0.9999999999999999
  0
VERTEX
  5
44D
  8
0
 10
2230.76796562787
 20
792.7333878280065
 30
0.0
  0
VERTEX
  5
44E
  8
0
 10
2230.76796562787
 20
443.13338782801
 30
0.0
 42
0.9999999999999999
  0
VERTEX
  5
44F
  8
0
 10
2230.76796562787
 20
436.7833878280098
 30
0.0
  0
VERTEX
  5
450
  8
0
 10
2243.067965627869
 20
436.7833878280098
 30
0.0
  0
VERTEX
  5
451
  8
0
 10
2243.067965627869
 20
386.7833878280098
 30
0.0
  0
VERTEX
  5
452
  8
0
 10
2193.067965627869
 20
386.7833878280098
 30
0.0
  0
VERTEX
  5
453
  8
0
 10
2193.067965627869
 20
399.0833878280098
 30
0.0
 42
0.9999999999999999
  0
VERTEX
  5
454
  8
0
 10
2186.717965627869
 20
399.08338782801
 30
0.0
  0
VERTEX
  5
455
  8
0
 10
1399.417965627864
 20
399.0833878280107
 30
0.0
 42
0.9999999999999999
  0
VERTEX
  5
456
  8
0
 10
1393.067965627864
 20
399.0833878280107
 30
0.0
  0
VERTEX
  5
457
  8
0
 10
1393.067965627864
 20
386.7833878280105
 30
0.0
  0
VERTEX
  5
458
  8
0
 10
1343.067965627863
 20
386.7833878280107
 30
0.0
  0
VERTEX
  5
459
  8
0
 10
1343.067965627863
 20
436.7833878280107
 30
0.0
  0
VERTEX
  5
45A
  8
0
 10
1355.367965627864
 20
436.7833878280105
 30
0.0
 42
0.9999999999999999
  0
VERTEX
  5
45B
  8
0
 10
1355.367965627864
 20
443.1333878280109
 30
0.0
  0
VERTEX
  5
45C
  8
0
 10
1355.367965627864
 20
792.7333878280078
 30
0.0
 42
0.9999999999999999
  0
SEQEND
  5
6CE
  8
0
  0
POLYLINE
  5
C7
  8
0
 66
     1
 10
0.0
 20
0.0
 30
0.0
 70
     1
  0
VERTEX
  5
45D
  8
0
 10
1355.367965627864
 20
1308.092194124704
 30
0.0
  0
VERTEX
  5
45E
  8
0
 10
1343.067965627864
 20
1308.092194124704
 30
0.0
  0
VERTEX
  5
45F
  8
0
 10
1343.067965627864
 20
1358.092194124703
 30
0.0
  0
VERTEX
  5
460
  8
0
 10
2243.06796562787
 20
1358.092194124702
 30
0.0
  0
VERTEX
  5
461
  8
0
 10
2243.06796562787
 20
1308.092194124703
 30
0.0
  0
VERTEX
  5
462
  8
0
 10
2230.76796562787
 20
1308.092194124703
 30
0.0
 42
0.9999999999999999
  0
VERTEX
  5
463
  8
0
 10
2230.76796562787
 20
1301.742194124703
 30
0.0
  0
VERTEX
  5
464
  8
0
 10
2230.76796562787
 20
952.1421941247065
 30
0.0
 42
0.9999999999999999
  0
VERTEX
  5
465
  8
0
 10
2230.76796562787
 20
945.7921941247064
 30
0.0
  0
VERTEX
  5
466
  8
0
 10
2243.067965627869
 20
945.7921941247064
 30
0.0
  0
VERTEX
  5
467
  8
0
 10
2243.067965627869
 20
895.7921941247064
 30
0.0
  0
VERTEX
  5
468
  8
0
 10
2193.067965627869
 20
895.7921941247064
 30
0.0
  0
VERTEX
  5
469
  8
0
 10
2193.067965627869
 20
908.0921941247063
 30
0.0
 42
0.9999999999999999
  0
VERTEX
  5
46A
  8
0
 10
2186.717965627869
 20
908.0921941247066
 30
0.0
  0
VERTEX
  5
46B
  8
0
 10
1399.417965627864
 20
908.0921941247072
 30
0.0
 42
0.9999999999999999
  0
VERTEX
  5
46C
  8
0
 10
1393.067965627864
 20
908.0921941247072
 30
0.0
  0
VERTEX
  5
46D
  8
0
 10
1393.067965627864
 20
895.7921941247071
 30
0.0
  0
VERTEX
  5
46E
  8
0
 10
1343.067965627863
 20
895.7921941247073
 30
0.0
  0
VERTEX
  5
46F
  8
0
 10
1343.067965627863
 20
945.7921941247073
 30
0.0
  0
VERTEX
  5
470
  8
0
 10
1355.367965627864
 20
945.7921941247071
 30
0.0
 42
0.9999999999999999
  0
VERTEX
  5
471
  8
0
 10
1355.367965627864
 20
952.1421941247074
 30
0.0
  0
VERTEX
  5
472
  8
0
 10
1355.367965627864
 20
1301.742194124704
 30
0.0
 42
0.9999999999999999
  0
SEQEND
  5
6CF
  8
0
  0
POLYLINE
  5
C8
  8
0
 66
     1
 10
0.0
 20
0.0
 30
0.0
 70
     1
  0
VERTEX
  5
473
  8
0
 10
2436.205634763395
 20
1479.338731654139
 30
0.0
  0
VERTEX
  5
474
  8
0
 10
2436.205634763395
 20
1467.038731654139
 30
0.0
  0
VERTEX
  5
475
  8
0
 10
2393.585634763396
 20
1467.038731654139
 30
0.0
  0
VERTEX
  5
476
  8
0
 10
2393.585634763396
 20
1473.188731654139
 30
0.0
 42
0.9999999999999999
  0
VERTEX
  5
477
  8
0
 10
2387.235634763395
 20
1473.188731654139
 30
0.0
  0
VERTEX
  5
478
  8
0
 10
2385.175634763396
 20
1473.188731654139
 30
0.0
 42
0.9999999999999999
  0
VERTEX
  5
479
  8
0
 10
2378.825634763394
 20
1473.188731654139
 30
0.0
  0
VERTEX
  5
47A
  8
0
 10
2378.825634763394
 20
1467.038731654139
 30
0.0
  0
VERTEX
  5
47B
  8
0
 10
2336.205634763394
 20
1467.038731654139
 30
0.0
  0
VERTEX
  5
47C
  8
0
 10
2336.205634763394
 20
1479.338731654139
 30
0.0
 42
0.9999999999999999
  0
VERTEX
  5
47D
  8
0
 10
2329.855634763393
 20
1479.338731654139
 30
0.0
  0
VERTEX
  5
47E
  8
0
 10
2286.205634763392
 20
1479.338731654139
 30
0.0
  0
VERTEX
  5
47F
  8
0
 10
2286.205634763392
 20
1672.588731654139
 30
0.0
  0
VERTEX
  5
480
  8
0
 10
2298.505634763393
 20
1672.588731654139
 30
0.0
 42
0.9999999999999999
  0
VERTEX
  5
481
  8
0
 10
2298.505634763393
 20
1678.938731654139
 30
0.0
  0
VERTEX
  5
482
  8
0
 10
2298.505634763394
 20
2116.238731654139
 30
0.0
 42
0.9999999999999999
  0
VERTEX
  5
483
  8
0
 10
2298.505634763394
 20
2122.588731654138
 30
0.0
  0
VERTEX
  5
484
  8
0
 10
2286.205634763393
 20
2122.588731654138
 30
0.0
  0
VERTEX
  5
485
  8
0
 10
2286.205634763393
 20
2315.838731654138
 30
0.0
  0
VERTEX
  5
486
  8
0
 10
2329.855634763394
 20
2315.838731654138
 30
0.0
 42
0.9999999999999999
  0
VERTEX
  5
487
  8
0
 10
2336.205634763394
 20
2315.838731654138
 30
0.0
  0
VERTEX
  5
488
  8
0
 10
2336.205634763394
 20
2328.138731654139
 30
0.0
  0
VERTEX
  5
489
  8
0
 10
2378.825634763395
 20
2328.138731654139
 30
0.0
  0
VERTEX
  5
48A
  8
0
 10
2378.825634763395
 20
2321.988731654138
 30
0.0
 42
0.9999999999999999
  0
VERTEX
  5
48B
  8
0
 10
2385.175634763396
 20
2321.988731654138
 30
0.0
  0
VERTEX
  5
48C
  8
0
 10
2387.235634763396
 20
2321.988731654138
 30
0.0
 42
0.9999999999999999
  0
VERTEX
  5
48D
  8
0
 10
2393.585634763396
 20
2321.988731654138
 30
0.0
  0
VERTEX
  5
48E
  8
0
 10
2393.585634763396
 20
2328.138731654139
 30
0.0
  0
VERTEX
  5
48F
  8
0
 10
2436.205634763396
 20
2328.138731654139
 30
0.0
  0
VERTEX
  5
490
  8
0
 10
2436.205634763396
 20
2315.838731654138
 30
0.0
 42
0.9999999999999999
  0
VERTEX
  5
491
  8
0
 10
2442.555634763396
 20
2315.838731654138
 30
0.0
  0
VERTEX
  5
492
  8
0
 10
2486.205634763397
 20
2315.838731654138
 30
0.0
  0
VERTEX
  5
493
  8
0
 10
2486.205634763397
 20
1479.338731654139
 30
0.0
  0
VERTEX
  5
494
  8
0
 10
2442.555634763396
 20
1479.338731654139
 30
0.0
 42
0.9999999999999999
  0
SEQEND
  5
6D0
  8
0
  0
POLYLINE
  5
C9
  8
0
 66
     1
 10
0.0
 20
0.0
 30
0.0
 70
     1
  0
VERTEX
  5
495
  8
0
 10
2436.205634763395
 20
520.8359948739001
 30
0.0
  0
VERTEX
  5
496
  8
0
 10
2436.205634763395
 20
508.5359948738998
 30
0.0
  0
VERTEX
  5
497
  8
0
 10
2393.585634763396
 20
508.5359948738998
 30
0.0
  0
VERTEX
  5
498
  8
0
 10
2393.585634763396
 20
514.6859948738999
 30
0.0
 42
0.9999999999999999
  0
VERTEX
  5
499
  8
0
 10
2387.235634763395
 20
514.6859948738999
 30
0.0
  0
VERTEX
  5
49A
  8
0
 10
2385.175634763396
 20
514.6859948738999
 30
0.0
 42
0.9999999999999999
  0
VERTEX
  5
49B
  8
0
 10
2378.825634763394
 20
514.6859948738999
 30
0.0
  0
VERTEX
  5
49C
  8
0
 10
2378.825634763394
 20
508.5359948738998
 30
0.0
  0
VERTEX
  5
49D
  8
0
 10
2336.205634763394
 20
508.5359948738998
 30
0.0
  0
VERTEX
  5
49E
  8
0
 10
2336.205634763394
 20
520.8359948739001
 30
0.0
 42
0.9999999999999999
  0
VERTEX
  5
49F
  8
0
 10
2329.855634763393
 20
520.8359948739001
 30
0.0
  0
VERTEX
  5
4A0
  8
0
 10
2286.205634763392
 20
520.8359948739001
 30
0.0
  0
VERTEX
  5
4A1
  8
0
 10
2286.205634763392
 20
714.0859948739009
 30
0.0
  0
VERTEX
  5
4A2
  8
0
 10
2298.505634763393
 20
714.0859948739009
 30
0.0
 42
0.9999999999999999
  0
VERTEX
  5
4A3
  8
0
 10
2298.505634763393
 20
720.435994873901
 30
0.0
  0
VERTEX
  5
4A4
  8
0
 10
2298.505634763394
 20
1157.735994873905
 30
0.0
 42
0.9999999999999999
  0
VERTEX
  5
4A5
  8
0
 10
2298.505634763394
 20
1164.085994873904
 30
0.0
  0
VERTEX
  5
4A6
  8
0
 10
2286.205634763393
 20
1164.085994873904
 30
0.0
  0
VERTEX
  5
4A7
  8
0
 10
2286.205634763393
 20
1357.335994873904
 30
0.0
  0
VERTEX
  5
4A8
  8
0
 10
2329.855634763394
 20
1357.335994873904
 30
0.0
 42
0.9999999999999999
  0
VERTEX
  5
4A9
  8
0
 10
2336.205634763394
 20
1357.335994873904
 30
0.0
  0
VERTEX
  5
4AA
  8
0
 10
2336.205634763394
 20
1369.635994873904
 30
0.0
  0
VERTEX
  5
4AB
  8
0
 10
2378.825634763395
 20
1369.635994873904
 30
0.0
  0
VERTEX
  5
4AC
  8
0
 10
2378.825634763395
 20
1363.485994873904
 30
0.0
 42
0.9999999999999999
  0
VERTEX
  5
4AD
  8
0
 10
2385.175634763396
 20
1363.485994873904
 30
0.0
  0
VERTEX
  5
4AE
  8
0
 10
2387.235634763396
 20
1363.485994873904
 30
0.0
 42
0.9999999999999999
  0
VERTEX
  5
4AF
  8
0
 10
2393.585634763396
 20
1363.485994873904
 30
0.0
  0
VERTEX
  5
4B0
  8
0
 10
2393.585634763396
 20
1369.635994873904
 30
0.0
  0
VERTEX
  5
4B1
  8
0
 10
2436.205634763396
 20
1369.635994873904
 30
0.0
  0
VERTEX
  5
4B2
  8
0
 10
2436.205634763396
 20
1357.335994873904
 30
0.0
 42
0.9999999999999999
  0
VERTEX
  5
4B3
  8
0
 10
2442.555634763396
 20
1357.335994873904
 30
0.0
  0
VERTEX
  5
4B4
  8
0
 10
2486.205634763397
 20
1357.335994873904
 30
0.0
  0
VERTEX
  5
4B5
  8
0
 10
2486.205634763397
 20
520.8359948739001
 30
0.0
  0
VERTEX
  5
4B6
  8
0
 10
2442.555634763396
 20
520.8359948739001
 30
0.0
 42
0.9999999999999999
  0
SEQEND
  5
6D1
  8
0
  0
POLYLINE
  5
CA
  8
0
 66
     1
 10
0.0
 20
0.0
 30
0.0
 70
     1
  0
VERTEX
  5
4B7
  8
0
 10
2255.002643206545
 20
284.2727382191767
 30
0.0
  0
VERTEX
  5
4B8
  8
0
 10
2267.302643206544
 20
284.2727382191767
 30
0.0
  0
VERTEX
  5
4B9
  8
0
 10
2267.302643206544
 20
156.5727382191767
 30
0.0
  0
VERTEX
  5
4BA
  8
0
 10
2255.002643206544
 20
156.5727382191768
 30
0.0
 42
0.9999999999999999
  0
VERTEX
  5
4BB
  8
0
 10
2255.002643206544
 20
150.2227382191767
 30
0.0
  0
VERTEX
  5
4BC
  8
0
 10
2255.002643206544
 20
100.4227382191767
 30
0.0
  0
VERTEX
  5
4BD
  8
0
 10
2180.002643206543
 20
100.4227382191767
 30
0.0
  0
VERTEX
  5
4BE
  8
0
 10
2095.622901364478
 20
246.5727382191768
 30
0.0
  0
VERTEX
  5
4BF
  8
0
 10
1538.982385048601
 20
246.5727382191768
 30
0.0
  0
VERTEX
  5
4C0
  8
0
 10
1454.602643206538
 20
100.4227382191769
 30
0.0
  0
VERTEX
  5
4C1
  8
0
 10
1379.602643206539
 20
100.4227382191769
 30
0.0
  0
VERTEX
  5
4C2
  8
0
 10
1379.602643206539
 20
150.222738219177
 30
0.0
 42
0.9999999999999999
  0
VERTEX
  5
4C3
  8
0
 10
1379.602643206539
 20
156.5727382191769
 30
0.0
  0
VERTEX
  5
4C4
  8
0
 10
1367.302643206539
 20
156.5727382191769
 30
0.0
  0
VERTEX
  5
4C5
  8
0
 10
1367.302643206539
 20
284.2727382191769
 30
0.0
  0
VERTEX
  5
4C6
  8
0
 10
1379.602643206539
 20
284.2727382191769
 30
0.0
 42
0.9999999999999999
  0
VERTEX
  5
4C7
  8
0
 10
1379.602643206539
 20
290.6227382191769
 30
0.0
  0
VERTEX
  5
4C8
  8
0
 10
1379.602643206539
 20
334.2727382191769
 30
0.0
  0
VERTEX
  5
4C9
  8
0
 10
1410.952643206539
 20
334.2727382191769
 30
0.0
 42
0.9999999999999999
  0
VERTEX
  5
4CA
  8
0
 10
1417.302643206538
 20
334.2727382191769
 30
0.0
  0
VERTEX
  5
4CB
  8
0
 10
1417.302643206538
 20
346.5727382191769
 30
0.0
  0
VERTEX
  5
4CC
  8
0
 10
2217.302643206544
 20
346.5727382191767
 30
0.0
  0
VERTEX
  5
4CD
  8
0
 10
2217.302643206544
 20
334.2727382191767
 30
0.0
 42
0.9999999999999999
  0
VERTEX
  5
4CE
  8
0
 10
2223.652643206544
 20
334.2727382191767
 30
0.0
  0
VERTEX
  5
4CF
  8
0
 10
2255.002643206545
 20
334.2727382191766
 30
0.0
  0
VERTEX
  5
4D0
  8
0
 10
2255.002643206545
 20
290.6227382191767
 30
0.0
 42
0.9999999999999999
  0
SEQEND
  5
6D2
  8
0
  0
POLYLINE
  5
CB
  8
0
 66
     1
 10
0.0
 20
0.0
 30
0.0
 70
     1
  0
VERTEX
  5
4D1
  8
0
 10
1611.851568986754
 20
185.985441538432
 30
0.0
  0
VERTEX
  5
4D2
  8
0
 10
1611.851568986754
 20
173.685441538432
 30
0.0
  0
VERTEX
  5
4D3
  8
0
 10
1599.551568986753
 20
173.685441538432
 30
0.0
  0
VERTEX
  5
4D4
  8
0
 10
1599.551568986753
 20
198.285441538432
 30
0.0
  0
VERTEX
  5
4D5
  8
0
 10
2011.851568986753
 20
198.2854415384319
 30
0.0
  0
VERTEX
  5
4D6
  8
0
 10
2011.851568986755
 20
185.985441538432
 30
0.0
  0
VERTEX
  5
4D7
  8
0
 10
1968.201568986755
 20
185.985441538432
 30
0.0
 42
0.9999999999999999
  0
VERTEX
  5
4D8
  8
0
 10
1961.851568986754
 20
185.985441538432
 30
0.0
  0
VERTEX
  5
4D9
  8
0
 10
1961.851568986754
 20
173.6854415384316
 30
0.0
  0
VERTEX
  5
4DA
  8
0
 10
1949.551568986754
 20
173.6854415384316
 30
0.0
  0
VERTEX
  5
4DB
  8
0
 10
1949.551568986754
 20
185.985441538432
 30
0.0
 42
0.9999999999999999
  0
VERTEX
  5
4DC
  8
0
 10
1943.201568986754
 20
185.985441538432
 30
0.0
  0
VERTEX
  5
4DD
  8
0
 10
1618.201568986753
 20
185.985441538432
 30
0.0
 42
0.9999999999999999
  0
SEQEND
  5
6D3
  8
0
  0
POLYLINE
  5
CC
  8
0
 66
     1
 10
0.0
 20
0.0
 30
0.0
 70
     1
  0
VERTEX
  5
4DE
  8
0
 10
1999.549910527303
 20
146.2121601557162
 30
0.0
  0
VERTEX
  5
4DF
  8
0
 10
1999.549910527303
 20
158.5121601557162
 30
0.0
  0
VERTEX
  5
4E0
  8
0
 10
2011.849910527302
 20
158.5121601557162
 30
0.0
  0
VERTEX
  5
4E1
  8
0
 10
2011.849910527302
 20
133.9121601557162
 30
0.0
  0
VERTEX
  5
4E2
  8
0
 10
1599.549910527303
 20
133.9121601557163
 30
0.0
  0
VERTEX
  5
4E3
  8
0
 10
1599.549910527302
 20
146.2121601557162
 30
0.0
  0
VERTEX
  5
4E4
  8
0
 10
1643.199910527301
 20
146.2121601557162
 30
0.0
 42
0.9999999999999999
  0
VERTEX
  5
4E5
  8
0
 10
1649.549910527302
 20
146.2121601557162
 30
0.0
  0
VERTEX
  5
4E6
  8
0
 10
1649.549910527302
 20
158.5121601557166
 30
0.0
  0
VERTEX
  5
4E7
  8
0
 10
1661.849910527302
 20
158.5121601557166
 30
0.0
  0
VERTEX
  5
4E8
  8
0
 10
1661.849910527302
 20
146.2121601557162
 30
0.0
 42
0.9999999999999999
  0
VERTEX
  5
4E9
  8
0
 10
1668.199910527301
 20
146.2121601557162
 30
0.0
  0
VERTEX
  5
4EA
  8
0
 10
1993.199910527303
 20
146.2121601557162
 30
0.0
 42
0.9999999999999999
  0
SEQEND
  5
6D4
  8
0
  0
POLYLINE
  5
CD
  8
0
 66
     1
 10
0.0
 20
0.0
 30
0.0
 70
     1
  0
VERTEX
  5
4EB
  8
0
 10
1611.851568986754
 20
89.7592844342199
 30
0.0
  0
VERTEX
  5
4EC
  8
0
 10
1611.851568986754
 20
77.45928443421985
 30
0.0
  0
VERTEX
  5
4ED
  8
0
 10
1599.551568986753
 20
77.45928443421985
 30
0.0
  0
VERTEX
  5
4EE
  8
0
 10
1599.551568986753
 20
102.0592844342199
 30
0.0
  0
VERTEX
  5
4EF
  8
0
 10
2011.851568986753
 20
102.0592844342199
 30
0.0
  0
VERTEX
  5
4F0
  8
0
 10
2011.851568986755
 20
89.7592844342199
 30
0.0
  0
VERTEX
  5
4F1
  8
0
 10
1968.201568986755
 20
89.7592844342199
 30
0.0
 42
0.9999999999999999
  0
VERTEX
  5
4F2
  8
0
 10
1961.851568986754
 20
89.7592844342199
 30
0.0
  0
VERTEX
  5
4F3
  8
0
 10
1961.851568986754
 20
77.45928443421951
 30
0.0
  0
VERTEX
  5
4F4
  8
0
 10
1949.551568986754
 20
77.45928443421951
 30
0.0
  0
VERTEX
  5
4F5
  8
0
 10
1949.551568986754
 20
89.7592844342199
 30
0.0
 42
0.9999999999999999
  0
VERTEX
  5
4F6
  8
0
 10
1943.201568986754
 20
89.7592844342199
 30
0.0
  0
VERTEX
  5
4F7
  8
0
 10
1618.201568986753
 20
89.7592844342199
 30
0.0
 42
0.9999999999999999
  0
SEQEND
  5
6D5
  8
0
  0
POLYLINE
  5
CE
  8
0
 66
     1
 10
0.0
 20
0.0
 30
0.0
 70
     1
  0
VERTEX
  5
4F8
  8
0
 10
1999.549910527303
 20
49.98600305150397
 30
0.0
  0
VERTEX
  5
4F9
  8
0
 10
1999.549910527303
 20
62.28600305150401
 30
0.0
  0
VERTEX
  5
4FA
  8
0
 10
2011.849910527302
 20
62.28600305150401
 30
0.0
  0
VERTEX
  5
4FB
  8
0
 10
2011.849910527302
 20
37.68600305150393
 30
0.0
  0
VERTEX
  5
4FC
  8
0
 10
1599.549910527303
 20
37.68600305150404
 30
0.0
  0
VERTEX
  5
4FD
  8
0
 10
1599.549910527302
 20
49.98600305150403
 30
0.0
  0
VERTEX
  5
4FE
  8
0
 10
1643.199910527301
 20
49.98600305150403
 30
0.0
 42
0.9999999999999999
  0
VERTEX
  5
4FF
  8
0
 10
1649.549910527302
 20
49.98600305150403
 30
0.0
  0
VERTEX
  5
500
  8
0
 10
1649.549910527302
 20
62.28600305150441
 30
0.0
  0
VERTEX
  5
501
  8
0
 10
1661.849910527302
 20
62.28600305150441
 30
0.0
  0
VERTEX
  5
502
  8
0
 10
1661.849910527302
 20
49.98600305150403
 30
0.0
 42
0.9999999999999999
  0
VERTEX
  5
503
  8
0
 10
1668.199910527301
 20
49.98600305150403
 30
0.0
  0
VERTEX
  5
504
  8
0
 10
1993.199910527303
 20
49.98600305150397
 30
0.0
 42
0.9999999999999999
  0
SEQEND
  5
6D6
  8
0
  0
POLYLINE
  5
CF
  8
0
 66
     1
 10
0.0
 20
0.0
 30
0.0
 70
     1
  0
VERTEX
  5
505
  8
0
 10
2329.728232993242
 20
42.9717115964248
 30
0.0
  0
VERTEX
  5
506
  8
0
 10
2342.028232993242
 20
42.9717115964248
 30
0.0
  0
VERTEX
  5
507
  8
0
 10
2342.028232993242
 20
30.67171159642473
 30
0.0
  0
VERTEX
  5
508
  8
0
 10
2317.428232993242
 20
30.67171159642484
 30
0.0
  0
VERTEX
  5
509
  8
0
 10
2317.428232993242
 20
442.9717115964223
 30
0.0
  0
VERTEX
  5
50A
  8
0
 10
2329.728232993242
 20
442.9717115964239
 30
0.0
  0
VERTEX
  5
50B
  8
0
 10
2329.728232993242
 20
399.3217115964241
 30
0.0
 42
0.9999999999999999
  0
VERTEX
  5
50C
  8
0
 10
2329.728232993242
 20
392.9717115964239
 30
0.0
  0
VERTEX
  5
50D
  8
0
 10
2342.028232993242
 20
392.9717115964239
 30
0.0
  0
VERTEX
  5
50E
  8
0
 10
2342.028232993242
 20
380.671711596424
 30
0.0
  0
VERTEX
  5
50F
  8
0
 10
2329.728232993242
 20
380.671711596424
 30
0.0
 42
0.9999999999999999
  0
VERTEX
  5
510
  8
0
 10
2329.728232993242
 20
374.3217115964241
 30
0.0
  0
VERTEX
  5
511
  8
0
 10
2329.728232993242
 20
49.32171159642471
 30
0.0
 42
0.9999999999999999
  0
SEQEND
  5
6D7
  8
0
  0
POLYLINE
  5
D0
  8
0
 66
     1
 10
0.0
 20
0.0
 30
0.0
 70
     1
  0
VERTEX
  5
512
  8
0
 10
2369.501514375958
 20
430.6700531369719
 30
0.0
  0
VERTEX
  5
513
  8
0
 10
2357.201514375958
 20
430.6700531369719
 30
0.0
  0
VERTEX
  5
514
  8
0
 10
2357.201514375958
 20
442.9700531369721
 30
0.0
  0
VERTEX
  5
515
  8
0
 10
2381.801514375959
 20
442.9700531369718
 30
0.0
  0
VERTEX
  5
516
  8
0
 10
2381.801514375959
 20
30.67005313697436
 30
0.0
  0
VERTEX
  5
517
  8
0
 10
2369.501514375958
 20
30.67005313697277
 30
0.0
  0
VERTEX
  5
518
  8
0
 10
2369.501514375958
 20
74.32005313697252
 30
0.0
 42
0.9999999999999999
  0
VERTEX
  5
519
  8
0
 10
2369.501514375958
 20
80.67005313697277
 30
0.0
  0
VERTEX
  5
51A
  8
0
 10
2357.201514375958
 20
80.67005313697277
 30
0.0
  0
VERTEX
  5
51B
  8
0
 10
2357.201514375958
 20
92.9700531369725
 30
0.0
  0
VERTEX
  5
51C
  8
0
 10
2369.501514375958
 20
92.9700531369725
 30
0.0
 42
0.9999999999999999
  0
VERTEX
  5
51D
  8
0
 10
2369.501514375958
 20
99.3200531369724
 30
0.0
  0
VERTEX
  5
51E
  8
0
 10
2369.501514375958
 20
424.320053136972
 30
0.0
 42
0.9999999999999999
  0
SEQEND
  5
6D8
  8
0
  0
POLYLINE
  5
D1
  8
0
 66
     1
 10
0.0
 20
0.0
 30
0.0
 70
     1
  0
VERTEX
  5
51F
  8
0
 10
2425.954390097455
 20
42.9717115964248
 30
0.0
  0
VERTEX
  5
520
  8
0
 10
2438.254390097456
 20
42.9717115964248
 30
0.0
  0
VERTEX
  5
521
  8
0
 10
2438.254390097456
 20
30.67171159642473
 30
0.0
  0
VERTEX
  5
522
  8
0
 10
2413.654390097456
 20
30.67171159642484
 30
0.0
  0
VERTEX
  5
523
  8
0
 10
2413.654390097456
 20
442.9717115964223
 30
0.0
  0
VERTEX
  5
524
  8
0
 10
2425.954390097455
 20
442.9717115964239
 30
0.0
  0
VERTEX
  5
525
  8
0
 10
2425.954390097455
 20
399.3217115964241
 30
0.0
 42
0.9999999999999999
  0
VERTEX
  5
526
  8
0
 10
2425.954390097455
 20
392.9717115964239
 30
0.0
  0
VERTEX
  5
527
  8
0
 10
2438.254390097456
 20
392.9717115964239
 30
0.0
  0
VERTEX
  5
528
  8
0
 10
2438.254390097456
 20
380.671711596424
 30
0.0
  0
VERTEX
  5
529
  8
0
 10
2425.954390097455
 20
380.671711596424
 30
0.0
 42
0.9999999999999999
  0
VERTEX
  5
52A
  8
0
 10
2425.954390097455
 20
374.3217115964241
 30
0.0
  0
VERTEX
  5
52B
  8
0
 10
2425.954390097455
 20
49.32171159642471
 30
0.0
 42
0.9999999999999999
  0
SEQEND
  5
6D9
  8
0
  0
POLYLINE
  5
D2
  8
0
 66
     1
 10
0.0
 20
0.0
 30
0.0
 70
     1
  0
VERTEX
  5
52C
  8
0
 10
2465.727671480172
 20
430.6700531369719
 30
0.0
  0
VERTEX
  5
52D
  8
0
 10
2453.427671480172
 20
430.6700531369719
 30
0.0
  0
VERTEX
  5
52E
  8
0
 10
2453.427671480172
 20
442.9700531369721
 30
0.0
  0
VERTEX
  5
52F
  8
0
 10
2478.027671480173
 20
442.9700531369718
 30
0.0
  0
VERTEX
  5
530
  8
0
 10
2478.027671480173
 20
30.67005313697436
 30
0.0
  0
VERTEX
  5
531
  8
0
 10
2465.727671480172
 20
30.67005313697277
 30
0.0
  0
VERTEX
  5
532
  8
0
 10
2465.727671480172
 20
74.32005313697252
 30
0.0
 42
0.9999999999999999
  0
VERTEX
  5
533
  8
0
 10
2465.727671480172
 20
80.67005313697277
 30
0.0
  0
VERTEX
  5
534
  8
0
 10
2453.427671480172
 20
80.67005313697277
 30
0.0
  0
VERTEX
  5
535
  8
0
 10
2453.427671480172
 20
92.9700531369725
 30
0.0
  0
VERTEX
  5
536
  8
0
 10
2465.727671480172
 20
92.9700531369725
 30
0.0
 42
0.9999999999999999
  0
VERTEX
  5
537
  8
0
 10
2465.727671480172
 20
99.3200531369724
 30
0.0
  0
VERTEX
  5
538
  8
0
 10
2465.727671480172
 20
424.320053136972
 30
0.0
 42
0.9999999999999999
  0
SEQEND
  5
6DA
  8
0
  0
POLYLINE
  5
D3
  8
0
 66
     1
 10
0.0
 20
0.0
 30
0.0
 70
     1
  0
VERTEX
  5
539
  8
0
 10
702.5671618749387
 20
47.01018120821855
 30
0.0
  0
VERTEX
  5
53A
  8
0
 10
252.5671618749351
 20
47.01018120821866
 30
0.0
  0
VERTEX
  5
53B
  8
0
 10
252.5671618749351
 20
59.31018120821883
 30
0.0
 42
0.9999999999999999
  0
VERTEX
  5
53C
  8
0
 10
246.2171618749356
 20
59.31018120821883
 30
0.0
  0
VERTEX
  5
53D
  8
0
 10
59.31716187493416
 20
59.31018120821883
 30
0.0
  0
VERTEX
  5
53E
  8
0
 10
59.31716187493416
 20
181.4351812082184
 30
0.0
 42
0.9999999999999999
  0
VERTEX
  5
53F
  8
0
 10
59.31716187493416
 20
187.7851812082185
 30
0.0
  0
VERTEX
  5
540
  8
0
 10
47.01716187493398
 20
187.7851812082185
 30
0.0
  0
VERTEX
  5
541
  8
0
 10
47.01716187493398
 20
337.7851812082184
 30
0.0
  0
VERTEX
  5
542
  8
0
 10
59.31716187493416
 20
337.7851812082184
 30
0.0
 42
0.9999999999999999
  0
VERTEX
  5
543
  8
0
 10
59.31716187493416
 20
344.1351812082186
 30
0.0
  0
VERTEX
  5
544
  8
0
 10
59.31716187493416
 20
478.5601812082188
 30
0.0
  0
VERTEX
  5
545
  8
0
 10
895.8171618749406
 20
478.5601812082188
 30
0.0
  0
VERTEX
  5
546
  8
0
 10
895.8171618749406
 20
344.1351812082186
 30
0.0
 42
0.9999999999999999
  0
VERTEX
  5
547
  8
0
 10
895.8171618749406
 20
337.7851812082184
 30
0.0
  0
VERTEX
  5
548
  8
0
 10
908.1171618749407
 20
337.7851812082184
 30
0.0
  0
VERTEX
  5
549
  8
0
 10
908.1171618749407
 20
187.7851812082183
 30
0.0
  0
VERTEX
  5
54A
  8
0
 10
895.8171618749406
 20
187.7851812082183
 30
0.0
 42
0.9999999999999999
  0
VERTEX
  5
54B
  8
0
 10
895.8171618749406
 20
181.4351812082182
 30
0.0
  0
VERTEX
  5
54C
  8
0
 10
895.8171618749406
 20
59.3101812082186
 30
0.0
  0
VERTEX
  5
54D
  8
0
 10
708.9171618749382
 20
59.31018120821872
 30
0.0
 42
0.9999999999999999
  0
VERTEX
  5
54E
  8
0
 10
702.5671618749387
 20
59.31018120821872
 30
0.0
  0
SEQEND
  5
6DB
  8
0
  0
POLYLINE
  5
D4
  8
0
 66
     1
 10
0.0
 20
0.0
 30
0.0
 70
     1
  0
VERTEX
  5
54F
  8
0
 10
766.3218497911779
 20
952.067490926894
 30
0.0
  0
VERTEX
  5
550
  8
0
 10
766.3218497911779
 20
811.2924909268946
 30
0.0
  0
VERTEX
  5
551
  8
0
 10
778.5518085815196
 20
811.2924909268946
 30
0.0
 42
-0.417448172490102
  0
VERTEX
  5
552
  8
0
 10
781.7966566212057
 20
808.1532863189256
 30
0.0
 42
-0.4174481724900892
  0
VERTEX
  5
553
  8
0
 10
778.6218497911781
 20
804.9432635832803
 30
0.0
  0
VERTEX
  5
554
  8
0
 10
778.6218497911781
 20
667.6424909268947
 30
0.0
 42
-0.9999999999999999
  0
VERTEX
  5
555
  8
0
 10
778.6218497911781
 20
661.2924909268946
 30
0.0
  0
VERTEX
  5
556
  8
0
 10
766.3218497911779
 20
661.2924909268946
 30
0.0
  0
VERTEX
  5
557
  8
0
 10
766.3218497911779
 20
520.5174909268953
 30
0.0
  0
VERTEX
  5
558
  8
0
 10
816.3218497911788
 20
520.5174909268952
 30
0.0
  0
VERTEX
  5
559
  8
0
 10
816.3218497911788
 20
532.8174909268948
 30
0.0
 42
-0.9999999999999999
  0
VERTEX
  5
55A
  8
0
 10
822.6718497911792
 20
532.8174909268948
 30
0.0
  0
VERTEX
  5
55B
  8
0
 10
909.9718497911794
 20
532.8174909268948
 30
0.0
 42
-0.9999999999999999
  0
VERTEX
  5
55C
  8
0
 10
916.3218497911788
 20
532.8174909268948
 30
0.0
  0
VERTEX
  5
55D
  8
0
 10
916.3218497911788
 20
520.517490926895
 30
0.0
  0
VERTEX
  5
55E
  8
0
 10
966.3218497911797
 20
520.517490926895
 30
0.0
  0
VERTEX
  5
55F
  8
0
 10
966.3218497911788
 20
952.067490926895
 30
0.0
  0
SEQEND
  5
6DC
  8
0
  0
POLYLINE
  5
D5
  8
0
 66
     1
 10
0.0
 20
0.0
 30
0.0
 70
     1
  0
VERTEX
  5
560
  8
0
 10
873.0867871986096
 20
914.3674909268942
 30
0.0
  0
VERTEX
  5
561
  8
0
 10
873.0867871986105
 20
532.8174909268948
 30
0.0
  0
VERTEX
  5
562
  8
0
 10
859.5567871986135
 20
532.8174909268948
 30
0.0
  0
VERTEX
  5
563
  8
0
 10
859.5567871986099
 20
914.3674844514807
 30
0.0
 42
-0.414213861051039
  0
VERTEX
  5
564
  8
0
 10
862.7317839608962
 20
917.5424909268925
 30
0.0
 42
-0.4142138610510395
  0
VERTEX
  5
565
  8
0
 10
865.906787198603
 20
914.3674909268942
 30
0.0
  0
VERTEX
  5
566
  8
0
 10
866.7367871986102
 20
914.3674909268942
 30
0.0
 42
-0.9999999999999999
  0
SEQEND
  5
6DD
  8
0
  0
POLYLINE
  5
D6
  8
0
 66
     1
 10
0.0
 20
0.0
 30
0.0
 70
     1
  0
VERTEX
  5
567
  8
0
 10
261.2067514795193
 20
1426.020548187947
 30
0.0
  0
VERTEX
  5
568
  8
0
 10
261.2067514795193
 20
1285.245548187948
 30
0.0
  0
VERTEX
  5
569
  8
0
 10
248.9767926891776
 20
1285.245548187948
 30
0.0
 42
0.417448172490102
  0
VERTEX
  5
56A
  8
0
 10
245.7319446494915
 20
1282.106343579979
 30
0.0
 42
0.4174481724900892
  0
VERTEX
  5
56B
  8
0
 10
248.9067514795191
 20
1278.896320844333
 30
0.0
  0
VERTEX
  5
56C
  8
0
 10
248.9067514795191
 20
1141.595548187948
 30
0.0
 42
0.9999999999999999
  0
VERTEX
  5
56D
  8
0
 10
248.9067514795191
 20
1135.245548187948
 30
0.0
  0
VERTEX
  5
56E
  8
0
 10
261.2067514795193
 20
1135.245548187948
 30
0.0
  0
VERTEX
  5
56F
  8
0
 10
261.2067514795193
 20
994.4705481879482
 30
0.0
  0
VERTEX
  5
570
  8
0
 10
211.2067514795184
 20
994.4705481879481
 30
0.0
  0
VERTEX
  5
571
  8
0
 10
211.2067514795184
 20
1006.770548187948
 30
0.0
 42
0.9999999999999999
  0
VERTEX
  5
572
  8
0
 10
204.856751479518
 20
1006.770548187948
 30
0.0
  0
VERTEX
  5
573
  8
0
 10
117.5567514795178
 20
1006.770548187948
 30
0.0
 42
0.9999999999999999
  0
VERTEX
  5
574
  8
0
 10
111.2067514795184
 20
1006.770548187948
 30
0.0
  0
VERTEX
  5
575
  8
0
 10
111.2067514795184
 20
994.4705481879479
 30
0.0
  0
VERTEX
  5
576
  8
0
 10
61.20675147951747
 20
994.4705481879479
 30
0.0
  0
VERTEX
  5
577
  8
0
 10
61.20675147951838
 20
1426.020548187948
 30
0.0
  0
SEQEND
  5
6DE
  8
0
  0
POLYLINE
  5
D7
  8
0
 66
     1
 10
0.0
 20
0.0
 30
0.0
 70
     1
  0
VERTEX
  5
578
  8
0
 10
154.4418140720876
 20
1388.320548187947
 30
0.0
  0
VERTEX
  5
579
  8
0
 10
154.4418140720867
 20
1006.770548187948
 30
0.0
  0
VERTEX
  5
57A
  8
0
 10
167.9718140720837
 20
1006.770548187948
 30
0.0
  0
VERTEX
  5
57B
  8
0
 10
167.9718140720873
 20
1388.320541712534
 30
0.0
 42
0.414213861051039
  0
VERTEX
  5
57C
  8
0
 10
164.796817309801
 20
1391.495548187945
 30
0.0
 42
0.4142138610510395
  0
VERTEX
  5
57D
  8
0
 10
161.6218140720942
 20
1388.320548187947
 30
0.0
  0
VERTEX
  5
57E
  8
0
 10
160.791814072087
 20
1388.320548187947
 30
0.0
 42
0.9999999999999999
  0
SEQEND
  5
6DF
  8
0
  0
POLYLINE
  5
D8
  8
0
 66
     1
 10
0.0
 20
0.0
 30
0.0
 70
     1
  0
VERTEX
  5
57F
  8
0
 10
531.283483687292
 20
952.067490926894
 30
0.0
  0
VERTEX
  5
580
  8
0
 10
531.283483687292
 20
811.2924909268946
 30
0.0
  0
VERTEX
  5
581
  8
0
 10
543.5134424776337
 20
811.2924909268946
 30
0.0
 42
-0.417448172490102
  0
VERTEX
  5
582
  8
0
 10
546.7582905173198
 20
808.1532863189256
 30
0.0
 42
-0.4174481724900892
  0
VERTEX
  5
583
  8
0
 10
543.5834836872922
 20
804.9432635832803
 30
0.0
  0
VERTEX
  5
584
  8
0
 10
543.5834836872922
 20
667.6424909268947
 30
0.0
 42
-0.9999999999999999
  0
VERTEX
  5
585
  8
0
 10
543.5834836872922
 20
661.2924909268946
 30
0.0
  0
VERTEX
  5
586
  8
0
 10
531.283483687292
 20
661.2924909268946
 30
0.0
  0
VERTEX
  5
587
  8
0
 10
531.283483687292
 20
520.5174909268953
 30
0.0
  0
VERTEX
  5
588
  8
0
 10
581.2834836872929
 20
520.5174909268952
 30
0.0
  0
VERTEX
  5
589
  8
0
 10
581.2834836872929
 20
532.8174909268948
 30
0.0
 42
-0.9999999999999999
  0
VERTEX
  5
58A
  8
0
 10
587.6334836872924
 20
532.8174909268948
 30
0.0
  0
VERTEX
  5
58B
  8
0
 10
674.9334836872926
 20
532.8174909268948
 30
0.0
 42
-0.9999999999999999
  0
VERTEX
  5
58C
  8
0
 10
681.2834836872929
 20
532.8174909268948
 30
0.0
  0
VERTEX
  5
58D
  8
0
 10
681.2834836872929
 20
520.517490926895
 30
0.0
  0
VERTEX
  5
58E
  8
0
 10
731.2834836872929
 20
520.517490926895
 30
0.0
  0
VERTEX
  5
58F
  8
0
 10
731.283483687292
 20
952.067490926895
 30
0.0
  0
SEQEND
  5
6E0
  8
0
  0
POLYLINE
  5
D9
  8
0
 66
     1
 10
0.0
 20
0.0
 30
0.0
 70
     1
  0
VERTEX
  5
590
  8
0
 10
638.0484210947237
 20
914.3674909268942
 30
0.0
  0
VERTEX
  5
591
  8
0
 10
638.0484210947246
 20
532.8174909268948
 30
0.0
  0
VERTEX
  5
592
  8
0
 10
624.5184210947276
 20
532.8174909268948
 30
0.0
  0
VERTEX
  5
593
  8
0
 10
624.518421094724
 20
914.3674844514807
 30
0.0
 42
-0.414213861051039
  0
VERTEX
  5
594
  8
0
 10
627.6934178570103
 20
917.5424909268925
 30
0.0
 42
-0.4142138610510395
  0
VERTEX
  5
595
  8
0
 10
630.8684210947171
 20
914.3674909268942
 30
0.0
  0
VERTEX
  5
596
  8
0
 10
631.6984210947243
 20
914.3674909268942
 30
0.0
 42
-0.9999999999999999
  0
SEQEND
  5
6E1
  8
0
  0
POLYLINE
  5
DA
  8
0
 66
     1
 10
0.0
 20
0.0
 30
0.0
 70
     1
  0
VERTEX
  5
597
  8
0
 10
496.2451175834052
 20
1426.020548187947
 30
0.0
  0
VERTEX
  5
598
  8
0
 10
496.2451175834052
 20
1285.245548187948
 30
0.0
  0
VERTEX
  5
599
  8
0
 10
484.0151587930635
 20
1285.245548187948
 30
0.0
 42
0.417448172490102
  0
VERTEX
  5
59A
  8
0
 10
480.7703107533774
 20
1282.106343579979
 30
0.0
 42
0.4174481724900892
  0
VERTEX
  5
59B
  8
0
 10
483.945117583405
 20
1278.896320844333
 30
0.0
  0
VERTEX
  5
59C
  8
0
 10
483.945117583405
 20
1141.595548187948
 30
0.0
 42
0.9999999999999999
  0
VERTEX
  5
59D
  8
0
 10
483.945117583405
 20
1135.245548187948
 30
0.0
  0
VERTEX
  5
59E
  8
0
 10
496.2451175834052
 20
1135.245548187948
 30
0.0
  0
VERTEX
  5
59F
  8
0
 10
496.2451175834052
 20
994.4705481879482
 30
0.0
  0
VERTEX
  5
5A0
  8
0
 10
446.2451175834043
 20
994.4705481879481
 30
0.0
  0
VERTEX
  5
5A1
  8
0
 10
446.2451175834043
 20
1006.770548187948
 30
0.0
 42
0.9999999999999999
  0
VERTEX
  5
5A2
  8
0
 10
439.8951175834048
 20
1006.770548187948
 30
0.0
  0
VERTEX
  5
5A3
  8
0
 10
352.5951175834047
 20
1006.770548187948
 30
0.0
 42
0.9999999999999999
  0
VERTEX
  5
5A4
  8
0
 10
346.2451175834043
 20
1006.770548187948
 30
0.0
  0
VERTEX
  5
5A5
  8
0
 10
346.2451175834043
 20
994.4705481879479
 30
0.0
  0
VERTEX
  5
5A6
  8
0
 10
296.2451175834043
 20
994.4705481879479
 30
0.0
  0
VERTEX
  5
5A7
  8
0
 10
296.2451175834052
 20
1426.020548187948
 30
0.0
  0
SEQEND
  5
6E2
  8
0
  0
POLYLINE
  5
DB
  8
0
 66
     1
 10
0.0
 20
0.0
 30
0.0
 70
     1
  0
VERTEX
  5
5A8
  8
0
 10
389.4801801759735
 20
1388.320548187947
 30
0.0
  0
VERTEX
  5
5A9
  8
0
 10
389.4801801759726
 20
1006.770548187948
 30
0.0
  0
VERTEX
  5
5AA
  8
0
 10
403.0101801759696
 20
1006.770548187948
 30
0.0
  0
VERTEX
  5
5AB
  8
0
 10
403.0101801759732
 20
1388.320541712534
 30
0.0
 42
0.414213861051039
  0
VERTEX
  5
5AC
  8
0
 10
399.8351834136869
 20
1391.495548187945
 30
0.0
 42
0.4142138610510395
  0
VERTEX
  5
5AD
  8
0
 10
396.6601801759801
 20
1388.320548187947
 30
0.0
  0
VERTEX
  5
5AE
  8
0
 10
395.8301801759729
 20
1388.320548187947
 30
0.0
 42
0.9999999999999999
  0
SEQEND
  5
6E3
  8
0
  0
POLYLINE
  5
DC
  8
0
 66
     1
 10
0.0
 20
0.0
 30
0.0
 70
     1
  0
VERTEX
  5
5AF
  8
0
 10
296.2451175834052
 20
952.067490926894
 30
0.0
  0
VERTEX
  5
5B0
  8
0
 10
296.2451175834052
 20
811.2924909268946
 30
0.0
  0
VERTEX
  5
5B1
  8
0
 10
308.4750763737469
 20
811.2924909268946
 30
0.0
 42
-0.417448172490102
  0
VERTEX
  5
5B2
  8
0
 10
311.719924413433
 20
808.1532863189256
 30
0.0
 42
-0.4174481724900892
  0
VERTEX
  5
5B3
  8
0
 10
308.5451175834054
 20
804.9432635832803
 30
0.0
  0
VERTEX
  5
5B4
  8
0
 10
308.5451175834054
 20
667.6424909268947
 30
0.0
 42
-0.9999999999999999
  0
VERTEX
  5
5B5
  8
0
 10
308.5451175834054
 20
661.2924909268946
 30
0.0
  0
VERTEX
  5
5B6
  8
0
 10
296.2451175834052
 20
661.2924909268946
 30
0.0
  0
VERTEX
  5
5B7
  8
0
 10
296.2451175834052
 20
520.5174909268953
 30
0.0
  0
VERTEX
  5
5B8
  8
0
 10
346.2451175834061
 20
520.5174909268952
 30
0.0
  0
VERTEX
  5
5B9
  8
0
 10
346.2451175834061
 20
532.8174909268948
 30
0.0
 42
-0.9999999999999999
  0
VERTEX
  5
5BA
  8
0
 10
352.5951175834065
 20
532.8174909268948
 30
0.0
  0
VERTEX
  5
5BB
  8
0
 10
439.8951175834067
 20
532.8174909268948
 30
0.0
 42
-0.9999999999999999
  0
VERTEX
  5
5BC
  8
0
 10
446.245117583407
 20
532.8174909268948
 30
0.0
  0
VERTEX
  5
5BD
  8
0
 10
446.245117583407
 20
520.517490926895
 30
0.0
  0
VERTEX
  5
5BE
  8
0
 10
496.245117583407
 20
520.517490926895
 30
0.0
  0
VERTEX
  5
5BF
  8
0
 10
496.245117583407
 20
952.067490926895
 30
0.0
  0
SEQEND
  5
6E4
  8
0
  0
POLYLINE
  5
DD
  8
0
 66
     1
 10
0.0
 20
0.0
 30
0.0
 70
     1
  0
VERTEX
  5
5C0
  8
0
 10
403.0100549908378
 20
914.3674909268942
 30
0.0
  0
VERTEX
  5
5C1
  8
0
 10
403.0100549908378
 20
532.8174909268948
 30
0.0
  0
VERTEX
  5
5C2
  8
0
 10
389.4800549908408
 20
532.8174909268948
 30
0.0
  0
VERTEX
  5
5C3
  8
0
 10
389.4800549908372
 20
914.3674844514807
 30
0.0
 42
-0.414213861051039
  0
VERTEX
  5
5C4
  8
0
 10
392.6550517531244
 20
917.5424909268925
 30
0.0
 42
-0.4142138610510395
  0
VERTEX
  5
5C5
  8
0
 10
395.8300549908312
 20
914.3674909268942
 30
0.0
  0
VERTEX
  5
5C6
  8
0
 10
396.6600549908375
 20
914.3674909268942
 30
0.0
 42
-0.9999999999999999
  0
SEQEND
  5
6E5
  8
0
  0
POLYLINE
  5
DE
  8
0
 66
     1
 10
0.0
 20
0.0
 30
0.0
 70
     1
  0
VERTEX
  5
5C7
  8
0
 10
731.283483687292
 20
1426.020548187947
 30
0.0
  0
VERTEX
  5
5C8
  8
0
 10
731.283483687292
 20
1285.245548187948
 30
0.0
  0
VERTEX
  5
5C9
  8
0
 10
719.0535248969503
 20
1285.245548187948
 30
0.0
 42
0.417448172490102
  0
VERTEX
  5
5CA
  8
0
 10
715.8086768572642
 20
1282.106343579979
 30
0.0
 42
0.4174481724900892
  0
VERTEX
  5
5CB
  8
0
 10
718.9834836872918
 20
1278.896320844333
 30
0.0
  0
VERTEX
  5
5CC
  8
0
 10
718.9834836872918
 20
1141.595548187948
 30
0.0
 42
0.9999999999999999
  0
VERTEX
  5
5CD
  8
0
 10
718.9834836872918
 20
1135.245548187948
 30
0.0
  0
VERTEX
  5
5CE
  8
0
 10
731.283483687292
 20
1135.245548187948
 30
0.0
  0
VERTEX
  5
5CF
  8
0
 10
731.283483687292
 20
994.4705481879482
 30
0.0
  0
VERTEX
  5
5D0
  8
0
 10
681.2834836872911
 20
994.4705481879481
 30
0.0
  0
VERTEX
  5
5D1
  8
0
 10
681.2834836872911
 20
1006.770548187948
 30
0.0
 42
0.9999999999999999
  0
VERTEX
  5
5D2
  8
0
 10
674.9334836872907
 20
1006.770548187948
 30
0.0
  0
VERTEX
  5
5D3
  8
0
 10
587.6334836872905
 20
1006.770548187948
 30
0.0
 42
0.9999999999999999
  0
VERTEX
  5
5D4
  8
0
 10
581.2834836872902
 20
1006.770548187948
 30
0.0
  0
VERTEX
  5
5D5
  8
0
 10
581.2834836872902
 20
994.4705481879479
 30
0.0
  0
VERTEX
  5
5D6
  8
0
 10
531.2834836872902
 20
994.4705481879479
 30
0.0
  0
VERTEX
  5
5D7
  8
0
 10
531.2834836872902
 20
1426.020548187948
 30
0.0
  0
SEQEND
  5
6E6
  8
0
  0
POLYLINE
  5
DF
  8
0
 66
     1
 10
0.0
 20
0.0
 30
0.0
 70
     1
  0
VERTEX
  5
5D8
  8
0
 10
624.5185462798594
 20
1388.320548187947
 30
0.0
  0
VERTEX
  5
5D9
  8
0
 10
624.5185462798594
 20
1006.770548187948
 30
0.0
  0
VERTEX
  5
5DA
  8
0
 10
638.0485462798564
 20
1006.770548187948
 30
0.0
  0
VERTEX
  5
5DB
  8
0
 10
638.04854627986
 20
1388.320541712534
 30
0.0
 42
0.414213861051039
  0
VERTEX
  5
5DC
  8
0
 10
634.8735495175728
 20
1391.495548187945
 30
0.0
 42
0.4142138610510395
  0
VERTEX
  5
5DD
  8
0
 10
631.698546279866
 20
1388.320548187947
 30
0.0
  0
VERTEX
  5
5DE
  8
0
 10
630.8685462798597
 20
1388.320548187947
 30
0.0
 42
0.9999999999999999
  0
SEQEND
  5
6E7
  8
0
  0
POLYLINE
  5
E0
  8
0
 66
     1
 10
0.0
 20
0.0
 30
0.0
 70
     1
  0
VERTEX
  5
5DF
  8
0
 10
61.20675147951749
 20
952.067490926894
 30
0.0
  0
VERTEX
  5
5E0
  8
0
 10
61.2067514795184
 20
811.2924909268946
 30
0.0
  0
VERTEX
  5
5E1
  8
0
 10
73.4367102698601
 20
811.2924909268946
 30
0.0
 42
-0.417448172490102
  0
VERTEX
  5
5E2
  8
0
 10
76.68155830954527
 20
808.1532863189256
 30
0.0
 42
-0.4174481724900892
  0
VERTEX
  5
5E3
  8
0
 10
73.50675147951858
 20
804.9432635832803
 30
0.0
  0
VERTEX
  5
5E4
  8
0
 10
73.50675147951858
 20
667.6424909268947
 30
0.0
 42
-0.9999999999999999
  0
VERTEX
  5
5E5
  8
0
 10
73.50675147951858
 20
661.2924909268946
 30
0.0
  0
VERTEX
  5
5E6
  8
0
 10
61.2067514795184
 20
661.2924909268946
 30
0.0
  0
VERTEX
  5
5E7
  8
0
 10
61.2067514795184
 20
520.5174909268953
 30
0.0
  0
VERTEX
  5
5E8
  8
0
 10
111.2067514795193
 20
520.5174909268952
 30
0.0
  0
VERTEX
  5
5E9
  8
0
 10
111.2067514795193
 20
532.8174909268948
 30
0.0
 42
-0.9999999999999999
  0
VERTEX
  5
5EA
  8
0
 10
117.5567514795188
 20
532.8174909268948
 30
0.0
  0
VERTEX
  5
5EB
  8
0
 10
204.8567514795199
 20
532.8174909268948
 30
0.0
 42
-0.9999999999999999
  0
VERTEX
  5
5EC
  8
0
 10
211.2067514795193
 20
532.8174909268948
 30
0.0
  0
VERTEX
  5
5ED
  8
0
 10
211.2067514795202
 20
520.517490926895
 30
0.0
  0
VERTEX
  5
5EE
  8
0
 10
261.2067514795202
 20
520.517490926895
 30
0.0
  0
VERTEX
  5
5EF
  8
0
 10
261.2067514795202
 20
952.067490926895
 30
0.0
  0
SEQEND
  5
6E8
  8
0
  0
POLYLINE
  5
E1
  8
0
 66
     1
 10
0.0
 20
0.0
 30
0.0
 70
     1
  0
VERTEX
  5
5F0
  8
0
 10
167.9716888869501
 20
914.3674909268942
 30
0.0
  0
VERTEX
  5
5F1
  8
0
 10
167.971688886951
 20
532.8174909268948
 30
0.0
  0
VERTEX
  5
5F2
  8
0
 10
154.441688886954
 20
532.8174909268948
 30
0.0
  0
VERTEX
  5
5F3
  8
0
 10
154.4416888869504
 20
914.3674844514807
 30
0.0
 42
-0.414213861051039
  0
VERTEX
  5
5F4
  8
0
 10
157.6166856492367
 20
917.5424909268925
 30
0.0
 42
-0.4142138610510395
  0
VERTEX
  5
5F5
  8
0
 10
160.7916888869435
 20
914.3674909268942
 30
0.0
  0
VERTEX
  5
5F6
  8
0
 10
161.6216888869507
 20
914.3674909268942
 30
0.0
 42
-0.9999999999999999
  0
SEQEND
  5
6E9
  8
0
  0
POLYLINE
  5
E2
  8
0
 66
     1
 10
0.0
 20
0.0
 30
0.0
 70
     1
  0
VERTEX
  5
5F7
  8
0
 10
966.3218497911797
 20
1426.020548187947
 30
0.0
  0
VERTEX
  5
5F8
  8
0
 10
966.3218497911788
 20
1285.245548187948
 30
0.0
  0
VERTEX
  5
5F9
  8
0
 10
954.0918910008371
 20
1285.245548187948
 30
0.0
 42
0.417448172490102
  0
VERTEX
  5
5FA
  8
0
 10
950.8470429611519
 20
1282.106343579979
 30
0.0
 42
0.4174481724900892
  0
VERTEX
  5
5FB
  8
0
 10
954.0218497911786
 20
1278.896320844333
 30
0.0
  0
VERTEX
  5
5FC
  8
0
 10
954.0218497911786
 20
1141.595548187948
 30
0.0
 42
0.9999999999999999
  0
VERTEX
  5
5FD
  8
0
 10
954.0218497911786
 20
1135.245548187948
 30
0.0
  0
VERTEX
  5
5FE
  8
0
 10
966.3218497911788
 20
1135.245548187948
 30
0.0
  0
VERTEX
  5
5FF
  8
0
 10
966.3218497911788
 20
994.4705481879482
 30
0.0
  0
VERTEX
  5
600
  8
0
 10
916.3218497911779
 20
994.4705481879481
 30
0.0
  0
VERTEX
  5
601
  8
0
 10
916.3218497911779
 20
1006.770548187948
 30
0.0
 42
0.9999999999999999
  0
VERTEX
  5
602
  8
0
 10
909.9718497911784
 20
1006.770548187948
 30
0.0
  0
VERTEX
  5
603
  8
0
 10
822.6718497911774
 20
1006.770548187948
 30
0.0
 42
0.9999999999999999
  0
VERTEX
  5
604
  8
0
 10
816.3218497911779
 20
1006.770548187948
 30
0.0
  0
VERTEX
  5
605
  8
0
 10
816.321849791177
 20
994.4705481879479
 30
0.0
  0
VERTEX
  5
606
  8
0
 10
766.321849791177
 20
994.4705481879479
 30
0.0
  0
VERTEX
  5
607
  8
0
 10
766.321849791177
 20
1426.020548187948
 30
0.0
  0
SEQEND
  5
6EA
  8
0
  0
POLYLINE
  5
E3
  8
0
 66
     1
 10
0.0
 20
0.0
 30
0.0
 70
     1
  0
VERTEX
  5
608
  8
0
 10
859.5569123837471
 20
1388.320548187947
 30
0.0
  0
VERTEX
  5
609
  8
0
 10
859.5569123837462
 20
1006.770548187948
 30
0.0
  0
VERTEX
  5
60A
  8
0
 10
873.0869123837432
 20
1006.770548187948
 30
0.0
  0
VERTEX
  5
60B
  8
0
 10
873.0869123837468
 20
1388.320541712534
 30
0.0
 42
0.414213861051039
  0
VERTEX
  5
60C
  8
0
 10
869.9119156214605
 20
1391.495548187945
 30
0.0
 42
0.4142138610510395
  0
VERTEX
  5
60D
  8
0
 10
866.7369123837537
 20
1388.320548187947
 30
0.0
  0
VERTEX
  5
60E
  8
0
 10
865.9069123837465
 20
1388.320548187947
 30
0.0
 42
0.9999999999999999
  0
SEQEND
  5
6EB
  8
0
  0
POLYLINE
  5
E4
  8
0
 66
     1
 10
0.0
 20
0.0
 30
0.0
 70
     1
  0
VERTEX
  5
60F
  8
0
 10
274.3310613275374
 20
1510.897238796369
 30
0.0
  0
VERTEX
  5
610
  8
0
 10
274.3310613273901
 20
1523.197238796405
 30
0.0
 42
0.9999999999999999
  0
VERTEX
  5
611
  8
0
 10
267.9810613273897
 20
1523.197238796333
 30
0.0
  0
VERTEX
  5
612
  8
0
 10
86.63106132740208
 20
1523.197238796369
 30
0.0
  0
VERTEX
  5
613
  8
0
 10
86.63106132740208
 20
2359.697238796369
 30
0.0
  0
VERTEX
  5
614
  8
0
 10
267.9810613274034
 20
2359.697238796369
 30
0.0
 42
0.9999999999999999
  0
VERTEX
  5
615
  8
0
 10
274.3310613274037
 20
2359.697238796369
 30
0.0
  0
VERTEX
  5
616
  8
0
 10
274.3310613274037
 20
2371.997238796368
 30
0.0
 42
0.9999999999999999
  0
VERTEX
  5
617
  8
0
 10
267.9810613274034
 20
2371.997238796368
 30
0.0
  0
VERTEX
  5
618
  8
0
 10
80.68106132740226
 20
2371.997238796369
 30
0.0
 42
0.9999999999999999
  0
VERTEX
  5
619
  8
0
 10
74.33106132740281
 20
2371.997238796369
 30
0.0
  0
VERTEX
  5
61A
  8
0
 10
74.3310613274019
 20
1510.897238796369
 30
0.0
 42
0.9999999999999999
  0
VERTEX
  5
61B
  8
0
 10
80.68106132740226
 20
1510.897238796369
 30
0.0
  0
VERTEX
  5
61C
  8
0
 10
267.9810613275307
 20
1510.897238796369
 30
0.0
 42
0.9999999999999999
  0
SEQEND
  5
6EC
  8
0
  0
POLYLINE
  5
E5
  8
0
 66
     1
 10
0.0
 20
0.0
 30
0.0
 70
     1
  0
VERTEX
  5
61D
  8
0
 10
287.181061327868
 20
1883.056242485326
 30
0.0
  0
VERTEX
  5
61E
  8
0
 10
287.1810613274823
 20
1491.447238796369
 30
0.0
  0
VERTEX
  5
61F
  8
0
 10
61.48106132748067
 20
1491.447238796369
 30
0.0
  0
VERTEX
  5
620
  8
0
 10
61.48106132748067
 20
2391.447238796368
 30
0.0
  0
VERTEX
  5
621
  8
0
 10
287.1810613280308
 20
2391.447238796368
 30
0.0
  0
VERTEX
  5
622
  8
0
 10
287.181061327978
 20
1999.838235108337
 30
0.0
 42
-0.3639702342603472
  0
VERTEX
  5
623
  8
0
 10
278.9175431048665
 20
1989.990157578269
 30
0.0
  0
VERTEX
  5
624
  8
0
 10
255.4445795512532
 20
1985.851240786081
 30
0.0
 42
0.3639702342603478
  0
VERTEX
  5
625
  8
0
 10
247.1810613280307
 20
1976.00316325588
 30
0.0
  0
VERTEX
  5
626
  8
0
 10
247.1810613280307
 20
1906.891314336858
 30
0.0
 42
0.3639702342662007
  0
VERTEX
  5
627
  8
0
 10
255.4445795513614
 20
1897.043236806736
 30
0.0
  0
VERTEX
  5
628
  8
0
 10
278.9175431048665
 20
1892.904320015066
 30
0.0
 42
-0.3639702342664899
  0
SEQEND
  5
6ED
  8
0
  0
POLYLINE
  5
E6
  8
0
 66
     1
 10
0.0
 20
0.0
 30
0.0
 70
     1
  0
VERTEX
  5
629
  8
0
 10
353.6651932959616
 20
2371.997360490875
 30
0.0
  0
VERTEX
  5
62A
  8
0
 10
353.6651932961089
 20
2359.697360490838
 30
0.0
 42
0.9999999999999999
  0
VERTEX
  5
62B
  8
0
 10
360.0151932961093
 20
2359.697360490911
 30
0.0
  0
VERTEX
  5
62C
  8
0
 10
541.365193296096
 20
2359.697360490874
 30
0.0
  0
VERTEX
  5
62D
  8
0
 10
541.365193296096
 20
1523.197360490875
 30
0.0
  0
VERTEX
  5
62E
  8
0
 10
360.0151932960947
 20
1523.197360490875
 30
0.0
 42
0.9999999999999999
  0
VERTEX
  5
62F
  8
0
 10
353.6651932960953
 20
1523.197360490875
 30
0.0
  0
VERTEX
  5
630
  8
0
 10
353.6651932960953
 20
1510.897360490875
 30
0.0
 42
0.9999999999999999
  0
VERTEX
  5
631
  8
0
 10
360.0151932960947
 20
1510.897360490875
 30
0.0
  0
VERTEX
  5
632
  8
0
 10
547.3151932960958
 20
1510.897360490874
 30
0.0
 42
0.9999999999999999
  0
VERTEX
  5
633
  8
0
 10
553.6651932960962
 20
1510.897360490874
 30
0.0
  0
VERTEX
  5
634
  8
0
 10
553.6651932960971
 20
2371.997360490875
 30
0.0
 42
0.9999999999999999
  0
VERTEX
  5
635
  8
0
 10
547.3151932960967
 20
2371.997360490875
 30
0.0
  0
VERTEX
  5
636
  8
0
 10
360.0151932959683
 20
2371.997360490875
 30
0.0
 42
0.9999999999999999
  0
SEQEND
  5
6EE
  8
0
  0
POLYLINE
  5
E7
  8
0
 66
     1
 10
0.0
 20
0.0
 30
0.0
 70
     1
  0
VERTEX
  5
637
  8
0
 10
340.815193295631
 20
1999.838356801917
 30
0.0
  0
VERTEX
  5
638
  8
0
 10
340.8151932960167
 20
2391.447360490875
 30
0.0
  0
VERTEX
  5
639
  8
0
 10
566.5151932960183
 20
2391.447360490875
 30
0.0
  0
VERTEX
  5
63A
  8
0
 10
566.5151932960183
 20
1491.447360490875
 30
0.0
  0
VERTEX
  5
63B
  8
0
 10
340.8151932954673
 20
1491.447360490875
 30
0.0
  0
VERTEX
  5
63C
  8
0
 10
340.815193295521
 20
1883.056364178906
 30
0.0
 42
-0.3639702342603472
  0
VERTEX
  5
63D
  8
0
 10
349.0787115186325
 20
1892.904441708974
 30
0.0
  0
VERTEX
  5
63E
  8
0
 10
372.5516750722448
 20
1897.043358501163
 30
0.0
 42
0.3639702342603478
  0
VERTEX
  5
63F
  8
0
 10
380.8151932954682
 20
1906.891436031364
 30
0.0
  0
VERTEX
  5
640
  8
0
 10
380.8151932954682
 20
1976.003284950386
 30
0.0
 42
0.3639702342662007
  0
VERTEX
  5
641
  8
0
 10
372.5516750721375
 20
1985.851362480508
 30
0.0
  0
VERTEX
  5
642
  8
0
 10
349.0787115186325
 20
1989.990279272177
 30
0.0
 42
-0.3639702342664899
  0
SEQEND
  5
6EF
  8
0
  0
POLYLINE
  5
E8
  8
0
 66
     1
 10
0.0
 20
0.0
 30
0.0
 70
     1
  0
VERTEX
  5
643
  8
0
 10
816.7272907980445
 20
1510.897238796369
 30
0.0
  0
VERTEX
  5
644
  8
0
 10
816.7272907978971
 20
1523.197238796405
 30
0.0
 42
0.9999999999999999
  0
VERTEX
  5
645
  8
0
 10
810.3772907978968
 20
1523.197238796333
 30
0.0
  0
VERTEX
  5
646
  8
0
 10
629.0272907979091
 20
1523.197238796369
 30
0.0
  0
VERTEX
  5
647
  8
0
 10
629.0272907979091
 20
2359.697238796369
 30
0.0
  0
VERTEX
  5
648
  8
0
 10
810.3772907979104
 20
2359.697238796369
 30
0.0
 42
0.9999999999999999
  0
VERTEX
  5
649
  8
0
 10
816.7272907979108
 20
2359.697238796369
 30
0.0
  0
VERTEX
  5
64A
  8
0
 10
816.7272907979108
 20
2371.997238796368
 30
0.0
 42
0.9999999999999999
  0
VERTEX
  5
64B
  8
0
 10
810.3772907979104
 20
2371.997238796368
 30
0.0
  0
VERTEX
  5
64C
  8
0
 10
623.0772907979093
 20
2371.997238796369
 30
0.0
 42
0.9999999999999999
  0
VERTEX
  5
64D
  8
0
 10
616.727290797909
 20
2371.997238796369
 30
0.0
  0
VERTEX
  5
64E
  8
0
 10
616.727290797909
 20
1510.897238796369
 30
0.0
 42
0.9999999999999999
  0
VERTEX
  5
64F
  8
0
 10
623.0772907979084
 20
1510.897238796369
 30
0.0
  0
VERTEX
  5
650
  8
0
 10
810.3772907980377
 20
1510.897238796369
 30
0.0
 42
0.9999999999999999
  0
SEQEND
  5
6F0
  8
0
  0
POLYLINE
  5
E9
  8
0
 66
     1
 10
0.0
 20
0.0
 30
0.0
 70
     1
  0
VERTEX
  5
651
  8
0
 10
829.577290798375
 20
1883.056242485326
 30
0.0
  0
VERTEX
  5
652
  8
0
 10
829.5772907979893
 20
1491.447238796369
 30
0.0
  0
VERTEX
  5
653
  8
0
 10
603.8772907979868
 20
1491.447238796369
 30
0.0
  0
VERTEX
  5
654
  8
0
 10
603.8772907979868
 20
2391.447238796369
 30
0.0
  0
VERTEX
  5
655
  8
0
 10
829.5772907985378
 20
2391.447238796369
 30
0.0
  0
VERTEX
  5
656
  8
0
 10
829.577290798485
 20
1999.838235108337
 30
0.0
 42
-0.3639702342603472
  0
VERTEX
  5
657
  8
0
 10
821.3137725753735
 20
1989.99015757827
 30
0.0
  0
VERTEX
  5
658
  8
0
 10
797.8408090217612
 20
1985.851240786081
 30
0.0
 42
0.3639702342603478
  0
VERTEX
  5
659
  8
0
 10
789.5772907985378
 20
1976.00316325588
 30
0.0
  0
VERTEX
  5
65A
  8
0
 10
789.5772907985378
 20
1906.891314336858
 30
0.0
 42
0.3639702342662007
  0
VERTEX
  5
65B
  8
0
 10
797.8408090218685
 20
1897.043236806736
 30
0.0
  0
VERTEX
  5
65C
  8
0
 10
821.3137725753735
 20
1892.904320015066
 30
0.0
 42
-0.3639702342664899
  0
SEQEND
  5
6F1
  8
0
  0
POLYLINE
  5
EA
  8
0
 66
     1
 10
0.0
 20
0.0
 30
0.0
 70
     1
  0
VERTEX
  5
65D
  8
0
 10
896.0614227664686
 20
2371.997360490875
 30
0.0
  0
VERTEX
  5
65E
  8
0
 10
896.0614227666168
 20
2359.697360490838
 30
0.0
 42
0.9999999999999999
  0
VERTEX
  5
65F
  8
0
 10
902.4114227666163
 20
2359.697360490911
 30
0.0
  0
VERTEX
  5
660
  8
0
 10
1083.761422766605
 20
2359.697360490874
 30
0.0
  0
VERTEX
  5
661
  8
0
 10
1083.761422766605
 20
1523.197360490875
 30
0.0
  0
VERTEX
  5
662
  8
0
 10
902.4114227666026
 20
1523.197360490875
 30
0.0
 42
0.9999999999999999
  0
VERTEX
  5
663
  8
0
 10
896.0614227666023
 20
1523.197360490875
 30
0.0
  0
VERTEX
  5
664
  8
0
 10
896.0614227666023
 20
1510.897360490875
 30
0.0
 42
0.9999999999999999
  0
VERTEX
  5
665
  8
0
 10
902.4114227666026
 20
1510.897360490875
 30
0.0
  0
VERTEX
  5
666
  8
0
 10
1089.711422766605
 20
1510.897360490874
 30
0.0
 42
0.9999999999999999
  0
VERTEX
  5
667
  8
0
 10
1096.061422766604
 20
1510.897360490874
 30
0.0
  0
VERTEX
  5
668
  8
0
 10
1096.061422766605
 20
2371.997360490875
 30
0.0
 42
0.9999999999999999
  0
VERTEX
  5
669
  8
0
 10
1089.711422766605
 20
2371.997360490875
 30
0.0
  0
VERTEX
  5
66A
  8
0
 10
902.4114227664753
 20
2371.997360490875
 30
0.0
 42
0.9999999999999999
  0
SEQEND
  5
6F2
  8
0
  0
POLYLINE
  5
EB
  8
0
 66
     1
 10
0.0
 20
0.0
 30
0.0
 70
     1
  0
VERTEX
  5
66B
  8
0
 10
883.211422766139
 20
1999.838356801917
 30
0.0
  0
VERTEX
  5
66C
  8
0
 10
883.2114227665237
 20
2391.447360490875
 30
0.0
  0
VERTEX
  5
66D
  8
0
 10
1108.911422766526
 20
2391.447360490875
 30
0.0
  0
VERTEX
  5
66E
  8
0
 10
1108.911422766526
 20
1491.447360490875
 30
0.0
  0
VERTEX
  5
66F
  8
0
 10
883.2114227659753
 20
1491.447360490875
 30
0.0
  0
VERTEX
  5
670
  8
0
 10
883.2114227660289
 20
1883.056364178906
 30
0.0
 42
-0.3639702342603472
  0
VERTEX
  5
671
  8
0
 10
891.4749409891405
 20
1892.904441708974
 30
0.0
  0
VERTEX
  5
672
  8
0
 10
914.9479045427528
 20
1897.043358501163
 30
0.0
 42
0.3639702342603478
  0
VERTEX
  5
673
  8
0
 10
923.2114227659762
 20
1906.891436031364
 30
0.0
  0
VERTEX
  5
674
  8
0
 10
923.2114227659762
 20
1976.003284950386
 30
0.0
 42
0.3639702342662007
  0
VERTEX
  5
675
  8
0
 10
914.9479045426455
 20
1985.851362480508
 30
0.0
  0
VERTEX
  5
676
  8
0
 10
891.4749409891405
 20
1989.990279272177
 30
0.0
 42
-0.3639702342664899
  0
SEQEND
  5
6F3
  8
0
  0
ENDSEC
  0
EOF
