  0
SECTION
  2
HEADER
  9
$ACADVER
  1
AC1014
  9
$HANDSEED
  5
FFFF
  9
$MEASUREMENT
 70
     1
  0
ENDSEC
  0
SECTION
  2
TABLES
  0
TABLE
  2
VPORT
  5
8
330
0
100
AcDbSymbolTable
 70
     4
  0
VPORT
  5
2E
330
8
100
AcDbSymbolTableRecord
100
AcDbViewportTableRecord
  2
*ACTIVE
 70
     0
 10
0.0
 20
0.0
 11
1.0
 21
1.0
 12
210.0
 22
148.5
 13
0.0
 23
0.0
 14
10.0
 24
10.0
 15
10.0
 25
10.0
 16
0.0
 26
0.0
 36
1.0
 17
0.0
 27
0.0
 37
0.0
 40
341.0
 41
1.24
 42
50.0
 43
0.0
 44
0.0
 50
0.0
 51
0.0
 71
     0
 72
   100
 73
     1
 74
     3
 75
     0
 76
     0
 77
     0
 78
     0
  0
ENDTAB
  0
TABLE
  2
LTYPE
  5
5
330
0
100
AcDbSymbolTable
 70
     1
  0
LTYPE
  5
14
330
5
100
AcDbSymbolTableRecord
100
AcDbLinetypeTableRecord
  2
BYBLOCK
 70
     0
  3

 72
    65
 73
     0
 40
0.0
  0
LTYPE
  5
15
330
5
100
AcDbSymbolTableRecord
100
AcDbLinetypeTableRecord
  2
BYLAYER
 70
     0
  3

 72
    65
 73
     0
 40
0.0
  0
LTYPE
  5
16
330
5
100
AcDbSymbolTableRecord
100
AcDbLinetypeTableRecord
  2
CONTINUOUS
 70
     0
  3
Solid line
 72
    65
 73
     0
 40
0.0
  0
ENDTAB
  0
TABLE
  2
LAYER
  5
2
100
AcDbSymbolTable
 70
2
  0
LAYER
  5
50
100
AcDbSymbolTableRecord
100
AcDbLayerTableRecord
  2
0
 70
0
  6
CONTINUOUS
  0
LAYER
  5
51
100
AcDbSymbolTableRecord
100
AcDbLayerTableRecord
  2
Layer_1
 70
0
  6
CONTINUOUS
  0
ENDTAB
  0
TABLE
  2
STYLE
  5
3
330
0
100
AcDbSymbolTable
 70
     1
  0
STYLE
  5
11
330
3
100
AcDbSymbolTableRecord
100
AcDbTextStyleTableRecord
  2
STANDARD
 70
     0
 40
0.0
 41
1.0
 50
0.0
 71
     0
 42
2.5
  3
txt
  4

  0
ENDTAB
  0
TABLE
  2
VIEW
  5
6
330
0
100
AcDbSymbolTable
 70
     0
  0
ENDTAB
  0
TABLE
  2
UCS
  5
7
330
0
100
AcDbSymbolTable
 70
     0
  0
ENDTAB
  0
TABLE
  2
APPID
  5
9
330
0
100
AcDbSymbolTable
 70
     2
  0
APPID
  5
12
330
9
100
AcDbSymbolTableRecord
100
AcDbRegAppTableRecord
  2
ACAD
 70
     0
  0
ENDTAB
  0
TABLE
  2
DIMSTYLE
  5
A
330
0
100
AcDbSymbolTable
 70
     1
  0
DIMSTYLE
105
27
330
A
100
AcDbSymbolTableRecord
100
AcDbDimStyleTableRecord
  2
ISO-25
 70
     0
  3

  4

  5

  6

  7

 40
1.0
 41
2.5
 42
0.625
 43
3.75
 44
1.25
 45
0.0
 46
0.0
 47
0.0
 48
0.0
140
2.5
141
2.5
142
0.0
143
0.03937007874016
144
1.0
145
0.0
146
1.0
147
0.625
 71
     0
 72
     0
 73
     0
 74
     0
 75
     0
 76
     0
 77
     1
 78
     8
170
     0
171
     3
172
     1
173
     0
174
     0
175
     0
176
     0
177
     0
178
     0
270
     2
271
     2
272
     2
273
     2
274
     3
340
11
275
     0
280
     0
281
     0
282
     0
283
     0
284
     8
285
     0
286
     0
287
     3
288
     0
  0
ENDTAB
  0
TABLE
  2
BLOCK_RECORD
  5
1
330
0
100
AcDbSymbolTable
 70
     1
  0
BLOCK_RECORD
  5
1F
330
1
100
AcDbSymbolTableRecord
100
AcDbBlockTableRecord
  2
*MODEL_SPACE
  0
BLOCK_RECORD
  5
1B
330
1
100
AcDbSymbolTableRecord
100
AcDbBlockTableRecord
  2
*PAPER_SPACE
  0
ENDTAB
  0
ENDSEC
  0
SECTION
  2
BLOCKS
  0
BLOCK
  5
20
330
1F
100
AcDbEntity
  8
0
100
AcDbBlockBegin
  2
*MODEL_SPACE
 70
     0
 10
0.0
 20
0.0
 30
0.0
  3
*MODEL_SPACE
  1

  0
ENDBLK
  5
21
330
1F
100
AcDbEntity
  8
0
100
AcDbBlockEnd
  0
BLOCK
  5
1C
330
1B
100
AcDbEntity
 67
     1
  8
0
100
AcDbBlockBegin
  2
*PAPER_SPACE
  1

  0
ENDBLK
  5
1D
330
1B
100
AcDbEntity
 67
     1
  8
0
100
AcDbBlockEnd
  0
ENDSEC
  0
SECTION
  2
ENTITIES
  0
SPLINE
  5
100
100
AcDbEntity
  8
Layer_1
 62
7
100
AcDbSpline
 70
0
 71
3
 72
13
 73
9
 74
7
 40
0.000000
 40
0.000000
 40
0.000000
 40
0.000000
 40
1.850831
 40
3.642650
 40
5.493481
 40
6.931108
 40
8.315777
 40
9.703306
 40
9.703306
 40
9.703306
 40
9.703306
 10
43.157400
 20
131.112312
 30
0.0
 10
42.533211
 20
131.015802
 30
0.0
 10
41.304734
 20
130.825860
 30
0.0
 10
39.951073
 20
129.418916
 30
0.0
 10
39.492535
 20
127.713941
 30
0.0
 10
39.818421
 20
126.152568
 30
0.0
 10
40.629705
 20
124.941021
 30
0.0
 10
41.457227
 20
124.503430
 30
0.0
 10
41.871415
 20
124.284408
 30
0.0
 11
43.157400
 21
131.112312
 31
0.0
 11
41.370255
 21
130.630970
 31
0.0
 11
40.103248
 21
129.363963
 31
0.0
 11
39.621906
 21
127.576818
 31
0.0
 11
39.912170
 21
126.168799
 31
0.0
 11
40.702324
 21
125.031714
 31
0.0
 11
41.871415
 21
124.284408
 31
0.0
  0
LWPOLYLINE
  5
101
100
AcDbEntity
  8
Layer_1
 62
7
100
AcDbPolyline
 90
5
 70
1
 10
66.265594
 20
170.747827
 30
0.0
 10
135.796562
 20
170.747827
 30
0.0
 10
135.796562
 20
133.891188
 30
0.0
 10
66.265594
 20
133.891188
 30
0.0
 10
66.265594
 20
170.747827
 30
0.0
  0
SPLINE
  5
102
100
AcDbEntity
  8
Layer_1
 62
7
100
AcDbSpline
 70
0
 71
3
 72
13
 73
9
 74
7
 40
0.000000
 40
0.000000
 40
0.000000
 40
0.000000
 40
3.360490
 40
9.431060
 40
17.344370
 40
26.317530
 40
32.679672
 40
35.099818
 40
35.099818
 40
35.099818
 40
35.099818
 10
41.871415
 20
124.284408
 30
0.0
 10
41.833347
 20
123.164852
 30
0.0
 10
41.726512
 20
120.022869
 30
0.0
 10
41.693622
 20
114.240997
 30
0.0
 10
41.652079
 20
106.588567
 30
0.0
 10
41.715172
 20
98.840334
 30
0.0
 10
41.706051
 20
92.918929
 30
0.0
 10
41.877174
 20
89.996167
 30
0.0
 10
41.924331
 20
89.190738
 30
0.0
 11
41.871415
 21
124.284408
 31
0.0
 11
41.768506
 21
120.925494
 31
0.0
 11
41.697345
 21
114.855341
 31
0.0
 11
41.670772
 21
106.942076
 31
0.0
 11
41.705312
 21
97.968982
 31
0.0
 11
41.796199
 21
91.607489
 31
0.0
 11
41.924331
 21
89.190738
 31
0.0
  0
LWPOLYLINE
  5
103
100
AcDbEntity
  8
Layer_1
 62
7
100
AcDbPolyline
 90
2
 70
0
 10
41.924331
 20
89.190738
 30
0.0
 10
47.209383
 20
89.190738
 30
0.0
  0
SPLINE
  5
104
100
AcDbEntity
  8
Layer_1
 62
7
100
AcDbSpline
 70
0
 71
3
 72
13
 73
9
 74
7
 40
0.000000
 40
0.000000
 40
0.000000
 40
0.000000
 40
2.420146
 40
8.782288
 40
17.755448
 40
25.411972
 40
31.365087
 40
34.855909
 40
34.855909
 40
34.855909
 40
34.855909
 10
47.209383
 20
89.190738
 30
0.0
 10
47.256538
 20
89.996167
 30
0.0
 10
47.427658
 20
92.918929
 30
0.0
 10
47.418619
 20
98.840338
 30
0.0
 10
47.480556
 20
106.502964
 30
0.0
 10
47.442695
 20
114.030710
 30
0.0
 10
47.407561
 20
119.731117
 30
0.0
 10
47.310357
 20
122.877686
 30
0.0
 10
47.274426
 20
124.040772
 30
0.0
 11
47.209383
 21
89.190738
 31
0.0
 11
47.337515
 21
91.607489
 31
0.0
 11
47.428402
 21
97.968982
 31
0.0
 11
47.462942
 21
106.942076
 31
0.0
 11
47.438211
 21
114.598560
 31
0.0
 11
47.371587
 21
120.551302
 31
0.0
 11
47.274426
 21
124.040772
 31
0.0
  0
LWPOLYLINE
  5
105
100
AcDbEntity
  8
Layer_1
 62
7
100
AcDbPolyline
 90
2
 70
0
 10
47.274426
 20
124.040772
 30
0.0
 10
156.036368
 20
124.040772
 30
0.0
  0
SPLINE
  5
106
100
AcDbEntity
  8
Layer_1
 62
7
100
AcDbSpline
 70
0
 71
3
 72
13
 73
9
 74
7
 40
0.000000
 40
0.000000
 40
0.000000
 40
0.000000
 40
3.490811
 40
9.443929
 40
17.100468
 40
26.073628
 40
32.435770
 40
34.855916
 40
34.855916
 40
34.855916
 40
34.855916
 10
156.036368
 20
124.040772
 30
0.0
 10
156.000392
 20
122.877691
 30
0.0
 10
155.903062
 20
119.731129
 30
0.0
 10
155.867625
 20
114.030721
 30
0.0
 10
155.829657
 20
106.502969
 30
0.0
 10
155.891629
 20
98.840338
 30
0.0
 10
155.882583
 20
92.918929
 30
0.0
 10
156.053703
 20
89.996167
 30
0.0
 10
156.100859
 20
89.190738
 30
0.0
 11
156.036368
 21
124.040772
 31
0.0
 11
155.939063
 21
120.551317
 31
0.0
 11
155.872173
 21
114.598575
 31
0.0
 11
155.847299
 21
106.942076
 31
0.0
 11
155.881840
 21
97.968982
 31
0.0
 11
155.972726
 21
91.607489
 31
0.0
 11
156.100859
 21
89.190738
 31
0.0
  0
SPLINE
  5
107
100
AcDbEntity
  8
Layer_1
 62
7
100
AcDbSpline
 70
0
 71
3
 72
13
 73
9
 74
7
 40
0.000000
 40
0.000000
 40
0.000000
 40
0.000000
 40
2.420146
 40
8.782288
 40
17.755448
 40
26.140216
 40
32.363937
 40
35.372248
 40
35.372248
 40
35.372248
 40
35.372248
 10
161.385910
 20
89.190738
 30
0.0
 10
161.433071
 20
89.996167
 30
0.0
 10
161.604207
 20
92.918930
 30
0.0
 10
161.594829
 20
98.840320
 30
0.0
 10
161.660679
 20
106.745764
 30
0.0
 10
161.610021
 20
114.606154
 30
0.0
 10
161.587579
 20
120.479409
 30
0.0
 10
161.458342
 20
123.554216
 30
0.0
 10
161.416230
 20
124.556160
 30
0.0
 11
161.385910
 21
89.190738
 31
0.0
 11
161.514043
 21
91.607489
 31
0.0
 11
161.604930
 21
97.968982
 31
0.0
 11
161.639470
 21
106.942076
 31
0.0
 11
161.609586
 21
115.326791
 31
0.0
 11
161.530093
 21
121.550004
 31
0.0
 11
161.416230
 21
124.556160
 31
0.0
  0
LWPOLYLINE
  5
108
100
AcDbEntity
  8
Layer_1
 62
7
100
AcDbPolyline
 90
2
 70
0
 10
156.100859
 20
89.190738
 30
0.0
 10
161.385910
 20
89.190738
 30
0.0
  0
SPLINE
  5
109
100
AcDbEntity
  8
Layer_1
 62
7
100
AcDbSpline
 70
0
 71
3
 72
13
 73
9
 74
7
 40
0.000000
 40
0.000000
 40
0.000000
 40
0.000000
 40
1.181392
 40
2.370496
 40
3.605596
 40
5.456427
 40
7.248246
 40
9.099076
 40
9.099076
 40
9.099076
 40
9.099076
 10
161.416230
 20
124.556160
 30
0.0
 10
161.734340
 20
124.794481
 30
0.0
 10
162.372637
 20
125.272677
 30
0.0
 10
162.971104
 20
126.354583
 30
0.0
 10
163.226551
 20
127.781302
 30
0.0
 10
162.786506
 20
129.419098
 30
0.0
 10
161.432783
 20
130.825813
 30
0.0
 10
160.204316
 20
131.015787
 30
0.0
 10
159.580131
 20
131.112312
 30
0.0
 11
161.416230
 21
124.556160
 31
0.0
 11
162.309749
 21
125.329018
 31
0.0
 11
162.901509
 21
126.360420
 31
0.0
 11
163.115625
 21
127.576818
 31
0.0
 11
162.634282
 21
129.363963
 31
0.0
 11
161.367275
 21
130.630970
 31
0.0
 11
159.580131
 21
131.112312
 31
0.0
  0
LWPOLYLINE
  5
10a
100
AcDbEntity
  8
Layer_1
 62
7
100
AcDbPolyline
 90
3
 70
0
 10
159.580131
 20
131.112312
 30
0.0
 10
43.157400
 20
131.112312
 30
0.0
 10
43.157400
 20
131.112312
 30
0.0
  0
SPLINE
  5
10b
100
AcDbEntity
  8
Layer_1
 62
7
100
AcDbSpline
 70
0
 71
3
 72
13
 73
9
 74
7
 40
0.000000
 40
0.000000
 40
0.000000
 40
0.000000
 40
0.315573
 40
1.093086
 40
2.184028
 40
3.274971
 40
4.052485
 40
4.368059
 40
4.368059
 40
4.368059
 40
4.368059
 10
40.292184
 20
88.966394
 30
0.0
 10
40.249684
 20
88.869498
 30
0.0
 10
40.102475
 20
88.533870
 30
0.0
 10
40.101118
 20
87.789572
 30
0.0
 10
40.042294
 20
86.808938
 30
0.0
 10
40.101118
 20
85.828303
 30
0.0
 10
40.102475
 20
85.084004
 30
0.0
 10
40.249684
 20
84.748375
 30
0.0
 10
40.292184
 20
84.651479
 30
0.0
 11
40.292184
 21
88.966394
 31
0.0
 11
40.176899
 21
88.672633
 31
0.0
 11
40.095083
 21
87.899437
 31
0.0
 11
40.063979
 21
86.808938
 31
0.0
 11
40.095083
 21
85.718438
 31
0.0
 11
40.176899
 21
84.945241
 31
0.0
 11
40.292184
 21
84.651479
 31
0.0
  0
LWPOLYLINE
  5
10c
100
AcDbEntity
  8
Layer_1
 62
7
100
AcDbPolyline
 90
2
 70
0
 10
40.292184
 20
84.651479
 30
0.0
 10
48.450720
 20
84.651479
 30
0.0
  0
SPLINE
  5
10d
100
AcDbEntity
  8
Layer_1
 62
7
100
AcDbSpline
 70
0
 71
3
 72
13
 73
9
 74
7
 40
0.000000
 40
0.000000
 40
0.000000
 40
0.000000
 40
0.315574
 40
1.093088
 40
2.184031
 40
3.274973
 40
4.052486
 40
4.368059
 40
4.368059
 40
4.368059
 40
4.368059
 10
48.450720
 20
84.651479
 30
0.0
 10
48.493219
 20
84.748375
 30
0.0
 10
48.640429
 20
85.084004
 30
0.0
 10
48.641786
 20
85.828303
 30
0.0
 10
48.700610
 20
86.808938
 30
0.0
 10
48.641786
 20
87.789572
 30
0.0
 10
48.640429
 20
88.533870
 30
0.0
 10
48.493219
 20
88.869498
 30
0.0
 10
48.450720
 20
88.966394
 30
0.0
 11
48.450720
 21
84.651479
 31
0.0
 11
48.566005
 21
84.945241
 31
0.0
 11
48.647821
 21
85.718438
 31
0.0
 11
48.678925
 21
86.808938
 31
0.0
 11
48.647821
 21
87.899437
 31
0.0
 11
48.566005
 21
88.672633
 31
0.0
 11
48.450720
 21
88.966394
 31
0.0
  0
LWPOLYLINE
  5
10e
100
AcDbEntity
  8
Layer_1
 62
7
100
AcDbPolyline
 90
3
 70
0
 10
48.450720
 20
88.966394
 30
0.0
 10
40.292184
 20
88.966394
 30
0.0
 10
40.292184
 20
88.966394
 30
0.0
  0
SPLINE
  5
10f
100
AcDbEntity
  8
Layer_1
 62
7
100
AcDbSpline
 70
0
 71
3
 72
13
 73
9
 74
7
 40
0.000000
 40
0.000000
 40
0.000000
 40
0.000000
 40
0.315573
 40
1.093086
 40
2.184028
 40
3.274971
 40
4.052485
 40
4.368059
 40
4.368059
 40
4.368059
 40
4.368059
 10
154.468711
 20
88.966394
 30
0.0
 10
154.426212
 20
88.869498
 30
0.0
 10
154.279002
 20
88.533870
 30
0.0
 10
154.277646
 20
87.789572
 30
0.0
 10
154.218822
 20
86.808938
 30
0.0
 10
154.277646
 20
85.828303
 30
0.0
 10
154.279002
 20
85.084004
 30
0.0
 10
154.426212
 20
84.748375
 30
0.0
 10
154.468711
 20
84.651479
 30
0.0
 11
154.468711
 21
88.966394
 31
0.0
 11
154.353426
 21
88.672633
 31
0.0
 11
154.271610
 21
87.899437
 31
0.0
 11
154.240507
 21
86.808938
 31
0.0
 11
154.271610
 21
85.718438
 31
0.0
 11
154.353426
 21
84.945241
 31
0.0
 11
154.468711
 21
84.651479
 31
0.0
  0
LWPOLYLINE
  5
110
100
AcDbEntity
  8
Layer_1
 62
7
100
AcDbPolyline
 90
2
 70
0
 10
154.468711
 20
84.651479
 30
0.0
 10
162.627248
 20
84.651479
 30
0.0
  0
SPLINE
  5
111
100
AcDbEntity
  8
Layer_1
 62
7
100
AcDbSpline
 70
0
 71
3
 72
13
 73
9
 74
7
 40
0.000000
 40
0.000000
 40
0.000000
 40
0.000000
 40
0.315573
 40
1.093087
 40
2.184031
 40
3.274973
 40
4.052486
 40
4.368059
 40
4.368059
 40
4.368059
 40
4.368059
 10
162.627248
 20
84.651479
 30
0.0
 10
162.669747
 20
84.748375
 30
0.0
 10
162.816956
 20
85.084004
 30
0.0
 10
162.818312
 20
85.828303
 30
0.0
 10
162.877138
 20
86.808938
 30
0.0
 10
162.818314
 20
87.789572
 30
0.0
 10
162.816957
 20
88.533870
 30
0.0
 10
162.669747
 20
88.869498
 30
0.0
 10
162.627248
 20
88.966394
 30
0.0
 11
162.627248
 21
84.651479
 31
0.0
 11
162.742532
 21
84.945241
 31
0.0
 11
162.824348
 21
85.718438
 31
0.0
 11
162.855453
 21
86.808938
 31
0.0
 11
162.824349
 21
87.899437
 31
0.0
 11
162.742533
 21
88.672633
 31
0.0
 11
162.627248
 21
88.966394
 31
0.0
  0
LWPOLYLINE
  5
112
100
AcDbEntity
  8
Layer_1
 62
7
100
AcDbPolyline
 90
3
 70
0
 10
162.627248
 20
88.966394
 30
0.0
 10
154.468711
 20
88.966394
 30
0.0
 10
154.468711
 20
88.966394
 30
0.0
  0
SPLINE
  5
113
100
AcDbEntity
  8
Layer_1
 62
7
100
AcDbSpline
 70
0
 71
3
 72
13
 73
9
 74
7
 40
0.000000
 40
0.000000
 40
0.000000
 40
0.000000
 40
0.290079
 40
0.995537
 40
1.984207
 40
2.972733
 40
3.677927
 40
3.967874
 40
3.967874
 40
3.967874
 40
3.967874
 10
40.298799
 20
84.463516
 30
0.0
 10
40.256339
 20
84.375894
 30
0.0
 10
40.110618
 20
84.075180
 30
0.0
 10
40.107510
 20
83.396401
 30
0.0
 10
40.049926
 20
82.508399
 30
0.0
 10
40.107509
 20
81.620497
 30
0.0
 10
40.110611
 20
80.941883
 30
0.0
 10
40.256339
 20
80.641318
 30
0.0
 10
40.298799
 20
80.553745
 30
0.0
 11
40.298799
 21
84.463516
 31
0.0
 11
40.183659
 21
84.197267
 31
0.0
 11
40.102108
 21
83.496538
 31
0.0
 11
40.071147
 21
82.508354
 31
0.0
 11
40.102108
 21
81.520313
 31
0.0
 11
40.183659
 21
80.819850
 31
0.0
 11
40.298799
 21
80.553745
 31
0.0
  0
LWPOLYLINE
  5
114
100
AcDbEntity
  8
Layer_1
 62
7
100
AcDbPolyline
 90
2
 70
0
 10
40.298799
 20
80.553745
 30
0.0
 10
42.937464
 20
80.553745
 30
0.0
  0
SPLINE
  5
115
100
AcDbEntity
  8
Layer_1
 62
7
100
AcDbSpline
 70
0
 71
3
 72
13
 73
9
 74
7
 40
0.000000
 40
0.000000
 40
0.000000
 40
0.000000
 40
0.427696
 40
1.033417
 40
1.766800
 40
2.755331
 40
3.460556
 40
3.750560
 40
3.750560
 40
3.750560
 40
3.750560
 10
42.937464
 20
80.553745
 30
0.0
 10
42.912505
 20
80.694226
 30
0.0
 10
42.852198
 20
81.033662
 30
0.0
 10
42.819436
 20
81.622369
 30
0.0
 10
42.795387
 20
82.399649
 30
0.0
 10
42.843011
 20
83.200669
 30
0.0
 10
42.847251
 20
83.879770
 30
0.0
 10
42.993086
 20
84.180270
 30
0.0
 10
43.035581
 20
84.267834
 30
0.0
 11
42.937464
 21
80.553745
 31
0.0
 11
42.869634
 21
80.976028
 31
0.0
 11
42.824053
 21
81.580031
 31
0.0
 11
42.807379
 21
82.313225
 31
0.0
 11
42.838482
 21
83.301266
 31
0.0
 11
42.920297
 21
84.001729
 31
0.0
 11
43.035581
 21
84.267834
 31
0.0
  0
LWPOLYLINE
  5
116
100
AcDbEntity
  8
Layer_1
 62
7
100
AcDbPolyline
 90
2
 70
0
 10
43.035581
 20
84.267834
 30
0.0
 10
45.316510
 20
84.267834
 30
0.0
  0
SPLINE
  5
117
100
AcDbEntity
  8
Layer_1
 62
7
100
AcDbSpline
 70
0
 71
3
 72
13
 73
9
 74
7
 40
0.000000
 40
0.000000
 40
0.000000
 40
0.000000
 40
0.289948
 40
0.995142
 40
1.983667
 40
2.717087
 40
3.322801
 40
3.750469
 40
3.750469
 40
3.750469
 40
3.750469
 10
45.316510
 20
84.267834
 30
0.0
 10
45.358956
 20
84.180268
 30
0.0
 10
45.504640
 20
83.879728
 30
0.0
 10
45.508604
 20
83.200663
 30
0.0
 10
45.556137
 20
82.399634
 30
0.0
 10
45.532110
 20
81.622348
 30
0.0
 10
45.499353
 20
81.033639
 30
0.0
 10
45.439038
 20
80.694216
 30
0.0
 10
45.414077
 20
80.553745
 30
0.0
 11
45.316510
 21
84.267834
 31
0.0
 11
45.431651
 21
84.001729
 31
0.0
 11
45.513201
 21
83.301266
 31
0.0
 11
45.544161
 21
82.313225
 31
0.0
 11
45.527491
 21
81.579995
 31
0.0
 11
45.481912
 21
80.975998
 31
0.0
 11
45.414077
 21
80.553745
 31
0.0
  0
LWPOLYLINE
  5
118
100
AcDbEntity
  8
Layer_1
 62
7
100
AcDbPolyline
 90
2
 70
0
 10
45.414077
 20
80.553745
 30
0.0
 10
48.443555
 20
80.553745
 30
0.0
  0
SPLINE
  5
119
100
AcDbEntity
  8
Layer_1
 62
7
100
AcDbSpline
 70
0
 71
3
 72
13
 73
9
 74
7
 40
0.000000
 40
0.000000
 40
0.000000
 40
0.000000
 40
0.290004
 40
0.995229
 40
1.983759
 40
2.972433
 40
3.677922
 40
3.968058
 40
3.968058
 40
3.968058
 40
3.968058
 10
48.443555
 20
80.553745
 30
0.0
 10
48.486064
 20
80.641316
 30
0.0
 10
48.631946
 20
80.941840
 30
0.0
 10
48.635317
 20
81.620490
 30
0.0
 10
48.693023
 20
82.508399
 30
0.0
 10
48.635316
 20
83.396408
 30
0.0
 10
48.631938
 20
84.075223
 30
0.0
 10
48.486064
 20
84.375897
 30
0.0
 10
48.443555
 20
84.463516
 30
0.0
 11
48.443555
 21
80.553745
 31
0.0
 11
48.558839
 21
80.819850
 31
0.0
 11
48.640653
 21
81.520313
 31
0.0
 11
48.671757
 21
82.508354
 31
0.0
 11
48.640653
 21
83.496538
 31
0.0
 11
48.558839
 21
84.197267
 31
0.0
 11
48.443555
 21
84.463516
 31
0.0
  0
LWPOLYLINE
  5
11a
100
AcDbEntity
  8
Layer_1
 62
7
100
AcDbPolyline
 90
3
 70
0
 10
48.443555
 20
84.463516
 30
0.0
 10
40.298799
 20
84.463516
 30
0.0
 10
40.298799
 20
84.463516
 30
0.0
  0
SPLINE
  5
11b
100
AcDbEntity
  8
Layer_1
 62
7
100
AcDbSpline
 70
0
 71
3
 72
13
 73
9
 74
7
 40
0.000000
 40
0.000000
 40
0.000000
 40
0.000000
 40
0.290079
 40
0.995537
 40
1.984207
 40
2.972733
 40
3.677927
 40
3.967874
 40
3.967874
 40
3.967874
 40
3.967874
 10
154.475327
 20
84.463516
 30
0.0
 10
154.432867
 20
84.375894
 30
0.0
 10
154.287146
 20
84.075180
 30
0.0
 10
154.284038
 20
83.396401
 30
0.0
 10
154.226453
 20
82.508399
 30
0.0
 10
154.284037
 20
81.620497
 30
0.0
 10
154.287138
 20
80.941883
 30
0.0
 10
154.432867
 20
80.641318
 30
0.0
 10
154.475327
 20
80.553745
 30
0.0
 11
154.475327
 21
84.463516
 31
0.0
 11
154.360186
 21
84.197267
 31
0.0
 11
154.278636
 21
83.496538
 31
0.0
 11
154.247675
 21
82.508354
 31
0.0
 11
154.278636
 21
81.520313
 31
0.0
 11
154.360186
 21
80.819850
 31
0.0
 11
154.475327
 21
80.553745
 31
0.0
  0
LWPOLYLINE
  5
11c
100
AcDbEntity
  8
Layer_1
 62
7
100
AcDbPolyline
 90
2
 70
0
 10
154.475327
 20
80.553745
 30
0.0
 10
157.113992
 20
80.553745
 30
0.0
  0
SPLINE
  5
11d
100
AcDbEntity
  8
Layer_1
 62
7
100
AcDbSpline
 70
0
 71
3
 72
13
 73
9
 74
7
 40
0.000000
 40
0.000000
 40
0.000000
 40
0.000000
 40
0.427696
 40
1.033417
 40
1.766800
 40
2.755331
 40
3.460555
 40
3.750560
 40
3.750560
 40
3.750560
 40
3.750560
 10
157.113992
 20
80.553745
 30
0.0
 10
157.089033
 20
80.694226
 30
0.0
 10
157.028728
 20
81.033662
 30
0.0
 10
156.995964
 20
81.622369
 30
0.0
 10
156.971915
 20
82.399649
 30
0.0
 10
157.019538
 20
83.200669
 30
0.0
 10
157.023778
 20
83.879770
 30
0.0
 10
157.169613
 20
84.180270
 30
0.0
 10
157.212109
 20
84.267834
 30
0.0
 11
157.113992
 21
80.553745
 31
0.0
 11
157.046164
 21
80.976028
 31
0.0
 11
157.000581
 21
81.580031
 31
0.0
 11
156.983907
 21
82.313225
 31
0.0
 11
157.015010
 21
83.301266
 31
0.0
 11
157.096825
 21
84.001729
 31
0.0
 11
157.212109
 21
84.267834
 31
0.0
  0
LWPOLYLINE
  5
11e
100
AcDbEntity
  8
Layer_1
 62
7
100
AcDbPolyline
 90
2
 70
0
 10
157.212109
 20
84.267834
 30
0.0
 10
159.493037
 20
84.267834
 30
0.0
  0
SPLINE
  5
11f
100
AcDbEntity
  8
Layer_1
 62
7
100
AcDbSpline
 70
0
 71
3
 72
13
 73
9
 74
7
 40
0.000000
 40
0.000000
 40
0.000000
 40
0.000000
 40
0.289948
 40
0.995142
 40
1.983667
 40
2.717087
 40
3.322801
 40
3.750469
 40
3.750469
 40
3.750469
 40
3.750469
 10
159.493037
 20
84.267834
 30
0.0
 10
159.535484
 20
84.180268
 30
0.0
 10
159.681168
 20
83.879728
 30
0.0
 10
159.685132
 20
83.200663
 30
0.0
 10
159.732665
 20
82.399634
 30
0.0
 10
159.708638
 20
81.622348
 30
0.0
 10
159.675881
 20
81.033639
 30
0.0
 10
159.615566
 20
80.694216
 30
0.0
 10
159.590605
 20
80.553745
 30
0.0
 11
159.493037
 21
84.267834
 31
0.0
 11
159.608179
 21
84.001729
 31
0.0
 11
159.689729
 21
83.301266
 31
0.0
 11
159.720689
 21
82.313225
 31
0.0
 11
159.704019
 21
81.579995
 31
0.0
 11
159.658440
 21
80.975998
 31
0.0
 11
159.590605
 21
80.553745
 31
0.0
  0
LWPOLYLINE
  5
120
100
AcDbEntity
  8
Layer_1
 62
7
100
AcDbPolyline
 90
2
 70
0
 10
159.590605
 20
80.553745
 30
0.0
 10
162.620082
 20
80.553745
 30
0.0
  0
LWPOLYLINE
  5
121
100
AcDbEntity
  8
Layer_1
 62
7
100
AcDbPolyline
 90
3
 70
0
 10
162.620082
 20
84.463516
 30
0.0
 10
154.475327
 20
84.463516
 30
0.0
 10
154.475327
 20
84.463516
 30
0.0
  0
LWPOLYLINE
  5
122
100
AcDbEntity
  8
Layer_1
 62
7
100
AcDbPolyline
 90
5
 70
1
 10
69.978219
 20
115.913644
 30
0.0
 10
125.882609
 20
89.880972
 30
0.0
 10
145.280400
 20
103.398742
 30
0.0
 10
89.975998
 20
120.567595
 30
0.0
 10
69.978219
 20
115.913644
 30
0.0
  0
LWPOLYLINE
  5
123
100
AcDbEntity
  8
Layer_1
 62
7
100
AcDbPolyline
 90
5
 70
1
 10
69.978219
 20
116.693833
 30
0.0
 10
69.978219
 20
115.913644
 30
0.0
 10
89.975998
 20
120.567595
 30
0.0
 10
89.975998
 20
121.236358
 30
0.0
 10
69.978219
 20
116.693833
 30
0.0
  0
LWPOLYLINE
  5
124
100
AcDbEntity
  8
Layer_1
 62
7
100
AcDbPolyline
 90
5
 70
1
 10
89.975998
 20
121.236358
 30
0.0
 10
145.280400
 20
104.478564
 30
0.0
 10
145.280400
 20
103.398742
 30
0.0
 10
89.975998
 20
120.567595
 30
0.0
 10
89.975998
 20
121.236358
 30
0.0
  0
LWPOLYLINE
  5
125
100
AcDbEntity
  8
Layer_1
 62
7
100
AcDbPolyline
 90
5
 70
1
 10
69.978219
 20
116.693833
 30
0.0
 10
125.882609
 20
91.284438
 30
0.0
 10
145.280400
 20
104.478564
 30
0.0
 10
89.975998
 20
121.236358
 30
0.0
 10
69.978219
 20
116.693833
 30
0.0
  0
LWPOLYLINE
  5
126
100
AcDbEntity
  8
Layer_1
 62
7
100
AcDbPolyline
 90
5
 70
1
 10
125.882609
 20
91.284438
 30
0.0
 10
125.882609
 20
89.880972
 30
0.0
 10
145.280400
 20
103.398742
 30
0.0
 10
145.280400
 20
104.478564
 30
0.0
 10
125.882609
 20
91.284438
 30
0.0
  0
SPLINE
  5
127
100
AcDbEntity
  8
Layer_1
 62
7
100
AcDbSpline
 70
0
 71
3
 72
13
 73
9
 74
7
 40
0.000000
 40
0.000000
 40
0.000000
 40
0.000000
 40
0.290004
 40
0.995229
 40
1.983759
 40
2.972433
 40
3.677922
 40
3.968058
 40
3.968058
 40
3.968058
 40
3.968058
 10
162.620082
 20
80.553745
 30
0.0
 10
162.662592
 20
80.641316
 30
0.0
 10
162.808474
 20
80.941840
 30
0.0
 10
162.811845
 20
81.620490
 30
0.0
 10
162.869551
 20
82.508399
 30
0.0
 10
162.811844
 20
83.396408
 30
0.0
 10
162.808466
 20
84.075223
 30
0.0
 10
162.662592
 20
84.375897
 30
0.0
 10
162.620082
 20
84.463516
 30
0.0
 11
162.620082
 21
80.553745
 31
0.0
 11
162.735367
 21
80.819850
 31
0.0
 11
162.817181
 21
81.520313
 31
0.0
 11
162.848284
 21
82.508354
 31
0.0
 11
162.817181
 21
83.496538
 31
0.0
 11
162.735367
 21
84.197267
 31
0.0
 11
162.620082
 21
84.463516
 31
0.0
  0
SPLINE
  5
128
100
AcDbEntity
  8
Layer_1
 62
7
100
AcDbSpline
 70
0
 71
3
 72
13
 73
9
 74
7
 40
0.000000
 40
0.000000
 40
0.000000
 40
0.000000
 40
14.643047
 40
27.223916
 40
38.328823
 40
38.828116
 40
39.324910
 40
39.819687
 40
39.819687
 40
39.819687
 40
39.819687
 10
96.836072
 20
121.593781
 30
0.0
 10
91.925218
 20
121.081145
 30
0.0
 10
82.795106
 20
120.128067
 30
0.0
 10
71.694553
 20
112.627346
 30
0.0
 10
68.336160
 20
104.537647
 30
0.0
 10
68.409354
 20
100.504190
 30
0.0
 10
68.433427
 20
100.007686
 30
0.0
 10
68.462690
 20
99.678434
 30
0.0
 10
68.477291
 20
99.514142
 30
0.0
 11
96.836072
 21
121.593781
 31
0.0
 11
82.463901
 21
118.790297
 31
0.0
 11
72.274478
 21
111.411006
 31
0.0
 11
68.403422
 21
101.002650
 31
0.0
 11
68.411896
 21
100.503428
 31
0.0
 11
68.436786
 21
100.007258
 31
0.0
 11
68.477291
 21
99.514142
 31
0.0
  0
LWPOLYLINE
  5
129
100
AcDbEntity
  8
Layer_1
 62
7
100
AcDbPolyline
 90
5
 70
1
 10
69.978219
 20
116.693833
 30
0.0
 10
125.882609
 20
91.284438
 30
0.0
 10
125.882609
 20
89.880972
 30
0.0
 10
69.978219
 20
115.913644
 30
0.0
 10
69.978219
 20
116.693833
 30
0.0
  0
SPLINE
  5
12a
100
AcDbEntity
  8
Layer_1
 62
7
100
AcDbSpline
 70
0
 71
3
 72
13
 73
9
 74
7
 40
0.000000
 40
0.000000
 40
0.000000
 40
0.000000
 40
4.677834
 40
10.490351
 40
17.367495
 40
25.221094
 40
31.610107
 40
36.652600
 40
36.652600
 40
36.652600
 40
36.652600
 10
68.477291
 20
99.514142
 30
0.0
 10
67.152353
 20
98.634434
 30
0.0
 10
64.181093
 20
96.661632
 30
0.0
 10
61.954504
 20
91.024410
 30
0.0
 10
61.020173
 20
84.200861
 30
0.0
 10
62.101015
 20
77.261566
 30
0.0
 10
65.025138
 20
70.927937
 30
0.0
 10
68.792356
 20
69.724470
 30
0.0
 10
70.454094
 20
69.193615
 30
0.0
 11
68.477291
 21
99.514142
 31
0.0
 11
64.825866
 21
96.590236
 31
0.0
 11
62.311239
 21
91.349816
 31
0.0
 11
61.374917
 21
84.536710
 31
0.0
 11
62.610973
 21
76.780990
 31
0.0
 11
65.864623
 21
71.282514
 31
0.0
 11
70.454094
 21
69.193615
 31
0.0
  0
SPLINE
  5
12b
100
AcDbEntity
  8
Layer_1
 62
7
100
AcDbSpline
 70
0
 71
3
 72
13
 73
9
 74
7
 40
0.000000
 40
0.000000
 40
0.000000
 40
0.000000
 40
5.042623
 40
11.431771
 40
19.285393
 40
25.768647
 40
31.327677
 40
35.867780
 40
35.867780
 40
35.867780
 40
35.867780
 10
130.879401
 20
69.193615
 30
0.0
 10
132.541181
 20
69.724418
 30
0.0
 10
136.308481
 20
70.927764
 30
0.0
 10
139.232908
 20
77.262472
 30
0.0
 10
140.293816
 20
84.067180
 30
0.0
 10
139.440021
 20
90.690057
 30
0.0
 10
137.450354
 20
96.063577
 30
0.0
 10
134.795154
 20
98.216138
 30
0.0
 10
133.601500
 20
99.183829
 30
0.0
 11
130.879401
 21
69.193615
 31
0.0
 11
135.469015
 21
71.282514
 31
0.0
 11
138.722930
 21
76.780990
 31
0.0
 11
139.959128
 21
84.536710
 31
0.0
 11
139.131341
 21
90.966901
 31
0.0
 11
136.890748
 21
96.054392
 31
0.0
 11
133.601500
 21
99.183829
 31
0.0
  0
LWPOLYLINE
  5
12c
100
AcDbEntity
  8
Layer_1
 62
7
100
AcDbPolyline
 90
2
 70
1
 10
70.454094
 20
69.193615
 30
0.0
 10
130.879401
 20
69.193615
 30
0.0
  0
LWPOLYLINE
  5
12d
100
AcDbEntity
  8
Layer_1
 62
7
100
AcDbPolyline
 90
3
 70
1
 10
105.279653
 20
121.593781
 30
0.0
 10
96.836072
 20
121.593781
 30
0.0
 10
96.836072
 20
121.593781
 30
0.0
  0
LWPOLYLINE
  5
12e
100
AcDbEntity
  8
Layer_1
 62
7
100
AcDbPolyline
 90
5
 70
1
 10
107.009884
 20
66.068825
 30
0.0
 10
153.922657
 20
66.068825
 30
0.0
 10
153.922657
 20
47.108247
 30
0.0
 10
107.009884
 20
47.108247
 30
0.0
 10
107.009884
 20
66.068825
 30
0.0
  0
LWPOLYLINE
  5
12f
100
AcDbEntity
  8
Layer_1
 62
7
100
AcDbPolyline
 90
5
 70
1
 10
110.475454
 20
64.282440
 30
0.0
 10
149.602980
 20
64.282440
 30
0.0
 10
149.602980
 20
62.007936
 30
0.0
 10
110.475454
 20
62.007936
 30
0.0
 10
110.475454
 20
64.282440
 30
0.0
  0
LWPOLYLINE
  5
130
100
AcDbEntity
  8
Layer_1
 62
7
100
AcDbPolyline
 90
5
 70
1
 10
110.475454
 20
55.570395
 30
0.0
 10
149.602980
 20
55.570395
 30
0.0
 10
149.602980
 20
53.295892
 30
0.0
 10
110.475454
 20
53.295892
 30
0.0
 10
110.475454
 20
55.570395
 30
0.0
  0
LWPOLYLINE
  5
131
100
AcDbEntity
  8
Layer_1
 62
7
100
AcDbPolyline
 90
5
 70
1
 10
110.475454
 20
51.214366
 30
0.0
 10
149.602980
 20
51.214366
 30
0.0
 10
149.602980
 20
48.939862
 30
0.0
 10
110.475454
 20
48.939862
 30
0.0
 10
110.475454
 20
51.214366
 30
0.0
  0
LWPOLYLINE
  5
132
100
AcDbEntity
  8
Layer_1
 62
7
100
AcDbPolyline
 90
5
 70
1
 10
110.475454
 20
59.926408
 30
0.0
 10
149.602980
 20
59.926408
 30
0.0
 10
149.602980
 20
57.651904
 30
0.0
 10
110.475454
 20
57.651904
 30
0.0
 10
110.475454
 20
59.926408
 30
0.0
  0
LWPOLYLINE
  5
133
100
AcDbEntity
  8
Layer_1
 62
7
100
AcDbPolyline
 90
5
 70
1
 10
55.232334
 20
66.166561
 30
0.0
 10
102.145107
 20
66.166561
 30
0.0
 10
102.145107
 20
47.205983
 30
0.0
 10
55.232334
 20
47.205983
 30
0.0
 10
55.232334
 20
66.166561
 30
0.0
  0
LWPOLYLINE
  5
134
100
AcDbEntity
  8
Layer_1
 62
7
100
AcDbPolyline
 90
5
 70
1
 10
58.697904
 20
64.380176
 30
0.0
 10
97.825430
 20
64.380176
 30
0.0
 10
97.825430
 20
62.105673
 30
0.0
 10
58.697904
 20
62.105673
 30
0.0
 10
58.697904
 20
64.380176
 30
0.0
  0
LWPOLYLINE
  5
135
100
AcDbEntity
  8
Layer_1
 62
7
100
AcDbPolyline
 90
5
 70
1
 10
58.697904
 20
55.668131
 30
0.0
 10
97.825430
 20
55.668131
 30
0.0
 10
97.825430
 20
53.393628
 30
0.0
 10
58.697904
 20
53.393628
 30
0.0
 10
58.697904
 20
55.668131
 30
0.0
  0
LWPOLYLINE
  5
136
100
AcDbEntity
  8
Layer_1
 62
7
100
AcDbPolyline
 90
5
 70
1
 10
58.697904
 20
51.312102
 30
0.0
 10
97.825430
 20
51.312102
 30
0.0
 10
97.825430
 20
49.037599
 30
0.0
 10
58.697904
 20
49.037599
 30
0.0
 10
58.697904
 20
51.312102
 30
0.0
  0
SPLINE
  5
137
100
AcDbEntity
  8
Layer_1
 62
7
100
AcDbSpline
 70
0
 71
3
 72
13
 73
9
 74
7
 40
0.000000
 40
0.000000
 40
0.000000
 40
0.000000
 40
0.604690
 40
1.212089
 40
1.823155
 40
12.928062
 40
25.508930
 40
40.151978
 40
40.151978
 40
40.151978
 40
40.151978
 10
133.601500
 20
99.183829
 30
0.0
 10
133.623350
 20
99.384229
 30
0.0
 10
133.667150
 20
99.785927
 30
0.0
 10
133.703375
 20
100.392804
 30
0.0
 10
133.794911
 20
104.500358
 30
0.0
 10
130.421261
 20
112.627296
 30
0.0
 10
119.320592
 20
120.128083
 30
0.0
 10
110.190497
 20
121.081150
 30
0.0
 10
105.279653
 20
121.593781
 30
0.0
 11
133.601500
 21
99.183829
 31
0.0
 11
133.662145
 21
99.785470
 31
0.0
 11
133.699535
 21
100.391718
 31
0.0
 11
133.712303
 21
101.002650
 31
0.0
 11
129.841247
 21
111.411006
 31
0.0
 11
119.651825
 21
118.790297
 31
0.0
 11
105.279653
 21
121.593781
 31
0.0
  0
LWPOLYLINE
  5
138
100
AcDbEntity
  8
Layer_1
 62
7
100
AcDbPolyline
 90
5
 70
1
 10
58.697904
 20
60.024147
 30
0.0
 10
97.825430
 20
60.024147
 30
0.0
 10
97.825430
 20
57.749643
 30
0.0
 10
58.697904
 20
57.749643
 30
0.0
 10
58.697904
 20
60.024147
 30
0.0
  0
ENDSEC
  0
SECTION
  2
OBJECTS
  0
DICTIONARY
  5
C
330
0
100
AcDbDictionary
  3
ACAD_GROUP
350
D
  3
ACAD_MLINESTYLE
350
17
  0
DICTIONARY
  5
D
330
C
100
AcDbDictionary
  0
DICTIONARY
  5
1A
330
C
100
AcDbDictionary
  0
DICTIONARY
  5
17
330
C
100
AcDbDictionary
  3
STANDARD
350
18
  0
DICTIONARY
  5
19
330
C
100
AcDbDictionary
  0
ENDSEC
  0
EOF
