  0
SECTION
  2
HEADER
  9
$ACADVER
  1
AC1009
  9
$LIMMIN
 10
 0
 20
 0
  9
$LIMMAX
 10
 7.08841107
 20
 3.9942331
  0
ENDSEC
  0
SECTION
  2
TABLES
  0
TABLE
  2
LTYPE
 70
     4
  0
LTYPE
  2
CONTINUOUS
 70
     0
  3
Solid line
 72
    65
 73
     0
 40
0.000000
  0
LTYPE
  2
HIDDEN
 70
     0
  3
 _ _ _ _ _ _ _ _ _ _ _
 72
    65
 73
     2
 40
0.375000
 49
0.250000
 49
-0.125000
  0
LTYPE
  2
DASHED
 70
     0
  3
 ___ ___ ___ ___ ___ ___ ___ 
 72
    65
 73
     2
 40
0.750000
 49
0.500000
 49
-0.250000
  0
LTYPE
  2
CENTER
 70
     0
  3
___ _ ___ _ ___ _ ___
 72
    65
 73
     4
 40
2.000000
 49
1.250000
 49
-0.250000
 49
0.250000
 49
-0.250000
  0
LTYPE
  2
BORDER
 70
     0
  3
___ ___ . ___ ___ . ___ ___
 72
    65
 73
     6
 40
1.750000
 49
0.500000
 49
-0.250000
 49
0.500000
 49
-0.250000
 49
0.000000
 49
-0.250000
  0
LTYPE
  2
DOT
 70
     0
  3
.................
 72
    65
 73
     2
 40
0.250000
 49
0.000000
 49
-0.250000
  0
LTYPE
  2
DASHDOT
 70
     0
  3
__ . __ . __ . __
 72
    65
 73
     4
 40
1.000000
 49
0.500000
 49
-0.250000
 49
0.000000
 49
-0.250000
  0
LTYPE
  2
DIVIDE
 70
     0
  3
___ .. ___ .. ___ .. ___
 72
    65
 73
     6
 40
1.250000
 49
0.500000
 49
-0.250000
 49
0.000000
 49
-0.250000
 49
0.000000
 49
-0.250000
  0
ENDTAB
  0
TABLE
  2
LAYER
 70
     8
  0
LAYER
  2
BLACK
 70
     0
 62
     1
  6
CONTINUOUS
  0
LAYER
  2
WHITE
 70
     0
 62
     7
  6
CONTINUOUS
  0
LAYER
  2
RED
 70
     0
 62
     1
  6
CONTINUOUS
  0
LAYER
  2
YELLOW
 70
     0
 62
     2
  6
CONTINUOUS
  0
LAYER
  2
GREEN
 70
     0
 62
     3
  6
CONTINUOUS
  0
LAYER
  2
CYAN
 70
     0
 62
     4
  6
CONTINUOUS
  0
LAYER
  2
BLUE
 70
     0
 62
     5
  6
CONTINUOUS
  0
LAYER
  2
MAGENTA
 70
     0
 62
     6
  6
CONTINUOUS
  0
ENDTAB
  0
ENDSEC
  0
SECTION
  2
BLOCKS
  0
ENDSEC
  0
SECTION
  2
ENTITIES
  0
ARC
  8
WHITE
 10
 1.30035216
 20
 1.9912656
 30
0.000000
 40
 1.29908745
 50
 196.81392278
 51
 211.89786643
  6
CONTINUOUS
  0
ARC
  8
WHITE
 10
 1.69513879
 20
 2.23697823
 30
0.000000
 40
 1.76409409
 50
 211.89786647
 51
 233.04175257
  6
CONTINUOUS
  0
ARC
  8
WHITE
 10
 2.45646157
 20
 3.24882097
 30
0.000000
 40
 3.03036346
 50
 233.04175257
 51
 244.78673056
  6
CONTINUOUS
  0
ARC
  8
WHITE
 10
 3.19143538
 20
 4.80978134
 30
0.000000
 40
 4.7556993
 50
 244.78673055
 51
 253.80502377
  6
CONTINUOUS
  0
ARC
  8
WHITE
 10
 3.59392715
 20
 6.19562064
 30
0.000000
 40
 6.19880366
 50
 253.80502377
 51
 265.19261138
  6
CONTINUOUS
  0
ARC
  8
WHITE
 10
 3.51809949
 20
 5.29400753
 30
0.000000
 40
 5.29400753
 50
 265.19261138
 51
 275.85567605
  6
CONTINUOUS
  0
ARC
  8
WHITE
 10
 3.43778852
 20
 6.077085
 30
0.000000
 40
 6.0811925
 50
 275.85567605
 51
 287.14487764
  6
CONTINUOUS
  0
ARC
  8
WHITE
 10
 3.75422762
 20
 5.05134303
 30
0.000000
 40
 5.0077493
 50
 287.14487761
 51
 295.03360414
  6
CONTINUOUS
  0
ARC
  8
WHITE
 10
 4.52106135
 20
 3.40937774
 30
0.000000
 40
 3.19554512
 50
 295.03360416
 51
 306.90492853
  6
CONTINUOUS
  0
ARC
  8
WHITE
 10
 5.32112548
 20
 2.34398324
 30
0.000000
 40
 1.8631908
 50
 306.90492867
 51
 325.47307641
  6
CONTINUOUS
  0
ARC
  8
WHITE
 10
 5.76970292
 20
 2.03537405
 30
0.000000
 40
 1.31870815
 50
 325.4730764
 51
 8.37029688
  6
CONTINUOUS
  0
ARC
  8
WHITE
 10
 5.84314911
 20
 2.04618074
 30
0.000000
 40
 1.24447118
 50
 8.37029688
 51
 26.15037563
  6
CONTINUOUS
  0
ARC
  8
WHITE
 10
 5.60088906
 20
 1.92723453
 30
0.000000
 40
 1.51435659
 50
 26.15037555
 51
 46.89680659
  6
CONTINUOUS
  0
ARC
  8
WHITE
 10
 5.03540126
 20
 1.3230086
 30
0.000000
 40
 2.34192256
 50
 46.8968065
 51
 61.51571564
  6
CONTINUOUS
  0
ARC
  8
WHITE
 10
 4.13901166
 20
-.3290161
 30
0.000000
 40
 4.22147035
 50
 61.51571564
 51
 73.23922315
  6
CONTINUOUS
  0
ARC
  8
WHITE
 10
 3.42204176
 20
-2.70962362
 30
0.000000
 40
 6.70770003
 50
 73.23922313
 51
 85.66197208
  6
CONTINUOUS
  0
ARC
  8
WHITE
 10
 3.52351659
 20
-1.37192693
 30
0.000000
 40
 5.36616002
 50
 85.66197208
 51
 95.72019778
  6
CONTINUOUS
  0
ARC
  8
WHITE
 10
 3.57265123
 20
-1.8624428
 30
0.000000
 40
 5.85913065
 50
 95.72019778
 51
 97.30163024
  6
CONTINUOUS
  0
ARC
  8
WHITE
 10
 3.63925082
 20
-2.38221659
 30
0.000000
 40
 6.38315383
 50
 97.30163021
 51
 108.30323891
  6
CONTINUOUS
  0
ARC
  8
WHITE
 10
 2.82350942
 20
 .0838899
 30
0.000000
 40
 3.78563285
 50
 108.3032389
 51
 122.85663973
  6
CONTINUOUS
  0
ARC
  8
WHITE
 10
 1.86234896
 20
 1.57208602
 30
0.000000
 40
 2.01403551
 50
 122.85663956
 51
 139.82987907
  6
CONTINUOUS
  0
ARC
  8
WHITE
 10
 1.4095064
 20
 1.95436304
 30
0.000000
 40
 1.42141244
 50
 139.82987906
 51
 150.64757741
  6
CONTINUOUS
  0
ARC
  8
WHITE
 10
 1.32867099
 20
 1.99982306
 30
0.000000
 40
 1.32867099
 50
 150.64757739
 51
 196.81392276
  6
CONTINUOUS
  0
ARC
  8
WHITE
 10
 2.73250335
 20
 .98500253
 30
0.000000
 40
 .3473537
 50
 98.37930085
 51
 135.22076189
  6
CONTINUOUS
  0
ARC
  8
WHITE
 10
 2.87764592
 20
 .84097415
 30
0.000000
 40
 .55182995
 50
 135.22076155
 51
 153.99425
  6
CONTINUOUS
  0
LINE
  8
WHITE
 10
 2.38168872
 20
 1.08293025
 30
0.000000
 11
 2.36636662
 21
 1.05152328
 31
0.000000
  6
CONTINUOUS
  0
ARC
  8
WHITE
 10
 1.10678551
 20
-.29275158
 30
0.000000
 40
 1.84217791
 50
 46.86296199
 51
 58.35420254
  6
CONTINUOUS
  0
ARC
  8
WHITE
 10
 1.63838739
 20
 .56980933
 30
0.000000
 40
 .82895934
 50
 58.35420245
 51
 75.45973228
  6
CONTINUOUS
  0
ARC
  8
WHITE
 10
 1.73818309
 20
 .95457492
 30
0.000000
 40
 .43146249
 50
 75.45973183
 51
 114.39480319
  6
CONTINUOUS
  0
ARC
  8
WHITE
 10
 1.70146622
 20
 1.03553633
 30
0.000000
 40
 .34256435
 50
 114.39480219
 51
 173.75764732
  6
CONTINUOUS
  0
ARC
  8
WHITE
 10
 1.8250502
 20
 1.02201837
 30
0.000000
 40
 .46688545
 50
 173.75764703
 51
 183.76329744
  6
CONTINUOUS
  0
ARC
  8
WHITE
 10
 1.57186151
 20
 1.0053645
 30
0.000000
 40
 .21314964
 50
 183.76329743
 51
 206.74504917
  6
CONTINUOUS
  0
LINE
  8
WHITE
 10
 1.38151508
 20
 .90944263
 30
0.000000
 11
 1.53319733
 21
 .60844586
 31
0.000000
  6
CONTINUOUS
  0
LINE
  8
WHITE
 10
 1.53319733
 20
 .60844586
 30
0.000000
 11
 1.53319733
 21
 .58039468
 31
0.000000
  6
CONTINUOUS
  0
ARC
  8
WHITE
 10
 2.10931895
 20
 2.62069358
 30
0.000000
 40
 2.12007918
 50
 231.57738914
 51
 254.23184931
  6
CONTINUOUS
  0
ARC
  8
WHITE
 10
 1.74993437
 20
 2.1676305
 30
0.000000
 40
 1.54178563
 50
 207.96312159
 51
 231.57738938
  6
CONTINUOUS
  0
ARC
  8
WHITE
 10
 1.40769459
 20
 1.98594085
 30
0.000000
 40
 1.15430764
 50
 181.00183727
 51
 207.96312185
  6
CONTINUOUS
  0
ARC
  8
WHITE
 10
 1.34317335
 20
 1.98481256
 30
0.000000
 40
 1.08977654
 50
 148.76853889
 51
 181.00183727
  6
CONTINUOUS
  0
ARC
  8
WHITE
 10
 1.42420342
 20
 1.93567817
 30
0.000000
 40
 1.18453972
 50
 144.42640242
 51
 148.76853891
  6
CONTINUOUS
  0
ARC
  8
WHITE
 10
 1.83462075
 20
 1.64213419
 30
0.000000
 40
 1.68912911
 50
 125.06904683
 51
 144.42640243
  6
CONTINUOUS
  0
ARC
  8
WHITE
 10
 2.75054346
 20
 .33741027
 30
0.000000
 40
 3.28324922
 50
 117.27297238
 51
 125.06904683
  6
CONTINUOUS
  0
ARC
  8
WHITE
 10
 3.20095824
 20
-.53626332
 30
0.000000
 40
 4.26619328
 50
 111.97037734
 51
 117.27297249
  6
CONTINUOUS
  0
ARC
  8
WHITE
 10
 6.51614588
 20
-8.75387033
 30
0.000000
 40
 13.12731814
 50
 111.2459255
 51
 111.97037739
  6
CONTINUOUS
  0
ARC
  8
WHITE
 10
 3.64665163
 20
-1.37342439
 30
0.000000
 40
 5.20867056
 50
 108.33540551
 51
 111.2459255
  6
CONTINUOUS
  0
ARC
  8
WHITE
 10
-5.79445302
 20
 27.11477505
 30
0.000000
 40
 24.80319316
 50
 288.33540551
 51
 288.35640603
  6
CONTINUOUS
  0
ARC
  8
WHITE
 10
 2.04922398
 20
 3.47577639
 30
0.000000
 40
 .10314191
 50
 90.00000001
 51
 108.35640601
  6
CONTINUOUS
  0
LINE
  8
WHITE
 10
 2.04922398
 20
 3.5789183
 30
0.000000
 11
 2.06059234
 21
 3.5789183
 31
0.000000
  6
CONTINUOUS
  0
ARC
  8
WHITE
 10
 3.18418516
 20
 2.83694356
 30
0.000000
 40
 1.34647218
 50
 146.56085942
 51
 153.61622437
  6
CONTINUOUS
  0
ARC
  8
WHITE
 10
 2.50093394
 20
 3.17587129
 30
0.000000
 40
 .5837768
 50
 153.61622434
 51
 167.60955486
  6
CONTINUOUS
  0
ARC
  8
WHITE
 10
 2.53551787
 20
 3.16827357
 30
0.000000
 40
 .61918547
 50
 167.60955481
 51
 220.39944916
  6
CONTINUOUS
  0
ARC
  8
WHITE
 10
 2.5252387
 20
 3.15952509
 30
0.000000
 40
 .60568743
 50
 220.39942141
 51
 261.45005947
  6
CONTINUOUS
  0
ARC
  8
WHITE
 10
 2.57153662
 20
 3.46747228
 30
0.000000
 40
 .91709547
 50
 261.45003106
 51
 282.92424571
  6
CONTINUOUS
  0
ARC
  8
WHITE
 10
 2.70892822
 20
 2.86875341
 30
0.000000
 40
 .3028148
 50
 282.92424503
 51
 300.58755936
  6
CONTINUOUS
  0
ARC
  8
WHITE
 10
 2.71836603
 20
 2.85278704
 30
0.000000
 40
 .28426764
 50
 300.58755868
 51
 336.45215069
  6
CONTINUOUS
  0
ARC
  8
WHITE
 10
 2.69259283
 20
 2.86401915
 30
0.000000
 40
 .31238202
 50
 336.4521507
 51
 350.30675249
  6
CONTINUOUS
  0
ARC
  8
WHITE
 10
-10.67680541
 20
 5.14767063
 30
0.000000
 40
 13.87541536
 50
 350.30675246
 51
 352.633594
  6
CONTINUOUS
  0
ARC
  8
WHITE
 10
-1.38428227
 20
 3.94632251
 30
0.000000
 40
 4.50555818
 50
 352.63359396
 51
 357.11020073
  6
CONTINUOUS
  0
ARC
  8
WHITE
 10
 3.10996898
 20
 3.76518798
 30
0.000000
 40
 .04635057
 50
 276.91122712
 51
 285.51975673
  6
CONTINUOUS
  0
ARC
  8
WHITE
 10
 3.12910928
 20
 3.69626258
 30
0.000000
 40
 .02518307
 50
 81.49527933
 51
 105.51975671
  6
CONTINUOUS
  0
ARC
  8
WHITE
 10
 3.10955646
 20
 3.56550531
 30
0.000000
 40
 .15739418
 50
 79.39937678
 51
 81.49527933
  6
CONTINUOUS
  0
ARC
  8
WHITE
 10
 3.13573743
 20
 3.70539367
 30
0.000000
 40
 .01507694
 50
 42.35499581
 51
 79.39937678
  6
CONTINUOUS
  0
ARC
  8
WHITE
 10
 3.70396049
 20
 4.22343474
 30
0.000000
 40
 .75384698
 50
 222.35499583
 51
 228.01652018
  6
CONTINUOUS
  0
LINE
  8
WHITE
 10
 3.19969995
 20
 3.66307184
 30
0.000000
 11
 3.33716714
 21
 3.38551279
 31
0.000000
  6
CONTINUOUS
  0
LINE
  8
WHITE
 10
 3.33716714
 20
 3.38551279
 30
0.000000
 11
 3.69352685
 21
 3.38551279
 31
0.000000
  6
CONTINUOUS
  0
ARC
  8
WHITE
 10
 3.69352685
 20
 3.43671333
 30
0.000000
 40
 .05120055
 50
 270.00000279
 51
 333.86785354
  6
CONTINUOUS
  0
ARC
  8
WHITE
 10
 1.83433011
 20
 4.34881824
 30
0.000000
 40
 2.12208149
 50
 333.86785354
 51
 338.80762583
  6
CONTINUOUS
  0
ARC
  8
WHITE
 10
 4.41875149
 20
 3.34678295
 30
0.000000
 40
 .64979668
 50
 147.77281387
 51
 158.80762581
  6
CONTINUOUS
  0
ARC
  8
WHITE
 10
 4.00529113
 20
 3.6074269
 30
0.000000
 40
 .16103832
 50
 121.70231778
 51
 147.77281401
  6
CONTINUOUS
  0
ARC
  8
WHITE
 10
 125.16135324
 20
 20.1098045
 30
0.000000
 40
 122.34022179
 50
 187.68746149
 51
 187.9536014
  6
CONTINUOUS
  0
ARC
  8
WHITE
 10
 21.75441975
 20
 5.66229191
 30
0.000000
 40
 17.92889809
 50
 187.9536014
 51
 188.93367385
  6
CONTINUOUS
  0
ARC
  8
WHITE
 10
 4.44787873
 20
 2.94173814
 30
0.000000
 40
 .4098292
 50
 188.93367315
 51
 207.77864256
  6
CONTINUOUS
  0
ARC
  8
WHITE
 10
 4.34806783
 20
 2.88916135
 30
0.000000
 40
 .29701726
 50
 207.77864056
 51
 258.7433036
  6
CONTINUOUS
  0
ARC
  8
WHITE
 10
 4.48567045
 20
 3.58051411
 30
0.000000
 40
 1.00193082
 50
 258.74330345
 51
 276.18593025
  6
CONTINUOUS
  0
ARC
  8
WHITE
 10
 4.52628385
 20
 3.20580451
 30
0.000000
 40
 .62502667
 50
 276.18592989
 51
 309.18476056
  6
CONTINUOUS
  0
ARC
  8
WHITE
 10
 4.53505044
 20
 3.19504976
 30
0.000000
 40
 .6111516
 50
 309.18476053
 51
 5.54167602
  6
CONTINUOUS
  0
ARC
  8
WHITE
 10
 4.68415408
 20
 3.20951628
 30
0.000000
 40
 .46134781
 50
 5.54167587
 51
 30.31445464
  6
CONTINUOUS
  0
ARC
  8
WHITE
 10
 3.28726073
 20
 2.3927649
 30
0.000000
 40
 2.079493
 50
 30.31445456
 51
 35.72493174
  6
CONTINUOUS
  0
LINE
  8
WHITE
 10
 4.97545455
 20
 3.60696948
 30
0.000000
 11
 4.97948347
 21
 3.60696948
 31
0.000000
  6
CONTINUOUS
  0
ARC
  8
WHITE
 10
 4.97948347
 20
 3.45031926
 30
0.000000
 40
 .15665022
 50
 72.46243546
 51
 90.00000005
  6
CONTINUOUS
  0
ARC
  8
WHITE
 10
 2.93440173
 20
-3.02105411
 30
0.000000
 40
 6.94347809
 50
 68.32791472
 51
 72.46243547
  6
CONTINUOUS
  0
ARC
  8
WHITE
 10
 4.15776965
 20
 .05749879
 30
0.000000
 40
 3.63075761
 50
 54.83507512
 51
 68.3279147
  6
CONTINUOUS
  0
ARC
  8
WHITE
 10
 5.289072
 20
 1.6633082
 30
0.000000
 40
 1.66645904
 50
 35.40540196
 51
 54.83507511
  6
CONTINUOUS
  0
ARC
  8
WHITE
 10
 5.81720753
 20
 2.03870953
 30
0.000000
 40
 1.01849816
 50
 358.44426121
 51
 35.40540195
  6
CONTINUOUS
  0
ARC
  8
WHITE
 10
 5.72175978
 20
 2.04130184
 30
0.000000
 40
 1.11398111
 50
 343.84826269
 51
 358.44426124
  6
CONTINUOUS
  0
ARC
  8
WHITE
 10
 5.38184092
 20
 2.13974698
 30
0.000000
 40
 1.46786848
 50
 310.73025052
 51
 343.84826267
  6
CONTINUOUS
  0
ARC
  8
WHITE
 10
 5.28248136
 20
 2.25511676
 30
0.000000
 40
 1.62012652
 50
 299.71058973
 51
 310.73078308
  6
CONTINUOUS
  0
ARC
  8
WHITE
 10
 4.02341723
 20
 4.46146539
 30
0.000000
 40
 4.16044475
 50
 294.88150235
 51
 299.71112289
  6
CONTINUOUS
  0
ARC
  8
WHITE
 10
 4.56616576
 20
 3.29122464
 30
0.000000
 40
 2.87046825
 50
 291.84219135
 51
 294.88150239
  6
CONTINUOUS
  0
ARC
  8
WHITE
 10
 5.35996279
 20
 1.3108211
 30
0.000000
 40
 .73690037
 50
 290.20453981
 51
 291.84219132
  6
CONTINUOUS
  0
ARC
  8
WHITE
 10
 5.49017846
 20
 .95699177
 30
0.000000
 40
 .35987077
 50
 281.25131664
 51
 290.20453973
  6
CONTINUOUS
  0
ARC
  8
WHITE
 10
 23.09477552
 20
-87.53666661
 30
0.000000
 40
 89.86789331
 50
 101.25131663
 51
 101.25459994
  6
CONTINUOUS
  0
LINE
  8
WHITE
 10
 5.555343
 20
 .60303247
 30
0.000000
 11
 5.555343
 21
 .63666108
 31
0.000000
  6
CONTINUOUS
  0
ARC
  8
WHITE
 10
 3.85002694
 20
 1.7089691
 30
0.000000
 40
 2.01443475
 50
 327.83819145
 51
 335.47183018
  6
CONTINUOUS
  0
ARC
  8
WHITE
 10
 5.24634031
 20
 1.07180317
 30
0.000000
 40
 .47961506
 50
 335.47182972
 51
 2.95635078
  6
CONTINUOUS
  0
ARC
  8
WHITE
 10
 5.43413346
 20
 1.08150154
 30
0.000000
 40
 .29157165
 50
 2.95635078
 51
 69.48134475
  6
CONTINUOUS
  0
ARC
  8
WHITE
 10
 5.33844834
 20
 .82583385
 30
0.000000
 40
 .56455811
 50
 69.48134457
 51
 83.20052412
  6
CONTINUOUS
  0
ARC
  8
WHITE
 10
 5.34333926
 20
 .86685353
 30
0.000000
 40
 .52324787
 50
 83.20052412
 51
 114.77193434
  6
CONTINUOUS
  0
ARC
  8
WHITE
 10
 5.3820295
 20
 .78301234
 30
0.000000
 40
 .61558573
 50
 114.77193434
 51
 120.00280691
  6
CONTINUOUS
  0
ARC
  8
WHITE
 10
 5.92858295
 20
-.1635389
 30
0.000000
 40
 1.70859988
 50
 120.00280688
 51
 132.39718716
  6
CONTINUOUS
  0
ARC
  8
WHITE
 10
 4.71328234
 20
 1.16751632
 30
0.000000
 40
 .09380506
 50
 296.0263332
 51
 312.39718731
  6
CONTINUOUS
  0
ARC
  8
WHITE
 10
 4.73674364
 20
 1.11946958
 30
0.000000
 40
 .04033617
 50
 238.67580792
 51
 296.02633413
  6
CONTINUOUS
  0
ARC
  8
WHITE
 10
 4.74923029
 20
 1.13998699
 30
0.000000
 40
 .06435452
 50
 215.0371641
 51
 238.67580875
  6
CONTINUOUS
  0
ARC
  8
WHITE
 10
 3.95950663
 20
 .5862528
 30
0.000000
 40
 .90015832
 50
 35.037164
 51
 50.13388144
  6
CONTINUOUS
  0
ARC
  8
WHITE
 10
 4.28705887
 20
 .97847197
 30
0.000000
 40
 .38915309
 50
 50.13388095
 51
 63.10455188
  6
CONTINUOUS
  0
ARC
  8
WHITE
 10
 4.32047044
 20
 1.04434281
 30
0.000000
 40
 .31529308
 50
 63.10454634
 51
 123.55188184
  6
CONTINUOUS
  0
ARC
  8
WHITE
 10
 4.700116
 20
 .47188785
 30
0.000000
 40
 1.00219587
 50
 123.55188123
 51
 144.40729202
  6
CONTINUOUS
  0
ARC
  8
WHITE
 10
 6.72000006
 20
-.97381831
 30
0.000000
 40
 3.48614392
 50
 144.40729201
 51
 153.30822854
  6
CONTINUOUS
  0
LINE
  8
WHITE
 10
 3.6053539
 20
 .59212509
 30
0.000000
 11
 3.5573115
 21
 .49656922
 31
0.000000
  6
CONTINUOUS
  0
LINE
  8
WHITE
 10
 3.5573115
 20
 .49656922
 30
0.000000
 11
 3.52926032
 21
 .49656922
 31
0.000000
  6
CONTINUOUS
  0
ARC
  8
WHITE
 10
-27.79296502
 20
-15.80670853
 30
0.000000
 40
 35.31116913
 50
 27.49706287
 51
 28.02720807
  6
CONTINUOUS
  0
ARC
  8
WHITE
 10
 1.78435387
 20
-.06214832
 30
0.000000
 40
 1.80431956
 50
 28.02720807
 51
 39.61106092
  6
CONTINUOUS
  0
ARC
  8
WHITE
 10
 2.47894654
 20
 .51269461
 30
0.000000
 40
 .90270801
 50
 39.61106107
 51
 55.65459614
  6
CONTINUOUS
  0
ARC
  8
WHITE
 10
 2.74477123
 20
 .90171645
 30
0.000000
 40
 .43153844
 50
 55.65459614
 51
 98.37930109
  6
CONTINUOUS
  0
ENDSEC
  0
EOF
