  0
SECTION
  2
HEADER
  9
$ACADVER
  1
AC1021
  9
$ACADMAINTVER
 70
    25
  9
$DWGCODEPAGE
  3
ANSI_1252
  9
$INSBASE
 10
0.0
 20
0.0
 30
0.0
  9
$EXTMIN
 10
1.000000000000000E+20
 20
1.000000000000000E+20
 30
1.000000000000000E+20
  9
$EXTMAX
 10
-1.000000000000000E+20
 20
-1.000000000000000E+20
 30
-1.000000000000000E+20
  9
$LIMMIN
 10
0.0
 20
0.0
  9
$LIMMAX
 10
12.0
 20
9.0
  9
$ORTHOMODE
 70
     0
  9
$REGENMODE
 70
     1
  9
$FILLMODE
 70
     1
  9
$QTEXTMODE
 70
     0
  9
$MIRRTEXT
 70
     1
  9
$LTSCALE
 40
1.0
  9
$ATTMODE
 70
     1
  9
$TEXTSIZE
 40
0.2
  9
$TRACEWID
 40
0.05
  9
$TEXTSTYLE
  7
Standard
  9
$CLAYER
  8
Predeterminada
  9
$CELTYPE
  6
ByLayer
  9
$CECOLOR
 62
   256
  9
$CELTSCALE
 40
1.0
  9
$DISPSILH
 70
     0
  9
$DIMSCALE
 40
1.0
  9
$DIMASZ
 40
0.18
  9
$DIMEXO
 40
0.0625
  9
$DIMDLI
 40
0.38
  9
$DIMRND
 40
0.0
  9
$DIMDLE
 40
0.0
  9
$DIMEXE
 40
0.18
  9
$DIMTP
 40
0.0
  9
$DIMTM
 40
0.0
  9
$DIMTXT
 40
0.18
  9
$DIMCEN
 40
0.09
  9
$DIMTSZ
 40
0.0
  9
$DIMTOL
 70
     0
  9
$DIMLIM
 70
     0
  9
$DIMTIH
 70
     1
  9
$DIMTOH
 70
     1
  9
$DIMSE1
 70
     0
  9
$DIMSE2
 70
     0
  9
$DIMTAD
 70
     0
  9
$DIMZIN
 70
     0
  9
$DIMBLK
  1

  9
$DIMASO
 70
     1
  9
$DIMSHO
 70
     1
  9
$DIMPOST
  1

  9
$DIMAPOST
  1

  9
$DIMALT
 70
     0
  9
$DIMALTD
 70
     2
  9
$DIMALTF
 40
25.4
  9
$DIMLFAC
 40
1.0
  9
$DIMTOFL
 70
     0
  9
$DIMTVP
 40
0.0
  9
$DIMTIX
 70
     0
  9
$DIMSOXD
 70
     0
  9
$DIMSAH
 70
     0
  9
$DIMBLK1
  1

  9
$DIMBLK2
  1

  9
$DIMSTYLE
  2
STANDARD_ACAD
  9
$DIMCLRD
 70
     0
  9
$DIMCLRE
 70
     0
  9
$DIMCLRT
 70
     0
  9
$DIMTFAC
 40
1.0
  9
$DIMGAP
 40
0.09
  9
$DIMJUST
 70
     0
  9
$DIMSD1
 70
     0
  9
$DIMSD2
 70
     0
  9
$DIMTOLJ
 70
     1
  9
$DIMTZIN
 70
     0
  9
$DIMALTZ
 70
     0
  9
$DIMALTTZ
 70
     0
  9
$DIMUPT
 70
     0
  9
$DIMDEC
 70
     4
  9
$DIMTDEC
 70
     4
  9
$DIMALTU
 70
     2
  9
$DIMALTTD
 70
     2
  9
$DIMTXSTY
  7
Standard
  9
$DIMAUNIT
 70
     0
  9
$DIMADEC
 70
     0
  9
$DIMALTRND
 40
0.0
  9
$DIMAZIN
 70
     0
  9
$DIMDSEP
 70
    46
  9
$DIMATFIT
 70
     3
  9
$DIMFRAC
 70
     0
  9
$DIMLDRBLK
  1

  9
$DIMLUNIT
 70
     2
  9
$DIMLWD
 70
    -2
  9
$DIMLWE
 70
    -2
  9
$DIMTMOVE
 70
     2
  9
$DIMFXL
 40
1.0
  9
$DIMFXLON
 70
     0
  9
$DIMJOGANG
 40
0.7853981633974483
  9
$DIMTFILL
 70
     0
  9
$DIMTFILLCLR
 70
     0
  9
$DIMARCSYM
 70
     0
  9
$DIMLTYPE
  6

  9
$DIMLTEX1
  6

  9
$DIMLTEX2
  6

  9
$LUNITS
 70
     2
  9
$LUPREC
 70
     2
  9
$SKETCHINC
 40
0.1
  9
$FILLETRAD
 40
0.5
  9
$AUNITS
 70
     0
  9
$AUPREC
 70
     0
  9
$MENU
  1
.
  9
$ELEVATION
 40
0.0
  9
$PELEVATION
 40
0.0
  9
$THICKNESS
 40
0.0
  9
$LIMCHECK
 70
     0
  9
$CHAMFERA
 40
0.0
  9
$CHAMFERB
 40
0.0
  9
$CHAMFERC
 40
0.0
  9
$CHAMFERD
 40
0.0
  9
$SKPOLY
 70
     0
  9
$TDCREATE
 40
2459289.565019745
  9
$TDUCREATE
 40
2459289.523353079
  9
$TDUPDATE
 40
2459289.565111968
  9
$TDUUPDATE
 40
2459289.523445301
  9
$TDINDWG
 40
0.0000000116
  9
$TDUSRTIMER
 40
0.0000000116
  9
$USRTIMER
 70
     1
  9
$ANGBASE
 50
0.0
  9
$ANGDIR
 70
     0
  9
$PDMODE
 70
     0
  9
$PDSIZE
 40
0.0
  9
$PLINEWID
 40
0.0
  9
$SPLFRAME
 70
     0
  9
$SPLINETYPE
 70
     6
  9
$SPLINESEGS
 70
     8
  9
$HANDSEED
  5
3D5
  9
$SURFTAB1
 70
     6
  9
$SURFTAB2
 70
     6
  9
$SURFTYPE
 70
     6
  9
$SURFU
 70
     6
  9
$SURFV
 70
     6
  9
$UCSBASE
  2

  9
$UCSNAME
  2

  9
$UCSORG
 10
0.0
 20
0.0
 30
0.0
  9
$UCSXDIR
 10
1.0
 20
0.0
 30
0.0
  9
$UCSYDIR
 10
0.0
 20
1.0
 30
0.0
  9
$UCSORTHOREF
  2

  9
$UCSORTHOVIEW
 70
     0
  9
$UCSORGTOP
 10
0.0
 20
0.0
 30
0.0
  9
$UCSORGBOTTOM
 10
0.0
 20
0.0
 30
0.0
  9
$UCSORGLEFT
 10
0.0
 20
0.0
 30
0.0
  9
$UCSORGRIGHT
 10
0.0
 20
0.0
 30
0.0
  9
$UCSORGFRONT
 10
0.0
 20
0.0
 30
0.0
  9
$UCSORGBACK
 10
0.0
 20
0.0
 30
0.0
  9
$PUCSBASE
  2

  9
$PUCSNAME
  2

  9
$PUCSORG
 10
0.0
 20
0.0
 30
0.0
  9
$PUCSXDIR
 10
1.0
 20
0.0
 30
0.0
  9
$PUCSYDIR
 10
0.0
 20
1.0
 30
0.0
  9
$PUCSORTHOREF
  2

  9
$PUCSORTHOVIEW
 70
     0
  9
$PUCSORGTOP
 10
0.0
 20
0.0
 30
0.0
  9
$PUCSORGBOTTOM
 10
0.0
 20
0.0
 30
0.0
  9
$PUCSORGLEFT
 10
0.0
 20
0.0
 30
0.0
  9
$PUCSORGRIGHT
 10
0.0
 20
0.0
 30
0.0
  9
$PUCSORGFRONT
 10
0.0
 20
0.0
 30
0.0
  9
$PUCSORGBACK
 10
0.0
 20
0.0
 30
0.0
  9
$USERI1
 70
     0
  9
$USERI2
 70
     0
  9
$USERI3
 70
     0
  9
$USERI4
 70
     0
  9
$USERI5
 70
     0
  9
$USERR1
 40
0.0
  9
$USERR2
 40
0.0
  9
$USERR3
 40
0.0
  9
$USERR4
 40
0.0
  9
$USERR5
 40
0.0
  9
$WORLDVIEW
 70
     1
  9
$SHADEDGE
 70
     3
  9
$SHADEDIF
 70
    70
  9
$TILEMODE
 70
     1
  9
$MAXACTVP
 70
    64
  9
$PINSBASE
 10
0.0
 20
0.0
 30
0.0
  9
$PLIMCHECK
 70
     0
  9
$PEXTMIN
 10
1.000000000000000E+20
 20
1.000000000000000E+20
 30
1.000000000000000E+20
  9
$PEXTMAX
 10
-1.000000000000000E+20
 20
-1.000000000000000E+20
 30
-1.000000000000000E+20
  9
$PLIMMIN
 10
0.0
 20
0.0
  9
$PLIMMAX
 10
12.0
 20
9.0
  9
$UNITMODE
 70
     0
  9
$VISRETAIN
 70
     1
  9
$PLINEGEN
 70
     0
  9
$PSLTSCALE
 70
     1
  9
$TREEDEPTH
 70
  3020
  9
$CMLSTYLE
  2
Standard
  9
$CMLJUST
 70
     0
  9
$CMLSCALE
 40
1.0
  9
$PROXYGRAPHICS
 70
     1
  9
$MEASUREMENT
 70
     1
  9
$CELWEIGHT
370
    -1
  9
$ENDCAPS
280
     0
  9
$JOINSTYLE
280
     0
  9
$LWDISPLAY
290
     0
  9
$INSUNITS
 70
     4
  9
$HYPERLINKBASE
  1

  9
$STYLESHEET
  1

  9
$XEDIT
290
     1
  9
$CEPSNTYPE
380
     0
  9
$PSTYLEMODE
290
     1
  9
$FINGERPRINTGUID
  2
{760e7b64-1cc2-4fe5-8c9b-1ef92e1ddc08}
  9
$VERSIONGUID
  2
{FAEB1C32-E019-11D5-929B-00C0DF256EC4}
  9
$EXTNAMES
290
     1
  9
$PSVPSCALE
 40
0.0
  9
$OLESTARTUP
290
     0
  9
$SORTENTS
280
   127
  9
$INDEXCTL
280
     0
  9
$HIDETEXT
280
     1
  9
$XCLIPFRAME
290
     0
  9
$HALOGAP
280
     0
  9
$OBSCOLOR
 70
   257
  9
$OBSLTYPE
280
     0
  9
$INTERSECTIONDISPLAY
280
     0
  9
$INTERSECTIONCOLOR
 70
   257
  9
$DIMASSOC
280
     2
  9
$PROJECTNAME
  1

  9
$CAMERADISPLAY
290
     0
  9
$LENSLENGTH
 40
50.0
  9
$CAMERAHEIGHT
 40
0.0
  9
$STEPSPERSEC
 40
2.0
  9
$STEPSIZE
 40
6.0
  9
$3DDWFPREC
 40
2.0
  9
$PSOLWIDTH
 40
0.25
  9
$PSOLHEIGHT
 40
4.0
  9
$LOFTANG1
 40
1.570796326794897
  9
$LOFTANG2
 40
1.570796326794897
  9
$LOFTMAG1
 40
0.0
  9
$LOFTMAG2
 40
0.0
  9
$LOFTPARAM
 70
     7
  9
$LOFTNORMALS
280
     1
  9
$LATITUDE
 40
37.795
  9
$LONGITUDE
 40
-122.394
  9
$NORTHDIRECTION
 40
0.0
  9
$TIMEZONE
 70
 -8000
  9
$LIGHTGLYPHDISPLAY
280
     1
  9
$TILEMODELIGHTSYNCH
280
     1
  9
$CMATERIAL
347
44
  9
$SOLIDHIST
280
     0
  9
$SHOWHIST
280
     1
  9
$DWFFRAME
280
     2
  9
$DGNFRAME
280
     2
  9
$REALWORLDSCALE
290
     1
  9
$INTERFERECOLOR
 62
   256
  9
$CSHADOW
280
     0
  9
$SHADOWPLANELOCATION
 40
0.0
  0
ENDSEC
  0
SECTION
  2
CLASSES
  0
CLASS
  1
ACDBDICTIONARYWDFLT
  2
AcDbDictionaryWithDefault
  3
ObjectDBX Classes
 90
        0
 91
        3
280
     0
281
     0
  0
CLASS
  1
VISUALSTYLE
  2
AcDbVisualStyle
  3
ObjectDBX Classes
 90
     4095
 91
        3
280
     0
281
     0
  0
CLASS
  1
MATERIAL
  2
AcDbMaterial
  3
ObjectDBX Classes
 90
     1153
 91
        3
280
     0
281
     0
  0
CLASS
  1
SCALE
  2
AcDbScale
  3
ObjectDBX Classes
 90
     1153
 91
        3
280
     0
281
     0
  0
CLASS
  1
TABLESTYLE
  2
AcDbTableStyle
  3
ObjectDBX Classes
 90
     4095
 91
        3
280
     0
281
     0
  0
CLASS
  1
MLEADERSTYLE
  2
AcDbMLeaderStyle
  3
ACDB_MLEADERSTYLE_CLASS
 90
     4095
 91
        3
280
     0
281
     0
  0
CLASS
  1
SUN
  2
AcDbSun
  3
SCENEOE
 90
     1153
 91
        3
280
     0
281
     0
  0
CLASS
  1
DICTIONARYVAR
  2
AcDbDictionaryVar
  3
ObjectDBX Classes
 90
        0
 91
        3
280
     0
281
     0
  0
CLASS
  1
CELLSTYLEMAP
  2
AcDbCellStyleMap
  3
ObjectDBX Classes
 90
     1152
 91
        3
280
     0
281
     0
  0
ENDSEC
  0
SECTION
  2
TABLES
  0
TABLE
  2
VPORT
  5
8
330
0
100
AcDbSymbolTable
 70
     1
  0
VPORT
  5
29
330
8
100
AcDbSymbolTableRecord
100
AcDbViewportTableRecord
  2
*Active
 70
     0
 10
0.0
 20
0.0
 11
1.0
 21
1.0
 12
10.42990654205607
 22
4.5
 13
0.0
 23
0.0
 14
0.5
 24
0.5
 15
0.5
 25
0.5
 16
0.0
 26
0.0
 36
1.0
 17
0.0
 27
0.0
 37
0.0
 40
9.0
 41
1.972972972850329
 42
50.0
 43
0.0
 44
0.0
 50
0.0
 51
0.0
 71
     0
 72
   100
 73
     1
 74
     3
 75
     0
 76
     0
 77
     0
 78
     0
281
     0
 65
     1
110
0.0
120
0.0
130
0.0
111
1.0
121
0.0
131
0.0
112
0.0
122
1.0
132
0.0
 79
     0
146
0.0
348
2F
 60
     3
 61
     5
292
     1
282
     1
141
0.0
142
0.0
 63
   250
361
6D
  0
ENDTAB
  0
TABLE
  2
LTYPE
  5
5
330
0
100
AcDbSymbolTable
 70
     1
  0
LTYPE
  5
14
330
5
100
AcDbSymbolTableRecord
100
AcDbLinetypeTableRecord
  2
ByBlock
 70
     0
  3

 72
    65
 73
     0
 40
0.0
  0
LTYPE
  5
15
330
5
100
AcDbSymbolTableRecord
100
AcDbLinetypeTableRecord
  2
ByLayer
 70
     0
  3

 72
    65
 73
     0
 40
0.0
  0
LTYPE
  5
16
330
5
100
AcDbSymbolTableRecord
100
AcDbLinetypeTableRecord
  2
Continuous
 70
     0
  3
Solid line
 72
    65
 73
     0
 40
0.0
  0
ENDTAB
  0
TABLE
  2
LAYER
  5
2
330
0
100
AcDbSymbolTable
 70
     2
  0
LAYER
  5
10
330
2
100
AcDbSymbolTableRecord
100
AcDbLayerTableRecord
  2
0
 70
     0
 62
     7
  6
Continuous
370
    -3
390
F
347
46
  0
LAYER
  5
6E
330
2
100
AcDbSymbolTableRecord
100
AcDbLayerTableRecord
  2
Predeterminada
 70
     0
 62
    18
420
        0
  6
Continuous
370
    -3
390
F
347
46
  0
ENDTAB
  0
TABLE
  2
STYLE
  5
3
330
0
100
AcDbSymbolTable
 70
     1
  0
STYLE
  5
11
330
3
100
AcDbSymbolTableRecord
100
AcDbTextStyleTableRecord
  2
Standard
 70
     0
 40
0.0
 41
1.0
 50
0.0
 71
     0
 42
0.2
  3
txt
  4

  0
ENDTAB
  0
TABLE
  2
VIEW
  5
6
330
0
100
AcDbSymbolTable
 70
     0
  0
ENDTAB
  0
TABLE
  2
UCS
  5
7
330
0
100
AcDbSymbolTable
 70
     0
  0
ENDTAB
  0
TABLE
  2
APPID
  5
9
330
0
100
AcDbSymbolTable
 70
     2
  0
APPID
  5
12
330
9
100
AcDbSymbolTableRecord
100
AcDbRegAppTableRecord
  2
ACAD
 70
     0
  0
APPID
  5
3CD
330
9
100
AcDbSymbolTableRecord
100
AcDbRegAppTableRecord
  2
ACAD_MLEADERVER
 70
     0
  0
ENDTAB
  0
TABLE
  2
DIMSTYLE
  5
A
330
0
100
AcDbSymbolTable
 70
     1
100
AcDbDimStyleTable
  0
DIMSTYLE
105
27
330
A
100
AcDbSymbolTableRecord
100
AcDbDimStyleTableRecord
  2
STANDARD_ACAD
 70
     0
178
     0
340
11
  0
ENDTAB
  0
TABLE
  2
BLOCK_RECORD
  5
1
330
0
100
AcDbSymbolTable
 70
     1
  0
BLOCK_RECORD
  5
1F
330
1
100
AcDbSymbolTableRecord
100
AcDbBlockTableRecord
  2
*Model_Space
340
22
 70
     0
280
     1
281
     0
  0
BLOCK_RECORD
  5
1B
330
1
100
AcDbSymbolTableRecord
100
AcDbBlockTableRecord
  2
*Paper_Space
340
1E
 70
     0
280
     1
281
     0
  0
BLOCK_RECORD
  5
23
330
1
100
AcDbSymbolTableRecord
100
AcDbBlockTableRecord
  2
*Paper_Space0
340
26
 70
     0
280
     1
281
     0
  0
ENDTAB
  0
ENDSEC
  0
SECTION
  2
BLOCKS
  0
BLOCK
  5
20
330
1F
100
AcDbEntity
  8
0
100
AcDbBlockBegin
  2
*Model_Space
 70
     0
 10
0.0
 20
0.0
 30
0.0
  3
*Model_Space
  1

  0
ENDBLK
  5
21
330
1F
100
AcDbEntity
  8
0
100
AcDbBlockEnd
  0
BLOCK
  5
1C
330
1B
100
AcDbEntity
 67
     1
  8
0
100
AcDbBlockBegin
  2
*Paper_Space
 70
     0
 10
0.0
 20
0.0
 30
0.0
  3
*Paper_Space
  1

  0
ENDBLK
  5
1D
330
1B
100
AcDbEntity
 67
     1
  8
0
100
AcDbBlockEnd
  0
BLOCK
  5
24
330
23
100
AcDbEntity
  8
0
100
AcDbBlockBegin
  2
*Paper_Space0
 70
     0
 10
0.0
 20
0.0
 30
0.0
  3
*Paper_Space0
  1

  0
ENDBLK
  5
25
330
23
100
AcDbEntity
  8
0
100
AcDbBlockEnd
  0
ENDSEC
  0
SECTION
  2
ENTITIES
  0
SPLINE
  5
6F
330
1F
100
AcDbEntity
  8
Predeterminada
100
AcDbSpline
210
0.0
220
0.0
230
1.0
 70
    12
 71
     2
 72
     6
 73
     3
 74
     0
 42
0.000000001
 43
0.0000000001
 40
203.2192351170602
 40
203.2192351170602
 40
203.2192351170602
 40
264.8592020397993
 40
264.8592020397993
 40
264.8592020397993
 10
2596.108517308351
 20
4832.380060301337
 30
-0.0000000001700215
 41
0.9859296598763166
 10
2292.999999998326
 20
4719.115905934297
 30
-0.0000000000116942
 41
0.9235563214331
 10
1989.891482688443
 20
4832.380060301717
 30
0.0000000000704122
 41
0.9859296598770269
  0
POLYLINE
  5
70
330
1F
100
AcDbEntity
  8
Predeterminada
100
AcDb2dPolyline
 66
     1
 10
0.0
 20
0.0
 30
0.0000000000704122
  0
VERTEX
  5
71
330
70
100
AcDbEntity
  8
Predeterminada
100
AcDbVertex
100
AcDb2dVertex
 10
1989.891482688443
 20
4832.380060301719
 30
0.0000000000704122
  0
VERTEX
  5
72
330
70
100
AcDbEntity
  8
Predeterminada
100
AcDbVertex
100
AcDb2dVertex
 10
1997.019153528131
 20
4845.492460826897
 30
0.0000000000704122
  0
SEQEND
  5
73
330
70
100
AcDbEntity
  8
Predeterminada
  0
ARC
  5
74
330
1F
100
AcDbEntity
  8
Predeterminada
100
AcDbCircle
 10
1996.114676550447
 20
4848.352866636715
 30
0.0000000000650847
 40
2.999999999999868
100
AcDbArc
 50
287.5472577405948
 51
105.3972883659102
  0
POLYLINE
  5
75
330
1F
100
AcDbEntity
  8
Predeterminada
100
AcDb2dPolyline
 66
     1
 10
0.0
 20
0.0
 30
0.0000000000650847
  0
VERTEX
  5
76
330
75
100
AcDbEntity
  8
Predeterminada
100
AcDbVertex
100
AcDb2dVertex
 10
1995.318145081943
 20
4851.245190550055
 30
0.0000000000650847
  0
VERTEX
  5
77
330
75
100
AcDbEntity
  8
Predeterminada
100
AcDbVertex
100
AcDb2dVertex
 10
1987.030723283474
 20
4855.95362018322
 30
0.0000000000650847
  0
SEQEND
  5
78
330
75
100
AcDbEntity
  8
Predeterminada
  0
ARC
  5
79
330
1F
100
AcDbEntity
  8
Predeterminada
100
AcDbCircle
 10
1984.123964759363
 20
4855.211491567341
 30
0.0000000000665068
 40
2.999999999999869
100
AcDbArc
 50
14.32230367828878
 51
196.4722730568075
  0
POLYLINE
  5
7A
330
1F
100
AcDbEntity
  8
Predeterminada
100
AcDb2dPolyline
 66
     1
 10
0.0
 20
0.0
 30
0.0000000000665068
  0
VERTEX
  5
7B
330
7A
100
AcDbEntity
  8
Predeterminada
100
AcDbVertex
100
AcDb2dVertex
 10
1981.247093563974
 20
4854.360837627634
 30
0.0000000000665068
  0
VERTEX
  5
7C
330
7A
100
AcDbEntity
  8
Predeterminada
100
AcDbVertex
100
AcDb2dVertex
 10
1974.134491399949
 20
4841.276158151187
 30
0.0000000000665068
  0
SEQEND
  5
7D
330
7A
100
AcDbEntity
  8
Predeterminada
  0
SPLINE
  5
7E
330
1F
100
AcDbEntity
  8
Predeterminada
100
AcDbSpline
210
0.0
220
0.0
230
1.0
 70
    12
 71
     2
 72
     6
 73
     3
 74
     0
 42
0.000000001
 43
0.0000000001
 40
270.6790454795276
 40
270.6790454795276
 40
270.6790454795276
 40
277.6927315256598
 40
277.6927315256598
 40
277.6927315256598
 10
1974.134491399949
 20
4841.276158151187
 30
0.0000000000746016
 41
0.8822570051914551
 10
1940.941156214857
 20
4868.944469514219
 30
0.000000000081587
 41
0.7106559731375471
 10
1963.5091105988
 20
4905.795797703524
 30
0.0000000000585487
 41
1.0
  0
SPLINE
  5
7F
330
1F
100
AcDbEntity
  8
Predeterminada
100
AcDbSpline
210
0.0
220
0.0
230
1.0
 70
    28
 71
     2
 72
     6
 73
     3
 74
     0
 42
0.000000001
 43
0.0000000001
 40
277.6927315256598
 40
277.6927315256598
 40
277.6927315256598
 40
312.4509685638499
 40
312.4509685638499
 40
312.4509685638499
 10
1963.5091105988
 20
4905.795797703524
 30
0.0000000000585487
 41
1.0
 10
2054.272155995576
 20
5054.003238948483
 30
-0.0000000000255795
 41
1.0
 10
2145.035201392351
 20
5202.210680193442
 30
-0.0000000001108447
 41
1.0
  0
SPLINE
  5
80
330
1F
100
AcDbEntity
  8
Predeterminada
100
AcDbSpline
210
0.0
220
0.0
230
1.0
 70
    12
 71
     2
 72
     6
 73
     3
 74
     0
 42
0.000000001
 43
0.0000000001
 40
312.4509685638499
 40
312.4509685638499
 40
312.4509685638499
 40
318.8116217479604
 40
318.8116217479604
 40
318.8116217479604
 10
2145.035201392351
 20
5202.210680193442
 30
-0.0000000001108447
 41
1.0
 10
2172.999999999971
 20
5247.874542930168
 30
-0.0000000001581642
 41
0.4887771108405848
 10
2197.340319725464
 20
5200.180023781068
 30
-0.0000000001341505
 41
1.0
  0
SPLINE
  5
81
330
1F
100
AcDbEntity
  8
Predeterminada
100
AcDbSpline
210
0.0
220
0.0
230
1.0
 70
    28
 71
     2
 72
     6
 73
     3
 74
     0
 42
0.000000001
 43
0.0000000001
 40
318.8116217479604
 40
318.8116217479604
 40
318.8116217479604
 40
338.4263376891914
 40
338.4263376891914
 40
338.4263376891914
 10
2197.340319725464
 20
5200.180023781068
 30
-0.0000000001341505
 41
1.0
 10
2241.92112659757
 20
5112.82455059815
 30
-0.0000000001227818
 41
1.0
 10
2286.501933469677
 20
5025.469077415232
 30
-0.0000000001108447
 41
1.0
  0
SPLINE
  5
82
330
1F
100
AcDbEntity
  8
Predeterminada
100
AcDbSpline
210
0.0
220
0.0
230
1.0
 70
    12
 71
     2
 72
     6
 73
     3
 74
     0
 42
0.000000001
 43
0.0000000001
 40
338.4263376891914
 40
338.4263376891914
 40
338.4263376891914
 40
340.9085829429612
 40
340.9085829429612
 40
340.9085829429612
 10
2286.501933469677
 20
5025.469077415232
 30
-0.0000000001108447
 41
1.0
 10
2292.999999999979
 20
5012.736206111287
 30
-0.0000000001124917
 41
0.81355218561814
 10
2307.150828213409
 20
5014.762271546819
 30
-0.0000000001153921
 41
1.0
  0
POLYLINE
  5
83
330
1F
100
AcDbEntity
  8
Predeterminada
100
AcDb2dPolyline
 66
     1
 10
0.0
 20
0.0
 30
-0.0000000001153921
  0
VERTEX
  5
84
330
83
100
AcDbEntity
  8
Predeterminada
100
AcDbVertex
100
AcDb2dVertex
 10
2307.150828213409
 20
5014.762271546819
 30
-0.0000000001153921
  0
VERTEX
  5
85
330
83
100
AcDbEntity
  8
Predeterminada
100
AcDbVertex
100
AcDb2dVertex
 10
2357.402536875991
 20
5021.957133109834
 30
-0.0000000001153921
  0
VERTEX
  5
86
330
83
100
AcDbEntity
  8
Predeterminada
100
AcDbVertex
100
AcDb2dVertex
 10
2359.344025850628
 20
5007.784369881497
 30
-0.0000000001153921
  0
SEQEND
  5
87
330
83
100
AcDbEntity
  8
Predeterminada
  0
ARC
  5
88
330
1F
100
AcDbEntity
  8
Predeterminada
100
AcDbCircle
 10
2361.733623381445
 20
5005.970582782438
 30
-0.0000000001330136
 40
2.999999999999869
100
AcDbArc
 50
142.8002456591448
 51
323.4958162452534
  0
POLYLINE
  5
89
330
1F
100
AcDbEntity
  8
Predeterminada
100
AcDb2dPolyline
 66
     1
 10
0.0
 20
0.0
 30
-0.0000000001330136
  0
VERTEX
  5
8A
330
89
100
AcDbEntity
  8
Predeterminada
100
AcDbVertex
100
AcDb2dVertex
 10
2364.145063654461
 20
5004.185938333345
 30
-0.0000000001330136
  0
VERTEX
  5
8B
330
89
100
AcDbEntity
  8
Predeterminada
100
AcDbVertex
100
AcDb2dVertex
 10
2373.546058885463
 20
5005.531939515007
 30
-0.0000000001330136
  0
SEQEND
  5
8C
330
89
100
AcDbEntity
  8
Predeterminada
  0
ARC
  5
8D
330
1F
100
AcDbEntity
  8
Predeterminada
100
AcDbCircle
 10
2375.345307805917
 20
5007.932502641076
 30
-0.0000000001409717
 40
2.999999999999869
100
AcDbArc
 50
233.1480309540021
 51
52.45246037118162
  0
POLYLINE
  5
8E
330
1F
100
AcDbEntity
  8
Predeterminada
100
AcDb2dPolyline
 66
     1
 10
0.0
 20
0.0
 30
-0.0000000001409717
  0
VERTEX
  5
8F
330
8E
100
AcDbEntity
  8
Predeterminada
100
AcDbVertex
100
AcDb2dVertex
 10
2377.173566254728
 20
5010.311046532694
 30
-0.0000000001409717
  0
VERTEX
  5
90
330
8E
100
AcDbEntity
  8
Predeterminada
100
AcDbVertex
100
AcDb2dVertex
 10
2375.228571525382
 20
5024.509401578576
 30
-0.0000000001409717
  0
VERTEX
  5
91
330
8E
100
AcDbEntity
  8
Predeterminada
100
AcDbVertex
100
AcDb2dVertex
 10
2443.480006464521
 20
5034.281400161977
 30
-0.0000000001409717
  0
VERTEX
  5
92
330
8E
100
AcDbEntity
  8
Predeterminada
100
AcDbVertex
100
AcDb2dVertex
 10
2445.421495439144
 20
5020.108636933646
 30
-0.0000000001409717
  0
SEQEND
  5
93
330
8E
100
AcDbEntity
  8
Predeterminada
  0
ARC
  5
94
330
1F
100
AcDbEntity
  8
Predeterminada
100
AcDbCircle
 10
2447.811092969971
 20
5018.2948498346
 30
-0.0000000001716671
 40
2.999999999999869
100
AcDbArc
 50
142.8002456594349
 51
323.4958162452394
  0
POLYLINE
  5
95
330
1F
100
AcDbEntity
  8
Predeterminada
100
AcDb2dPolyline
 66
     1
 10
0.0
 20
0.0
 30
-0.0000000001716671
  0
VERTEX
  5
96
330
95
100
AcDbEntity
  8
Predeterminada
100
AcDbVertex
100
AcDb2dVertex
 10
2450.222533242986
 20
5016.510205385506
 30
-0.0000000001716671
  0
VERTEX
  5
97
330
95
100
AcDbEntity
  8
Predeterminada
100
AcDbVertex
100
AcDb2dVertex
 10
2459.62352847399
 20
5017.856206567169
 30
-0.0000000001716671
  0
SEQEND
  5
98
330
95
100
AcDbEntity
  8
Predeterminada
  0
ARC
  5
99
330
1F
100
AcDbEntity
  8
Predeterminada
100
AcDbCircle
 10
2461.422777394445
 20
5020.256769693236
 30
-0.0000000001801936
 40
2.999999999999869
100
AcDbArc
 50
233.1480309539952
 51
52.45246037120597
  0
POLYLINE
  5
9A
330
1F
100
AcDbEntity
  8
Predeterminada
100
AcDb2dPolyline
 66
     1
 10
0.0
 20
0.0
 30
-0.0000000001801936
  0
VERTEX
  5
9B
330
9A
100
AcDbEntity
  8
Predeterminada
100
AcDbVertex
100
AcDb2dVertex
 10
2463.251035843255
 20
5022.635313584855
 30
-0.0000000001801936
  0
VERTEX
  5
9C
330
9A
100
AcDbEntity
  8
Predeterminada
100
AcDbVertex
100
AcDb2dVertex
 10
2461.306041113912
 20
5036.833668630719
 30
-0.0000000001801936
  0
VERTEX
  5
9D
330
9A
100
AcDbEntity
  8
Predeterminada
100
AcDbVertex
100
AcDb2dVertex
 10
2503.16578644425
 20
5042.826998623479
 30
-0.0000000001801936
  0
SEQEND
  5
9E
330
9A
100
AcDbEntity
  8
Predeterminada
  0
SPLINE
  5
9F
330
1F
100
AcDbEntity
  8
Predeterminada
100
AcDbSpline
210
0.0
220
0.0
230
1.0
 70
    12
 71
     2
 72
     6
 73
     3
 74
     0
 42
0.000000001
 43
0.0000000001
 40
368.5049060671709
 40
368.5049060671709
 40
368.5049060671709
 40
374.3224812494914
 40
374.3224812494914
 40
374.3224812494914
 10
2503.16578644425
 20
5042.826998623479
 30
-0.0000000002017941
 41
1.0
 10
2535.717990769496
 20
5047.487707879432
 30
-0.000000000267379
 41
0.8354981964886179
 10
2552.891858549376
 20
5019.444411306451
 30
-0.0000000002177103
 41
1.0
  0
SPLINE
  5
A0
330
1F
100
AcDbEntity
  8
Predeterminada
100
AcDbSpline
210
0.0
220
0.0
230
1.0
 70
    28
 71
     2
 72
     6
 73
     3
 74
     0
 42
0.000000001
 43
0.0000000001
 40
374.3224812494914
 40
374.3224812494914
 40
374.3224812494914
 40
387.6491584306863
 40
387.6491584306863
 40
387.6491584306863
 10
2552.891858549376
 20
5019.444411306451
 30
-0.0000000002177103
 41
1.0
 10
2587.691373975265
 20
4962.620104505419
 30
-0.0000000002114575
 41
1.0
 10
2622.490889401155
 20
4905.795797704387
 30
-0.0000000002063416
 41
1.0
  0
SPLINE
  5
A1
330
1F
100
AcDbEntity
  8
Predeterminada
100
AcDbSpline
210
0.0
220
0.0
230
1.0
 70
    12
 71
     2
 72
     6
 73
     3
 74
     0
 42
0.000000001
 43
0.0000000001
 40
387.6491584306863
 40
387.6491584306863
 40
387.6491584306863
 40
394.6628444771664
 40
394.6628444771664
 40
394.6628444771664
 10
2622.490889401155
 20
4905.795797704387
 30
-0.0000000002063416
 41
1.0
 10
2645.058843786715
 20
4868.944469512538
 30
-0.0000000002043674
 41
0.7106559731234284
 10
2611.865508597431
 20
4841.276158149828
 30
-0.0000000001804027
 41
0.8822570052090222
  0
POLYLINE
  5
A2
330
1F
100
AcDbEntity
  8
Predeterminada
100
AcDb2dPolyline
 66
     1
 10
0.0
 20
0.0
 30
-0.0000000001807621
  0
VERTEX
  5
A3
330
A2
100
AcDbEntity
  8
Predeterminada
100
AcDbVertex
100
AcDb2dVertex
 10
2611.865508597431
 20
4841.276158149829
 30
-0.0000000001807621
  0
VERTEX
  5
A4
330
A2
100
AcDbEntity
  8
Predeterminada
100
AcDbVertex
100
AcDb2dVertex
 10
2604.752906433271
 20
4854.360837626699
 30
-0.0000000001807621
  0
SEQEND
  5
A5
330
A2
100
AcDbEntity
  8
Predeterminada
  0
ARC
  5
A6
330
1F
100
AcDbEntity
  8
Predeterminada
100
AcDbCircle
 10
2601.876035237886
 20
4855.211491566422
 30
-0.0000000001810473
 40
2.999999999999869
100
AcDbArc
 50
343.527726942868
 51
165.6776963256746
  0
POLYLINE
  5
A7
330
1F
100
AcDbEntity
  8
Predeterminada
100
AcDb2dPolyline
 66
     1
 10
0.0
 20
0.0
 30
-0.0000000001810473
  0
VERTEX
  5
A8
330
A7
100
AcDbEntity
  8
Predeterminada
100
AcDbVertex
100
AcDb2dVertex
 10
2598.969276713724
 20
4855.9536201821
 30
-0.0000000001810473
  0
VERTEX
  5
A9
330
A7
100
AcDbEntity
  8
Predeterminada
100
AcDbVertex
100
AcDb2dVertex
 10
2590.611999344699
 20
4851.205502688596
 30
-0.0000000001810473
  0
SEQEND
  5
AA
330
A7
100
AcDbEntity
  8
Predeterminada
  0
ARC
  5
AB
330
1F
100
AcDbEntity
  8
Predeterminada
100
AcDbCircle
 10
2589.86987072902
 20
4848.298744164433
 30
-0.0000000001733724
 40
2.999999999999869
100
AcDbArc
 50
75.677696325645
 51
253.5277269466273
  0
POLYLINE
  5
AC
330
1F
100
AcDbEntity
  8
Predeterminada
100
AcDb2dPolyline
 66
     1
 10
0.0
 20
0.0
 30
-0.0000000001733724
  0
VERTEX
  5
AD
330
AC
100
AcDbEntity
  8
Predeterminada
100
AcDbVertex
100
AcDb2dVertex
 10
2589.019216789486
 20
4845.421872968993
 30
-0.0000000001733724
  0
VERTEX
  5
AE
330
AC
100
AcDbEntity
  8
Predeterminada
100
AcDbVertex
100
AcDb2dVertex
 10
2596.108517308351
 20
4832.380060301337
 30
-0.0000000001733724
  0
SEQEND
  5
AF
330
AC
100
AcDbEntity
  8
Predeterminada
  0
ARC
  5
B0
330
1F
100
AcDbEntity
  8
Predeterminada
100
AcDbCircle
 10
2166.121320343463
 20
5185.944998208698
 30
-0.0000000000851407
 40
2.999999999999869
100
AcDbArc
 50
44.99999999812078
 51
224.9999999980778
  0
POLYLINE
  5
B1
330
1F
100
AcDbEntity
  8
Predeterminada
100
AcDb2dPolyline
 66
     1
 10
0.0
 20
0.0
 30
-0.0000000000849098
  0
VERTEX
  5
B2
330
B1
100
AcDbEntity
  8
Predeterminada
100
AcDbVertex
100
AcDb2dVertex
 10
2163.999999999973
 20
5183.82367786507
 30
-0.0000000000849098
  0
VERTEX
  5
B3
330
B1
100
AcDbEntity
  8
Predeterminada
100
AcDbVertex
100
AcDb2dVertex
 10
2164.000000000045
 20
5172.535116880699
 30
-0.0000000000849098
  0
SEQEND
  5
B4
330
B1
100
AcDbEntity
  8
Predeterminada
  0
ARC
  5
B5
330
1F
100
AcDbEntity
  8
Predeterminada
100
AcDbCircle
 10
2166.121320343535
 20
5170.41379653707
 30
-0.0000000000840644
 40
2.999999999999869
100
AcDbArc
 50
134.9999999981208
 51
315.0000000037462
  0
POLYLINE
  5
B6
330
1F
100
AcDbEntity
  8
Predeterminada
100
AcDb2dPolyline
 66
     1
 10
0.0
 20
0.0
 30
-0.0000000000840644
  0
VERTEX
  5
B7
330
B6
100
AcDbEntity
  8
Predeterminada
100
AcDbVertex
100
AcDb2dVertex
 10
2168.242640687233
 20
5168.29247619365
 30
-0.0000000000840644
  0
VERTEX
  5
B8
330
B6
100
AcDbEntity
  8
Predeterminada
100
AcDbVertex
100
AcDb2dVertex
 10
2177.757359312993
 20
5168.292476193648
 30
-0.0000000000840644
  0
SEQEND
  5
B9
330
B6
100
AcDbEntity
  8
Predeterminada
  0
ARC
  5
BA
330
1F
100
AcDbEntity
  8
Predeterminada
100
AcDbCircle
 10
2179.878679656483
 20
5170.413796537278
 30
-0.0000000001006925
 40
2.999999999999869
100
AcDbArc
 50
225.0000000018854
 51
45.00000000189764
  0
POLYLINE
  5
BB
330
1F
100
AcDbEntity
  8
Predeterminada
100
AcDb2dPolyline
 66
     1
 10
0.0
 20
0.0
 30
-0.0000000001006925
  0
VERTEX
  5
BC
330
BB
100
AcDbEntity
  8
Predeterminada
100
AcDbVertex
100
AcDb2dVertex
 10
2181.999999999972
 20
5172.535116880908
 30
-0.0000000001006925
  0
VERTEX
  5
BD
330
BB
100
AcDbEntity
  8
Predeterminada
100
AcDbVertex
100
AcDb2dVertex
 10
2181.999999999973
 20
5183.823677865211
 30
-0.0000000001006925
  0
SEQEND
  5
BE
330
BB
100
AcDbEntity
  8
Predeterminada
  0
ARC
  5
BF
330
1F
100
AcDbEntity
  8
Predeterminada
100
AcDbCircle
 10
2179.878679656482
 20
5185.944998208838
 30
-0.0000000001053056
 40
2.999999999999869
100
AcDbArc
 50
314.9999999981454
 51
134.9999999981208
  0
POLYLINE
  5
C0
330
1F
100
AcDbEntity
  8
Predeterminada
100
AcDb2dPolyline
 66
     1
 10
0.0
 20
0.0
 30
-0.0000000001053056
  0
VERTEX
  5
C1
330
C0
100
AcDbEntity
  8
Predeterminada
100
AcDbVertex
100
AcDb2dVertex
 10
2177.757359312992
 20
5188.066318552466
 30
-0.0000000001053056
  0
VERTEX
  5
C2
330
C0
100
AcDbEntity
  8
Predeterminada
100
AcDbVertex
100
AcDb2dVertex
 10
2168.242640687092
 20
5188.066318552188
 30
-0.0000000001053056
  0
SEQEND
  5
C3
330
C0
100
AcDbEntity
  8
Predeterminada
  0
ARC
  5
C4
330
1F
100
AcDbEntity
  8
Predeterminada
100
AcDbCircle
 10
2277.121320343538
 20
4802.210682722744
 30
-0.0000000000312639
 40
2.999999999999869
100
AcDbArc
 50
134.9999999981208
 51
315.0000000037462
  0
POLYLINE
  5
C5
330
1F
100
AcDbEntity
  8
Predeterminada
100
AcDb2dPolyline
 66
     1
 10
0.0
 20
0.0
 30
-0.0000000000312639
  0
VERTEX
  5
C6
330
C5
100
AcDbEntity
  8
Predeterminada
100
AcDbVertex
100
AcDb2dVertex
 10
2279.242640687236
 20
4800.089362379323
 30
-0.0000000000312639
  0
VERTEX
  5
C7
330
C5
100
AcDbEntity
  8
Predeterminada
100
AcDbVertex
100
AcDb2dVertex
 10
2292.999999999978
 20
4800.089362379323
 30
-0.0000000000312639
  0
VERTEX
  5
C8
330
C5
100
AcDbEntity
  8
Predeterminada
100
AcDbVertex
100
AcDb2dVertex
 10
2306.757359313024
 20
4800.089362379296
 30
-0.0000000000312639
  0
SEQEND
  5
C9
330
C5
100
AcDbEntity
  8
Predeterminada
  0
ARC
  5
CA
330
1F
100
AcDbEntity
  8
Predeterminada
100
AcDbCircle
 10
2308.878679656488
 20
4802.210682722951
 30
-0.0000000000454747
 40
2.999999999999869
100
AcDbArc
 50
225.000000002567
 51
45.00000000188537
  0
POLYLINE
  5
CB
330
1F
100
AcDbEntity
  8
Predeterminada
100
AcDb2dPolyline
 66
     1
 10
0.0
 20
0.0
 30
-0.0000000000454747
  0
VERTEX
  5
CC
330
CB
100
AcDbEntity
  8
Predeterminada
100
AcDbVertex
100
AcDb2dVertex
 10
2310.999999999978
 20
4804.33200306658
 30
-0.0000000000454747
  0
VERTEX
  5
CD
330
CB
100
AcDbEntity
  8
Predeterminada
100
AcDbVertex
100
AcDb2dVertex
 10
2310.999999999977
 20
4818.687830557535
 30
-0.0000000000454747
  0
SEQEND
  5
CE
330
CB
100
AcDbEntity
  8
Predeterminada
  0
SPLINE
  5
CF
330
1F
100
AcDbEntity
  8
Predeterminada
100
AcDbSpline
210
0.0
220
0.0
230
1.0
 70
     8
 71
     3
 72
     8
 73
     4
 74
     0
 42
0.000000001
 43
0.0000000001
 40
7.956965796005106
 40
7.956965796005106
 40
7.956965796005106
 40
7.956965796005106
 40
33.31265436145009
 40
33.31265436145009
 40
33.31265436145009
 40
33.31265436145009
 10
2310.999999999977
 20
4818.687830557535
 30
-0.0000000000466116
 10
2395.197271893488
 20
4820.52485662538
 30
-0.000000000082423
 10
2478.509213673387
 20
4835.238410614239
 30
-0.0000000001244871
 10
2558.192481972037
 20
4862.216359697311
 30
-0.0000000001659828
  0
SPLINE
  5
D0
330
1F
100
AcDbEntity
  8
Predeterminada
100
AcDbSpline
210
0.0
220
0.0
230
1.0
 70
     8
 71
     3
 72
    10
 73
     6
 74
     0
 42
0.000000001
 43
0.0000000001
 40
33.31265436145009
 40
33.31265436145009
 40
33.31265436145009
 40
33.31265436145009
 40
36.16958614583248
 40
36.16958614583248
 40
39.01657399641721
 40
39.01657399641721
 40
39.01657399641721
 40
39.01657399641721
 10
2558.192481972037
 20
4862.216359697311
 30
-0.0000000001659828
 10
2567.083075299634
 20
4865.226408996012
 30
-0.0000000001710987
 10
2573.97791571337
 20
4872.256915839611
 30
-0.0000000001750777
 10
2580.088881613976
 20
4889.889724516985
 30
-0.0000000001841727
 10
2579.057317671325
 20
4899.657067655645
 30
-0.0000000001864464
 10
2574.188707990508
 20
4907.607045315145
 30
-0.0000000001875833
  0
SPLINE
  5
D1
330
1F
100
AcDbEntity
  8
Predeterminada
100
AcDbSpline
210
0.0
220
0.0
230
1.0
 70
    24
 71
     3
 72
     8
 73
     4
 74
     0
 42
0.000000001
 43
0.0000000001
 40
39.01657399641721
 40
39.01657399641721
 40
39.01657399641721
 40
39.01657399641721
 40
48.26244102687991
 40
48.26244102687991
 40
48.26244102687991
 40
48.26244102687991
 10
2574.188707990508
 20
4907.607045315145
 30
-0.0000000001875833
 10
2558.093088255864
 20
4933.889665137882
 30
-0.0000000001887202
 10
2541.997468521219
 20
4960.172284960619
 30
-0.0000000001926992
 10
2525.901848786574
 20
4986.454904783358
 30
-0.0000000001938361
  0
SPLINE
  5
D2
330
1F
100
AcDbEntity
  8
Predeterminada
100
AcDbSpline
210
0.0
220
0.0
230
1.0
 70
     8
 71
     3
 72
    10
 73
     6
 74
     0
 42
0.000000001
 43
0.0000000001
 40
48.26244102687991
 40
48.26244102687991
 40
48.26244102687991
 40
48.26244102687991
 40
50.02121069782896
 40
50.02121069782896
 40
51.78228688725267
 40
51.78228688725267
 40
51.78228688725267
 40
51.78228688725267
 10
2525.901848786574
 20
4986.454904783358
 30
-0.0000000001938361
 10
2522.862633842034
 20
4991.417654417348
 30
-0.0000000001938361
 10
2518.474558219263
 20
4995.42217796136
 30
-0.0000000001944045
 10
2507.963779963472
 20
5000.466545251521
 30
-0.0000000001915623
 10
2502.089653847348
 20
5001.380214628615
 30
-0.0000000001892886
 10
2496.313503811219
 20
5000.55320593611
 30
-0.0000000001864464
  0
SPLINE
  5
D3
330
1F
100
AcDbEntity
  8
Predeterminada
100
AcDbSpline
210
0.0
220
0.0
230
1.0
 70
    24
 71
     3
 72
     8
 73
     4
 74
     0
 42
0.000000001
 43
0.0000000001
 40
51.78228688725267
 40
51.78228688725267
 40
51.78228688725267
 40
51.78228688725267
 40
72.46652072563552
 40
72.46652072563552
 40
72.46652072563552
 40
72.46652072563552
 10
2496.313503811219
 20
5000.55320593611
 30
-0.0000000001864464
 10
2428.062068872079
 20
4990.781207352694
 30
-0.0000000001563194
 10
2359.810633932942
 20
4981.009208769278
 30
-0.0000000001261924
 10
2291.559198993806
 20
4971.237210185863
 30
-0.0000000000943601
  0
SPLINE
  5
D4
330
1F
100
AcDbEntity
  8
Predeterminada
100
AcDbSpline
210
0.0
220
0.0
230
1.0
 70
     8
 71
     3
 72
    10
 73
     6
 74
     0
 42
0.000000001
 43
0.0000000001
 40
72.46652072563552
 40
72.46652072563552
 40
72.46652072563552
 40
72.46652072563552
 40
74.3530923264774
 40
74.3530923264774
 40
76.23649686607229
 40
76.23649686607229
 40
76.23649686607229
 40
76.23649686607229
 10
2291.559198993806
 20
4971.237210185863
 30
-0.0000000000943601
 10
2285.376417104748
 20
4970.351981385687
 30
-0.0000000000926548
 10
2279.093998381829
 20
4971.462501740001
 30
-0.0000000000898126
 10
2268.073657452464
 20
4977.309598849019
 30
-0.0000000000875389
 10
2263.6303220001
 20
4981.879654109535
 30
-0.0000000000875389
 10
2260.800828143622
 20
4987.424008104967
 30
-0.0000000000881073
  0
SPLINE
  5
D5
330
1F
100
AcDbEntity
  8
Predeterminada
100
AcDbSpline
210
0.0
220
0.0
230
1.0
 70
    24
 71
     3
 72
     8
 73
     4
 74
     0
 42
0.000000001
 43
0.0000000001
 40
76.23649686607229
 40
76.23649686607229
 40
76.23649686607229
 40
76.23649686607229
 40
92.69310737829477
 40
92.69310737829477
 40
92.69310737829477
 40
92.69310737829477
 10
2260.800828143622
 20
4987.424008104967
 30
-0.0000000000881073
 10
2235.865503148761
 20
5036.284431832724
 30
-0.0000000000937916
 10
2210.930178153899
 20
5085.144855560483
 30
-0.0000000001000444
 10
2185.994853159038
 20
5134.005279288242
 30
-0.0000000001062972
  0
SPLINE
  5
D6
330
1F
100
AcDbEntity
  8
Predeterminada
100
AcDbSpline
210
0.0
220
0.0
230
1.0
 70
     8
 71
     3
 72
    10
 73
     6
 74
     0
 42
0.000000001
 43
0.0000000001
 40
92.69310737829477
 40
92.69310737829477
 40
92.69310737829477
 40
92.69310737829477
 40
94.90806987001513
 40
94.90806987001513
 40
97.12486806178364
 40
97.12486806178364
 40
97.12486806178364
 40
97.12486806178364
 10
2185.994853159038
 20
5134.005279288242
 30
-0.0000000001062972
 10
2182.719958927942
 20
5140.422389144558
 30
-0.0000000001074341
 10
2176.307033900025
 20
5144.680320227667
 30
-0.0000000001062972
 10
2161.818349205605
 20
5145.275172375879
 30
-0.0000000001006129
 10
2155.078839063683
 20
5141.549355971142
 30
-0.0000000000966338
 10
2151.311476562306
 20
5135.39761046581
 30
-0.0000000000926548
  0
SPLINE
  5
D7
330
1F
100
AcDbEntity
  8
Predeterminada
100
AcDbSpline
210
0.0
220
0.0
230
1.0
 70
    24
 71
     2
 72
     6
 73
     3
 74
     0
 42
0.000000001
 43
0.0000000001
 40
97.12486806178364
 40
97.12486806178364
 40
97.12486806178364
 40
123.8360722768561
 40
123.8360722768561
 40
123.8360722768561
 10
2151.311476562306
 20
5135.39761046581
 30
-0.0000000000926548
 10
2081.561384285882
 20
5021.502327890486
 30
-0.0000000000272848
 10
2011.811292009459
 20
4907.607045315161
 30
0.0000000000380851
  0
SPLINE
  5
D8
330
1F
100
AcDbEntity
  8
Predeterminada
100
AcDbSpline
210
0.0
220
0.0
230
1.0
 70
     8
 71
     3
 72
    10
 73
     6
 74
     0
 42
0.000000001
 43
0.0000000001
 40
123.8360722768561
 40
123.8360722768561
 40
123.8360722768561
 40
123.8360722768561
 40
126.6830601274408
 40
126.6830601274408
 40
129.5399919118233
 40
129.5399919118233
 40
129.5399919118233
 40
129.5399919118233
 10
2011.811292009459
 20
4907.607045315161
 30
0.0000000000380851
 10
2006.942682328642
 20
4899.657067655661
 30
0.0000000000426326
 10
2005.911118385993
 20
4889.889724517
 30
0.0000000000466116
 10
2012.022084286601
 20
4872.256915839627
 30
0.0000000000505906
 10
2018.916924700337
 20
4865.226408996028
 30
0.0000000000488853
 10
2027.807518027934
 20
4862.216359697327
 30
0.00000000004718
  0
SPLINE
  5
D9
330
1F
100
AcDbEntity
  8
Predeterminada
100
AcDbSpline
210
0.0
220
0.0
230
1.0
 70
     8
 71
     3
 72
     8
 73
     4
 74
     0
 42
0.000000001
 43
0.0000000001
 40
129.5399919118233
 40
129.5399919118233
 40
129.5399919118233
 40
129.5399919118233
 40
154.8956804772672
 40
154.8956804772672
 40
154.8956804772672
 40
154.8956804772672
 10
2027.807518027934
 20
4862.216359697327
 30
0.00000000004718
 10
2107.490786326579
 20
4835.238410614254
 30
0.0000000000255795
 10
2190.802728106471
 20
4820.524856625389
 30
0.0000000000011369
 10
2274.999999999977
 20
4818.687830557536
 30
-0.0000000000312639
  0
POLYLINE
  5
DA
330
1F
100
AcDbEntity
  8
Predeterminada
100
AcDb2dPolyline
 66
     1
 10
0.0
 20
0.0
 30
-0.0000000000312639
  0
VERTEX
  5
DB
330
DA
100
AcDbEntity
  8
Predeterminada
100
AcDbVertex
100
AcDb2dVertex
 10
2274.999999999977
 20
4818.687830557536
 30
-0.0000000000312639
  0
VERTEX
  5
DC
330
DA
100
AcDbEntity
  8
Predeterminada
100
AcDbVertex
100
AcDb2dVertex
 10
2275.000000000048
 20
4804.332003066374
 30
-0.0000000000312639
  0
SEQEND
  5
DD
330
DA
100
AcDbEntity
  8
Predeterminada
  0
SPLINE
  5
DE
330
1F
100
AcDbEntity
  8
Predeterminada
100
AcDbSpline
210
0.0
220
0.0
230
1.0
 70
    24
 71
     2
 72
     6
 73
     3
 74
     0
 42
0.000000001
 43
0.0000000001
 40
19.05128903402674
 40
19.05128903402674
 40
19.05128903402674
 40
19.80576539304236
 40
19.80576539304236
 40
19.80576539304236
 10
2470.976554602924
 20
4761.497561865894
 30
-0.0023177586203005
 10
2407.186157013785
 20
4761.497788168288
 30
-0.0023177657550644
 10
2343.395759424647
 20
4761.498014470681
 30
-0.0023177728898283
  0
SPLINE
  5
DF
330
1F
100
AcDbEntity
  8
Predeterminada
100
AcDbSpline
210
3.216077275460723E-11
220
2.533097317254810E-5
230
0.999999999679171
 70
    12
 71
     2
 72
     6
 73
     3
 74
     0
 42
0.000000001
 43
0.0000000001
 40
19.80576539304236
 40
19.80576539304236
 40
19.80576539304236
 40
20.10700084559492
 40
20.10700084559492
 40
20.10700084559492
 10
2343.395759424647
 20
4761.498014470681
 30
-0.0023177728898283
 41
1.0
 10
2341.87808829056
 20
4761.498019854763
 30
-0.0023177729774028
 41
0.9886785774318092
 10
2340.428755290119
 20
4761.047731586015
 30
-0.0023063666907319
 41
1.0
  0
SPLINE
  5
E0
330
1F
100
AcDbEntity
  8
Predeterminada
100
AcDbSpline
210
0.0
220
0.0
230
1.0
 70
    24
 71
     2
 72
     6
 73
     3
 74
     0
 42
0.000000001
 43
0.0000000001
 40
20.10700084559492
 40
20.10700084559492
 40
20.10700084559492
 40
20.93810775980188
 40
20.93810775980188
 40
20.93810775980188
 10
2340.428755290119
 20
4761.047731586015
 30
-0.0023063666907319
 10
2319.558362914444
 20
4754.56358139551
 30
-0.0021421150032808
 10
2298.68797053877
 20
4748.079431205004
 30
-0.0019778633158296
  0
SPLINE
  5
E1
330
1F
100
AcDbEntity
  8
Predeterminada
100
AcDbSpline
210
-1.991298592602921E-11
220
2.533132816690797E-5
230
0.999999999679162
 70
    12
 71
     2
 72
     6
 73
     3
 74
     0
 42
0.000000001
 43
0.0000000001
 40
20.93810775980188
 40
20.93810775980188
 40
20.93810775980188
 40
21.93810775980188
 40
21.93810775980188
 40
21.93810775980188
 10
2298.68797053877
 20
4748.079431205004
 30
-0.0019778633158296
 41
1.0
 10
2291.654965323071
 20
4745.894371083068
 30
-0.0019225129808468
 41
0.8052019167806237
 10
2291.654939197428
 20
4738.529749567466
 30
-0.0017359573363507
 41
1.0
  0
SPLINE
  5
E2
330
1F
100
AcDbEntity
  8
Predeterminada
100
AcDbSpline
210
0.0
220
0.0
230
1.0
 70
    24
 71
     2
 72
     6
 73
     3
 74
     0
 42
0.000000001
 43
0.0000000001
 40
21.93810775980188
 40
21.93810775980188
 40
21.93810775980188
 40
22.84106888533161
 40
22.84106888533161
 40
22.84106888533161
 10
2291.654939197428
 20
4738.529749567466
 30
-0.0017359573363507
 10
2291.654696090338
 20
4669.999697744493
 30
-0.0000000000000089
 10
2291.654452983248
 20
4601.469645921519
 30
0.0017359573363329
  0
SPLINE
  5
E3
330
1F
100
AcDbEntity
  8
Predeterminada
100
AcDbSpline
210
-2.117248252234150E-11
220
2.533133027070222E-5
230
0.999999999679162
 70
    12
 71
     2
 72
     6
 73
     3
 74
     0
 42
0.000000001
 43
0.0000000001
 40
22.84106888533161
 40
22.84106888533161
 40
22.84106888533161
 40
23.84106888533161
 40
23.84106888533161
 40
23.84106888533161
 10
2291.654452983248
 20
4601.469645921519
 30
0.0017359573363329
 41
1.0
 10
2291.654426856722
 20
4594.104775971166
 30
0.0019225192895054
 41
0.8051923651662902
 10
2298.687724207292
 20
4591.919818809908
 30
0.0019778673099147
 41
1.0
  0
SPLINE
  5
E4
330
1F
100
AcDbEntity
  8
Predeterminada
100
AcDbSpline
210
0.0
220
0.0
230
1.0
 70
    24
 71
     2
 72
     6
 73
     3
 74
     0
 42
0.000000001
 43
0.0000000001
 40
23.84106888533161
 40
23.84106888533161
 40
23.84106888533161
 40
24.67217251880052
 40
24.67217251880052
 40
24.67217251880052
 10
2298.687724207292
 20
4591.919818809908
 30
0.0019778673099147
 10
2319.557988213101
 20
4585.436283346547
 30
0.0021421043430792
 10
2340.428252218908
 20
4578.952747883187
 30
0.0023063413762436
  0
SPLINE
  5
E5
330
1F
100
AcDbEntity
  8
Predeterminada
100
AcDbSpline
210
1.900681102399629E-12
220
-2.533146213519991E-5
230
-0.9999999996791586
 70
    12
 71
     2
 72
     6
 73
     3
 74
     0
 42
0.000000001
 43
0.0000000001
 40
24.67217251880052
 40
24.67217251880052
 40
24.67217251880052
 40
24.9733757562047
 40
24.9733757562047
 40
24.9733757562047
 10
2340.428252218908
 20
4578.952747883187
 30
0.0023063413762436
 41
1.0
 10
2341.877439163139
 20
4578.502544908111
 30
0.002317745678618
 41
0.9886809942271448
 10
2343.394945511789
 20
4578.502539523542
 30
0.0023177458179013
 41
1.0
  0
SPLINE
  5
E6
330
1F
100
AcDbEntity
  8
Predeterminada
100
AcDbSpline
210
0.0
220
0.0
230
1.0
 70
    24
 71
     2
 72
     6
 73
     3
 74
     0
 42
0.000000001
 43
0.0000000001
 40
24.9733757562047
 40
24.9733757562047
 40
24.9733757562047
 40
25.7278530894508
 40
25.7278530894508
 40
25.7278530894508
 10
2343.394945511789
 20
4578.502539523542
 30
0.0023177458179013
 10
2407.185425446442
 20
4578.502313175708
 30
0.0023177529536778
 10
2470.975905381094
 20
4578.502086827874
 30
0.0023177600894542
  0
SPLINE
  5
E7
330
1F
100
AcDbEntity
  8
Predeterminada
100
AcDbSpline
210
1.563054933258672E-11
220
-2.533132333353410E-5
230
-0.999999999679162
 70
    12
 71
     2
 72
     6
 73
     3
 74
     0
 42
0.000000001
 43
0.0000000001
 40
25.7278530894508
 40
25.7278530894508
 40
25.7278530894508
 40
32.01103839946892
 40
32.01103839946892
 40
32.01103839946892
 10
2470.975905381094
 20
4578.502086827874
 30
0.0023177600894542
 41
1.0
 10
2510.975905409161
 20
4578.501944895836
 30
0.0023177643100025
 41
0.7071067809364164
 10
2510.97604731289
 20
4618.501944911067
 30
0.0013045113759524
 41
1.0
  0
SPLINE
  5
E8
330
1F
100
AcDbEntity
  8
Predeterminada
100
AcDbSpline
210
0.0
220
0.0
230
1.0
 70
    24
 71
     2
 72
     6
 73
     3
 74
     0
 42
0.000000001
 43
0.0000000001
 40
32.01103839946892
 40
32.01103839946892
 40
32.01103839946892
 40
32.5738691198835
 40
32.5738691198835
 40
32.5738691198835
 10
2510.97604731289
 20
4618.501944911067
 30
0.0013045113759524
 10
2510.976230005912
 20
4669.999682443153
 30
0.0000000052082072
 10
2510.976412698934
 20
4721.497419975239
 30
-0.001304500959538
  0
SPLINE
  5
E9
330
1F
100
AcDbEntity
  8
Predeterminada
100
AcDbSpline
210
2.421649977336440E-11
220
-2.533132743755368E-5
230
-0.999999999679162
 70
    12
 71
     2
 72
     6
 73
     3
 74
     0
 42
0.000000001
 43
0.0000000001
 40
32.5738691198835
 40
32.5738691198835
 40
32.5738691198835
 40
38.8570544270691
 40
38.8570544270691
 40
38.8570544270691
 10
2510.976412698934
 20
4721.497419975239
 30
-0.001304500959538
 41
1.0
 10
2510.976554602664
 20
4761.497419962135
 30
-0.0023177540570299
 41
0.7071067811870402
 10
2470.976554602924
 20
4761.497561865894
 30
-0.0023177586203005
 41
1.0
  0
POLYLINE
  5
EA
330
1F
100
AcDbEntity
  8
Predeterminada
100
AcDb2dPolyline
 66
     1
 10
0.0
 20
0.0
 30
0.0
 70
     1
  0
VERTEX
  5
EB
330
EA
100
AcDbEntity
  8
Predeterminada
100
AcDbVertex
100
AcDb2dVertex
 10
2680.999999999974
 20
4540.0
 30
0.0
  0
VERTEX
  5
EC
330
EA
100
AcDbEntity
  8
Predeterminada
100
AcDbVertex
100
AcDb2dVertex
 10
2662.999999999974
 20
4540.0
 30
0.0
  0
VERTEX
  5
ED
330
EA
100
AcDbEntity
  8
Predeterminada
100
AcDbVertex
100
AcDb2dVertex
 10
2662.999999999974
 20
4800.0
 30
0.0
  0
VERTEX
  5
EE
330
EA
100
AcDbEntity
  8
Predeterminada
100
AcDbVertex
100
AcDb2dVertex
 10
2680.999999999974
 20
4800.0
 30
0.0
  0
SEQEND
  5
EF
330
EA
100
AcDbEntity
  8
Predeterminada
  0
SPLINE
  5
F0
330
1F
100
AcDbEntity
  8
Predeterminada
100
AcDbSpline
210
0.0
220
0.0
230
1.0
 70
    12
 71
     2
 72
     6
 73
     3
 74
     0
 42
0.000000001
 43
0.0000000001
 40
203.2192351170602
 40
203.2192351170602
 40
203.2192351170602
 40
264.8592020397993
 40
264.8592020397993
 40
264.8592020397993
 10
1863.108517308351
 20
4832.380060301337
 30
-0.0000000001700215
 41
0.9859296598763166
 10
1559.999999998325
 20
4719.115905934297
 30
-0.0000000000116942
 41
0.9235563214331
 10
1256.891482688443
 20
4832.380060301717
 30
0.0000000000704122
 41
0.9859296598770269
  0
POLYLINE
  5
F1
330
1F
100
AcDbEntity
  8
Predeterminada
100
AcDb2dPolyline
 66
     1
 10
0.0
 20
0.0
 30
0.0000000000704122
  0
VERTEX
  5
F2
330
F1
100
AcDbEntity
  8
Predeterminada
100
AcDbVertex
100
AcDb2dVertex
 10
1256.891482688443
 20
4832.380060301719
 30
0.0000000000704122
  0
VERTEX
  5
F3
330
F1
100
AcDbEntity
  8
Predeterminada
100
AcDbVertex
100
AcDb2dVertex
 10
1264.019153528131
 20
4845.492460826897
 30
0.0000000000704122
  0
SEQEND
  5
F4
330
F1
100
AcDbEntity
  8
Predeterminada
  0
ARC
  5
F5
330
1F
100
AcDbEntity
  8
Predeterminada
100
AcDbCircle
 10
1263.114676550447
 20
4848.352866636715
 30
0.0000000000650847
 40
2.999999999999868
100
AcDbArc
 50
287.5472577405948
 51
105.3972883659102
  0
POLYLINE
  5
F6
330
1F
100
AcDbEntity
  8
Predeterminada
100
AcDb2dPolyline
 66
     1
 10
0.0
 20
0.0
 30
0.0000000000650847
  0
VERTEX
  5
F7
330
F6
100
AcDbEntity
  8
Predeterminada
100
AcDbVertex
100
AcDb2dVertex
 10
1262.318145081943
 20
4851.245190550055
 30
0.0000000000650847
  0
VERTEX
  5
F8
330
F6
100
AcDbEntity
  8
Predeterminada
100
AcDbVertex
100
AcDb2dVertex
 10
1254.030723283474
 20
4855.95362018322
 30
0.0000000000650847
  0
SEQEND
  5
F9
330
F6
100
AcDbEntity
  8
Predeterminada
  0
ARC
  5
FA
330
1F
100
AcDbEntity
  8
Predeterminada
100
AcDbCircle
 10
1251.123964759363
 20
4855.211491567341
 30
0.0000000000665068
 40
2.999999999999869
100
AcDbArc
 50
14.32230367828878
 51
196.4722730568075
  0
POLYLINE
  5
FB
330
1F
100
AcDbEntity
  8
Predeterminada
100
AcDb2dPolyline
 66
     1
 10
0.0
 20
0.0
 30
0.0000000000665068
  0
VERTEX
  5
FC
330
FB
100
AcDbEntity
  8
Predeterminada
100
AcDbVertex
100
AcDb2dVertex
 10
1248.247093563974
 20
4854.360837627634
 30
0.0000000000665068
  0
VERTEX
  5
FD
330
FB
100
AcDbEntity
  8
Predeterminada
100
AcDbVertex
100
AcDb2dVertex
 10
1241.134491399949
 20
4841.276158151187
 30
0.0000000000665068
  0
SEQEND
  5
FE
330
FB
100
AcDbEntity
  8
Predeterminada
  0
SPLINE
  5
FF
330
1F
100
AcDbEntity
  8
Predeterminada
100
AcDbSpline
210
0.0
220
0.0
230
1.0
 70
    12
 71
     2
 72
     6
 73
     3
 74
     0
 42
0.000000001
 43
0.0000000001
 40
270.6790454795276
 40
270.6790454795276
 40
270.6790454795276
 40
277.6927315256598
 40
277.6927315256598
 40
277.6927315256598
 10
1241.134491399949
 20
4841.276158151187
 30
0.0000000000746016
 41
0.8822570051914551
 10
1207.941156214856
 20
4868.944469514219
 30
0.000000000081587
 41
0.7106559731375471
 10
1230.5091105988
 20
4905.795797703524
 30
0.0000000000585487
 41
1.0
  0
SPLINE
  5
100
330
1F
100
AcDbEntity
  8
Predeterminada
100
AcDbSpline
210
0.0
220
0.0
230
1.0
 70
    28
 71
     2
 72
     6
 73
     3
 74
     0
 42
0.000000001
 43
0.0000000001
 40
277.6927315256598
 40
277.6927315256598
 40
277.6927315256598
 40
312.4509685638499
 40
312.4509685638499
 40
312.4509685638499
 10
1230.5091105988
 20
4905.795797703524
 30
0.0000000000585487
 41
1.0
 10
1321.272155995576
 20
5054.003238948483
 30
-0.0000000000255795
 41
1.0
 10
1412.035201392351
 20
5202.210680193442
 30
-0.0000000001108447
 41
1.0
  0
SPLINE
  5
101
330
1F
100
AcDbEntity
  8
Predeterminada
100
AcDbSpline
210
0.0
220
0.0
230
1.0
 70
    12
 71
     2
 72
     6
 73
     3
 74
     0
 42
0.000000001
 43
0.0000000001
 40
312.4509685638499
 40
312.4509685638499
 40
312.4509685638499
 40
318.8116217479604
 40
318.8116217479604
 40
318.8116217479604
 10
1412.035201392351
 20
5202.210680193442
 30
-0.0000000001108447
 41
1.0
 10
1439.999999999971
 20
5247.874542930168
 30
-0.0000000001581642
 41
0.4887771108405848
 10
1464.340319725464
 20
5200.180023781068
 30
-0.0000000001341505
 41
1.0
  0
SPLINE
  5
102
330
1F
100
AcDbEntity
  8
Predeterminada
100
AcDbSpline
210
0.0
220
0.0
230
1.0
 70
    28
 71
     2
 72
     6
 73
     3
 74
     0
 42
0.000000001
 43
0.0000000001
 40
318.8116217479604
 40
318.8116217479604
 40
318.8116217479604
 40
338.4263376891914
 40
338.4263376891914
 40
338.4263376891914
 10
1464.340319725464
 20
5200.180023781068
 30
-0.0000000001341505
 41
1.0
 10
1508.92112659757
 20
5112.82455059815
 30
-0.0000000001227818
 41
1.0
 10
1553.501933469677
 20
5025.469077415232
 30
-0.0000000001108447
 41
1.0
  0
SPLINE
  5
103
330
1F
100
AcDbEntity
  8
Predeterminada
100
AcDbSpline
210
0.0
220
0.0
230
1.0
 70
    12
 71
     2
 72
     6
 73
     3
 74
     0
 42
0.000000001
 43
0.0000000001
 40
338.4263376891914
 40
338.4263376891914
 40
338.4263376891914
 40
340.9085829429612
 40
340.9085829429612
 40
340.9085829429612
 10
1553.501933469677
 20
5025.469077415232
 30
-0.0000000001108447
 41
1.0
 10
1559.999999999979
 20
5012.736206111287
 30
-0.0000000001124917
 41
0.81355218561814
 10
1574.150828213409
 20
5014.762271546819
 30
-0.0000000001153921
 41
1.0
  0
POLYLINE
  5
104
330
1F
100
AcDbEntity
  8
Predeterminada
100
AcDb2dPolyline
 66
     1
 10
0.0
 20
0.0
 30
-0.0000000001153921
  0
VERTEX
  5
105
330
104
100
AcDbEntity
  8
Predeterminada
100
AcDbVertex
100
AcDb2dVertex
 10
1574.150828213409
 20
5014.762271546819
 30
-0.0000000001153921
  0
VERTEX
  5
106
330
104
100
AcDbEntity
  8
Predeterminada
100
AcDbVertex
100
AcDb2dVertex
 10
1624.402536875991
 20
5021.957133109834
 30
-0.0000000001153921
  0
VERTEX
  5
107
330
104
100
AcDbEntity
  8
Predeterminada
100
AcDbVertex
100
AcDb2dVertex
 10
1626.344025850628
 20
5007.784369881497
 30
-0.0000000001153921
  0
SEQEND
  5
108
330
104
100
AcDbEntity
  8
Predeterminada
  0
ARC
  5
109
330
1F
100
AcDbEntity
  8
Predeterminada
100
AcDbCircle
 10
1628.733623381445
 20
5005.970582782438
 30
-0.0000000001330136
 40
2.999999999999869
100
AcDbArc
 50
142.8002456591475
 51
323.495816245256
  0
POLYLINE
  5
10A
330
1F
100
AcDbEntity
  8
Predeterminada
100
AcDb2dPolyline
 66
     1
 10
0.0
 20
0.0
 30
-0.0000000001330136
  0
VERTEX
  5
10B
330
10A
100
AcDbEntity
  8
Predeterminada
100
AcDbVertex
100
AcDb2dVertex
 10
1631.145063654461
 20
5004.185938333345
 30
-0.0000000001330136
  0
VERTEX
  5
10C
330
10A
100
AcDbEntity
  8
Predeterminada
100
AcDbVertex
100
AcDb2dVertex
 10
1640.546058885463
 20
5005.531939515007
 30
-0.0000000001330136
  0
SEQEND
  5
10D
330
10A
100
AcDbEntity
  8
Predeterminada
  0
ARC
  5
10E
330
1F
100
AcDbEntity
  8
Predeterminada
100
AcDbCircle
 10
1642.345307805917
 20
5007.932502641076
 30
-0.0000000001409717
 40
2.999999999999869
100
AcDbArc
 50
233.1480309540056
 51
52.45246037117818
  0
POLYLINE
  5
10F
330
1F
100
AcDbEntity
  8
Predeterminada
100
AcDb2dPolyline
 66
     1
 10
0.0
 20
0.0
 30
-0.0000000001409717
  0
VERTEX
  5
110
330
10F
100
AcDbEntity
  8
Predeterminada
100
AcDbVertex
100
AcDb2dVertex
 10
1644.173566254728
 20
5010.311046532694
 30
-0.0000000001409717
  0
VERTEX
  5
111
330
10F
100
AcDbEntity
  8
Predeterminada
100
AcDbVertex
100
AcDb2dVertex
 10
1642.228571525382
 20
5024.509401578576
 30
-0.0000000001409717
  0
VERTEX
  5
112
330
10F
100
AcDbEntity
  8
Predeterminada
100
AcDbVertex
100
AcDb2dVertex
 10
1710.480006464521
 20
5034.281400161977
 30
-0.0000000001409717
  0
VERTEX
  5
113
330
10F
100
AcDbEntity
  8
Predeterminada
100
AcDbVertex
100
AcDb2dVertex
 10
1712.421495439144
 20
5020.108636933646
 30
-0.0000000001409717
  0
SEQEND
  5
114
330
10F
100
AcDbEntity
  8
Predeterminada
  0
ARC
  5
115
330
1F
100
AcDbEntity
  8
Predeterminada
100
AcDbCircle
 10
1714.811092969971
 20
5018.2948498346
 30
-0.0000000001716671
 40
2.999999999999869
100
AcDbArc
 50
142.8002456594349
 51
323.4958162452394
  0
POLYLINE
  5
116
330
1F
100
AcDbEntity
  8
Predeterminada
100
AcDb2dPolyline
 66
     1
 10
0.0
 20
0.0
 30
-0.0000000001716671
  0
VERTEX
  5
117
330
116
100
AcDbEntity
  8
Predeterminada
100
AcDbVertex
100
AcDb2dVertex
 10
1717.222533242986
 20
5016.510205385506
 30
-0.0000000001716671
  0
VERTEX
  5
118
330
116
100
AcDbEntity
  8
Predeterminada
100
AcDbVertex
100
AcDb2dVertex
 10
1726.62352847399
 20
5017.856206567169
 30
-0.0000000001716671
  0
SEQEND
  5
119
330
116
100
AcDbEntity
  8
Predeterminada
  0
ARC
  5
11A
330
1F
100
AcDbEntity
  8
Predeterminada
100
AcDbCircle
 10
1728.422777394445
 20
5020.256769693236
 30
-0.0000000001801936
 40
2.999999999999869
100
AcDbArc
 50
233.1480309539952
 51
52.45246037120597
  0
POLYLINE
  5
11B
330
1F
100
AcDbEntity
  8
Predeterminada
100
AcDb2dPolyline
 66
     1
 10
0.0
 20
0.0
 30
-0.0000000001801936
  0
VERTEX
  5
11C
330
11B
100
AcDbEntity
  8
Predeterminada
100
AcDbVertex
100
AcDb2dVertex
 10
1730.251035843255
 20
5022.635313584855
 30
-0.0000000001801936
  0
VERTEX
  5
11D
330
11B
100
AcDbEntity
  8
Predeterminada
100
AcDbVertex
100
AcDb2dVertex
 10
1728.306041113912
 20
5036.833668630719
 30
-0.0000000001801936
  0
VERTEX
  5
11E
330
11B
100
AcDbEntity
  8
Predeterminada
100
AcDbVertex
100
AcDb2dVertex
 10
1770.165786444251
 20
5042.826998623479
 30
-0.0000000001801936
  0
SEQEND
  5
11F
330
11B
100
AcDbEntity
  8
Predeterminada
  0
SPLINE
  5
120
330
1F
100
AcDbEntity
  8
Predeterminada
100
AcDbSpline
210
0.0
220
0.0
230
1.0
 70
    12
 71
     2
 72
     6
 73
     3
 74
     0
 42
0.000000001
 43
0.0000000001
 40
368.5049060671709
 40
368.5049060671709
 40
368.5049060671709
 40
374.3224812494914
 40
374.3224812494914
 40
374.3224812494914
 10
1770.165786444251
 20
5042.826998623479
 30
-0.0000000002017941
 41
1.0
 10
1802.717990769495
 20
5047.487707879432
 30
-0.000000000267379
 41
0.8354981964886179
 10
1819.891858549376
 20
5019.444411306451
 30
-0.0000000002177103
 41
1.0
  0
SPLINE
  5
121
330
1F
100
AcDbEntity
  8
Predeterminada
100
AcDbSpline
210
0.0
220
0.0
230
1.0
 70
    28
 71
     2
 72
     6
 73
     3
 74
     0
 42
0.000000001
 43
0.0000000001
 40
374.3224812494914
 40
374.3224812494914
 40
374.3224812494914
 40
387.6491584306863
 40
387.6491584306863
 40
387.6491584306863
 10
1819.891858549376
 20
5019.444411306451
 30
-0.0000000002177103
 41
1.0
 10
1854.691373975265
 20
4962.620104505419
 30
-0.0000000002114575
 41
1.0
 10
1889.490889401155
 20
4905.795797704387
 30
-0.0000000002063416
 41
1.0
  0
SPLINE
  5
122
330
1F
100
AcDbEntity
  8
Predeterminada
100
AcDbSpline
210
0.0
220
0.0
230
1.0
 70
    12
 71
     2
 72
     6
 73
     3
 74
     0
 42
0.000000001
 43
0.0000000001
 40
387.6491584306863
 40
387.6491584306863
 40
387.6491584306863
 40
394.6628444771664
 40
394.6628444771664
 40
394.6628444771664
 10
1889.490889401155
 20
4905.795797704387
 30
-0.0000000002063416
 41
1.0
 10
1912.058843786716
 20
4868.944469512538
 30
-0.0000000002043674
 41
0.7106559731234284
 10
1878.865508597431
 20
4841.276158149828
 30
-0.0000000001804027
 41
0.8822570052090222
  0
POLYLINE
  5
123
330
1F
100
AcDbEntity
  8
Predeterminada
100
AcDb2dPolyline
 66
     1
 10
0.0
 20
0.0
 30
-0.0000000001807621
  0
VERTEX
  5
124
330
123
100
AcDbEntity
  8
Predeterminada
100
AcDbVertex
100
AcDb2dVertex
 10
1878.865508597431
 20
4841.276158149829
 30
-0.0000000001807621
  0
VERTEX
  5
125
330
123
100
AcDbEntity
  8
Predeterminada
100
AcDbVertex
100
AcDb2dVertex
 10
1871.752906433271
 20
4854.360837626699
 30
-0.0000000001807621
  0
SEQEND
  5
126
330
123
100
AcDbEntity
  8
Predeterminada
  0
ARC
  5
127
330
1F
100
AcDbEntity
  8
Predeterminada
100
AcDbCircle
 10
1868.876035237886
 20
4855.211491566422
 30
-0.0000000001810473
 40
2.999999999999869
100
AcDbArc
 50
343.5277269428668
 51
165.6776963256724
  0
POLYLINE
  5
128
330
1F
100
AcDbEntity
  8
Predeterminada
100
AcDb2dPolyline
 66
     1
 10
0.0
 20
0.0
 30
-0.0000000001810473
  0
VERTEX
  5
129
330
128
100
AcDbEntity
  8
Predeterminada
100
AcDbVertex
100
AcDb2dVertex
 10
1865.969276713724
 20
4855.9536201821
 30
-0.0000000001810473
  0
VERTEX
  5
12A
330
128
100
AcDbEntity
  8
Predeterminada
100
AcDbVertex
100
AcDb2dVertex
 10
1857.611999344699
 20
4851.205502688596
 30
-0.0000000001810473
  0
SEQEND
  5
12B
330
128
100
AcDbEntity
  8
Predeterminada
  0
ARC
  5
12C
330
1F
100
AcDbEntity
  8
Predeterminada
100
AcDbCircle
 10
1856.86987072902
 20
4848.298744164433
 30
-0.0000000001733724
 40
2.999999999999869
100
AcDbArc
 50
75.67769632564922
 51
253.527726946619
  0
POLYLINE
  5
12D
330
1F
100
AcDbEntity
  8
Predeterminada
100
AcDb2dPolyline
 66
     1
 10
0.0
 20
0.0
 30
-0.0000000001733724
  0
VERTEX
  5
12E
330
12D
100
AcDbEntity
  8
Predeterminada
100
AcDbVertex
100
AcDb2dVertex
 10
1856.019216789486
 20
4845.421872968993
 30
-0.0000000001733724
  0
VERTEX
  5
12F
330
12D
100
AcDbEntity
  8
Predeterminada
100
AcDbVertex
100
AcDb2dVertex
 10
1863.108517308351
 20
4832.380060301337
 30
-0.0000000001733724
  0
SEQEND
  5
130
330
12D
100
AcDbEntity
  8
Predeterminada
  0
ARC
  5
131
330
1F
100
AcDbEntity
  8
Predeterminada
100
AcDbCircle
 10
1433.121320343463
 20
5185.944998208698
 30
-0.0000000000851407
 40
2.999999999999869
100
AcDbArc
 50
44.99999999812078
 51
224.9999999980747
  0
POLYLINE
  5
132
330
1F
100
AcDbEntity
  8
Predeterminada
100
AcDb2dPolyline
 66
     1
 10
0.0
 20
0.0
 30
-0.0000000000849098
  0
VERTEX
  5
133
330
132
100
AcDbEntity
  8
Predeterminada
100
AcDbVertex
100
AcDb2dVertex
 10
1430.999999999973
 20
5183.82367786507
 30
-0.0000000000849098
  0
VERTEX
  5
134
330
132
100
AcDbEntity
  8
Predeterminada
100
AcDbVertex
100
AcDb2dVertex
 10
1431.000000000044
 20
5172.535116880699
 30
-0.0000000000849098
  0
SEQEND
  5
135
330
132
100
AcDbEntity
  8
Predeterminada
  0
ARC
  5
136
330
1F
100
AcDbEntity
  8
Predeterminada
100
AcDbCircle
 10
1433.121320343534
 20
5170.41379653707
 30
-0.0000000000840644
 40
2.999999999999869
100
AcDbArc
 50
134.9999999981208
 51
315.0000000037492
  0
POLYLINE
  5
137
330
1F
100
AcDbEntity
  8
Predeterminada
100
AcDb2dPolyline
 66
     1
 10
0.0
 20
0.0
 30
-0.0000000000840644
  0
VERTEX
  5
138
330
137
100
AcDbEntity
  8
Predeterminada
100
AcDbVertex
100
AcDb2dVertex
 10
1435.242640687233
 20
5168.29247619365
 30
-0.0000000000840644
  0
VERTEX
  5
139
330
137
100
AcDbEntity
  8
Predeterminada
100
AcDbVertex
100
AcDb2dVertex
 10
1444.757359312993
 20
5168.292476193648
 30
-0.0000000000840644
  0
SEQEND
  5
13A
330
137
100
AcDbEntity
  8
Predeterminada
  0
ARC
  5
13B
330
1F
100
AcDbEntity
  8
Predeterminada
100
AcDbCircle
 10
1446.878679656483
 20
5170.413796537278
 30
-0.0000000001006925
 40
2.999999999999869
100
AcDbArc
 50
225.0000000018854
 51
45.00000000190071
  0
POLYLINE
  5
13C
330
1F
100
AcDbEntity
  8
Predeterminada
100
AcDb2dPolyline
 66
     1
 10
0.0
 20
0.0
 30
-0.0000000001006925
  0
VERTEX
  5
13D
330
13C
100
AcDbEntity
  8
Predeterminada
100
AcDbVertex
100
AcDb2dVertex
 10
1448.999999999972
 20
5172.535116880908
 30
-0.0000000001006925
  0
VERTEX
  5
13E
330
13C
100
AcDbEntity
  8
Predeterminada
100
AcDbVertex
100
AcDb2dVertex
 10
1448.999999999973
 20
5183.823677865211
 30
-0.0000000001006925
  0
SEQEND
  5
13F
330
13C
100
AcDbEntity
  8
Predeterminada
  0
ARC
  5
140
330
1F
100
AcDbEntity
  8
Predeterminada
100
AcDbCircle
 10
1446.878679656482
 20
5185.944998208838
 30
-0.0000000001053056
 40
2.999999999999869
100
AcDbArc
 50
314.9999999981484
 51
134.9999999981208
  0
POLYLINE
  5
141
330
1F
100
AcDbEntity
  8
Predeterminada
100
AcDb2dPolyline
 66
     1
 10
0.0
 20
0.0
 30
-0.0000000001053056
  0
VERTEX
  5
142
330
141
100
AcDbEntity
  8
Predeterminada
100
AcDbVertex
100
AcDb2dVertex
 10
1444.757359312992
 20
5188.066318552466
 30
-0.0000000001053056
  0
VERTEX
  5
143
330
141
100
AcDbEntity
  8
Predeterminada
100
AcDbVertex
100
AcDb2dVertex
 10
1435.242640687092
 20
5188.066318552188
 30
-0.0000000001053056
  0
SEQEND
  5
144
330
141
100
AcDbEntity
  8
Predeterminada
  0
ARC
  5
145
330
1F
100
AcDbEntity
  8
Predeterminada
100
AcDbCircle
 10
1544.121320343538
 20
4802.210682722744
 30
-0.0000000000312639
 40
2.999999999999869
100
AcDbArc
 50
134.9999999981208
 51
315.0000000037462
  0
POLYLINE
  5
146
330
1F
100
AcDbEntity
  8
Predeterminada
100
AcDb2dPolyline
 66
     1
 10
0.0
 20
0.0
 30
-0.0000000000312639
  0
VERTEX
  5
147
330
146
100
AcDbEntity
  8
Predeterminada
100
AcDbVertex
100
AcDb2dVertex
 10
1546.242640687236
 20
4800.089362379323
 30
-0.0000000000312639
  0
VERTEX
  5
148
330
146
100
AcDbEntity
  8
Predeterminada
100
AcDbVertex
100
AcDb2dVertex
 10
1559.999999999978
 20
4800.089362379323
 30
-0.0000000000312639
  0
VERTEX
  5
149
330
146
100
AcDbEntity
  8
Predeterminada
100
AcDbVertex
100
AcDb2dVertex
 10
1573.757359313024
 20
4800.089362379296
 30
-0.0000000000312639
  0
SEQEND
  5
14A
330
146
100
AcDbEntity
  8
Predeterminada
  0
ARC
  5
14B
330
1F
100
AcDbEntity
  8
Predeterminada
100
AcDbCircle
 10
1575.878679656488
 20
4802.210682722951
 30
-0.0000000000454747
 40
2.999999999999869
100
AcDbArc
 50
225.0000000025701
 51
45.00000000188537
  0
POLYLINE
  5
14C
330
1F
100
AcDbEntity
  8
Predeterminada
100
AcDb2dPolyline
 66
     1
 10
0.0
 20
0.0
 30
-0.0000000000454747
  0
VERTEX
  5
14D
330
14C
100
AcDbEntity
  8
Predeterminada
100
AcDbVertex
100
AcDb2dVertex
 10
1577.999999999978
 20
4804.33200306658
 30
-0.0000000000454747
  0
VERTEX
  5
14E
330
14C
100
AcDbEntity
  8
Predeterminada
100
AcDbVertex
100
AcDb2dVertex
 10
1577.999999999977
 20
4818.687830557535
 30
-0.0000000000454747
  0
SEQEND
  5
14F
330
14C
100
AcDbEntity
  8
Predeterminada
  0
SPLINE
  5
150
330
1F
100
AcDbEntity
  8
Predeterminada
100
AcDbSpline
210
0.0
220
0.0
230
1.0
 70
     8
 71
     3
 72
     8
 73
     4
 74
     0
 42
0.000000001
 43
0.0000000001
 40
7.956965796005106
 40
7.956965796005106
 40
7.956965796005106
 40
7.956965796005106
 40
33.31265436145009
 40
33.31265436145009
 40
33.31265436145009
 40
33.31265436145009
 10
1577.999999999977
 20
4818.687830557535
 30
-0.0000000000466116
 10
1662.197271893487
 20
4820.52485662538
 30
-0.000000000082423
 10
1745.509213673387
 20
4835.238410614239
 30
-0.0000000001244871
 10
1825.192481972037
 20
4862.216359697311
 30
-0.0000000001659828
  0
SPLINE
  5
151
330
1F
100
AcDbEntity
  8
Predeterminada
100
AcDbSpline
210
0.0
220
0.0
230
1.0
 70
     8
 71
     3
 72
    10
 73
     6
 74
     0
 42
0.000000001
 43
0.0000000001
 40
33.31265436145009
 40
33.31265436145009
 40
33.31265436145009
 40
33.31265436145009
 40
36.16958614583248
 40
36.16958614583248
 40
39.01657399641721
 40
39.01657399641721
 40
39.01657399641721
 40
39.01657399641721
 10
1825.192481972037
 20
4862.216359697311
 30
-0.0000000001659828
 10
1834.083075299634
 20
4865.226408996012
 30
-0.0000000001710987
 10
1840.97791571337
 20
4872.256915839611
 30
-0.0000000001750777
 10
1847.088881613976
 20
4889.889724516985
 30
-0.0000000001841727
 10
1846.057317671325
 20
4899.657067655645
 30
-0.0000000001864464
 10
1841.188707990508
 20
4907.607045315145
 30
-0.0000000001875833
  0
SPLINE
  5
152
330
1F
100
AcDbEntity
  8
Predeterminada
100
AcDbSpline
210
0.0
220
0.0
230
1.0
 70
    24
 71
     3
 72
     8
 73
     4
 74
     0
 42
0.000000001
 43
0.0000000001
 40
39.01657399641721
 40
39.01657399641721
 40
39.01657399641721
 40
39.01657399641721
 40
48.26244102687991
 40
48.26244102687991
 40
48.26244102687991
 40
48.26244102687991
 10
1841.188707990508
 20
4907.607045315145
 30
-0.0000000001875833
 10
1825.093088255864
 20
4933.889665137882
 30
-0.0000000001887202
 10
1808.997468521219
 20
4960.172284960619
 30
-0.0000000001926992
 10
1792.901848786574
 20
4986.454904783358
 30
-0.0000000001938361
  0
SPLINE
  5
153
330
1F
100
AcDbEntity
  8
Predeterminada
100
AcDbSpline
210
0.0
220
0.0
230
1.0
 70
     8
 71
     3
 72
    10
 73
     6
 74
     0
 42
0.000000001
 43
0.0000000001
 40
48.26244102687991
 40
48.26244102687991
 40
48.26244102687991
 40
48.26244102687991
 40
50.02121069782896
 40
50.02121069782896
 40
51.78228688725267
 40
51.78228688725267
 40
51.78228688725267
 40
51.78228688725267
 10
1792.901848786574
 20
4986.454904783358
 30
-0.0000000001938361
 10
1789.862633842034
 20
4991.417654417348
 30
-0.0000000001938361
 10
1785.474558219263
 20
4995.42217796136
 30
-0.0000000001944045
 10
1774.963779963472
 20
5000.466545251521
 30
-0.0000000001915623
 10
1769.089653847348
 20
5001.380214628615
 30
-0.0000000001892886
 10
1763.313503811219
 20
5000.55320593611
 30
-0.0000000001864464
  0
SPLINE
  5
154
330
1F
100
AcDbEntity
  8
Predeterminada
100
AcDbSpline
210
0.0
220
0.0
230
1.0
 70
    24
 71
     3
 72
     8
 73
     4
 74
     0
 42
0.000000001
 43
0.0000000001
 40
51.78228688725267
 40
51.78228688725267
 40
51.78228688725267
 40
51.78228688725267
 40
72.46652072563552
 40
72.46652072563552
 40
72.46652072563552
 40
72.46652072563552
 10
1763.313503811219
 20
5000.55320593611
 30
-0.0000000001864464
 10
1695.062068872079
 20
4990.781207352694
 30
-0.0000000001563194
 10
1626.810633932942
 20
4981.009208769278
 30
-0.0000000001261924
 10
1558.559198993806
 20
4971.237210185863
 30
-0.0000000000943601
  0
SPLINE
  5
155
330
1F
100
AcDbEntity
  8
Predeterminada
100
AcDbSpline
210
0.0
220
0.0
230
1.0
 70
     8
 71
     3
 72
    10
 73
     6
 74
     0
 42
0.000000001
 43
0.0000000001
 40
72.46652072563552
 40
72.46652072563552
 40
72.46652072563552
 40
72.46652072563552
 40
74.3530923264774
 40
74.3530923264774
 40
76.23649686607229
 40
76.23649686607229
 40
76.23649686607229
 40
76.23649686607229
 10
1558.559198993806
 20
4971.237210185863
 30
-0.0000000000943601
 10
1552.376417104748
 20
4970.351981385687
 30
-0.0000000000926548
 10
1546.093998381829
 20
4971.462501740001
 30
-0.0000000000898126
 10
1535.073657452464
 20
4977.309598849019
 30
-0.0000000000875389
 10
1530.6303220001
 20
4981.879654109535
 30
-0.0000000000875389
 10
1527.800828143622
 20
4987.424008104967
 30
-0.0000000000881073
  0
SPLINE
  5
156
330
1F
100
AcDbEntity
  8
Predeterminada
100
AcDbSpline
210
0.0
220
0.0
230
1.0
 70
    24
 71
     3
 72
     8
 73
     4
 74
     0
 42
0.000000001
 43
0.0000000001
 40
76.23649686607229
 40
76.23649686607229
 40
76.23649686607229
 40
76.23649686607229
 40
92.69310737829477
 40
92.69310737829477
 40
92.69310737829477
 40
92.69310737829477
 10
1527.800828143622
 20
4987.424008104967
 30
-0.0000000000881073
 10
1502.865503148761
 20
5036.284431832724
 30
-0.0000000000937916
 10
1477.930178153899
 20
5085.144855560483
 30
-0.0000000001000444
 10
1452.994853159038
 20
5134.005279288242
 30
-0.0000000001062972
  0
SPLINE
  5
157
330
1F
100
AcDbEntity
  8
Predeterminada
100
AcDbSpline
210
0.0
220
0.0
230
1.0
 70
     8
 71
     3
 72
    10
 73
     6
 74
     0
 42
0.000000001
 43
0.0000000001
 40
92.69310737829477
 40
92.69310737829477
 40
92.69310737829477
 40
92.69310737829477
 40
94.90806987001513
 40
94.90806987001513
 40
97.12486806178364
 40
97.12486806178364
 40
97.12486806178364
 40
97.12486806178364
 10
1452.994853159038
 20
5134.005279288242
 30
-0.0000000001062972
 10
1449.719958927942
 20
5140.422389144558
 30
-0.0000000001074341
 10
1443.307033900025
 20
5144.680320227667
 30
-0.0000000001062972
 10
1428.818349205605
 20
5145.275172375879
 30
-0.0000000001006129
 10
1422.078839063683
 20
5141.549355971142
 30
-0.0000000000966338
 10
1418.311476562306
 20
5135.39761046581
 30
-0.0000000000926548
  0
SPLINE
  5
158
330
1F
100
AcDbEntity
  8
Predeterminada
100
AcDbSpline
210
0.0
220
0.0
230
1.0
 70
    24
 71
     2
 72
     6
 73
     3
 74
     0
 42
0.000000001
 43
0.0000000001
 40
97.12486806178364
 40
97.12486806178364
 40
97.12486806178364
 40
123.8360722768561
 40
123.8360722768561
 40
123.8360722768561
 10
1418.311476562306
 20
5135.39761046581
 30
-0.0000000000926548
 10
1348.561384285882
 20
5021.502327890486
 30
-0.0000000000272848
 10
1278.811292009459
 20
4907.607045315161
 30
0.0000000000380851
  0
SPLINE
  5
159
330
1F
100
AcDbEntity
  8
Predeterminada
100
AcDbSpline
210
0.0
220
0.0
230
1.0
 70
     8
 71
     3
 72
    10
 73
     6
 74
     0
 42
0.000000001
 43
0.0000000001
 40
123.8360722768561
 40
123.8360722768561
 40
123.8360722768561
 40
123.8360722768561
 40
126.6830601274408
 40
126.6830601274408
 40
129.5399919118233
 40
129.5399919118233
 40
129.5399919118233
 40
129.5399919118233
 10
1278.811292009459
 20
4907.607045315161
 30
0.0000000000380851
 10
1273.942682328642
 20
4899.657067655661
 30
0.0000000000426326
 10
1272.911118385993
 20
4889.889724517
 30
0.0000000000466116
 10
1279.022084286601
 20
4872.256915839627
 30
0.0000000000505906
 10
1285.916924700337
 20
4865.226408996028
 30
0.0000000000488853
 10
1294.807518027934
 20
4862.216359697327
 30
0.00000000004718
  0
SPLINE
  5
15A
330
1F
100
AcDbEntity
  8
Predeterminada
100
AcDbSpline
210
0.0
220
0.0
230
1.0
 70
     8
 71
     3
 72
     8
 73
     4
 74
     0
 42
0.000000001
 43
0.0000000001
 40
129.5399919118233
 40
129.5399919118233
 40
129.5399919118233
 40
129.5399919118233
 40
154.8956804772672
 40
154.8956804772672
 40
154.8956804772672
 40
154.8956804772672
 10
1294.807518027934
 20
4862.216359697327
 30
0.00000000004718
 10
1374.490786326579
 20
4835.238410614254
 30
0.0000000000255795
 10
1457.802728106471
 20
4820.524856625389
 30
0.0000000000011369
 10
1541.999999999977
 20
4818.687830557536
 30
-0.0000000000312639
  0
POLYLINE
  5
15B
330
1F
100
AcDbEntity
  8
Predeterminada
100
AcDb2dPolyline
 66
     1
 10
0.0
 20
0.0
 30
-0.0000000000312639
  0
VERTEX
  5
15C
330
15B
100
AcDbEntity
  8
Predeterminada
100
AcDbVertex
100
AcDb2dVertex
 10
1541.999999999977
 20
4818.687830557536
 30
-0.0000000000312639
  0
VERTEX
  5
15D
330
15B
100
AcDbEntity
  8
Predeterminada
100
AcDbVertex
100
AcDb2dVertex
 10
1542.000000000048
 20
4804.332003066374
 30
-0.0000000000312639
  0
SEQEND
  5
15E
330
15B
100
AcDbEntity
  8
Predeterminada
  0
ARC
  5
15F
330
1F
100
AcDbEntity
  8
Predeterminada
100
AcDbCircle
 10
1563.28216308668
 20
4429.779499701384
 30
9.00000000000068
 40
6.000000000000002
100
AcDbArc
 50
81.82430266227826
 51
124.4573165060482
  0
SPLINE
  5
160
330
1F
100
AcDbEntity
  8
Predeterminada
100
AcDbSpline
210
0.0
220
0.0
230
1.0
 70
    12
 71
     2
 72
     6
 73
     3
 74
     0
 42
0.000000001
 43
0.0000000001
 40
-269.0249539371983
 40
-269.0249539371983
 40
-269.0249539371983
 40
-268.0402650100177
 40
-268.0402650100177
 40
-268.0402650100177
 10
1559.887410291204
 20
4434.72678718622
 30
8.999999999995476
 41
0.9121395434206956
 10
1555.777300710742
 20
4431.906493028915
 30
8.999999999996612
 41
0.9267110233090806
 10
1553.471556019485
 20
4427.487149037337
 30
9.00000000000091
 41
1.0
  0
SPLINE
  5
161
330
1F
100
AcDbEntity
  8
Predeterminada
100
AcDbSpline
210
0.0
220
0.0
230
1.0
 70
    28
 71
     2
 72
     6
 73
     3
 74
     0
 42
0.000000001
 43
0.0000000001
 40
-268.0402650100177
 40
-268.0402650100177
 40
-268.0402650100177
 40
-248.747357354683
 40
-248.747357354683
 40
-248.747357354683
 10
1553.471556019485
 20
4427.487149037337
 30
9.00000000000091
 41
1.0
 10
1508.850339761166
 20
4341.963151208892
 30
9.00000000000091
 41
1.0
 10
1464.229123502846
 20
4256.439153380446
 30
9.000000000002046
 41
1.0
  0
SPLINE
  5
162
330
1F
100
AcDbEntity
  8
Predeterminada
100
AcDbSpline
210
0.0
220
0.0
230
1.0
 70
    12
 71
     2
 72
     6
 73
     3
 74
     0
 42
0.000000001
 43
0.0000000001
 40
-248.747357354683
 40
-248.747357354683
 40
-248.747357354683
 40
-242.4433829300532
 40
-242.4433829300532
 40
-242.4433829300532
 10
1464.229123502846
 20
4256.439153380446
 30
9.000000000002046
 41
1.0
 10
1440.000000000004
 20
4210.000000000001
 30
9.000000000009114
 41
0.4969963540665093
 10
1412.204058607747
 20
4254.396295279299
 30
8.999999999998636
 41
1.0
  0
SPLINE
  5
163
330
1F
100
AcDbEntity
  8
Predeterminada
100
AcDbSpline
210
0.0
220
0.0
230
1.0
 70
    28
 71
     2
 72
     6
 73
     3
 74
     0
 42
0.000000001
 43
0.0000000001
 40
-242.4433829300532
 40
-242.4433829300532
 40
-242.4433829300532
 40
-208.4098423691505
 40
-208.4098423691505
 40
-208.4098423691505
 10
1412.204058607747
 20
4254.396295279299
 30
8.999999999998636
 41
1.0
 10
1321.902648178742
 20
4398.627714714517
 30
8.999999999999773
 41
1.0
 10
1231.601237749737
 20
4542.859134149734
 30
9.00000000000091
 41
1.0
  0
SPLINE
  5
164
330
1F
100
AcDbEntity
  8
Predeterminada
100
AcDbSpline
210
0.0
220
0.0
230
1.0
 70
    12
 71
     2
 72
     6
 73
     3
 74
     0
 42
0.000000001
 43
0.0000000001
 40
-208.4098423691505
 40
-208.4098423691505
 40
-208.4098423691505
 40
-201.4293721906964
 40
-201.4293721906964
 40
-201.4293721906964
 10
1231.601237749737
 20
4542.859134149734
 30
9.00000000000091
 41
1.0
 10
1208.803715037563
 20
4579.271844037234
 30
8.999999999999481
 41
0.7093500572185731
 10
1241.368225644504
 20
4607.292642243098
 30
8.99999999999974
 41
0.8746457764885538
  0
POLYLINE
  5
165
330
1F
100
AcDbEntity
  8
Predeterminada
100
AcDb2dPolyline
 66
     1
 10
0.0
 20
0.0
 30
8.999999999999773
  0
VERTEX
  5
166
330
165
100
AcDbEntity
  8
Predeterminada
100
AcDbVertex
100
AcDb2dVertex
 10
1241.368225644505
 20
4607.292642243097
 30
8.999999999999773
  0
VERTEX
  5
167
330
165
100
AcDbEntity
  8
Predeterminada
100
AcDbVertex
100
AcDb2dVertex
 10
1248.21241821253
 20
4594.976883143762
 30
8.999999999999773
  0
SEQEND
  5
168
330
165
100
AcDbEntity
  8
Predeterminada
  0
ARC
  5
169
330
1F
100
AcDbEntity
  8
Predeterminada
100
AcDbCircle
 10
1251.0970976235
 20
4594.153096341289
 30
8.999999999999773
 40
2.999999999999868
100
AcDbArc
 50
164.062083930875
 51
344.062083934615
  0
POLYLINE
  5
16A
330
1F
100
AcDbEntity
  8
Predeterminada
100
AcDb2dPolyline
 66
     1
 10
0.0
 20
0.0
 30
8.999999999999773
  0
VERTEX
  5
16B
330
16A
100
AcDbEntity
  8
Predeterminada
100
AcDbVertex
100
AcDb2dVertex
 10
1253.981777034523
 20
4593.329309539004
 30
8.999999999999773
  0
VERTEX
  5
16C
330
16A
100
AcDbEntity
  8
Predeterminada
100
AcDbVertex
100
AcDb2dVertex
 10
1262.298534251631
 20
4597.951151154768
 30
8.999999999999773
  0
SEQEND
  5
16D
330
16A
100
AcDbEntity
  8
Predeterminada
  0
ARC
  5
16E
330
1F
100
AcDbEntity
  8
Predeterminada
100
AcDbCircle
 10
1263.122321053926
 20
4600.835830565788
 30
8.999999999999773
 40
2.999999999999869
100
AcDbArc
 50
254.0620839344128
 51
74.5974475052094
  0
POLYLINE
  5
16F
330
1F
100
AcDbEntity
  8
Predeterminada
100
AcDb2dPolyline
 66
     1
 10
0.0
 20
0.0
 30
8.999999999999773
  0
VERTEX
  5
170
330
16F
100
AcDbEntity
  8
Predeterminada
100
AcDbVertex
100
AcDb2dVertex
 10
1263.919118255321
 20
4603.728081284493
 30
8.999999999999773
  0
VERTEX
  5
171
330
16F
100
AcDbEntity
  8
Predeterminada
100
AcDbVertex
100
AcDb2dVertex
 10
1256.823738809671
 20
4616.356521781111
 30
8.999999999999773
  0
SEQEND
  5
172
330
16F
100
AcDbEntity
  8
Predeterminada
  0
SPLINE
  5
173
330
1F
100
AcDbEntity
  8
Predeterminada
100
AcDbSpline
210
0.0
220
0.0
230
1.0
 70
    12
 71
     2
 72
     6
 73
     3
 74
     0
 42
0.000000001
 43
0.0000000001
 40
-195.7337313394407
 40
-195.7337313394407
 40
-195.7337313394407
 40
-134.1206085218063
 40
-134.1206085218063
 40
-134.1206085218063
 10
1256.823738809671
 20
4616.356521781111
 30
8.999999999999655
 41
0.9865633188343788
 10
1560.000000000004
 20
4727.11088107365
 30
9.000000000005866
 41
0.9266655829945394
 10
1863.176261190339
 20
4616.356521781112
 30
8.999999999999083
 41
0.9865633188343789
  0
POLYLINE
  5
174
330
1F
100
AcDbEntity
  8
Predeterminada
100
AcDb2dPolyline
 66
     1
 10
0.0
 20
0.0
 30
8.999999999999082
  0
VERTEX
  5
175
330
174
100
AcDbEntity
  8
Predeterminada
100
AcDbVertex
100
AcDb2dVertex
 10
1863.176261190338
 20
4616.356521781112
 30
8.999999999999082
  0
VERTEX
  5
176
330
174
100
AcDbEntity
  8
Predeterminada
100
AcDbVertex
100
AcDb2dVertex
 10
1856.071195278008
 20
4603.71084119664
 30
8.999999999999082
  0
SEQEND
  5
177
330
174
100
AcDbEntity
  8
Predeterminada
  0
ARC
  5
178
330
1F
100
AcDbEntity
  8
Predeterminada
100
AcDbCircle
 10
1856.881496123075
 20
4600.822344608364
 30
8.999999999999773
 40
2.999999999999869
100
AcDbArc
 50
105.6702342812437
 51
286.2055978577191
  0
POLYLINE
  5
179
330
1F
100
AcDbEntity
  8
Predeterminada
100
AcDb2dPolyline
 66
     1
 10
0.0
 20
0.0
 30
8.999999999999773
  0
VERTEX
  5
17A
330
179
100
AcDbEntity
  8
Predeterminada
100
AcDbVertex
100
AcDb2dVertex
 10
1857.718750902296
 20
4597.941545338253
 30
8.999999999999773
  0
VERTEX
  5
17B
330
179
100
AcDbEntity
  8
Predeterminada
100
AcDbVertex
100
AcDb2dVertex
 10
1866.018222965418
 20
4593.329309538968
 30
8.999999999999773
  0
SEQEND
  5
17C
330
179
100
AcDbEntity
  8
Predeterminada
  0
ARC
  5
17D
330
1F
100
AcDbEntity
  8
Predeterminada
100
AcDbCircle
 10
1868.902902376363
 20
4594.153096341523
 30
8.999999999999773
 40
2.999999999999868
100
AcDbArc
 50
195.9379160707856
 51
15.93791607009968
  0
POLYLINE
  5
17E
330
1F
100
AcDbEntity
  8
Predeterminada
100
AcDb2dPolyline
 66
     1
 10
0.0
 20
0.0
 30
8.999999999999773
  0
VERTEX
  5
17F
330
17E
100
AcDbEntity
  8
Predeterminada
100
AcDbVertex
100
AcDb2dVertex
 10
1871.787581787319
 20
4594.976883144046
 30
8.999999999999773
  0
VERTEX
  5
180
330
17E
100
AcDbEntity
  8
Predeterminada
100
AcDbVertex
100
AcDb2dVertex
 10
1878.63177435529
 20
4607.292642243283
 30
8.999999999999773
  0
SEQEND
  5
181
330
17E
100
AcDbEntity
  8
Predeterminada
  0
SPLINE
  5
182
330
1F
100
AcDbEntity
  8
Predeterminada
100
AcDbSpline
210
0.0
220
0.0
230
1.0
 70
    12
 71
     2
 72
     6
 73
     3
 74
     0
 42
0.000000001
 43
0.0000000001
 40
-128.4249691548933
 40
-128.4249691548933
 40
-128.4249691548933
 40
-121.4444989764108
 40
-121.4444989764108
 40
-121.4444989764108
 10
1878.63177435529
 20
4607.292642243284
 30
8.999999999998458
 41
0.8746457764898963
 10
1911.196284962578
 20
4579.271844037444
 30
8.999999999996861
 41
0.7093500572173902
 10
1888.398762250273
 20
4542.859134149734
 30
9.00000000000091
 41
1.0
  0
SPLINE
  5
183
330
1F
100
AcDbEntity
  8
Predeterminada
100
AcDbSpline
210
0.0
220
0.0
230
1.0
 70
    28
 71
     2
 72
     6
 73
     3
 74
     0
 42
0.000000001
 43
0.0000000001
 40
-121.4444989764108
 40
-121.4444989764108
 40
-121.4444989764108
 40
-108.5406713893776
 40
-108.5406713893776
 40
-108.5406713893776
 10
1888.398762250273
 20
4542.859134149734
 30
9.00000000000091
 41
1.0
 10
1854.16095413987
 20
4488.173746195617
 30
9.00000000000091
 41
1.0
 10
1819.923146029467
 20
4433.488358241501
 30
9.00000000000091
 41
1.0
  0
SPLINE
  5
184
330
1F
100
AcDbEntity
  8
Predeterminada
100
AcDbSpline
210
0.0
220
0.0
230
1.0
 70
    12
 71
     2
 72
     6
 73
     3
 74
     0
 42
0.000000001
 43
0.0000000001
 40
-108.5406713893776
 40
-108.5406713893776
 40
-108.5406713893776
 40
-104.6794410548165
 40
-104.6794410548165
 40
-104.6794410548165
 10
1819.923146029467
 20
4433.488358241501
 30
9.00000000000091
 41
1.0
 10
1809.060375941143
 20
4416.13810046154
 30
9.00000000000041
 41
0.8919651505482095
 10
1789.14914647564
 20
4411.386873231134
 30
9.000000000000044
 41
0.9289546316304307
  0
POLYLINE
  5
185
330
1F
100
AcDbEntity
  8
Predeterminada
100
AcDb2dPolyline
 66
     1
 10
0.0
 20
0.0
 30
9.000000000000043
  0
VERTEX
  5
186
330
185
100
AcDbEntity
  8
Predeterminada
100
AcDbVertex
100
AcDb2dVertex
 10
1789.14914647564
 20
4411.386873231134
 30
9.000000000000043
  0
VERTEX
  5
187
330
185
100
AcDbEntity
  8
Predeterminada
100
AcDbVertex
100
AcDb2dVertex
 10
1770.096069263167
 20
4406.840418707481
 30
9.000000000000043
  0
VERTEX
  5
188
330
185
100
AcDbEntity
  8
Predeterminada
100
AcDbVertex
100
AcDb2dVertex
 10
1727.792872639898
 20
4412.764884397096
 30
9.000000000000043
  0
VERTEX
  5
189
330
185
100
AcDbEntity
  8
Predeterminada
100
AcDbVertex
100
AcDb2dVertex
 10
1728.306041113942
 20
4416.429124852804
 30
9.000000000000043
  0
VERTEX
  5
18A
330
185
100
AcDbEntity
  8
Predeterminada
100
AcDbVertex
100
AcDb2dVertex
 10
1730.234910940024
 20
4430.202073130068
 30
9.000000000000043
  0
SEQEND
  5
18B
330
185
100
AcDbEntity
  8
Predeterminada
  0
ARC
  5
18C
330
1F
100
AcDbEntity
  8
Predeterminada
100
AcDbCircle
 10
1728.428307399986
 20
4432.597106250741
 30
9.000000000001192
 40
2.999999999999869
100
AcDbArc
 50
307.0277087496627
 51
127.0277087535084
  0
POLYLINE
  5
18D
330
1F
100
AcDbEntity
  8
Predeterminada
100
AcDb2dPolyline
 66
     1
 10
0.0
 20
0.0
 30
9.000000000001192
  0
VERTEX
  5
18E
330
18D
100
AcDbEntity
  8
Predeterminada
100
AcDbVertex
100
AcDb2dVertex
 10
1726.621703859787
 20
4434.992139371294
 30
9.000000000001192
  0
VERTEX
  5
18F
330
18D
100
AcDbEntity
  8
Predeterminada
100
AcDbVertex
100
AcDb2dVertex
 10
1717.198942531739
 20
4436.311775489576
 30
9.000000000001192
  0
SEQEND
  5
190
330
18D
100
AcDbEntity
  8
Predeterminada
  0
ARC
  5
191
330
1F
100
AcDbEntity
  8
Predeterminada
100
AcDbCircle
 10
1714.803909411126
 20
4434.505171949459
 30
8.999999999999773
 40
2.999999999999869
100
AcDbArc
 50
37.02770875156644
 51
217.0277087508908
  0
POLYLINE
  5
192
330
1F
100
AcDbEntity
  8
Predeterminada
100
AcDb2dPolyline
 66
     1
 10
0.0
 20
0.0
 30
8.999999999999773
  0
VERTEX
  5
193
330
192
100
AcDbEntity
  8
Predeterminada
100
AcDbVertex
100
AcDb2dVertex
 10
1712.408876290491
 20
4432.69856840937
 30
8.999999999999773
  0
VERTEX
  5
194
330
192
100
AcDbEntity
  8
Predeterminada
100
AcDbVertex
100
AcDb2dVertex
 10
1710.480006464551
 20
4418.925620131937
 30
8.999999999999773
  0
VERTEX
  5
195
330
192
100
AcDbEntity
  8
Predeterminada
100
AcDbVertex
100
AcDb2dVertex
 10
1709.966837990507
 20
4415.261379676229
 30
8.999999999999773
  0
VERTEX
  5
196
330
192
100
AcDbEntity
  8
Predeterminada
100
AcDbVertex
100
AcDb2dVertex
 10
1696.342440001849
 20
4417.169445374864
 30
8.999999999999773
  0
SEQEND
  5
197
330
192
100
AcDbEntity
  8
Predeterminada
  0
ARC
  5
198
330
1F
100
AcDbEntity
  8
Predeterminada
100
AcDbCircle
 10
1693.947406881235
 20
4415.362841834747
 30
8.999999999999773
 40
2.999999999999869
100
AcDbArc
 50
37.02770875156644
 51
217.027708750869
  0
POLYLINE
  5
199
330
1F
100
AcDbEntity
  8
Predeterminada
100
AcDb2dPolyline
 66
     1
 10
0.0
 20
0.0
 30
8.999999999999773
  0
VERTEX
  5
19A
330
199
100
AcDbEntity
  8
Predeterminada
100
AcDbVertex
100
AcDb2dVertex
 10
1691.5523737606
 20
4413.556238294658
 30
8.999999999999773
  0
VERTEX
  5
19B
330
199
100
AcDbEntity
  8
Predeterminada
100
AcDbVertex
100
AcDb2dVertex
 10
1689.644308061986
 20
4399.93184030597
 30
8.999999999999773
  0
VERTEX
  5
19C
330
199
100
AcDbEntity
  8
Predeterminada
100
AcDbVertex
100
AcDb2dVertex
 10
1657.044942421628
 20
4404.49730671645
 30
8.999999999999773
  0
VERTEX
  5
19D
330
199
100
AcDbEntity
  8
Predeterminada
100
AcDbVertex
100
AcDb2dVertex
 10
1658.953008120383
 20
4418.12170470497
 30
8.999999999999773
  0
SEQEND
  5
19E
330
199
100
AcDbEntity
  8
Predeterminada
  0
ARC
  5
19F
330
1F
100
AcDbEntity
  8
Predeterminada
100
AcDbCircle
 10
1657.146404580345
 20
4420.516737825643
 30
9.000000000002329
 40
2.999999999999869
100
AcDbArc
 50
307.0277087496731
 51
127.0277087535084
  0
POLYLINE
  5
1A0
330
1F
100
AcDbEntity
  8
Predeterminada
100
AcDb2dPolyline
 66
     1
 10
0.0
 20
0.0
 30
9.000000000002329
  0
VERTEX
  5
1A1
330
1A0
100
AcDbEntity
  8
Predeterminada
100
AcDbVertex
100
AcDb2dVertex
 10
1655.339801040146
 20
4422.911770946195
 30
9.000000000002329
  0
VERTEX
  5
1A2
330
1A0
100
AcDbEntity
  8
Predeterminada
100
AcDbVertex
100
AcDb2dVertex
 10
1641.715403051369
 20
4424.819836644973
 30
9.000000000002329
  0
VERTEX
  5
1A3
330
1A0
100
AcDbEntity
  8
Predeterminada
100
AcDbVertex
100
AcDb2dVertex
 10
1642.228571525413
 20
4428.484077100682
 30
9.000000000002329
  0
VERTEX
  5
1A4
330
1A0
100
AcDbEntity
  8
Predeterminada
100
AcDbVertex
100
AcDb2dVertex
 10
1644.157441351494
 20
4442.25702537793
 30
9.000000000002329
  0
SEQEND
  5
1A5
330
1A0
100
AcDbEntity
  8
Predeterminada
  0
ARC
  5
1A6
330
1F
100
AcDbEntity
  8
Predeterminada
100
AcDbCircle
 10
1642.350837811455
 20
4444.652058498603
 30
9.000000000001192
 40
2.999999999999869
100
AcDbArc
 50
307.0277087497009
 51
127.0277087534494
  0
POLYLINE
  5
1A7
330
1F
100
AcDbEntity
  8
Predeterminada
100
AcDb2dPolyline
 66
     1
 10
0.0
 20
0.0
 30
9.000000000001192
  0
VERTEX
  5
1A8
330
1A7
100
AcDbEntity
  8
Predeterminada
100
AcDbVertex
100
AcDb2dVertex
 10
1640.544234271259
 20
4447.047091619156
 30
9.000000000001192
  0
VERTEX
  5
1A9
330
1A7
100
AcDbEntity
  8
Predeterminada
100
AcDbVertex
100
AcDb2dVertex
 10
1631.121472943211
 20
4448.366727737453
 30
9.000000000001192
  0
SEQEND
  5
1AA
330
1A7
100
AcDbEntity
  8
Predeterminada
  0
ARC
  5
1AB
330
1F
100
AcDbEntity
  8
Predeterminada
100
AcDbCircle
 10
1628.726439822598
 20
4446.560124197336
 30
8.999999999999773
 40
2.999999999999869
100
AcDbArc
 50
37.02770875156644
 51
217.0277087508743
  0
POLYLINE
  5
1AC
330
1F
100
AcDbEntity
  8
Predeterminada
100
AcDb2dPolyline
 66
     1
 10
0.0
 20
0.0
 30
8.999999999999773
  0
VERTEX
  5
1AD
330
1AC
100
AcDbEntity
  8
Predeterminada
100
AcDbVertex
100
AcDb2dVertex
 10
1626.331406702103
 20
4444.753520657061
 30
8.999999999999773
  0
VERTEX
  5
1AE
330
1AC
100
AcDbEntity
  8
Predeterminada
100
AcDbVertex
100
AcDb2dVertex
 10
1624.402536876023
 20
4430.980572379814
 30
8.999999999999773
  0
VERTEX
  5
1AF
330
1AC
100
AcDbEntity
  8
Predeterminada
100
AcDbVertex
100
AcDb2dVertex
 10
1623.889368401979
 20
4427.316331924105
 30
8.999999999999773
  0
VERTEX
  5
1B0
330
1AC
100
AcDbEntity
  8
Predeterminada
100
AcDbVertex
100
AcDb2dVertex
 10
1573.463968112231
 20
4434.378293613718
 30
8.999999999999773
  0
VERTEX
  5
1B1
330
1AC
100
AcDbEntity
  8
Predeterminada
100
AcDbVertex
100
AcDb2dVertex
 10
1564.135417662338
 20
4435.718519538792
 30
8.999999999999773
  0
SEQEND
  5
1B2
330
1AC
100
AcDbEntity
  8
Predeterminada
  0
SPLINE
  5
1B3
330
1F
100
AcDbEntity
  8
Predeterminada
100
AcDbSpline
210
0.0
220
0.0
230
1.0
 70
    28
 71
     2
 72
     6
 73
     3
 74
     0
 42
0.000000001
 43
0.0000000001
 40
-104.4385686126708
 40
-104.4385686126708
 40
-104.4385686126708
 40
-78.15057838816777
 40
-78.15057838816777
 40
-78.15057838816777
 10
1278.81129200948
 20
4542.831836399851
 30
8.999999999999773
 41
1.0
 10
1348.561384285909
 20
4431.42543901389
 30
8.999999999999773
 41
1.0
 10
1418.311476562337
 20
4320.019041627927
 30
8.999999999999773
 41
1.0
  0
SPLINE
  5
1B4
330
1F
100
AcDbEntity
  8
Predeterminada
100
AcDbSpline
210
0.0
220
0.0
230
1.0
 70
    12
 71
     2
 72
     8
 73
     5
 74
     0
 42
0.000000001
 43
0.0000000001
 40
-78.15057838816777
 40
-78.15057838816777
 40
-78.15057838816777
 40
-76.0492535799579
 40
-76.0492535799579
 40
-73.94792877174805
 40
-73.94792877174805
 40
-73.94792877174805
 10
1418.311476562337
 20
4320.019041627927
 30
8.999999999999773
 41
1.0
 10
1424.463565261939
 20
4310.19278884384
 30
8.99999999999912
 41
0.8651578913893405
 10
1436.047887595964
 20
4310.647668175065
 30
8.999999999999773
 41
1.0
 10
1447.632209929988
 20
4311.102547506288
 30
8.99999999999912
 41
0.8651578913893405
 10
1452.994853159069
 20
4321.380947028692
 30
8.999999999999773
 41
1.0
  0
SPLINE
  5
1B5
330
1F
100
AcDbEntity
  8
Predeterminada
100
AcDbSpline
210
0.0
220
0.0
230
1.0
 70
    28
 71
     2
 72
     6
 73
     3
 74
     0
 42
0.000000001
 43
0.0000000001
 40
-73.94792877174805
 40
-73.94792877174805
 40
-73.94792877174805
 40
-59.87177853232892
 40
-59.87177853232892
 40
-59.87177853232892
 10
1452.994853159069
 20
4321.380947028692
 30
8.999999999999773
 41
1.0
 10
1490.397840651358
 20
4393.070006388913
 30
8.999999999999773
 41
1.0
 10
1527.800828143646
 20
4464.759065749132
 30
8.999999999999773
 41
1.0
  0
SPLINE
  5
1B6
330
1F
100
AcDbEntity
  8
Predeterminada
100
AcDbSpline
210
0.0
220
0.0
230
1.0
 70
    12
 71
     2
 72
     6
 73
     3
 74
     0
 42
0.000000001
 43
0.0000000001
 40
-59.87177853232892
 40
-59.87177853232892
 40
-59.87177853232892
 40
-56.18462319898951
 40
-56.18462319898951
 40
-56.18462319898951
 10
1527.800828143646
 20
4464.759065749132
 30
8.999999999999773
 41
1.0
 10
1537.593494114426
 20
4483.528342193126
 30
8.999999999999448
 41
0.8170468975383499
 10
1558.55919899383
 20
4480.592143297265
 30
8.999999999999773
 41
1.0
  0
POLYLINE
  5
1B7
330
1F
100
AcDbEntity
  8
Predeterminada
100
AcDb2dPolyline
 66
     1
 10
0.0
 20
0.0
 30
8.999999999999773
  0
VERTEX
  5
1B8
330
1B7
100
AcDbEntity
  8
Predeterminada
100
AcDbVertex
100
AcDb2dVertex
 10
1558.55919899383
 20
4480.592143297265
 30
8.999999999999773
  0
VERTEX
  5
1B9
330
1B7
100
AcDbEntity
  8
Predeterminada
100
AcDbVertex
100
AcDb2dVertex
 10
1763.313503811243
 20
4451.916772391031
 30
8.999999999999773
  0
SEQEND
  5
1BA
330
1B7
100
AcDbEntity
  8
Predeterminada
  0
SPLINE
  5
1BB
330
1F
100
AcDbEntity
  8
Predeterminada
100
AcDbSpline
210
0.0
220
0.0
230
1.0
 70
    12
 71
     2
 72
     6
 73
     3
 74
     0
 42
0.000000001
 43
0.0000000001
 40
-53.8254542299207
 40
-53.8254542299207
 40
-53.8254542299207
 40
-50.37377875154915
 40
-50.37377875154915
 40
-50.37377875154915
 10
1763.313503811243
 20
4451.916772391031
 30
8.999999999999773
 41
1.0
 10
1782.578755630632
 20
4449.218718047238
 30
9.000000000000687
 41
0.8390404057982112
 10
1792.901848786599
 20
4465.706991838018
 30
8.999999999999773
 41
1.0
  0
SPLINE
  5
1BC
330
1F
100
AcDbEntity
  8
Predeterminada
100
AcDbSpline
210
0.0
220
0.0
230
1.0
 70
    28
 71
     2
 72
     6
 73
     3
 74
     0
 42
0.000000001
 43
0.0000000001
 40
-50.37377875154915
 40
-50.37377875154915
 40
-50.37377875154915
 40
-41.27440381671588
 40
-41.27440381671588
 40
-41.27440381671588
 10
1792.901848786599
 20
4465.706991838018
 30
8.999999999999773
 41
1.0
 10
1817.045278388564
 20
4504.269414118935
 30
8.999999999999773
 41
1.0
 10
1841.188707990529
 20
4542.831836399851
 30
8.999999999999773
 41
1.0
  0
SPLINE
  5
1BD
330
1F
100
AcDbEntity
  8
Predeterminada
100
AcDbSpline
210
0.0
220
0.0
230
1.0
 70
    12
 71
     2
 72
     8
 73
     5
 74
     0
 42
0.000000001
 43
0.0000000001
 40
-41.27440381671588
 40
-41.27440381671588
 40
-41.27440381671588
 40
-38.55883807183341
 40
-38.55883807183341
 40
-35.84327232695095
 40
-35.84327232695095
 40
-35.84327232695095
 10
1841.188707990529
 20
4542.831836399851
 30
8.999999999999773
 41
1.0
 10
1848.929868439413
 20
4555.196189894597
 30
9.000000000000723
 41
0.899315646371081
 10
1843.985244788914
 20
4568.920383837895
 30
9.000000000000341
 41
1.0
 10
1839.040621138416
 20
4582.644577781195
 30
9.000000000000723
 41
0.899315646371081
 10
1825.192481972056
 20
4587.230626632601
 30
9.000000000000341
 41
1.0
  0
SPLINE
  5
1BE
330
1F
100
AcDbEntity
  8
Predeterminada
100
AcDbSpline
210
0.0
220
0.0
230
1.0
 70
    12
 71
     2
 72
     6
 73
     3
 74
     0
 42
0.000000001
 43
0.0000000001
 40
-35.84327232695095
 40
-35.84327232695095
 40
-35.84327232695095
 40
-9.621340802525005
 40
-9.621340802525005
 40
-9.621340802525005
 10
1825.192481972056
 20
4587.230626632601
 30
9.000000000000341
 41
1.0
 10
1704.796938592674
 20
4627.101676222486
 30
9.00000000000222
 41
0.9763264602788939
 10
1577.999999999994
 20
4629.807932777274
 30
9.000000000000824
 41
0.9747601699310815
  0
POLYLINE
  5
1BF
330
1F
100
AcDbEntity
  8
Predeterminada
100
AcDb2dPolyline
 66
     1
 10
0.0
 20
0.0
 30
9.000000000000824
  0
VERTEX
  5
1C0
330
1BF
100
AcDbEntity
  8
Predeterminada
100
AcDbVertex
100
AcDb2dVertex
 10
1577.999999999995
 20
4629.807932777275
 30
9.000000000000824
  0
VERTEX
  5
1C1
330
1BF
100
AcDbEntity
  8
Predeterminada
100
AcDbVertex
100
AcDb2dVertex
 10
1577.999999999994
 20
4643.75735931288
 30
9.000000000000824
  0
SEQEND
  5
1C2
330
1BF
100
AcDbEntity
  8
Predeterminada
  0
ARC
  5
1C3
330
1F
100
AcDbEntity
  8
Predeterminada
100
AcDbCircle
 10
1575.878679656505
 20
4645.87867965651
 30
9.000000000001192
 40
2.999999999999869
100
AcDbArc
 50
314.9999999981023
 51
134.9999999981208
  0
POLYLINE
  5
1C4
330
1F
100
AcDbEntity
  8
Predeterminada
100
AcDb2dPolyline
 66
     1
 10
0.0
 20
0.0
 30
9.000000000001192
  0
VERTEX
  5
1C5
330
1C4
100
AcDbEntity
  8
Predeterminada
100
AcDbVertex
100
AcDb2dVertex
 10
1573.757359313015
 20
4648.000000000139
 30
9.000000000001192
  0
VERTEX
  5
1C6
330
1C4
100
AcDbEntity
  8
Predeterminada
100
AcDbVertex
100
AcDb2dVertex
 10
1559.999999999995
 20
4648.0
 30
9.000000000001192
  0
VERTEX
  5
1C7
330
1C4
100
AcDbEntity
  8
Predeterminada
100
AcDbVertex
100
AcDb2dVertex
 10
1546.242640687114
 20
4647.999999999861
 30
9.000000000001192
  0
SEQEND
  5
1C8
330
1C4
100
AcDbEntity
  8
Predeterminada
  0
ARC
  5
1C9
330
1F
100
AcDbEntity
  8
Predeterminada
100
AcDbCircle
 10
1544.121320343485
 20
4645.878679656371
 30
8.999999999999773
 40
2.999999999999869
100
AcDbArc
 50
44.99999999812078
 51
224.9999999974545
  0
POLYLINE
  5
1CA
330
1F
100
AcDbEntity
  8
Predeterminada
100
AcDb2dPolyline
 66
     1
 10
0.0
 20
0.0
 30
9.000000000000037
  0
VERTEX
  5
1CB
330
1CA
100
AcDbEntity
  8
Predeterminada
100
AcDbVertex
100
AcDb2dVertex
 10
1541.999999999995
 20
4643.757359312742
 30
9.000000000000037
  0
VERTEX
  5
1CC
330
1CA
100
AcDbEntity
  8
Predeterminada
100
AcDbVertex
100
AcDb2dVertex
 10
1541.999999999995
 20
4629.807932777275
 30
9.000000000000037
  0
SEQEND
  5
1CD
330
1CA
100
AcDbEntity
  8
Predeterminada
  0
SPLINE
  5
1CE
330
1F
100
AcDbEntity
  8
Predeterminada
100
AcDbSpline
210
0.0
220
0.0
230
1.0
 70
    12
 71
     2
 72
     6
 73
     3
 74
     0
 42
0.000000001
 43
0.0000000001
 40
-1.885040784345961
 40
-1.885040784345961
 40
-1.885040784345961
 40
24.33689074007789
 40
24.33689074007789
 40
24.33689074007789
 10
1541.999999999994
 20
4629.807932777274
 30
9.000000000000737
 41
0.9747601699310819
 10
1415.203061407326
 20
4627.101676222483
 30
9.000000000002784
 41
0.9763264602788959
 10
1294.807518027953
 20
4587.230626632601
 30
8.999999999999773
 41
1.0
  0
SPLINE
  5
1CF
330
1F
100
AcDbEntity
  8
Predeterminada
100
AcDbSpline
210
0.0
220
0.0
230
1.0
 70
    12
 71
     2
 72
     8
 73
     5
 74
     0
 42
0.000000001
 43
0.0000000001
 40
24.33689074007789
 40
24.33689074007789
 40
24.33689074007789
 40
27.05245648496037
 40
27.05245648496037
 40
29.76802222984286
 40
29.76802222984286
 40
29.76802222984286
 10
1294.807518027953
 20
4587.230626632601
 30
8.999999999999773
 41
1.0
 10
1280.959378861593
 20
4582.644577781195
 30
9.000000000000709
 41
0.8993156463710823
 10
1276.014755211095
 20
4568.920383837895
 30
9.000000000000341
 41
1.0
 10
1271.070131560596
 20
4555.196189894597
 30
9.000000000000709
 41
0.8993156463710823
 10
1278.81129200948
 20
4542.831836399851
 30
8.999999999999773
 41
1.0
  0
ARC
  5
1D0
330
1F
100
AcDbEntity
  8
Predeterminada
100
AcDbCircle
 10
1433.121320343495
 20
4285.878679656371
 30
8.999999999999773
 40
2.999999999999869
100
AcDbArc
 50
44.99999999812078
 51
224.999999997433
  0
POLYLINE
  5
1D1
330
1F
100
AcDbEntity
  8
Predeterminada
100
AcDb2dPolyline
 66
     1
 10
0.0
 20
0.0
 30
8.999999999999773
  0
VERTEX
  5
1D2
330
1D1
100
AcDbEntity
  8
Predeterminada
100
AcDbVertex
100
AcDb2dVertex
 10
1431.000000000005
 20
4283.757359312742
 30
8.999999999999773
  0
VERTEX
  5
1D3
330
1D1
100
AcDbEntity
  8
Predeterminada
100
AcDbVertex
100
AcDb2dVertex
 10
1431.000000000075
 20
4274.242640687051
 30
8.999999999999773
  0
SEQEND
  5
1D4
330
1D1
100
AcDbEntity
  8
Predeterminada
  0
ARC
  5
1D5
330
1F
100
AcDbEntity
  8
Predeterminada
100
AcDbCircle
 10
1433.121320343565
 20
4272.121320343421
 30
8.999999999999773
 40
2.999999999999869
100
AcDbArc
 50
134.9999999981208
 51
315.0000000037001
  0
POLYLINE
  5
1D6
330
1F
100
AcDbEntity
  8
Predeterminada
100
AcDb2dPolyline
 66
     1
 10
0.0
 20
0.0
 30
8.999999999999773
  0
VERTEX
  5
1D7
330
1D6
100
AcDbEntity
  8
Predeterminada
100
AcDbVertex
100
AcDb2dVertex
 10
1435.242640687261
 20
4269.999999999998
 30
8.999999999999773
  0
VERTEX
  5
1D8
330
1D6
100
AcDbEntity
  8
Predeterminada
100
AcDbVertex
100
AcDb2dVertex
 10
1444.757359313051
 20
4269.999999999974
 30
8.999999999999773
  0
SEQEND
  5
1D9
330
1D6
100
AcDbEntity
  8
Predeterminada
  0
ARC
  5
1DA
330
1F
100
AcDbEntity
  8
Predeterminada
100
AcDbCircle
 10
1446.878679656515
 20
4272.121320343629
 30
8.999999999999773
 40
2.999999999999869
100
AcDbArc
 50
225.0000000025916
 51
45.00000000188537
  0
POLYLINE
  5
1DB
330
1F
100
AcDbEntity
  8
Predeterminada
100
AcDb2dPolyline
 66
     1
 10
0.0
 20
0.0
 30
8.999999999999773
  0
VERTEX
  5
1DC
330
1DB
100
AcDbEntity
  8
Predeterminada
100
AcDbVertex
100
AcDb2dVertex
 10
1449.000000000004
 20
4274.242640687258
 30
8.999999999999773
  0
VERTEX
  5
1DD
330
1DB
100
AcDbEntity
  8
Predeterminada
100
AcDbVertex
100
AcDb2dVertex
 10
1449.000000000005
 20
4283.757359312881
 30
8.999999999999773
  0
SEQEND
  5
1DE
330
1DB
100
AcDbEntity
  8
Predeterminada
  0
ARC
  5
1DF
330
1F
100
AcDbEntity
  8
Predeterminada
100
AcDbCircle
 10
1446.878679656515
 20
4285.87867965651
 30
9.000000000001192
 40
2.999999999999869
100
AcDbArc
 50
314.9999999981208
 51
134.9999999981208
  0
POLYLINE
  5
1E0
330
1F
100
AcDbEntity
  8
Predeterminada
100
AcDb2dPolyline
 66
     1
 10
0.0
 20
0.0
 30
9.000000000001192
  0
VERTEX
  5
1E1
330
1E0
100
AcDbEntity
  8
Predeterminada
100
AcDbVertex
100
AcDb2dVertex
 10
1444.757359313025
 20
4288.000000000139
 30
9.000000000001192
  0
VERTEX
  5
1E2
330
1E0
100
AcDbEntity
  8
Predeterminada
100
AcDbVertex
100
AcDb2dVertex
 10
1435.242640687124
 20
4287.999999999861
 30
9.000000000001192
  0
SEQEND
  5
1E3
330
1E0
100
AcDbEntity
  8
Predeterminada
  0
SPLINE
  5
1E4
330
1F
100
AcDbEntity
  8
Predeterminada
100
AcDbSpline
210
0.0
220
0.0
230
1.0
 70
    24
 71
     2
 72
     6
 73
     3
 74
     0
 42
0.000000001
 43
0.0000000001
 40
201.8814130481655
 40
201.8814130481655
 40
201.8814130481655
 40
240.2814130481655
 40
240.2814130481655
 40
240.2814130481655
 10
2845.999999999963
 20
4862.000000000001
 30
-0.0000000000002132
 10
2845.999999999963
 20
4670.0
 30
-0.0000000000001421
 10
2845.999999999963
 20
4478.0
 30
-0.0000000000000711
  0
SPLINE
  5
1E5
330
1F
100
AcDbEntity
  8
Predeterminada
100
AcDbSpline
210
0.0
220
0.0
230
1.0
 70
    12
 71
     2
 72
     6
 73
     3
 74
     0
 42
0.000000001
 43
0.0000000001
 40
240.2814130481655
 40
240.2814130481655
 40
240.2814130481655
 40
243.1088464363983
 40
243.1088464363983
 40
243.1088464363983
 10
2845.999999999963
 20
4478.0
 30
-0.0000000000000711
 41
1.0
 10
2845.999999999963
 20
4460.0
 30
-0.0000000000007034
 41
0.7071067811865532
 10
2827.999999999963
 20
4460.0
 30
-0.0000000000002132
 41
1.0
  0
SPLINE
  5
1E6
330
1F
100
AcDbEntity
  8
Predeterminada
100
AcDbSpline
210
0.0
220
0.0
230
1.0
 70
    12
 71
     2
 72
     6
 73
     3
 74
     0
 42
0.000000001
 43
0.0000000001
 40
243.1088464363983
 40
243.1088464363983
 40
243.1088464363983
 40
245.9362798246308
 40
245.9362798246308
 40
245.9362798246308
 10
2827.999999999963
 20
4460.0
 30
-0.0000000000002132
 41
1.0
 10
2809.999999999964
 20
4460.000000000002
 30
0.0000000000361247
 41
0.7071067811866228
 10
2809.999999999964
 20
4478.000000000001
 30
0.0000000000002132
 41
1.0
  0
POLYLINE
  5
1E7
330
1F
100
AcDbEntity
  8
Predeterminada
100
AcDb2dPolyline
 66
     1
 10
0.0
 20
0.0
 30
0.0000000000002132
  0
VERTEX
  5
1E8
330
1E7
100
AcDbEntity
  8
Predeterminada
100
AcDbVertex
100
AcDb2dVertex
 10
2809.999999999964
 20
4478.000000000001
 30
0.0000000000002132
  0
VERTEX
  5
1E9
330
1E7
100
AcDbEntity
  8
Predeterminada
100
AcDbVertex
100
AcDb2dVertex
 10
2809.999999999964
 20
4544.85022624668
 30
0.0000000000002132
  0
VERTEX
  5
1EA
330
1E7
100
AcDbEntity
  8
Predeterminada
100
AcDbVertex
100
AcDb2dVertex
 10
2824.121920147352
 20
4547.851933037388
 30
0.0000000000002132
  0
SEQEND
  5
1EB
330
1E7
100
AcDbEntity
  8
Predeterminada
  0
ARC
  5
1EC
330
1F
100
AcDbEntity
  8
Predeterminada
100
AcDbCircle
 10
2825.551990221439
 20
4550.658603588628
 30
-0.0000000000002132
 40
3.149999999999862
100
AcDbArc
 50
243.0000000018812
 51
39.00000000189489
  0
POLYLINE
  5
1ED
330
1F
100
AcDbEntity
  8
Predeterminada
100
AcDb2dPolyline
 66
     1
 10
0.0
 20
0.0
 30
-0.0000000000002132
  0
VERTEX
  5
1EE
330
1ED
100
AcDbEntity
  8
Predeterminada
100
AcDbVertex
100
AcDb2dVertex
 10
2827.999999999963
 20
4552.640962820516
 30
-0.0000000000002132
  0
VERTEX
  5
1EF
330
1ED
100
AcDbEntity
  8
Predeterminada
100
AcDbVertex
100
AcDb2dVertex
 10
2827.999999999963
 20
4562.182355507144
 30
-0.0000000000002132
  0
SEQEND
  5
1F0
330
1ED
100
AcDbEntity
  8
Predeterminada
  0
ARC
  5
1F1
330
1F
100
AcDbEntity
  8
Predeterminada
100
AcDbCircle
 10
2826.017640768222
 20
4564.630365285788
 30
0.00000000000142
 40
3.149999999999862
100
AcDbArc
 50
308.9999999984367
 51
153.0000000012043
  0
POLYLINE
  5
1F2
330
1F
100
AcDbEntity
  8
Predeterminada
100
AcDb2dPolyline
 66
     1
 10
0.0
 20
0.0
 30
0.00000000000142
  0
VERTEX
  5
1F3
330
1F2
100
AcDbEntity
  8
Predeterminada
100
AcDbVertex
100
AcDb2dVertex
 10
2823.210970216999
 20
4566.060435359907
 30
0.00000000000142
  0
VERTEX
  5
1F4
330
1F2
100
AcDbEntity
  8
Predeterminada
100
AcDbVertex
100
AcDb2dVertex
 10
2809.999999999964
 20
4563.252356954252
 30
0.00000000000142
  0
VERTEX
  5
1F5
330
1F2
100
AcDbEntity
  8
Predeterminada
100
AcDbVertex
100
AcDb2dVertex
 10
2809.999999999964
 20
4661.0
 30
0.00000000000142
  0
VERTEX
  5
1F6
330
1F2
100
AcDbEntity
  8
Predeterminada
100
AcDbVertex
100
AcDb2dVertex
 10
2823.757359313009
 20
4660.999999999975
 30
0.00000000000142
  0
SEQEND
  5
1F7
330
1F2
100
AcDbEntity
  8
Predeterminada
  0
ARC
  5
1F8
330
1F
100
AcDbEntity
  8
Predeterminada
100
AcDbCircle
 10
2825.878679656473
 20
4663.121320343629
 30
-0.0000000000001421
 40
2.999999999999869
100
AcDbArc
 50
225.0000000025916
 51
45.00000000187923
  0
POLYLINE
  5
1F9
330
1F
100
AcDbEntity
  8
Predeterminada
100
AcDb2dPolyline
 66
     1
 10
0.0
 20
0.0
 30
-0.0000000000001421
  0
VERTEX
  5
1FA
330
1F9
100
AcDbEntity
  8
Predeterminada
100
AcDbVertex
100
AcDb2dVertex
 10
2827.999999999963
 20
4665.242640687258
 30
-0.0000000000001421
  0
VERTEX
  5
1FB
330
1F9
100
AcDbEntity
  8
Predeterminada
100
AcDbVertex
100
AcDb2dVertex
 10
2827.999999999963
 20
4674.757359312881
 30
-0.0000000000001421
  0
SEQEND
  5
1FC
330
1F9
100
AcDbEntity
  8
Predeterminada
  0
ARC
  5
1FD
330
1F
100
AcDbEntity
  8
Predeterminada
100
AcDbCircle
 10
2825.878679656473
 20
4676.87867965651
 30
0.000000000001278
 40
2.999999999999869
100
AcDbArc
 50
314.999999998127
 51
134.9999999981208
  0
POLYLINE
  5
1FE
330
1F
100
AcDbEntity
  8
Predeterminada
100
AcDb2dPolyline
 66
     1
 10
0.0
 20
0.0
 30
-0.0000000000001421
  0
VERTEX
  5
1FF
330
1FE
100
AcDbEntity
  8
Predeterminada
100
AcDbVertex
100
AcDb2dVertex
 10
2823.757359312844
 20
4679.0
 30
-0.0000000000001421
  0
VERTEX
  5
200
330
1FE
100
AcDbEntity
  8
Predeterminada
100
AcDbVertex
100
AcDb2dVertex
 10
2809.999999999964
 20
4679.0
 30
-0.0000000000001421
  0
VERTEX
  5
201
330
1FE
100
AcDbEntity
  8
Predeterminada
100
AcDbVertex
100
AcDb2dVertex
 10
2809.999999999964
 20
4776.747643045575
 30
-0.0000000000001421
  0
VERTEX
  5
202
330
1FE
100
AcDbEntity
  8
Predeterminada
100
AcDbVertex
100
AcDb2dVertex
 10
2823.210970217091
 20
4773.939564639903
 30
-0.0000000000001421
  0
SEQEND
  5
203
330
1FE
100
AcDbEntity
  8
Predeterminada
  0
ARC
  5
204
330
1F
100
AcDbEntity
  8
Predeterminada
100
AcDbCircle
 10
2826.017640768237
 20
4775.369634714176
 30
-0.0000000000002842
 40
3.149999999999862
100
AcDbArc
 50
207.0000000019179
 51
51.0000000018939
  0
POLYLINE
  5
205
330
1F
100
AcDbEntity
  8
Predeterminada
100
AcDb2dPolyline
 66
     1
 10
0.0
 20
0.0
 30
-0.0000000000002842
  0
VERTEX
  5
206
330
205
100
AcDbEntity
  8
Predeterminada
100
AcDbVertex
100
AcDb2dVertex
 10
2827.999999999963
 20
4777.817644492831
 30
-0.0000000000002842
  0
VERTEX
  5
207
330
205
100
AcDbEntity
  8
Predeterminada
100
AcDbVertex
100
AcDb2dVertex
 10
2827.999999999963
 20
4787.359037179478
 30
-0.0000000000002842
  0
SEQEND
  5
208
330
205
100
AcDbEntity
  8
Predeterminada
  0
ARC
  5
209
330
1F
100
AcDbEntity
  8
Predeterminada
100
AcDbCircle
 10
2825.551990221456
 20
4789.341396411386
 30
0.0000000000012069
 40
3.149999999999862
100
AcDbArc
 50
320.9999999976297
 51
117.0000000028315
  0
POLYLINE
  5
20A
330
1F
100
AcDbEntity
  8
Predeterminada
100
AcDb2dPolyline
 66
     1
 10
0.0
 20
0.0
 30
0.0000000000012069
  0
VERTEX
  5
20B
330
20A
100
AcDbEntity
  8
Predeterminada
100
AcDbVertex
100
AcDb2dVertex
 10
2824.121920147137
 20
4792.148066962508
 30
0.0000000000012069
  0
VERTEX
  5
20C
330
20A
100
AcDbEntity
  8
Predeterminada
100
AcDbVertex
100
AcDb2dVertex
 10
2809.999999999964
 20
4795.149773753166
 30
0.0000000000012069
  0
VERTEX
  5
20D
330
20A
100
AcDbEntity
  8
Predeterminada
100
AcDbVertex
100
AcDb2dVertex
 10
2809.999999999964
 20
4861.999999999999
 30
0.0000000000012069
  0
SEQEND
  5
20E
330
20A
100
AcDbEntity
  8
Predeterminada
  0
SPLINE
  5
20F
330
1F
100
AcDbEntity
  8
Predeterminada
100
AcDbSpline
210
0.0
220
0.0
230
1.0
 70
    12
 71
     2
 72
     6
 73
     3
 74
     0
 42
0.000000001
 43
0.0000000001
 40
296.0163664968329
 40
296.0163664968329
 40
296.0163664968329
 40
298.8437998850658
 40
298.8437998850658
 40
298.8437998850658
 10
2809.999999999964
 20
4861.999999999999
 30
-0.0000000000002132
 41
1.0
 10
2809.999999999963
 20
4880.0
 30
-0.0000000000858652
 41
0.7071067811865319
 10
2827.999999999963
 20
4880.000000000001
 30
-0.0000000000004974
 41
1.0
  0
SPLINE
  5
210
330
1F
100
AcDbEntity
  8
Predeterminada
100
AcDbSpline
210
0.0
220
0.0
230
1.0
 70
    12
 71
     2
 72
     6
 73
     3
 74
     0
 42
0.000000001
 43
0.0000000001
 40
298.8437998850658
 40
298.8437998850658
 40
298.8437998850658
 40
301.6712332732988
 40
301.6712332732988
 40
301.6712332732988
 10
2827.999999999963
 20
4880.000000000001
 30
-0.0000000000004974
 41
1.0
 10
2845.999999999963
 20
4879.999999999999
 30
-0.0000000000322057
 41
0.7071067811866314
 10
2845.999999999963
 20
4862.000000000001
 30
-0.0000000000002132
 41
1.0
  0
ARC
  5
211
330
1F
100
AcDbEntity
  8
Predeterminada
100
AcDbCircle
 10
2745.551990221465
 20
4789.341396411371
 30
0.000000000001349
 40
3.149999999999862
100
AcDbArc
 50
320.9999999976943
 51
117.0000000023654
  0
POLYLINE
  5
212
330
1F
100
AcDbEntity
  8
Predeterminada
100
AcDb2dPolyline
 66
     1
 10
0.0
 20
0.0
 30
0.000000000001349
  0
VERTEX
  5
213
330
212
100
AcDbEntity
  8
Predeterminada
100
AcDbVertex
100
AcDb2dVertex
 10
2744.121920147169
 20
4792.148066962505
 30
0.000000000001349
  0
VERTEX
  5
214
330
212
100
AcDbEntity
  8
Predeterminada
100
AcDbVertex
100
AcDb2dVertex
 10
2729.999999999974
 20
4795.149773753166
 30
0.000000000001349
  0
VERTEX
  5
215
330
212
100
AcDbEntity
  8
Predeterminada
100
AcDbVertex
100
AcDb2dVertex
 10
2729.999999999974
 20
4861.999999999999
 30
0.000000000001349
  0
SEQEND
  5
216
330
212
100
AcDbEntity
  8
Predeterminada
  0
SPLINE
  5
217
330
1F
100
AcDbEntity
  8
Predeterminada
100
AcDbSpline
210
0.0
220
0.0
230
1.0
 70
    12
 71
     2
 72
     6
 73
     3
 74
     0
 42
0.000000001
 43
0.0000000001
 40
196.2265462716978
 40
196.2265462716978
 40
196.2265462716978
 40
199.0539796599307
 40
199.0539796599307
 40
199.0539796599307
 10
2729.999999999974
 20
4861.999999999999
 30
-0.0000000000000711
 41
1.0
 10
2729.999999999973
 20
4880.0
 30
-0.0000000000857231
 41
0.7071067811865319
 10
2747.999999999974
 20
4880.000000000001
 30
-0.0000000000003553
 41
1.0
  0
SPLINE
  5
218
330
1F
100
AcDbEntity
  8
Predeterminada
100
AcDbSpline
210
0.0
220
0.0
230
1.0
 70
    12
 71
     2
 72
     6
 73
     3
 74
     0
 42
0.000000001
 43
0.0000000001
 40
199.0539796599307
 40
199.0539796599307
 40
199.0539796599307
 40
201.8814130481637
 40
201.8814130481637
 40
201.8814130481637
 10
2747.999999999974
 20
4880.000000000001
 30
-0.0000000000003553
 41
1.0
 10
2765.999999999973
 20
4879.999999999999
 30
-0.0000000000320636
 41
0.7071067811866314
 10
2765.999999999974
 20
4862.000000000001
 30
-0.0000000000000711
 41
1.0
  0
SPLINE
  5
219
330
1F
100
AcDbEntity
  8
Predeterminada
100
AcDbSpline
210
0.0
220
0.0
230
1.0
 70
    24
 71
     2
 72
     6
 73
     3
 74
     0
 42
0.000000001
 43
0.0000000001
 40
201.8814130481637
 40
201.8814130481637
 40
201.8814130481637
 40
240.2814130481636
 40
240.2814130481636
 40
240.2814130481636
 10
2765.999999999974
 20
4862.000000000001
 30
-0.0000000000000711
 10
2765.999999999974
 20
4670.0
 30
0.0
 10
2765.999999999974
 20
4478.0
 30
0.0000000000000711
  0
SPLINE
  5
21A
330
1F
100
AcDbEntity
  8
Predeterminada
100
AcDbSpline
210
0.0
220
0.0
230
1.0
 70
    12
 71
     2
 72
     6
 73
     3
 74
     0
 42
0.000000001
 43
0.0000000001
 40
240.2814130481636
 40
240.2814130481636
 40
240.2814130481636
 40
243.1088464363964
 40
243.1088464363964
 40
243.1088464363964
 10
2765.999999999974
 20
4478.0
 30
0.0000000000000711
 41
1.0
 10
2765.999999999974
 20
4460.0
 30
-0.0000000000005613
 41
0.7071067811865532
 10
2747.999999999974
 20
4460.0
 30
-0.0000000000000711
 41
1.0
  0
SPLINE
  5
21B
330
1F
100
AcDbEntity
  8
Predeterminada
100
AcDbSpline
210
0.0
220
0.0
230
1.0
 70
    12
 71
     2
 72
     6
 73
     3
 74
     0
 42
0.000000001
 43
0.0000000001
 40
243.1088464363964
 40
243.1088464363964
 40
243.1088464363964
 40
245.9362798246289
 40
245.9362798246289
 40
245.9362798246289
 10
2747.999999999974
 20
4460.0
 30
-0.0000000000000711
 41
1.0
 10
2729.999999999974
 20
4460.000000000002
 30
0.0000000000362668
 41
0.7071067811866228
 10
2729.999999999974
 20
4478.000000000001
 30
0.0000000000003553
 41
1.0
  0
POLYLINE
  5
21C
330
1F
100
AcDbEntity
  8
Predeterminada
100
AcDb2dPolyline
 66
     1
 10
0.0
 20
0.0
 30
0.0000000000003553
  0
VERTEX
  5
21D
330
21C
100
AcDbEntity
  8
Predeterminada
100
AcDbVertex
100
AcDb2dVertex
 10
2729.999999999974
 20
4478.000000000001
 30
0.0000000000003553
  0
VERTEX
  5
21E
330
21C
100
AcDbEntity
  8
Predeterminada
100
AcDbVertex
100
AcDb2dVertex
 10
2729.999999999974
 20
4544.85022624668
 30
0.0000000000003553
  0
VERTEX
  5
21F
330
21C
100
AcDbEntity
  8
Predeterminada
100
AcDbVertex
100
AcDb2dVertex
 10
2744.121920147363
 20
4547.851933037388
 30
0.0000000000003553
  0
SEQEND
  5
220
330
21C
100
AcDbEntity
  8
Predeterminada
  0
ARC
  5
221
330
1F
100
AcDbEntity
  8
Predeterminada
100
AcDbCircle
 10
2745.551990221449
 20
4550.658603588628
 30
-0.0000000000000711
 40
3.149999999999862
100
AcDbArc
 50
243.000000001896
 51
39.00000000191816
  0
POLYLINE
  5
222
330
1F
100
AcDbEntity
  8
Predeterminada
100
AcDb2dPolyline
 66
     1
 10
0.0
 20
0.0
 30
-0.0000000000000711
  0
VERTEX
  5
223
330
222
100
AcDbEntity
  8
Predeterminada
100
AcDbVertex
100
AcDb2dVertex
 10
2747.999999999972
 20
4552.640962820517
 30
-0.0000000000000711
  0
VERTEX
  5
224
330
222
100
AcDbEntity
  8
Predeterminada
100
AcDbVertex
100
AcDb2dVertex
 10
2747.999999999974
 20
4562.182355507151
 30
-0.0000000000000711
  0
SEQEND
  5
225
330
222
100
AcDbEntity
  8
Predeterminada
  0
ARC
  5
226
330
1F
100
AcDbEntity
  8
Predeterminada
100
AcDbCircle
 10
2746.017640768226
 20
4564.630365285788
 30
0.0000000000014911
 40
3.149999999999862
100
AcDbArc
 50
308.9999999986189
 51
153.000000001208
  0
POLYLINE
  5
227
330
1F
100
AcDbEntity
  8
Predeterminada
100
AcDb2dPolyline
 66
     1
 10
0.0
 20
0.0
 30
0.0000000000014911
  0
VERTEX
  5
228
330
227
100
AcDbEntity
  8
Predeterminada
100
AcDbVertex
100
AcDb2dVertex
 10
2743.210970217002
 20
4566.060435359907
 30
0.0000000000014911
  0
VERTEX
  5
229
330
227
100
AcDbEntity
  8
Predeterminada
100
AcDbVertex
100
AcDb2dVertex
 10
2729.999999999974
 20
4563.252356954252
 30
0.0000000000014911
  0
VERTEX
  5
22A
330
227
100
AcDbEntity
  8
Predeterminada
100
AcDbVertex
100
AcDb2dVertex
 10
2729.999999999974
 20
4661.0
 30
0.0000000000014911
  0
VERTEX
  5
22B
330
227
100
AcDbEntity
  8
Predeterminada
100
AcDbVertex
100
AcDb2dVertex
 10
2743.75735931302
 20
4660.999999999975
 30
0.0000000000014911
  0
SEQEND
  5
22C
330
227
100
AcDbEntity
  8
Predeterminada
  0
ARC
  5
22D
330
1F
100
AcDbEntity
  8
Predeterminada
100
AcDbCircle
 10
2745.878679656484
 20
4663.121320343629
 30
0.0
 40
2.999999999999869
100
AcDbArc
 50
225.0000000025916
 51
45.0000000018608
  0
POLYLINE
  5
22E
330
1F
100
AcDbEntity
  8
Predeterminada
100
AcDb2dPolyline
 66
     1
 10
0.0
 20
0.0
 30
0.0
  0
VERTEX
  5
22F
330
22E
100
AcDbEntity
  8
Predeterminada
100
AcDbVertex
100
AcDb2dVertex
 10
2747.999999999975
 20
4665.242640687258
 30
0.0
  0
VERTEX
  5
230
330
22E
100
AcDbEntity
  8
Predeterminada
100
AcDbVertex
100
AcDb2dVertex
 10
2747.999999999974
 20
4674.757359312881
 30
0.0
  0
SEQEND
  5
231
330
22E
100
AcDbEntity
  8
Predeterminada
  0
ARC
  5
232
330
1F
100
AcDbEntity
  8
Predeterminada
100
AcDbCircle
 10
2745.878679656484
 20
4676.87867965651
 30
0.0000000000014201
 40
2.999999999999869
100
AcDbArc
 50
314.9999999981208
 51
134.9999999981208
  0
POLYLINE
  5
233
330
1F
100
AcDbEntity
  8
Predeterminada
100
AcDb2dPolyline
 66
     1
 10
0.0
 20
0.0
 30
0.0
  0
VERTEX
  5
234
330
233
100
AcDbEntity
  8
Predeterminada
100
AcDbVertex
100
AcDb2dVertex
 10
2743.757359312855
 20
4679.0
 30
0.0
  0
VERTEX
  5
235
330
233
100
AcDbEntity
  8
Predeterminada
100
AcDbVertex
100
AcDb2dVertex
 10
2729.999999999974
 20
4679.0
 30
0.0
  0
VERTEX
  5
236
330
233
100
AcDbEntity
  8
Predeterminada
100
AcDbVertex
100
AcDb2dVertex
 10
2729.999999999974
 20
4776.747643045575
 30
0.0
  0
VERTEX
  5
237
330
233
100
AcDbEntity
  8
Predeterminada
100
AcDbVertex
100
AcDb2dVertex
 10
2743.210970217102
 20
4773.939564639903
 30
0.0
  0
SEQEND
  5
238
330
233
100
AcDbEntity
  8
Predeterminada
  0
ARC
  5
239
330
1F
100
AcDbEntity
  8
Predeterminada
100
AcDbCircle
 10
2746.017640768247
 20
4775.369634714176
 30
-0.0000000000001421
 40
3.149999999999862
100
AcDbArc
 50
207.0000000018994
 51
51.00000000188104
  0
POLYLINE
  5
23A
330
1F
100
AcDbEntity
  8
Predeterminada
100
AcDb2dPolyline
 66
     1
 10
0.0
 20
0.0
 30
-0.0000000000001421
  0
VERTEX
  5
23B
330
23A
100
AcDbEntity
  8
Predeterminada
100
AcDbVertex
100
AcDb2dVertex
 10
2747.999999999974
 20
4777.817644492831
 30
-0.0000000000001421
  0
VERTEX
  5
23C
330
23A
100
AcDbEntity
  8
Predeterminada
100
AcDbVertex
100
AcDb2dVertex
 10
2747.999999999974
 20
4787.359037179465
 30
-0.0000000000001421
  0
SEQEND
  5
23D
330
23A
100
AcDbEntity
  8
Predeterminada
  0
ARC
  5
23E
330
1F
100
AcDbEntity
  8
Predeterminada
100
AcDbCircle
 10
2571.851390786998
 20
4762.845313931903
 30
-0.0000000005084644
 40
3.149999999999862
100
AcDbArc
 50
240.0504414535169
 51
39.00000000364142
  0
POLYLINE
  5
23F
330
1F
100
AcDbEntity
  8
Predeterminada
100
AcDb2dPolyline
 66
     1
 10
0.0
 20
0.0
 30
-0.0000000005084644
  0
VERTEX
  5
240
330
23F
100
AcDbEntity
  8
Predeterminada
100
AcDbVertex
100
AcDb2dVertex
 10
2574.299400565462
 20
4764.827673163865
 30
-0.0000000005084644
  0
VERTEX
  5
241
330
23F
100
AcDbEntity
  8
Predeterminada
100
AcDbVertex
100
AcDb2dVertex
 10
2574.299400565319
 20
4774.36906585052
 30
-0.0000000005084644
  0
SEQEND
  5
242
330
23F
100
AcDbEntity
  8
Predeterminada
  0
ARC
  5
243
330
1F
100
AcDbEntity
  8
Predeterminada
100
AcDbCircle
 10
2572.317041333504
 20
4776.817075629104
 30
-0.0000000006033229
 40
3.149999999999862
100
AcDbArc
 50
309.0000000001716
 51
150.0504414529013
  0
POLYLINE
  5
244
330
1F
100
AcDbEntity
  8
Predeterminada
100
AcDb2dPolyline
 66
     1
 10
0.0
 20
0.0
 30
-0.0000000006033229
  0
VERTEX
  5
245
330
244
100
AcDbEntity
  8
Predeterminada
100
AcDbVertex
100
AcDb2dVertex
 10
2569.587675787067
 20
4778.389673388838
 30
-0.0000000006033229
  0
VERTEX
  5
246
330
244
100
AcDbEntity
  8
Predeterminada
100
AcDbVertex
100
AcDb2dVertex
 10
2554.299400565301
 20
4775.549197659512
 30
-0.0000000006033229
  0
VERTEX
  5
247
330
244
100
AcDbEntity
  8
Predeterminada
100
AcDbVertex
100
AcDb2dVertex
 10
2554.299400565159
 20
4784.999999999479
 30
-0.0000000006033229
  0
SEQEND
  5
248
330
244
100
AcDbEntity
  8
Predeterminada
  0
SPLINE
  5
249
330
1F
100
AcDbEntity
  8
Predeterminada
100
AcDbSpline
210
0.0
220
0.0
230
1.0
 70
    12
 71
     2
 72
     6
 73
     3
 74
     0
 42
0.000000001
 43
0.0000000001
 40
42.44151958496592
 40
42.44151958496592
 40
42.44151958496592
 40
44.01231591176256
 40
44.01231591176256
 40
44.01231591176256
 10
2554.299400565159
 20
4784.999999999479
 30
-0.0000000006752998
 41
1.0
 10
2554.299400565009
 20
4794.999999999479
 30
-0.0000000007047077
 41
0.7071067811865717
 10
2564.299400565009
 20
4794.999999999629
 30
-0.0000000006629364
 41
1.0
  0
SPLINE
  5
24A
330
1F
100
AcDbEntity
  8
Predeterminada
100
AcDbSpline
210
0.0
220
0.0
230
1.0
 70
    24
 71
     2
 72
     6
 73
     3
 74
     0
 42
0.000000001
 43
0.0000000001
 40
44.01231591176256
 40
44.01231591176256
 40
44.01231591176256
 40
45.01231591176257
 40
45.01231591176257
 40
45.01231591176257
 10
2564.299400565009
 20
4794.999999999629
 30
-0.0000000006629364
 10
2569.299400565008
 20
4794.999999999704
 30
-0.0000000006474465
 10
2574.299400565008
 20
4794.99999999978
 30
-0.0000000006319567
  0
SPLINE
  5
24B
330
1F
100
AcDbEntity
  8
Predeterminada
100
AcDbSpline
210
0.0
220
0.0
230
1.0
 70
    12
 71
     2
 72
     6
 73
     3
 74
     0
 42
0.000000001
 43
0.0000000001
 40
45.01231591176257
 40
45.01231591176257
 40
45.01231591176257
 40
49.72470489215162
 40
49.72470489215162
 40
49.72470489215162
 10
2574.299400565008
 20
4794.99999999978
 30
-0.0000000006319567
 41
1.0
 10
2604.299400565009
 20
4795.000000000229
 30
-0.0000000004428414
 41
0.707106781186607
 10
2604.29940056546
 20
4765.000000000229
 30
-0.0000000005515233
 41
1.0
  0
SPLINE
  5
24C
330
1F
100
AcDbEntity
  8
Predeterminada
100
AcDbSpline
210
0.0
220
0.0
230
1.0
 70
    24
 71
     2
 72
     6
 73
     3
 74
     0
 42
0.000000001
 43
0.0000000001
 40
49.72470489215162
 40
49.72470489215162
 40
49.72470489215162
 40
50.48470489215161
 40
50.48470489215161
 40
50.48470489215161
 10
2604.29940056546
 20
4765.000000000229
 30
-0.0000000005515233
 10
2604.299400566888
 20
4670.000000000232
 30
0.0
 10
2604.299400568316
 20
4575.000000000235
 30
0.0000000005515233
  0
SPLINE
  5
24D
330
1F
100
AcDbEntity
  8
Predeterminada
100
AcDbSpline
210
0.0
220
0.0
230
1.0
 70
    12
 71
     2
 72
     6
 73
     3
 74
     0
 42
0.000000001
 43
0.0000000001
 40
50.48470489215161
 40
50.48470489215161
 40
50.48470489215161
 40
55.19709387253969
 40
55.19709387253969
 40
55.19709387253969
 10
2604.299400568316
 20
4575.000000000235
 30
0.0000000005515233
 41
1.0
 10
2604.299400568766
 20
4545.000000000233
 30
0.0000000004545983
 41
0.7071067811864069
 10
2574.299400568767
 20
4544.999999999786
 30
0.000000000564313
 41
1.0
  0
SPLINE
  5
24E
330
1F
100
AcDbEntity
  8
Predeterminada
100
AcDbSpline
210
0.0
220
0.0
230
1.0
 70
    24
 71
     2
 72
     6
 73
     3
 74
     0
 42
0.000000001
 43
0.0000000001
 40
55.19709387253969
 40
55.19709387253969
 40
55.19709387253969
 40
56.1970938725397
 40
56.1970938725397
 40
56.1970938725397
 10
2574.299400568767
 20
4544.999999999786
 30
0.000000000564313
 10
2569.299400568767
 20
4544.999999999712
 30
0.0000000005690026
 10
2564.299400568766
 20
4544.999999999637
 30
0.0000000005736922
  0
SPLINE
  5
24F
330
1F
100
AcDbEntity
  8
Predeterminada
100
AcDbSpline
210
0.0
220
0.0
230
1.0
 70
    12
 71
     2
 72
     6
 73
     3
 74
     0
 42
0.000000001
 43
0.0000000001
 40
56.1970938725397
 40
56.1970938725397
 40
56.1970938725397
 40
57.76789019933655
 40
57.76789019933655
 40
57.76789019933655
 10
2564.299400568766
 20
4544.999999999637
 30
0.0000000005736922
 41
1.0
 10
2554.299400568766
 20
4544.999999999483
 30
0.0000000006585847
 41
0.7071067811862921
 10
2554.299400568616
 20
4554.999999999485
 30
0.0000000005634604
 41
1.0
  0
POLYLINE
  5
250
330
1F
100
AcDbEntity
  8
Predeterminada
100
AcDb2dPolyline
 66
     1
 10
0.0
 20
0.0
 30
0.0000000005634604
  0
VERTEX
  5
251
330
250
100
AcDbEntity
  8
Predeterminada
100
AcDbVertex
100
AcDb2dVertex
 10
2554.299400568616
 20
4554.999999999485
 30
0.0000000005634604
  0
VERTEX
  5
252
330
250
100
AcDbEntity
  8
Predeterminada
100
AcDbVertex
100
AcDb2dVertex
 10
2554.299400568474
 20
4564.45080233944
 30
0.0000000005634604
  0
VERTEX
  5
253
330
250
100
AcDbEntity
  8
Predeterminada
100
AcDbVertex
100
AcDb2dVertex
 10
2569.587675790535
 20
4561.61032661047
 30
0.0000000005634604
  0
SEQEND
  5
254
330
250
100
AcDbEntity
  8
Predeterminada
  0
ARC
  5
255
330
1F
100
AcDbEntity
  8
Predeterminada
100
AcDbCircle
 10
2572.317041336803
 20
4563.182924370496
 30
0.0000000005373124
 40
3.149999999999862
100
AcDbArc
 50
209.9495585532421
 51
51.00000000359267
  0
POLYLINE
  5
256
330
1F
100
AcDbEntity
  8
Predeterminada
100
AcDb2dPolyline
 66
     1
 10
0.0
 20
0.0
 30
0.0000000005373124
  0
VERTEX
  5
257
330
256
100
AcDbEntity
  8
Predeterminada
100
AcDbVertex
100
AcDb2dVertex
 10
2574.299400568457
 20
4565.630934149211
 30
0.0000000005373124
  0
VERTEX
  5
258
330
256
100
AcDbEntity
  8
Predeterminada
100
AcDbVertex
100
AcDb2dVertex
 10
2574.299400568314
 20
4575.172326835842
 30
0.0000000005373124
  0
SEQEND
  5
259
330
256
100
AcDbEntity
  8
Predeterminada
  0
ARC
  5
25A
330
1F
100
AcDbEntity
  8
Predeterminada
100
AcDbCircle
 10
2571.851390789738
 20
4577.154686067665
 30
0.000000000442525
 40
3.149999999999862
100
AcDbArc
 50
320.9999999996294
 51
119.9495585539541
  0
POLYLINE
  5
25B
330
1F
100
AcDbEntity
  8
Predeterminada
100
AcDb2dPolyline
 66
     1
 10
0.0
 20
0.0
 30
0.000000000442525
  0
VERTEX
  5
25C
330
25B
100
AcDbEntity
  8
Predeterminada
100
AcDbVertex
100
AcDb2dVertex
 10
2570.278793029678
 20
4579.884051613915
 30
0.000000000442525
  0
VERTEX
  5
25D
330
25B
100
AcDbEntity
  8
Predeterminada
100
AcDbVertex
100
AcDb2dVertex
 10
2554.299400568198
 20
4582.852933046989
 30
0.000000000442525
  0
VERTEX
  5
25E
330
25B
100
AcDbEntity
  8
Predeterminada
100
AcDbVertex
100
AcDb2dVertex
 10
2554.299400567023
 20
4660.99999999936
 30
0.000000000442525
  0
VERTEX
  5
25F
330
25B
100
AcDbEntity
  8
Predeterminada
100
AcDbVertex
100
AcDb2dVertex
 10
2570.056759880134
 20
4660.999999999525
 30
0.000000000442525
  0
SEQEND
  5
260
330
25B
100
AcDbEntity
  8
Predeterminada
  0
ARC
  5
261
330
1F
100
AcDbEntity
  8
Predeterminada
100
AcDbCircle
 10
2572.178080223533
 20
4663.121320343245
 30
0.0000000000132161
 40
2.999999999999869
100
AcDbArc
 50
225.0000000043418
 51
45.00000000358035
  0
POLYLINE
  5
262
330
1F
100
AcDbEntity
  8
Predeterminada
100
AcDb2dPolyline
 66
     1
 10
0.0
 20
0.0
 30
0.0000000000132161
  0
VERTEX
  5
263
330
262
100
AcDbEntity
  8
Predeterminada
100
AcDbVertex
100
AcDb2dVertex
 10
2574.29940056696
 20
4665.242640686938
 30
0.0000000000132161
  0
VERTEX
  5
264
330
262
100
AcDbEntity
  8
Predeterminada
100
AcDbVertex
100
AcDb2dVertex
 10
2574.299400566828
 20
4674.757359312572
 30
0.0000000000132161
  0
SEQEND
  5
265
330
262
100
AcDbEntity
  8
Predeterminada
  0
ARC
  5
266
330
1F
100
AcDbEntity
  8
Predeterminada
100
AcDbCircle
 10
2572.178080223262
 20
4676.878679656125
 30
-0.0000000000795818
 40
2.999999999999869
100
AcDbArc
 50
315.0000000001597
 51
134.9999999981208
  0
POLYLINE
  5
267
330
1F
100
AcDbEntity
  8
Predeterminada
100
AcDb2dPolyline
 66
     1
 10
0.0
 20
0.0
 30
-0.0000000000856745
  0
VERTEX
  5
268
330
267
100
AcDbEntity
  8
Predeterminada
100
AcDbVertex
100
AcDb2dVertex
 10
2570.056759879578
 20
4678.999999999561
 30
-0.0000000000856745
  0
VERTEX
  5
269
330
267
100
AcDbEntity
  8
Predeterminada
100
AcDbVertex
100
AcDb2dVertex
 10
2554.299400566752
 20
4678.999999999359
 30
-0.0000000000856745
  0
VERTEX
  5
26A
330
267
100
AcDbEntity
  8
Predeterminada
100
AcDbVertex
100
AcDb2dVertex
 10
2554.299400565578
 20
4757.147066951899
 30
-0.0000000000856745
  0
VERTEX
  5
26B
330
267
100
AcDbEntity
  8
Predeterminada
100
AcDbVertex
100
AcDb2dVertex
 10
2570.278793027293
 20
4760.115948385448
 30
-0.0000000000856745
  0
SEQEND
  5
26C
330
267
100
AcDbEntity
  8
Predeterminada
  0
ARC
  5
26D
330
1F
100
AcDbEntity
  8
Predeterminada
100
AcDbCircle
 10
2430.916452905369
 20
4705.45416720891
 30
-0.0034927930952833
 40
2.999999999999867
100
AcDbArc
 50
134.9995935171504
 51
314.9995935205343
  0
POLYLINE
  5
26E
330
1F
100
AcDbEntity
  8
Predeterminada
100
AcDb2dPolyline
 66
     1
 10
0.0
 20
0.0
 30
4703.341462344112
210
3.547235457529744E-6
220
0.9999999999937087
230
9.477686470635640E-11
  0
VERTEX
  5
26F
330
26E
100
AcDbEntity
  8
Predeterminada
100
AcDbVertex
100
AcDb2dVertex
 10
-2433.021074355072
 20
-0.0034932388632407
 30
4703.341462344112
  0
VERTEX
  5
270
330
26E
100
AcDbEntity
  8
Predeterminada
100
AcDbVertex
100
AcDb2dVertex
 10
-2442.535792979091
 20
-0.0032390197084824
 30
4703.341462344112
  0
SEQEND
  5
271
330
26E
100
AcDbEntity
  8
Predeterminada
  0
ARC
  5
272
330
1F
100
AcDbEntity
  8
Predeterminada
100
AcDbCircle
 10
2444.67381221641
 20
4705.454103358879
 30
-0.003238573940525
 40
2.999999999999869
100
AcDbArc
 50
224.999593518612
 51
44.99959351902353
  0
POLYLINE
  5
273
330
1F
100
AcDbEntity
  8
Predeterminada
100
AcDb2dPolyline
 66
     1
 10
0.0
 20
0.0
 30
-0.005440010089803
210
-1.658813593834864E-12
220
-4.676360757716181E-7
230
0.9999999999998908
  0
VERTEX
  5
274
330
273
100
AcDbEntity
  8
Predeterminada
100
AcDbVertex
100
AcDb2dVertex
 10
2446.795147609478
 20
4707.575408650796
 30
-0.005440010089803
  0
VERTEX
  5
275
330
273
100
AcDbEntity
  8
Predeterminada
100
AcDbVertex
100
AcDb2dVertex
 10
2446.795181360391
 20
4717.09012727641
 30
-0.005440010089803
  0
SEQEND
  5
276
330
273
100
AcDbEntity
  8
Predeterminada
  0
ARC
  5
277
330
1F
100
AcDbEntity
  8
Predeterminada
100
AcDbCircle
 10
2444.673876066587
 20
4719.211462671646
 30
-0.0032341245148447
 40
2.999999999999869
100
AcDbArc
 50
314.999593515259
 51
134.9999999981208
  0
POLYLINE
  5
278
330
1F
100
AcDbEntity
  8
Predeterminada
100
AcDb2dPolyline
 66
     1
 10
0.0
 20
0.0
 30
4721.345310673055
210
5.128945885054168E-6
220
0.999999999986847
230
1.370380364210645E-10
  0
VERTEX
  5
279
330
278
100
AcDbEntity
  8
Predeterminada
100
AcDbVertex
100
AcDb2dVertex
 10
-2442.52834023062
 20
-0.0032347715187354
 30
4721.345310673055
  0
VERTEX
  5
27A
330
278
100
AcDbEntity
  8
Predeterminada
100
AcDbVertex
100
AcDb2dVertex
 10
-2433.013636655958
 20
-0.0034889906749138
 30
4721.345310673055
  0
SEQEND
  5
27B
330
278
100
AcDbEntity
  8
Predeterminada
  0
ARC
  5
27C
330
1F
100
AcDbEntity
  8
Predeterminada
100
AcDbCircle
 10
2430.916516755477
 20
4719.211526521745
 30
-0.0034883436710231
 40
2.999999999999869
100
AcDbArc
 50
44.99959351863049
 51
224.9995935190235
  0
POLYLINE
  5
27D
330
1F
100
AcDbEntity
  8
Predeterminada
100
AcDb2dPolyline
 66
     1
 10
0.0
 20
0.0
 30
-0.005694228556001
210
-1.658813176115511E-12
220
-4.676359265154412E-7
230
0.9999999999998908
  0
VERTEX
  5
27E
330
27D
100
AcDbEntity
  8
Predeterminada
100
AcDbVertex
100
AcDb2dVertex
 10
2428.795181362409
 20
4717.090221225653
 30
-0.005694228556001
  0
VERTEX
  5
27F
330
27D
100
AcDbEntity
  8
Predeterminada
100
AcDbVertex
100
AcDb2dVertex
 10
2428.795147611494
 20
4707.5755025999
 30
-0.005694228556001
  0
SEQEND
  5
280
330
27D
100
AcDbEntity
  8
Predeterminada
  0
ARC
  5
281
330
1F
100
AcDbEntity
  8
Predeterminada
100
AcDbCircle
 10
2343.998647760387
 20
4620.787808859637
 30
-0.0047412826802962
 40
2.999999999999869
100
AcDbArc
 50
134.9995935171566
 51
314.9995935204728
  0
POLYLINE
  5
282
330
1F
100
AcDbEntity
  8
Predeterminada
100
AcDb2dPolyline
 66
     1
 10
0.0
 20
0.0
 30
4618.674795677452
210
3.547235457528896E-6
220
0.9999999999937087
230
9.477686471293364E-11
  0
VERTEX
  5
283
330
282
100
AcDbEntity
  8
Predeterminada
100
AcDbVertex
100
AcDb2dVertex
 10
-2346.103569542145
 20
-0.0047417204238124
 30
4618.674795677452
  0
VERTEX
  5
284
330
282
100
AcDbEntity
  8
Predeterminada
100
AcDbVertex
100
AcDb2dVertex
 10
-2355.618288166165
 20
-0.0044875012690363
 30
4618.674795677452
  0
SEQEND
  5
285
330
282
100
AcDbEntity
  8
Predeterminada
  0
ARC
  5
286
330
1F
100
AcDbEntity
  8
Predeterminada
100
AcDbCircle
 10
2357.756007071429
 20
4620.787745009608
 30
-0.0044870635255201
 40
2.999999999999869
100
AcDbArc
 50
224.9995935186366
 51
44.99959351901125
  0
POLYLINE
  5
287
330
1F
100
AcDbEntity
  8
Predeterminada
100
AcDb2dPolyline
 66
     1
 10
0.0
 20
0.0
 30
-0.0066489064870491
210
-1.658813616184789E-12
220
-4.676360757715734E-7
230
0.9999999999998908
  0
VERTEX
  5
288
330
287
100
AcDbEntity
  8
Predeterminada
100
AcDbVertex
100
AcDb2dVertex
 10
2359.877342464496
 20
4622.909050300948
 30
-0.0066489064870491
  0
VERTEX
  5
289
330
287
100
AcDbEntity
  8
Predeterminada
100
AcDbVertex
100
AcDb2dVertex
 10
2359.87737621541
 20
4632.423768926565
 30
-0.0066489064870491
  0
SEQEND
  5
28A
330
287
100
AcDbEntity
  8
Predeterminada
  0
ARC
  5
28B
330
1F
100
AcDbEntity
  8
Predeterminada
100
AcDbCircle
 10
2357.756070921605
 20
4634.545104322373
 30
-0.0044826140998399
 40
2.999999999999869
100
AcDbArc
 50
314.9995935152651
 51
134.9999999981208
  0
POLYLINE
  5
28C
330
1F
100
AcDbEntity
  8
Predeterminada
100
AcDb2dPolyline
 66
     1
 10
0.0
 20
0.0
 30
4636.678506528176
210
5.128945885054658E-6
220
0.999999999986847
230
1.370380364306663E-10
  0
VERTEX
  5
28D
330
28C
100
AcDbEntity
  8
Predeterminada
100
AcDbVertex
100
AcDb2dVertex
 10
-2355.610969335952
 20
-0.004483249501158
 30
4636.678506528176
  0
VERTEX
  5
28E
330
28C
100
AcDbEntity
  8
Predeterminada
100
AcDbVertex
100
AcDb2dVertex
 10
-2346.09626576129
 20
-0.0047374686573541
 30
4636.678506528176
  0
SEQEND
  5
28F
330
28C
100
AcDbEntity
  8
Predeterminada
  0
ARC
  5
290
330
1F
100
AcDbEntity
  8
Predeterminada
100
AcDbCircle
 10
2343.998711610496
 20
4634.545168172473
 30
-0.004736833256036
 40
2.999999999999869
100
AcDbArc
 50
44.99959351861207
 51
224.9995935190297
  0
POLYLINE
  5
291
330
1F
100
AcDbEntity
  8
Predeterminada
100
AcDb2dPolyline
 66
     1
 10
0.0
 20
0.0
 30
-0.0069031249659018
210
-1.658813198465429E-12
220
-4.676359265153964E-7
230
0.9999999999998908
  0
VERTEX
  5
292
330
291
100
AcDbEntity
  8
Predeterminada
100
AcDbVertex
100
AcDb2dVertex
 10
2341.877376217428
 20
4632.423862875807
 30
-0.0069031249659018
  0
VERTEX
  5
293
330
291
100
AcDbEntity
  8
Predeterminada
100
AcDbVertex
100
AcDb2dVertex
 10
2341.877342466512
 20
4622.909144250051
 30
-0.0069031249659018
  0
SEQEND
  5
294
330
291
100
AcDbEntity
  8
Predeterminada
  0
ARC
  5
295
330
1F
100
AcDbEntity
  8
Predeterminada
100
AcDbCircle
 10
2343.999011942807
 20
4719.211834838606
 30
-0.00471590448333
 40
2.999999999999869
100
AcDbArc
 50
44.99959351863663
 51
224.9995935190297
  0
POLYLINE
  5
296
330
1F
100
AcDbEntity
  8
Predeterminada
100
AcDb2dPolyline
 66
     1
 10
0.0
 20
0.0
 30
-0.0069217893771144
210
-1.658813227438194E-12
220
-4.676359283823532E-7
230
0.9999999999998908
  0
VERTEX
  5
297
330
296
100
AcDbEntity
  8
Predeterminada
100
AcDbVertex
100
AcDb2dVertex
 10
2341.87767654974
 20
4717.09052954194
 30
-0.0069217893771144
  0
VERTEX
  5
298
330
296
100
AcDbEntity
  8
Predeterminada
100
AcDbVertex
100
AcDb2dVertex
 10
2341.877642798823
 20
4707.575810916185
 30
-0.0069217893771144
  0
SEQEND
  5
299
330
296
100
AcDbEntity
  8
Predeterminada
  0
ARC
  5
29A
330
1F
100
AcDbEntity
  8
Predeterminada
100
AcDbCircle
 10
2343.998948092698
 20
4705.454475525769
 30
-0.0047203539076079
 40
2.999999999999869
100
AcDbArc
 50
134.9995935171566
 51
314.9995935205159
  0
POLYLINE
  5
29B
330
1F
100
AcDbEntity
  8
Predeterminada
100
AcDb2dPolyline
 66
     1
 10
0.0
 20
0.0
 30
4703.341462344565
210
3.547235648705439E-6
220
0.9999999999937087
230
9.477686982089155E-11
  0
VERTEX
  5
29C
330
29B
100
AcDbEntity
  8
Predeterminada
100
AcDbVertex
100
AcDb2dVertex
 10
-2346.103569540956
 20
-0.0047207996755894
 30
4703.341462344565
  0
VERTEX
  5
29D
330
29B
100
AcDbEntity
  8
Predeterminada
100
AcDbVertex
100
AcDb2dVertex
 10
-2355.618288164975
 20
-0.0044665805208134
 30
4703.341462344565
  0
SEQEND
  5
29E
330
29B
100
AcDbEntity
  8
Predeterminada
  0
ARC
  5
29F
330
1F
100
AcDbEntity
  8
Predeterminada
100
AcDbCircle
 10
2357.75630740374
 20
4705.454411675739
 30
-0.0044661347528319
 40
2.999999999999869
100
AcDbArc
 50
224.999593518655
 51
44.99959351902353
  0
POLYLINE
  5
2A0
330
1F
100
AcDbEntity
  8
Predeterminada
100
AcDb2dPolyline
 66
     1
 10
0.0
 20
0.0
 30
-0.0066675709021101
210
-1.658813638535348E-12
220
-4.676360757716181E-7
230
0.9999999999998908
  0
VERTEX
  5
2A1
330
2A0
100
AcDbEntity
  8
Predeterminada
100
AcDbVertex
100
AcDb2dVertex
 10
2359.877642796807
 20
4707.575716967082
 30
-0.0066675709021101
  0
VERTEX
  5
2A2
330
2A0
100
AcDbEntity
  8
Predeterminada
100
AcDbVertex
100
AcDb2dVertex
 10
2359.877676547721
 20
4717.090435592697
 30
-0.0066675709021101
  0
SEQEND
  5
2A3
330
2A0
100
AcDbEntity
  8
Predeterminada
  0
ARC
  5
2A4
330
1F
100
AcDbEntity
  8
Predeterminada
100
AcDbCircle
 10
2357.756371253916
 20
4719.211770988506
 30
-0.0044616853271517
 40
2.999999999999869
100
AcDbArc
 50
314.9995935152774
 51
134.9999999981208
  0
POLYLINE
  5
2A5
330
1F
100
AcDbEntity
  8
Predeterminada
100
AcDb2dPolyline
 66
     1
 10
0.0
 20
0.0
 30
4721.34517319496
210
5.128945980642505E-6
220
0.999999999986847
230
1.370380389750470E-10
  0
VERTEX
  5
2A6
330
2A5
100
AcDbEntity
  8
Predeterminada
100
AcDbVertex
100
AcDb2dVertex
 10
-2355.61083541706
 20
-0.0044623323310355
 30
4721.34517319496
  0
VERTEX
  5
2A7
330
2A5
100
AcDbEntity
  8
Predeterminada
100
AcDbVertex
100
AcDb2dVertex
 10
-2346.096131842397
 20
-0.0047165514872139
 30
4721.34517319496
  0
SEQEND
  5
2A8
330
2A5
100
AcDbEntity
  8
Predeterminada
  0
ARC
  5
2A9
330
1F
100
AcDbEntity
  8
Predeterminada
100
AcDbCircle
 10
2430.916152573058
 20
4620.787500542778
 30
-0.003513721868007
 40
2.999999999999869
100
AcDbArc
 50
134.9995935171566
 51
314.999593520522
  0
POLYLINE
  5
2AA
330
1F
100
AcDbEntity
  8
Predeterminada
100
AcDb2dPolyline
 66
     1
 10
0.0
 20
0.0
 30
4618.674795677681
210
3.547235553117761E-6
220
0.9999999999937087
230
9.477686727356684E-11
  0
VERTEX
  5
2AB
330
2AA
100
AcDbEntity
  8
Predeterminada
100
AcDbVertex
100
AcDb2dVertex
 10
-2433.021074354922
 20
-0.0035141596115351
 30
4618.674795677681
  0
VERTEX
  5
2AC
330
2AA
100
AcDbEntity
  8
Predeterminada
100
AcDbVertex
100
AcDb2dVertex
 10
-2442.535792978941
 20
-0.0032599404567413
 30
4618.674795677681
  0
SEQEND
  5
2AD
330
2AA
100
AcDbEntity
  8
Predeterminada
  0
ARC
  5
2AE
330
1F
100
AcDbEntity
  8
Predeterminada
100
AcDbCircle
 10
2444.673511884099
 20
4620.787436692747
 30
-0.0032595027132132
 40
2.999999999999869
100
AcDbArc
 50
224.9995935186305
 51
44.99959351902967
  0
POLYLINE
  5
2AF
330
1F
100
AcDbEntity
  8
Predeterminada
100
AcDb2dPolyline
 66
     1
 10
0.0
 20
0.0
 30
-0.0054213456747425
210
-1.658813638535348E-12
220
-4.676360757716181E-7
230
0.9999999999998908
  0
VERTEX
  5
2B0
330
2AF
100
AcDbEntity
  8
Predeterminada
100
AcDbVertex
100
AcDb2dVertex
 10
2446.794847277166
 20
4622.908741984663
 30
-0.0054213456747425
  0
VERTEX
  5
2B1
330
2AF
100
AcDbEntity
  8
Predeterminada
100
AcDbVertex
100
AcDb2dVertex
 10
2446.79488102808
 20
4632.423460610278
 30
-0.0054213456747425
  0
SEQEND
  5
2B2
330
2AF
100
AcDbEntity
  8
Predeterminada
  0
ARC
  5
2B3
330
1F
100
AcDbEntity
  8
Predeterminada
100
AcDbCircle
 10
2444.673575734275
 20
4634.544796005513
 30
-0.003255053287533
 40
2.999999999999869
100
AcDbArc
 50
314.9995935152651
 51
134.9999999981208
  0
POLYLINE
  5
2B4
330
1F
100
AcDbEntity
  8
Predeterminada
100
AcDb2dPolyline
 66
     1
 10
0.0
 20
0.0
 30
4636.678644006729
210
5.128945980642505E-6
220
0.999999999986847
230
1.370380389750470E-10
  0
VERTEX
  5
2B5
330
2B4
100
AcDbEntity
  8
Predeterminada
100
AcDbVertex
100
AcDb2dVertex
 10
-2442.528474148618
 20
-0.0032556886888817
 30
4636.678644006729
  0
VERTEX
  5
2B6
330
2B4
100
AcDbEntity
  8
Predeterminada
100
AcDbVertex
100
AcDb2dVertex
 10
-2433.013770573955
 20
-0.0035099078450601
 30
4636.678644006729
  0
SEQEND
  5
2B7
330
2B4
100
AcDbEntity
  8
Predeterminada
  0
ARC
  5
2B8
330
1F
100
AcDbEntity
  8
Predeterminada
100
AcDbCircle
 10
2430.916216423166
 20
4634.544859855613
 30
-0.0035092724437114
 40
2.999999999999869
100
AcDbArc
 50
44.99959351863663
 51
224.9995935190297
  0
POLYLINE
  5
2B9
330
1F
100
AcDbEntity
  8
Predeterminada
100
AcDb2dPolyline
 66
     1
 10
0.0
 20
0.0
 30
-0.0056755641708743
210
-1.658813211710487E-12
220
-4.676359302493100E-7
230
0.9999999999998908
  0
VERTEX
  5
2BA
330
2B9
100
AcDbEntity
  8
Predeterminada
100
AcDbVertex
100
AcDb2dVertex
 10
2428.794881030098
 20
4632.423554559522
 30
-0.0056755641708743
  0
VERTEX
  5
2BB
330
2B9
100
AcDbEntity
  8
Predeterminada
100
AcDbVertex
100
AcDb2dVertex
 10
2428.794847279182
 20
4622.908835933766
 30
-0.0056755641708743
  0
SEQEND
  5
2BC
330
2B9
100
AcDbEntity
  8
Predeterminada
  0
ARC
  5
2BD
330
1F
100
AcDbEntity
  8
Predeterminada
100
AcDbCircle
 10
2379.998797922723
 20
4663.121014492198
 30
-0.0042223799837338
 40
2.999999999999869
100
AcDbArc
 50
134.9995935171504
 51
314.9995935204974
  0
POLYLINE
  5
2BE
330
1F
100
AcDbEntity
  8
Predeterminada
100
AcDb2dPolyline
 66
     1
 10
0.0
 20
0.0
 30
4661.008129011147
210
3.547235621628408E-6
220
0.9999999999937087
230
6.749781572045129E-11
  0
VERTEX
  5
2BF
330
2BE
100
AcDbEntity
  8
Predeterminada
100
AcDbVertex
100
AcDb2dVertex
 10
-2382.103569537642
 20
-0.0042226945916015
 30
4661.008129011147
  0
VERTEX
  5
2C0
330
2BE
100
AcDbEntity
  8
Predeterminada
100
AcDbVertex
100
AcDb2dVertex
 10
-2406.535792982063
 20
-0.0037577912438716
 30
4661.008129011147
  0
SEQEND
  5
2C1
330
2BE
100
AcDbEntity
  8
Predeterminada
  0
ARC
  5
2C2
330
1F
100
AcDbEntity
  8
Predeterminada
100
AcDbCircle
 10
2408.673662054071
 20
4663.120897726263
 30
-0.0037574766360038
 40
2.999999999999869
100
AcDbArc
 50
224.999593518655
 51
44.9995935190051
  0
POLYLINE
  5
2C3
330
1F
100
AcDbEntity
  8
Predeterminada
100
AcDb2dPolyline
 66
     1
 10
0.0
 20
0.0
 30
-0.0059391161914073
210
-1.658813727935684E-12
220
-4.676360757715287E-7
230
0.9999999999998908
  0
VERTEX
  5
2C4
330
2C3
100
AcDbEntity
  8
Predeterminada
100
AcDbVertex
100
AcDb2dVertex
 10
2410.79499744714
 20
4665.242203017941
 30
-0.0059391161914073
  0
VERTEX
  5
2C5
330
2C3
100
AcDbEntity
  8
Predeterminada
100
AcDbVertex
100
AcDb2dVertex
 10
2410.795031198056
 20
4674.756921643558
 30
-0.0059391161914073
  0
SEQEND
  5
2C6
330
2C3
100
AcDbEntity
  8
Predeterminada
  0
ARC
  5
2C7
330
1F
100
AcDbEntity
  8
Predeterminada
100
AcDbCircle
 10
2408.67372590425
 20
4676.87825703903
 30
-0.0037530272103236
 40
2.999999999999869
100
AcDbArc
 50
314.9995935152835
 51
134.9999999981208
  0
POLYLINE
  5
2C8
330
1F
100
AcDbEntity
  8
Predeterminada
100
AcDb2dPolyline
 66
     1
 10
0.0
 20
0.0
 30
4679.009596314194
210
4.163205446883005E-6
220
0.9999999999913338
230
7.921871505566266E-11
  0
VERTEX
  5
2C9
330
2C8
100
AcDbEntity
  8
Predeterminada
100
AcDbVertex
100
AcDb2dVertex
 10
-2406.532925903378
 20
-0.0037533978754515
 30
4679.009596314194
  0
VERTEX
  5
2CA
330
2C8
100
AcDbEntity
  8
Predeterminada
100
AcDbVertex
100
AcDb2dVertex
 10
-2382.10071750832
 20
-0.004218301224495
 30
4679.009596314194
  0
SEQEND
  5
2CB
330
2C8
100
AcDbEntity
  8
Predeterminada
  0
ARC
  5
2CC
330
1F
100
AcDbEntity
  8
Predeterminada
100
AcDbCircle
 10
2379.998861772832
 20
4676.878373805033
 30
-0.004217930559367
 40
2.999999999999869
100
AcDbArc
 50
44.99959351863049
 51
224.999593519042
  0
POLYLINE
  5
2CD
330
1F
100
AcDbEntity
  8
Predeterminada
100
AcDb2dPolyline
 66
     1
 10
0.0
 20
0.0
 30
-0.0064040189091547
210
-1.658813238201238E-12
220
-4.676359377172265E-7
230
0.9999999999998908
  0
VERTEX
  5
2CE
330
2CD
100
AcDbEntity
  8
Predeterminada
100
AcDbVertex
100
AcDb2dVertex
 10
2377.877526379765
 20
4674.757068508604
 30
-0.0064040189091547
  0
VERTEX
  5
2CF
330
2CD
100
AcDbEntity
  8
Predeterminada
100
AcDbVertex
100
AcDb2dVertex
 10
2377.877492628849
 20
4665.242349882851
 30
-0.0064040189091547
  0
SEQEND
  5
2D0
330
2CD
100
AcDbEntity
  8
Predeterminada
  0
ARC
  5
2D1
330
1F
100
AcDbEntity
  8
Predeterminada
100
AcDbCircle
 10
2151.219319583352
 20
4701.212012989871
 30
0.000000000001278
 40
2.999999999999869
100
AcDbArc
 50
314.9999999981023
 51
134.9999999981208
  0
POLYLINE
  5
2D2
330
1F
100
AcDbEntity
  8
Predeterminada
100
AcDb2dPolyline
 66
     1
 10
0.0
 20
0.0
 30
0.000000000001278
  0
VERTEX
  5
2D3
330
2D2
100
AcDbEntity
  8
Predeterminada
100
AcDbVertex
100
AcDb2dVertex
 10
2149.097999239862
 20
4703.3333333335
 30
0.000000000001278
  0
VERTEX
  5
2D4
330
2D2
100
AcDbEntity
  8
Predeterminada
100
AcDbVertex
100
AcDb2dVertex
 10
2135.340639926843
 20
4703.333333333361
 30
0.000000000001278
  0
VERTEX
  5
2D5
330
2D2
100
AcDbEntity
  8
Predeterminada
100
AcDbVertex
100
AcDb2dVertex
 10
2135.340639926843
 20
4721.333333333361
 30
0.000000000001278
  0
VERTEX
  5
2D6
330
2D2
100
AcDbEntity
  8
Predeterminada
100
AcDbVertex
100
AcDb2dVertex
 10
2149.097999239888
 20
4721.333333333336
 30
0.000000000001278
  0
SEQEND
  5
2D7
330
2D2
100
AcDbEntity
  8
Predeterminada
  0
ARC
  5
2D8
330
1F
100
AcDbEntity
  8
Predeterminada
100
AcDbCircle
 10
2151.219319583352
 20
4723.454653676989
 30
-0.0000000000001421
 40
2.999999999999869
100
AcDbArc
 50
225.0000000025609
 51
45.00000000188537
  0
POLYLINE
  5
2D9
330
1F
100
AcDbEntity
  8
Predeterminada
100
AcDb2dPolyline
 66
     1
 10
0.0
 20
0.0
 30
-0.0000000000001421
  0
VERTEX
  5
2DA
330
2D9
100
AcDbEntity
  8
Predeterminada
100
AcDbVertex
100
AcDb2dVertex
 10
2153.340639926842
 20
4725.575974020619
 30
-0.0000000000001421
  0
VERTEX
  5
2DB
330
2D9
100
AcDbEntity
  8
Predeterminada
100
AcDbVertex
100
AcDb2dVertex
 10
2153.340639926842
 20
4741.292000614409
 30
-0.0000000000001421
  0
VERTEX
  5
2DC
330
2D9
100
AcDbEntity
  8
Predeterminada
100
AcDbVertex
100
AcDb2dVertex
 10
2153.340639926842
 20
4741.322988286649
 30
-0.0000000000001421
  0
VERTEX
  5
2DD
330
2D9
100
AcDbEntity
  8
Predeterminada
100
AcDbVertex
100
AcDb2dVertex
 10
2153.340639926842
 20
4761.497737533172
 30
-0.0000000000001421
  0
VERTEX
  5
2DE
330
2D9
100
AcDbEntity
  8
Predeterminada
100
AcDbVertex
100
AcDb2dVertex
 10
2181.261523018662
 20
4767.432504441982
 30
-0.0000000000001421
  0
SEQEND
  5
2DF
330
2D9
100
AcDbEntity
  8
Predeterminada
  0
SPLINE
  5
2E0
330
1F
100
AcDbEntity
  8
Predeterminada
100
AcDbSpline
210
0.0
220
0.0
230
1.0
 70
    12
 71
     2
 72
     6
 73
     3
 74
     0
 42
0.000000001
 43
0.0000000001
 40
-29.77717286798599
 40
-29.77717286798599
 40
-29.77717286798599
 40
-27.99693703095172
 40
-27.99693703095172
 40
-27.99693703095172
 10
2181.261523018662
 20
4767.432504441982
 30
0.0000000000005684
 41
1.0
 10
2193.340639926841
 20
4769.999999999983
 30
0.0000000000003387
 41
0.6293203910498414
 10
2193.340639926842
 20
4757.651028434622
 30
0.0000000000005684
 41
1.0
  0
POLYLINE
  5
2E1
330
1F
100
AcDbEntity
  8
Predeterminada
100
AcDb2dPolyline
 66
     1
 10
0.0
 20
0.0
 30
0.0000000000005684
  0
VERTEX
  5
2E2
330
2E1
100
AcDbEntity
  8
Predeterminada
100
AcDbVertex
100
AcDb2dVertex
 10
2193.340639926842
 20
4757.651028434622
 30
0.0000000000005684
  0
VERTEX
  5
2E3
330
2E1
100
AcDbEntity
  8
Predeterminada
100
AcDbVertex
100
AcDb2dVertex
 10
2193.340639926842
 20
4749.743078582827
 30
0.0000000000005684
  0
VERTEX
  5
2E4
330
2E1
100
AcDbEntity
  8
Predeterminada
100
AcDbVertex
100
AcDb2dVertex
 10
2179.07974632444
 20
4746.741128286917
 30
0.0000000000005684
  0
SEQEND
  5
2E5
330
2E1
100
AcDbEntity
  8
Predeterminada
  0
ARC
  5
2E6
330
1F
100
AcDbEntity
  8
Predeterminada
100
AcDbCircle
 10
2177.638649705366
 20
4743.940103379049
 30
0.0
 40
3.149999999999863
100
AcDbArc
 50
62.77467618368227
 51
219.000000001882
  0
POLYLINE
  5
2E7
330
1F
100
AcDbEntity
  8
Predeterminada
100
AcDb2dPolyline
 66
     1
 10
0.0
 20
0.0
 30
0.0
  0
VERTEX
  5
2E8
330
2E7
100
AcDbEntity
  8
Predeterminada
100
AcDbVertex
100
AcDb2dVertex
 10
2175.190639926842
 20
4741.957744147162
 30
0.0
  0
VERTEX
  5
2E9
330
2E7
100
AcDbEntity
  8
Predeterminada
100
AcDbVertex
100
AcDb2dVertex
 10
2175.190639926842
 20
4732.416351460382
 30
0.0
  0
SEQEND
  5
2EA
330
2E7
100
AcDbEntity
  8
Predeterminada
  0
ARC
  5
2EB
330
1F
100
AcDbEntity
  8
Predeterminada
100
AcDbCircle
 10
2177.172999158657
 20
4729.968341681798
 30
0.0
 40
3.14999999999986
100
AcDbArc
 50
129.0000000001716
 51
332.7746761849845
  0
POLYLINE
  5
2EC
330
1F
100
AcDbEntity
  8
Predeterminada
100
AcDb2dPolyline
 66
     1
 10
0.0
 20
0.0
 30
0.0
  0
VERTEX
  5
2ED
330
2EC
100
AcDbEntity
  8
Predeterminada
100
AcDbVertex
100
AcDb2dVertex
 10
2179.974024066557
 20
4728.527245062789
 30
0.0
  0
VERTEX
  5
2EE
330
2EC
100
AcDbEntity
  8
Predeterminada
100
AcDbVertex
100
AcDb2dVertex
 10
2193.340639926842
 20
4731.340947875236
 30
0.0
  0
VERTEX
  5
2EF
330
2EC
100
AcDbEntity
  8
Predeterminada
100
AcDbVertex
100
AcDb2dVertex
 10
2193.340639926842
 20
4679.0
 30
0.0
  0
VERTEX
  5
2F0
330
2EC
100
AcDbEntity
  8
Predeterminada
100
AcDbVertex
100
AcDb2dVertex
 10
2179.433280613961
 20
4678.999999999861
 30
0.0
  0
SEQEND
  5
2F1
330
2EC
100
AcDbEntity
  8
Predeterminada
  0
ARC
  5
2F2
330
1F
100
AcDbEntity
  8
Predeterminada
100
AcDbCircle
 10
2177.311960270332
 20
4676.878679656371
 30
-0.0000000000001421
 40
2.999999999999869
100
AcDbArc
 50
44.99999999812078
 51
224.9999999974145
  0
POLYLINE
  5
2F3
330
1F
100
AcDbEntity
  8
Predeterminada
100
AcDb2dPolyline
 66
     1
 10
0.0
 20
0.0
 30
-0.0000000000001421
  0
VERTEX
  5
2F4
330
2F3
100
AcDbEntity
  8
Predeterminada
100
AcDbVertex
100
AcDb2dVertex
 10
2175.190639926842
 20
4674.757359312742
 30
-0.0000000000001421
  0
VERTEX
  5
2F5
330
2F3
100
AcDbEntity
  8
Predeterminada
100
AcDbVertex
100
AcDb2dVertex
 10
2175.190639926912
 20
4665.242640687051
 30
-0.0000000000001421
  0
SEQEND
  5
2F6
330
2F3
100
AcDbEntity
  8
Predeterminada
  0
ARC
  5
2F7
330
1F
100
AcDbEntity
  8
Predeterminada
100
AcDbCircle
 10
2177.311960270402
 20
4663.121320343422
 30
-0.0000000000001421
 40
2.999999999999869
100
AcDbArc
 50
134.9999999981208
 51
315.0000000037216
  0
POLYLINE
  5
2F8
330
1F
100
AcDbEntity
  8
Predeterminada
100
AcDb2dPolyline
 66
     1
 10
0.0
 20
0.0
 30
-0.0000000000001421
  0
VERTEX
  5
2F9
330
2F8
100
AcDbEntity
  8
Predeterminada
100
AcDbVertex
100
AcDb2dVertex
 10
2179.433280614099
 20
4661.0
 30
-0.0000000000001421
  0
VERTEX
  5
2FA
330
2F8
100
AcDbEntity
  8
Predeterminada
100
AcDbVertex
100
AcDb2dVertex
 10
2193.340639926842
 20
4661.0
 30
-0.0000000000001421
  0
VERTEX
  5
2FB
330
2F8
100
AcDbEntity
  8
Predeterminada
100
AcDbVertex
100
AcDb2dVertex
 10
2193.340639926842
 20
4608.659052124725
 30
-0.0000000000001421
  0
VERTEX
  5
2FC
330
2F8
100
AcDbEntity
  8
Predeterminada
100
AcDbVertex
100
AcDb2dVertex
 10
2179.974024066344
 20
4611.472754937221
 30
-0.0000000000001421
  0
SEQEND
  5
2FD
330
2F8
100
AcDbEntity
  8
Predeterminada
  0
ARC
  5
2FE
330
1F
100
AcDbEntity
  8
Predeterminada
100
AcDbCircle
 10
2177.172999158569
 20
4610.031658317967
 30
0.0
 40
3.149999999999862
100
AcDbArc
 50
27.22532382002081
 51
231.000000001881
  0
POLYLINE
  5
2FF
330
1F
100
AcDbEntity
  8
Predeterminada
100
AcDb2dPolyline
 66
     1
 10
0.0
 20
0.0
 30
0.0
  0
VERTEX
  5
300
330
2FF
100
AcDbEntity
  8
Predeterminada
100
AcDbVertex
100
AcDb2dVertex
 10
2175.190639926842
 20
4607.583648539313
 30
0.0
  0
VERTEX
  5
301
330
2FF
100
AcDbEntity
  8
Predeterminada
100
AcDbVertex
100
AcDb2dVertex
 10
2175.190639926842
 20
4598.042255852537
 30
0.0
  0
SEQEND
  5
302
330
2FF
100
AcDbEntity
  8
Predeterminada
  0
ARC
  5
303
330
1F
100
AcDbEntity
  8
Predeterminada
100
AcDbCircle
 10
2177.63864970542
 20
4596.059896620716
 30
0.0
 40
3.149999999999862
100
AcDbArc
 50
140.9999999996811
 51
297.2253238222221
  0
POLYLINE
  5
304
330
1F
100
AcDbEntity
  8
Predeterminada
100
AcDb2dPolyline
 66
     1
 10
0.0
 20
0.0
 30
0.0
  0
VERTEX
  5
305
330
304
100
AcDbEntity
  8
Predeterminada
100
AcDbVertex
100
AcDb2dVertex
 10
2179.079746324782
 20
4593.258871712997
 30
0.0
  0
VERTEX
  5
306
330
304
100
AcDbEntity
  8
Predeterminada
100
AcDbVertex
100
AcDb2dVertex
 10
2193.340639926842
 20
4590.256921417154
 30
0.0
  0
VERTEX
  5
307
330
304
100
AcDbEntity
  8
Predeterminada
100
AcDbVertex
100
AcDb2dVertex
 10
2193.340639926842
 20
4582.348971565378
 30
0.0
  0
SEQEND
  5
308
330
304
100
AcDbEntity
  8
Predeterminada
  0
SPLINE
  5
309
330
1F
100
AcDbEntity
  8
Predeterminada
100
AcDbSpline
210
0.0
220
0.0
230
1.0
 70
    12
 71
     2
 72
     6
 73
     3
 74
     0
 42
0.000000001
 43
0.0000000001
 40
0.9955273427423776
 40
0.9955273427423776
 40
0.9955273427423776
 40
2.775763179776654
 40
2.775763179776654
 40
2.775763179776654
 10
2193.340639926842
 20
4582.348971565378
 30
0.0
 41
1.0
 10
2193.340639926842
 20
4570.000000000028
 30
-0.0000000000033872
 41
0.6293203910498286
 10
2181.261523018665
 20
4572.56749555804
 30
-0.0000000000001421
 41
1.0
  0
POLYLINE
  5
30A
330
1F
100
AcDbEntity
  8
Predeterminada
100
AcDb2dPolyline
 66
     1
 10
0.0
 20
0.0
 30
-0.0000000000001421
  0
VERTEX
  5
30B
330
30A
100
AcDbEntity
  8
Predeterminada
100
AcDbVertex
100
AcDb2dVertex
 10
2181.261523018665
 20
4572.56749555804
 30
-0.0000000000001421
  0
VERTEX
  5
30C
330
30A
100
AcDbEntity
  8
Predeterminada
100
AcDbVertex
100
AcDb2dVertex
 10
2153.340639926842
 20
4578.502262466828
 30
-0.0000000000001421
  0
VERTEX
  5
30D
330
30A
100
AcDbEntity
  8
Predeterminada
100
AcDbVertex
100
AcDb2dVertex
 10
2153.340639926842
 20
4598.677011713346
 30
-0.0000000000001421
  0
VERTEX
  5
30E
330
30A
100
AcDbEntity
  8
Predeterminada
100
AcDbVertex
100
AcDb2dVertex
 10
2153.340639926842
 20
4598.707999385593
 30
-0.0000000000001421
  0
VERTEX
  5
30F
330
30A
100
AcDbEntity
  8
Predeterminada
100
AcDbVertex
100
AcDb2dVertex
 10
2153.340639926842
 20
4614.424025979574
 30
-0.0000000000001421
  0
SEQEND
  5
310
330
30A
100
AcDbEntity
  8
Predeterminada
  0
ARC
  5
311
330
1F
100
AcDbEntity
  8
Predeterminada
100
AcDbCircle
 10
2151.219319583352
 20
4616.545346323203
 30
0.0000000000007095
 40
2.999999999999869
100
AcDbArc
 50
314.9999999981208
 51
134.9999999981208
  0
POLYLINE
  5
312
330
1F
100
AcDbEntity
  8
Predeterminada
100
AcDb2dPolyline
 66
     1
 10
0.0
 20
0.0
 30
0.0000000000007095
  0
VERTEX
  5
313
330
312
100
AcDbEntity
  8
Predeterminada
100
AcDbVertex
100
AcDb2dVertex
 10
2149.097999239862
 20
4618.666666666832
 30
0.0000000000007095
  0
VERTEX
  5
314
330
312
100
AcDbEntity
  8
Predeterminada
100
AcDbVertex
100
AcDb2dVertex
 10
2135.340639926842
 20
4618.666666666694
 30
0.0000000000007095
  0
VERTEX
  5
315
330
312
100
AcDbEntity
  8
Predeterminada
100
AcDbVertex
100
AcDb2dVertex
 10
2135.340639926842
 20
4636.666666666693
 30
0.0000000000007095
  0
VERTEX
  5
316
330
312
100
AcDbEntity
  8
Predeterminada
100
AcDbVertex
100
AcDb2dVertex
 10
2149.097999239887
 20
4636.666666666668
 30
0.0000000000007095
  0
SEQEND
  5
317
330
312
100
AcDbEntity
  8
Predeterminada
  0
ARC
  5
318
330
1F
100
AcDbEntity
  8
Predeterminada
100
AcDbCircle
 10
2151.219319583352
 20
4638.787987010322
 30
-0.0000000000007105
 40
2.999999999999869
100
AcDbArc
 50
225.0000000025732
 51
45.00000000187923
  0
POLYLINE
  5
319
330
1F
100
AcDbEntity
  8
Predeterminada
100
AcDb2dPolyline
 66
     1
 10
0.0
 20
0.0
 30
-0.0000000000007105
  0
VERTEX
  5
31A
330
319
100
AcDbEntity
  8
Predeterminada
100
AcDbVertex
100
AcDb2dVertex
 10
2153.340639926842
 20
4640.909307353952
 30
-0.0000000000007105
  0
VERTEX
  5
31B
330
319
100
AcDbEntity
  8
Predeterminada
100
AcDbVertex
100
AcDb2dVertex
 10
2153.340639926842
 20
4699.090692646241
 30
-0.0000000000007105
  0
SEQEND
  5
31C
330
319
100
AcDbEntity
  8
Predeterminada
  0
SPLINE
  5
31D
330
1F
100
AcDbEntity
  8
Predeterminada
100
AcDbSpline
210
0.0
220
0.0
230
1.0
 70
    12
 71
     2
 72
     6
 73
     3
 74
     0
 42
0.000000001
 43
0.0000000001
 40
-58.82879900086595
 40
-58.82879900086595
 40
-58.82879900086595
 40
-57.04856316383167
 40
-57.04856316383167
 40
-57.04856316383167
 10
2107.263170338314
 20
4582.348971565363
 30
0.0
 41
1.0
 10
2107.263170338314
 20
4570.000000000013
 30
-0.0000000000006774
 41
0.629320391049841
 10
2095.184053430136
 20
4572.567495558026
 30
0.0
 41
1.0
  0
POLYLINE
  5
31E
330
1F
100
AcDbEntity
  8
Predeterminada
100
AcDb2dPolyline
 66
     1
 10
0.0
 20
0.0
 30
0.0
  0
VERTEX
  5
31F
330
31E
100
AcDbEntity
  8
Predeterminada
100
AcDbVertex
100
AcDb2dVertex
 10
2095.184053430136
 20
4572.567495558026
 30
0.0
  0
VERTEX
  5
320
330
31E
100
AcDbEntity
  8
Predeterminada
100
AcDbVertex
100
AcDb2dVertex
 10
2067.263170338314
 20
4578.502262466814
 30
0.0
  0
VERTEX
  5
321
330
31E
100
AcDbEntity
  8
Predeterminada
100
AcDbVertex
100
AcDb2dVertex
 10
2067.263170338314
 20
4596.114652512439
 30
0.0
  0
VERTEX
  5
322
330
31E
100
AcDbEntity
  8
Predeterminada
100
AcDbVertex
100
AcDb2dVertex
 10
2067.263170338314
 20
4596.145640184808
 30
0.0
  0
VERTEX
  5
323
330
31E
100
AcDbEntity
  8
Predeterminada
100
AcDbVertex
100
AcDb2dVertex
 10
2067.263170338314
 20
4614.424025979575
 30
0.0
  0
SEQEND
  5
324
330
31E
100
AcDbEntity
  8
Predeterminada
  0
ARC
  5
325
330
1F
100
AcDbEntity
  8
Predeterminada
100
AcDbCircle
 10
2065.141849994824
 20
4616.545346323204
 30
0.0000000000008516
 40
2.999999999999869
100
AcDbArc
 50
314.9999999981208
 51
134.9999999981208
  0
POLYLINE
  5
326
330
1F
100
AcDbEntity
  8
Predeterminada
100
AcDb2dPolyline
 66
     1
 10
0.0
 20
0.0
 30
0.0000000000008516
  0
VERTEX
  5
327
330
326
100
AcDbEntity
  8
Predeterminada
100
AcDbVertex
100
AcDb2dVertex
 10
2063.020529651334
 20
4618.666666666833
 30
0.0000000000008516
  0
VERTEX
  5
328
330
326
100
AcDbEntity
  8
Predeterminada
100
AcDbVertex
100
AcDb2dVertex
 10
2049.263170338314
 20
4618.666666666695
 30
0.0000000000008516
  0
VERTEX
  5
329
330
326
100
AcDbEntity
  8
Predeterminada
100
AcDbVertex
100
AcDb2dVertex
 10
2049.263170338314
 20
4636.666666666695
 30
0.0000000000008516
  0
VERTEX
  5
32A
330
326
100
AcDbEntity
  8
Predeterminada
100
AcDbVertex
100
AcDb2dVertex
 10
2063.02052965136
 20
4636.666666666668
 30
0.0000000000008516
  0
SEQEND
  5
32B
330
326
100
AcDbEntity
  8
Predeterminada
  0
ARC
  5
32C
330
1F
100
AcDbEntity
  8
Predeterminada
100
AcDbCircle
 10
2065.141849994824
 20
4638.787987010323
 30
-0.0000000000005684
 40
2.999999999999869
100
AcDbArc
 50
225.0000000025916
 51
45.00000000187923
  0
POLYLINE
  5
32D
330
1F
100
AcDbEntity
  8
Predeterminada
100
AcDb2dPolyline
 66
     1
 10
0.0
 20
0.0
 30
-0.0000000000005684
  0
VERTEX
  5
32E
330
32D
100
AcDbEntity
  8
Predeterminada
100
AcDbVertex
100
AcDb2dVertex
 10
2067.263170338314
 20
4640.909307353952
 30
-0.0000000000005684
  0
VERTEX
  5
32F
330
32D
100
AcDbEntity
  8
Predeterminada
100
AcDbVertex
100
AcDb2dVertex
 10
2067.263170338314
 20
4699.090692646243
 30
-0.0000000000005684
  0
SEQEND
  5
330
330
32D
100
AcDbEntity
  8
Predeterminada
  0
ARC
  5
331
330
1F
100
AcDbEntity
  8
Predeterminada
100
AcDbCircle
 10
2065.141849994824
 20
4701.212012989872
 30
0.0000000000014201
 40
2.999999999999869
100
AcDbArc
 50
314.9999999981208
 51
134.9999999981208
  0
POLYLINE
  5
332
330
1F
100
AcDbEntity
  8
Predeterminada
100
AcDb2dPolyline
 66
     1
 10
0.0
 20
0.0
 30
0.0000000000014201
  0
VERTEX
  5
333
330
332
100
AcDbEntity
  8
Predeterminada
100
AcDbVertex
100
AcDb2dVertex
 10
2063.020529651335
 20
4703.333333333501
 30
0.0000000000014201
  0
VERTEX
  5
334
330
332
100
AcDbEntity
  8
Predeterminada
100
AcDbVertex
100
AcDb2dVertex
 10
2049.263170338315
 20
4703.333333333363
 30
0.0000000000014201
  0
VERTEX
  5
335
330
332
100
AcDbEntity
  8
Predeterminada
100
AcDbVertex
100
AcDb2dVertex
 10
2049.263170338315
 20
4721.333333333362
 30
0.0000000000014201
  0
VERTEX
  5
336
330
332
100
AcDbEntity
  8
Predeterminada
100
AcDbVertex
100
AcDb2dVertex
 10
2063.02052965136
 20
4721.333333333336
 30
0.0000000000014201
  0
SEQEND
  5
337
330
332
100
AcDbEntity
  8
Predeterminada
  0
ARC
  5
338
330
1F
100
AcDbEntity
  8
Predeterminada
100
AcDbCircle
 10
2065.141849994824
 20
4723.454653676991
 30
0.0
 40
2.999999999999869
100
AcDbArc
 50
225.0000000025916
 51
45.00000000187923
  0
POLYLINE
  5
339
330
1F
100
AcDbEntity
  8
Predeterminada
100
AcDb2dPolyline
 66
     1
 10
0.0
 20
0.0
 30
0.0
  0
VERTEX
  5
33A
330
339
100
AcDbEntity
  8
Predeterminada
100
AcDbVertex
100
AcDb2dVertex
 10
2067.263170338314
 20
4725.575974020619
 30
0.0
  0
VERTEX
  5
33B
330
339
100
AcDbEntity
  8
Predeterminada
100
AcDbVertex
100
AcDb2dVertex
 10
2067.263170338314
 20
4743.854359815196
 30
0.0
  0
VERTEX
  5
33C
330
339
100
AcDbEntity
  8
Predeterminada
100
AcDbVertex
100
AcDb2dVertex
 10
2067.263170338314
 20
4743.88534748752
 30
0.0
  0
VERTEX
  5
33D
330
339
100
AcDbEntity
  8
Predeterminada
100
AcDbVertex
100
AcDb2dVertex
 10
2067.263170338314
 20
4761.497737533188
 30
0.0
  0
VERTEX
  5
33E
330
339
100
AcDbEntity
  8
Predeterminada
100
AcDbVertex
100
AcDb2dVertex
 10
2095.184053430135
 20
4767.432504441986
 30
0.0
  0
SEQEND
  5
33F
330
339
100
AcDbEntity
  8
Predeterminada
  0
SPLINE
  5
340
330
1F
100
AcDbEntity
  8
Predeterminada
100
AcDbSpline
210
0.0
220
0.0
230
1.0
 70
    12
 71
     2
 72
     6
 73
     3
 74
     0
 42
0.000000001
 43
0.0000000001
 40
-29.77717286799866
 40
-29.77717286799866
 40
-29.77717286799866
 40
-27.9969370309644
 40
-27.9969370309644
 40
-27.9969370309644
 10
2095.184053430135
 20
4767.432504441986
 30
0.0000000000007105
 41
1.0
 10
2107.263170338313
 20
4769.999999999995
 30
0.0000000000011291
 41
0.6293203910498433
 10
2107.263170338314
 20
4757.651028434639
 30
0.0000000000005684
 41
1.0
  0
POLYLINE
  5
341
330
1F
100
AcDbEntity
  8
Predeterminada
100
AcDb2dPolyline
 66
     1
 10
0.0
 20
0.0
 30
0.0000000000005684
  0
VERTEX
  5
342
330
341
100
AcDbEntity
  8
Predeterminada
100
AcDbVertex
100
AcDb2dVertex
 10
2107.263170338314
 20
4757.651028434639
 30
0.0000000000005684
  0
VERTEX
  5
343
330
341
100
AcDbEntity
  8
Predeterminada
100
AcDbVertex
100
AcDb2dVertex
 10
2107.263170338314
 20
4752.305437783697
 30
0.0000000000005684
  0
VERTEX
  5
344
330
341
100
AcDbEntity
  8
Predeterminada
100
AcDbVertex
100
AcDb2dVertex
 10
2093.002276735912
 20
4749.303487487786
 30
0.0000000000005684
  0
SEQEND
  5
345
330
341
100
AcDbEntity
  8
Predeterminada
  0
ARC
  5
346
330
1F
100
AcDbEntity
  8
Predeterminada
100
AcDbCircle
 10
2091.561180116838
 20
4746.502462579919
 30
-0.0000000000001421
 40
3.149999999999862
100
AcDbArc
 50
62.77467618365999
 51
219.0000000018588
  0
POLYLINE
  5
347
330
1F
100
AcDbEntity
  8
Predeterminada
100
AcDb2dPolyline
 66
     1
 10
0.0
 20
0.0
 30
-0.0000000000001421
  0
VERTEX
  5
348
330
347
100
AcDbEntity
  8
Predeterminada
100
AcDbVertex
100
AcDb2dVertex
 10
2089.113170338313
 20
4744.520103348033
 30
-0.0000000000001421
  0
VERTEX
  5
349
330
347
100
AcDbEntity
  8
Predeterminada
100
AcDbVertex
100
AcDb2dVertex
 10
2089.113170338314
 20
4734.978710661252
 30
-0.0000000000001421
  0
SEQEND
  5
34A
330
347
100
AcDbEntity
  8
Predeterminada
  0
ARC
  5
34B
330
1F
100
AcDbEntity
  8
Predeterminada
100
AcDbCircle
 10
2091.095529570132
 20
4732.530700882672
 30
-0.0000000000001421
 40
3.149999999999862
100
AcDbArc
 50
129.0000000002647
 51
332.7746761849252
  0
POLYLINE
  5
34C
330
1F
100
AcDbEntity
  8
Predeterminada
100
AcDb2dPolyline
 66
     1
 10
0.0
 20
0.0
 30
-0.0000000000001421
  0
VERTEX
  5
34D
330
34C
100
AcDbEntity
  8
Predeterminada
100
AcDbVertex
100
AcDb2dVertex
 10
2093.896554478031
 20
4731.08960426366
 30
-0.0000000000001421
  0
VERTEX
  5
34E
330
34C
100
AcDbEntity
  8
Predeterminada
100
AcDbVertex
100
AcDb2dVertex
 10
2107.263170338314
 20
4733.903307076106
 30
-0.0000000000001421
  0
VERTEX
  5
34F
330
34C
100
AcDbEntity
  8
Predeterminada
100
AcDbVertex
100
AcDb2dVertex
 10
2107.263170338314
 20
4679.0
 30
-0.0000000000001421
  0
VERTEX
  5
350
330
34C
100
AcDbEntity
  8
Predeterminada
100
AcDbVertex
100
AcDb2dVertex
 10
2093.355811025433
 20
4678.999999999861
 30
-0.0000000000001421
  0
SEQEND
  5
351
330
34C
100
AcDbEntity
  8
Predeterminada
  0
ARC
  5
352
330
1F
100
AcDbEntity
  8
Predeterminada
100
AcDbCircle
 10
2091.234490681804
 20
4676.878679656371
 30
-0.0000000000002842
 40
2.999999999999869
100
AcDbArc
 50
44.99999999812078
 51
224.999999997433
  0
POLYLINE
  5
353
330
1F
100
AcDbEntity
  8
Predeterminada
100
AcDb2dPolyline
 66
     1
 10
0.0
 20
0.0
 30
-0.0000000000002842
  0
VERTEX
  5
354
330
353
100
AcDbEntity
  8
Predeterminada
100
AcDbVertex
100
AcDb2dVertex
 10
2089.113170338314
 20
4674.75735931274
 30
-0.0000000000002842
  0
VERTEX
  5
355
330
353
100
AcDbEntity
  8
Predeterminada
100
AcDbVertex
100
AcDb2dVertex
 10
2089.113170338453
 20
4665.242640687119
 30
-0.0000000000002842
  0
SEQEND
  5
356
330
353
100
AcDbEntity
  8
Predeterminada
  0
ARC
  5
357
330
1F
100
AcDbEntity
  8
Predeterminada
100
AcDbCircle
 10
2091.234490681943
 20
4663.12132034349
 30
-0.0000000000002842
 40
2.999999999999869
100
AcDbArc
 50
134.9999999981208
 51
315.0000000018792
  0
POLYLINE
  5
358
330
1F
100
AcDbEntity
  8
Predeterminada
100
AcDb2dPolyline
 66
     1
 10
0.0
 20
0.0
 30
-0.0000000000002842
  0
VERTEX
  5
359
330
358
100
AcDbEntity
  8
Predeterminada
100
AcDbVertex
100
AcDb2dVertex
 10
2093.355811025572
 20
4661.0
 30
-0.0000000000002842
  0
VERTEX
  5
35A
330
358
100
AcDbEntity
  8
Predeterminada
100
AcDbVertex
100
AcDb2dVertex
 10
2107.263170338314
 20
4661.0
 30
-0.0000000000002842
  0
VERTEX
  5
35B
330
358
100
AcDbEntity
  8
Predeterminada
100
AcDbVertex
100
AcDb2dVertex
 10
2107.263170338314
 20
4606.09669292382
 30
-0.0000000000002842
  0
VERTEX
  5
35C
330
358
100
AcDbEntity
  8
Predeterminada
100
AcDbVertex
100
AcDb2dVertex
 10
2093.896554477814
 20
4608.910395736318
 30
-0.0000000000002842
  0
SEQEND
  5
35D
330
358
100
AcDbEntity
  8
Predeterminada
  0
ARC
  5
35E
330
1F
100
AcDbEntity
  8
Predeterminada
100
AcDbCircle
 10
2091.095529570041
 20
4607.469299117061
 30
-0.0000000000002842
 40
3.149999999999862
100
AcDbArc
 50
27.2253238200578
 51
231.000000001881
  0
POLYLINE
  5
35F
330
1F
100
AcDbEntity
  8
Predeterminada
100
AcDb2dPolyline
 66
     1
 10
0.0
 20
0.0
 30
-0.0000000000002842
  0
VERTEX
  5
360
330
35F
100
AcDbEntity
  8
Predeterminada
100
AcDbVertex
100
AcDb2dVertex
 10
2089.113170338314
 20
4605.021289338407
 30
-0.0000000000002842
  0
VERTEX
  5
361
330
35F
100
AcDbEntity
  8
Predeterminada
100
AcDbVertex
100
AcDb2dVertex
 10
2089.113170338313
 20
4595.479896651632
 30
-0.0000000000002842
  0
SEQEND
  5
362
330
35F
100
AcDbEntity
  8
Predeterminada
  0
ARC
  5
363
330
1F
100
AcDbEntity
  8
Predeterminada
100
AcDbCircle
 10
2091.561180116888
 20
4593.497537419807
 30
-0.0000000000002842
 40
3.149999999999862
100
AcDbArc
 50
140.9999999995881
 51
297.2253238223404
  0
POLYLINE
  5
364
330
1F
100
AcDbEntity
  8
Predeterminada
100
AcDb2dPolyline
 66
     1
 10
0.0
 20
0.0
 30
-0.0000000000002842
  0
VERTEX
  5
365
330
364
100
AcDbEntity
  8
Predeterminada
100
AcDbVertex
100
AcDb2dVertex
 10
2093.002276736256
 20
4590.696512512091
 30
-0.0000000000002842
  0
VERTEX
  5
366
330
364
100
AcDbEntity
  8
Predeterminada
100
AcDbVertex
100
AcDb2dVertex
 10
2107.263170338314
 20
4587.694562216249
 30
-0.0000000000002842
  0
VERTEX
  5
367
330
364
100
AcDbEntity
  8
Predeterminada
100
AcDbVertex
100
AcDb2dVertex
 10
2107.263170338314
 20
4582.348971565363
 30
-0.0000000000002842
  0
SEQEND
  5
368
330
364
100
AcDbEntity
  8
Predeterminada
  0
ARC
  5
369
330
1F
100
AcDbEntity
  8
Predeterminada
100
AcDbCircle
 10
1987.682958666551
 20
4563.182924370811
 30
-0.0000000005645973
 40
3.149999999999862
100
AcDbArc
 50
129.0000000019996
 51
330.0504414548322
  0
POLYLINE
  5
36A
330
1F
100
AcDbEntity
  8
Predeterminada
100
AcDb2dPolyline
 66
     1
 10
0.0
 20
0.0
 30
-0.0000000005645973
  0
VERTEX
  5
36B
330
36A
100
AcDbEntity
  8
Predeterminada
100
AcDbVertex
100
AcDb2dVertex
 10
1990.412324213042
 20
4561.610326611169
 30
-0.0000000005645973
  0
VERTEX
  5
36C
330
36A
100
AcDbEntity
  8
Predeterminada
100
AcDbVertex
100
AcDb2dVertex
 10
2005.700599434678
 20
4564.450802340474
 30
-0.0000000005645973
  0
VERTEX
  5
36D
330
36A
100
AcDbEntity
  8
Predeterminada
100
AcDbVertex
100
AcDb2dVertex
 10
2005.70059943482
 20
4555.000000000522
 30
-0.0000000005645973
  0
SEQEND
  5
36E
330
36A
100
AcDbEntity
  8
Predeterminada
  0
SPLINE
  5
36F
330
1F
100
AcDbEntity
  8
Predeterminada
100
AcDbSpline
210
0.0
220
0.0
230
1.0
 70
    12
 71
     2
 72
     6
 73
     3
 74
     0
 42
0.000000001
 43
0.0000000001
 40
42.94276274959068
 40
42.94276274959068
 40
42.94276274959068
 40
44.51355907638739
 40
44.51355907638739
 40
44.51355907638739
 10
2005.70059943482
 20
4555.000000000522
 30
-0.0000000006086509
 41
1.0
 10
2005.700599434969
 20
4545.000000000521
 30
-0.0000000006320564
 41
0.707106781186821
 10
1995.70059943497
 20
4545.000000000368
 30
-0.0000000006095036
 41
1.0
  0
SPLINE
  5
370
330
1F
100
AcDbEntity
  8
Predeterminada
100
AcDbSpline
210
0.0
220
0.0
230
1.0
 70
    24
 71
     2
 72
     6
 73
     3
 74
     0
 42
0.000000001
 43
0.0000000001
 40
44.51355907638739
 40
44.51355907638739
 40
44.51355907638739
 40
45.51355907638753
 40
45.51355907638753
 40
45.51355907638753
 10
1995.70059943497
 20
4545.000000000368
 30
-0.0000000006095036
 10
1990.700599434969
 20
4545.000000000293
 30
-0.0000000006004086
 10
1985.700599434967
 20
4545.000000000218
 30
-0.0000000005913137
  0
SPLINE
  5
371
330
1F
100
AcDbEntity
  8
Predeterminada
100
AcDbSpline
210
0.0
220
0.0
230
1.0
 70
    12
 71
     2
 72
     6
 73
     3
 74
     0
 42
0.000000001
 43
0.0000000001
 40
45.51355907638753
 40
45.51355907638753
 40
45.51355907638753
 40
50.22594805677658
 40
50.22594805677658
 40
50.22594805677658
 10
1985.700599434967
 20
4545.000000000218
 30
-0.0000000005913137
 41
1.0
 10
1955.700599434965
 20
4544.999999999764
 30
-0.0000000005173015
 41
0.7071067811864651
 10
1955.700599434519
 20
4574.999999999765
 30
-0.0000000005513812
 41
1.0
  0
SPLINE
  5
372
330
1F
100
AcDbEntity
  8
Predeterminada
100
AcDbSpline
210
0.0
220
0.0
230
1.0
 70
    24
 71
     2
 72
     6
 73
     3
 74
     0
 42
0.000000001
 43
0.0000000001
 40
50.22594805677658
 40
50.22594805677658
 40
50.22594805677658
 40
50.98594805677657
 40
50.98594805677657
 40
50.98594805677657
 10
1955.700599434519
 20
4574.999999999765
 30
-0.0000000005513812
 10
1955.700599433091
 20
4669.999999999763
 30
0.0000000000000711
 10
1955.700599431663
 20
4764.99999999976
 30
0.0000000005515233
  0
SPLINE
  5
373
330
1F
100
AcDbEntity
  8
Predeterminada
100
AcDbSpline
210
0.0
220
0.0
230
1.0
 70
    12
 71
     2
 72
     6
 73
     3
 74
     0
 42
0.000000001
 43
0.0000000001
 40
50.98594805677657
 40
50.98594805677657
 40
50.98594805677657
 40
55.69833703716679
 40
55.69833703716679
 40
55.69833703716679
 10
1955.700599431663
 20
4764.99999999976
 30
0.0000000005515233
 41
1.0
 10
1955.700599431212
 20
4794.999999999761
 30
0.0000000005337812
 41
0.7071067811863971
 10
1985.700599431211
 20
4795.000000000208
 30
0.0000000006041034
 41
1.0
  0
SPLINE
  5
374
330
1F
100
AcDbEntity
  8
Predeterminada
100
AcDbSpline
210
0.0
220
0.0
230
1.0
 70
    24
 71
     2
 72
     6
 73
     3
 74
     0
 42
0.000000001
 43
0.0000000001
 40
55.69833703716679
 40
55.69833703716679
 40
55.69833703716679
 40
56.69833703716681
 40
56.69833703716681
 40
56.69833703716681
 10
1985.700599431211
 20
4795.000000000208
 30
0.0000000006041034
 10
1990.700599431212
 20
4795.000000000286
 30
0.00000000061533
 10
1995.700599431212
 20
4795.000000000362
 30
0.0000000006265566
  0
SPLINE
  5
375
330
1F
100
AcDbEntity
  8
Predeterminada
100
AcDbSpline
210
0.0
220
0.0
230
1.0
 70
    12
 71
     2
 72
     6
 73
     3
 74
     0
 42
0.000000001
 43
0.0000000001
 40
56.69833703716681
 40
56.69833703716681
 40
56.69833703716681
 40
58.26913336396352
 40
58.26913336396352
 40
58.26913336396352
 10
1995.700599431212
 20
4795.000000000362
 30
0.0000000006265566
 41
1.0
 10
2005.700599431213
 20
4795.000000000508
 30
0.0000000006075379
 41
0.707106781186889
 10
2005.700599431362
 20
4785.000000000511
 30
0.000000000629683
 41
1.0
  0
POLYLINE
  5
376
330
1F
100
AcDbEntity
  8
Predeterminada
100
AcDb2dPolyline
 66
     1
 10
0.0
 20
0.0
 30
0.000000000629683
  0
VERTEX
  5
377
330
376
100
AcDbEntity
  8
Predeterminada
100
AcDbVertex
100
AcDb2dVertex
 10
2005.700599431362
 20
4785.000000000511
 30
0.000000000629683
  0
VERTEX
  5
378
330
376
100
AcDbEntity
  8
Predeterminada
100
AcDbVertex
100
AcDb2dVertex
 10
2005.700599431504
 20
4775.549197660331
 30
0.000000000629683
  0
VERTEX
  5
379
330
376
100
AcDbEntity
  8
Predeterminada
100
AcDbVertex
100
AcDb2dVertex
 10
1990.412324209443
 20
4778.389673389293
 30
0.000000000629683
  0
SEQEND
  5
37A
330
376
100
AcDbEntity
  8
Predeterminada
  0
ARC
  5
37B
330
1F
100
AcDbEntity
  8
Predeterminada
100
AcDbCircle
 10
1987.682958663175
 20
4776.817075629265
 30
0.0000000005771028
 40
3.149999999999862
100
AcDbArc
 50
29.94955855326673
 51
231.0000000035895
  0
POLYLINE
  5
37C
330
1F
100
AcDbEntity
  8
Predeterminada
100
AcDb2dPolyline
 66
     1
 10
0.0
 20
0.0
 30
0.0000000005771028
  0
VERTEX
  5
37D
330
37C
100
AcDbEntity
  8
Predeterminada
100
AcDbVertex
100
AcDb2dVertex
 10
1985.700599431521
 20
4774.369065850552
 30
0.0000000005771028
  0
VERTEX
  5
37E
330
37C
100
AcDbEntity
  8
Predeterminada
100
AcDbVertex
100
AcDb2dVertex
 10
1985.700599431665
 20
4764.827673163749
 30
0.0000000005771028
  0
SEQEND
  5
37F
330
37C
100
AcDbEntity
  8
Predeterminada
  0
ARC
  5
380
330
1F
100
AcDbEntity
  8
Predeterminada
100
AcDbCircle
 10
1988.148609210306
 20
4762.845313932005
 30
0.0000000004810374
 40
3.149999999999862
100
AcDbArc
 50
141.0000000014871
 51
299.94955855567
  0
POLYLINE
  5
381
330
1F
100
AcDbEntity
  8
Predeterminada
100
AcDb2dPolyline
 66
     1
 10
0.0
 20
0.0
 30
0.0000000004810374
  0
VERTEX
  5
382
330
381
100
AcDbEntity
  8
Predeterminada
100
AcDbVertex
100
AcDb2dVertex
 10
1989.721206970448
 20
4760.115948385803
 30
0.0000000004810374
  0
VERTEX
  5
383
330
381
100
AcDbEntity
  8
Predeterminada
100
AcDbVertex
100
AcDb2dVertex
 10
2005.700599431781
 20
4757.147066952763
 30
0.0000000004810374
  0
VERTEX
  5
384
330
381
100
AcDbEntity
  8
Predeterminada
100
AcDbVertex
100
AcDb2dVertex
 10
2005.700599432955
 20
4679.00000000064
 30
0.0000000004810374
  0
VERTEX
  5
385
330
381
100
AcDbEntity
  8
Predeterminada
100
AcDbVertex
100
AcDb2dVertex
 10
1989.943240120074
 20
4679.000000000245
 30
0.0000000004810374
  0
SEQEND
  5
386
330
381
100
AcDbEntity
  8
Predeterminada
  0
ARC
  5
387
330
1F
100
AcDbEntity
  8
Predeterminada
100
AcDbCircle
 10
1987.821919776445
 20
4676.878679656755
 30
0.0000000000534328
 40
2.999999999999869
100
AcDbArc
 50
44.99999999812078
 51
224.9999999974053
  0
POLYLINE
  5
388
330
1F
100
AcDbEntity
  8
Predeterminada
100
AcDb2dPolyline
 66
     1
 10
0.0
 20
0.0
 30
0.0000000000312589
  0
VERTEX
  5
389
330
388
100
AcDbEntity
  8
Predeterminada
100
AcDbVertex
100
AcDb2dVertex
 10
1985.700599433019
 20
4674.757359313065
 30
0.0000000000312589
  0
VERTEX
  5
38A
330
388
100
AcDbEntity
  8
Predeterminada
100
AcDbVertex
100
AcDb2dVertex
 10
1985.700599433296
 20
4665.242640687436
 30
0.0000000000312589
  0
SEQEND
  5
38B
330
388
100
AcDbEntity
  8
Predeterminada
  0
ARC
  5
38C
330
1F
100
AcDbEntity
  8
Predeterminada
100
AcDbCircle
 10
1987.821919776786
 20
4663.121320343806
 30
-0.000000000040643
 40
2.999999999999869
100
AcDbArc
 50
134.9999999981208
 51
315.0000000052446
  0
POLYLINE
  5
38D
330
1F
100
AcDbEntity
  8
Predeterminada
100
AcDb2dPolyline
 66
     1
 10
0.0
 20
0.0
 30
-0.000000000040643
  0
VERTEX
  5
38E
330
38D
100
AcDbEntity
  8
Predeterminada
100
AcDbVertex
100
AcDb2dVertex
 10
1989.94324012054
 20
4661.000000000441
 30
-0.000000000040643
  0
VERTEX
  5
38F
330
38D
100
AcDbEntity
  8
Predeterminada
100
AcDbVertex
100
AcDb2dVertex
 10
2005.700599433226
 20
4661.000000000641
 30
-0.000000000040643
  0
VERTEX
  5
390
330
38D
100
AcDbEntity
  8
Predeterminada
100
AcDbVertex
100
AcDb2dVertex
 10
2005.700599434401
 20
4582.852933048067
 30
-0.000000000040643
  0
VERTEX
  5
391
330
38D
100
AcDbEntity
  8
Predeterminada
100
AcDbVertex
100
AcDb2dVertex
 10
1989.721206972686
 20
4579.884051614514
 30
-0.000000000040643
  0
SEQEND
  5
392
330
38D
100
AcDbEntity
  8
Predeterminada
  0
ARC
  5
393
330
1F
100
AcDbEntity
  8
Predeterminada
100
AcDbCircle
 10
1988.148609212981
 20
4577.15468606806
 30
-0.0000000004682477
 40
3.149999999999861
100
AcDbArc
 50
60.05044145352051
 51
219.0000000035872
  0
POLYLINE
  5
394
330
1F
100
AcDbEntity
  8
Predeterminada
100
AcDb2dPolyline
 66
     1
 10
0.0
 20
0.0
 30
-0.0000000004682477
  0
VERTEX
  5
395
330
394
100
AcDbEntity
  8
Predeterminada
100
AcDbVertex
100
AcDb2dVertex
 10
1985.700599434516
 20
4575.172326836099
 30
-0.0000000004682477
  0
VERTEX
  5
396
330
394
100
AcDbEntity
  8
Predeterminada
100
AcDbVertex
100
AcDb2dVertex
 10
1985.700599434659
 20
4565.630934149331
 30
-0.0000000004682477
  0
SEQEND
  5
397
330
394
100
AcDbEntity
  8
Predeterminada
  0
ENDSEC
  0
SECTION
  2
OBJECTS
  0
DICTIONARY
  5
C
330
0
100
AcDbDictionary
281
     1
  3
ACAD_DETAILVIEWSTYLE
350
3D3
  3
ACAD_GROUP
350
D
  3
ACAD_LAYOUT
350
1A
  3
ACAD_MATERIAL
350
43
  3
ACAD_MLEADERSTYLE
350
6B
  3
ACAD_MLINESTYLE
350
17
  3
ACAD_PLOTSETTINGS
350
19
  3
ACAD_PLOTSTYLENAME
350
E
  3
ACAD_SCALELIST
350
47
  3
ACAD_SECTIONVIEWSTYLE
350
3D4
  3
ACAD_TABLESTYLE
350
69
  3
ACAD_VISUALSTYLE
350
2A
  3
ACDB_RECOMPOSE_DATA
350
3D0
  3
AcDbVariableDictionary
350
398
  0
SUN
  5
6D
330
29
100
AcDbSun
 90
        1
290
     0
 63
     7
421
 16777215
 40
1.0
291
     1
 91
  2455826
 92
 54000000
292
     0
 70
     2
 71
   256
280
     1
  0
DICTIONARY
  5
3D3
102
{ACAD_REACTORS
330
C
102
}
330
C
100
AcDbDictionary
281
     1
  0
DICTIONARY
  5
D
102
{ACAD_REACTORS
330
C
102
}
330
C
100
AcDbDictionary
281
     1
  0
DICTIONARY
  5
1A
102
{ACAD_REACTORS
330
C
102
}
330
C
100
AcDbDictionary
281
     1
  3
Layout1
350
1E
  3
Layout2
350
26
  3
Model
350
22
  0
DICTIONARY
  5
43
102
{ACAD_REACTORS
330
C
102
}
330
C
100
AcDbDictionary
281
     1
  3
ByBlock
350
45
  3
ByLayer
350
44
  3
Global
350
46
  0
DICTIONARY
  5
6B
102
{ACAD_REACTORS
330
C
102
}
330
C
100
AcDbDictionary
281
     1
  3
Standard
350
6C
  0
DICTIONARY
  5
17
102
{ACAD_REACTORS
330
C
102
}
330
C
100
AcDbDictionary
281
     1
  3
Standard
350
18
  0
DICTIONARY
  5
19
102
{ACAD_REACTORS
330
C
102
}
330
C
100
AcDbDictionary
281
     1
  0
ACDBDICTIONARYWDFLT
  5
E
102
{ACAD_REACTORS
330
C
102
}
330
C
100
AcDbDictionary
281
     1
  3
Normal
350
F
100
AcDbDictionaryWithDefault
340
F
  0
DICTIONARY
  5
47
102
{ACAD_REACTORS
330
C
102
}
330
C
100
AcDbDictionary
281
     1
  3
A0
350
48
  3
A1
350
49
  3
A2
350
4A
  3
A3
350
4B
  3
A4
350
4C
  3
A5
350
4D
  3
A6
350
4E
  3
A7
350
4F
  3
A8
350
50
  3
A9
350
51
  3
B0
350
52
  3
B1
350
53
  3
B2
350
54
  3
B3
350
55
  3
B4
350
56
  3
B5
350
57
  3
B6
350
58
  3
B7
350
59
  3
B8
350
5A
  3
B9
350
5B
  3
C0
350
5C
  3
C1
350
5D
  3
C2
350
5E
  3
C3
350
5F
  3
C4
350
60
  3
C5
350
61
  3
C6
350
62
  3
C7
350
63
  3
C8
350
64
  3
C9
350
65
  3
D0
350
66
  3
D1
350
67
  3
D2
350
68
  0
DICTIONARY
  5
3D4
102
{ACAD_REACTORS
330
C
102
}
330
C
100
AcDbDictionary
281
     1
  0
DICTIONARY
  5
69
102
{ACAD_REACTORS
330
C
102
}
330
C
100
AcDbDictionary
281
     1
  3
Standard
350
6A
  0
DICTIONARY
  5
2A
102
{ACAD_REACTORS
330
C
102
}
330
C
100
AcDbDictionary
281
     1
  3
2dWireframe
350
2F
  3
Basic
350
32
  3
Brighten
350
36
  3
ColorChange
350
3A
  3
Conceptual
350
34
  3
Dim
350
35
  3
EdgeColorOff
350
3D
  3
Facepattern
350
39
  3
Flat
350
2B
  3
FlatWithEdges
350
2C
  3
Gouraud
350
2D
  3
GouraudWithEdges
350
2E
  3
Hidden
350
31
  3
JitterOff
350
3B
  3
Linepattern
350
38
  3
OverhangOff
350
3C
  3
Realistic
350
33
  3
Shaded
350
42
  3
Shaded with edges
350
41
  3
Shades of Gray
350
3E
  3
Sketchy
350
3F
  3
Thicken
350
37
  3
Wireframe
350
30
  3
X-Ray
350
40
  0
XRECORD
  5
3D0
102
{ACAD_REACTORS
330
C
102
}
330
C
100
AcDbXrecord
280
     1
 90
        1
330
6A
  0
DICTIONARY
  5
398
102
{ACAD_REACTORS
330
C
102
}
330
C
100
AcDbDictionary
281
     1
  3
CANNOSCALE
350
399
  3
CMLEADERSTYLE
350
3D2
  3
CTABLESTYLE
350
3D1
  3
XCLIPFRAME
350
39A
  0
LAYOUT
  5
1E
102
{ACAD_REACTORS
330
1A
102
}
330
1A
100
AcDbPlotSettings
  1

  2
none_device
  4

  6

 40
0.0
 41
0.0
 42
0.0
 43
0.0
 44
0.0
 45
0.0
 46
0.0
 47
0.0
 48
0.0
 49
0.0
140
0.0
141
0.0
142
1.0
143
1.0
 70
   688
 72
     0
 73
     0
 74
     5
  7

 75
    16
 76
     0
 77
     2
 78
   300
147
1.0
148
0.0
149
0.0
100
AcDbLayout
  1
Layout1
 70
     1
 71
     1
 10
0.0
 20
0.0
 11
12.0
 21
9.0
 12
0.0
 22
0.0
 32
0.0
 14
1.000000000000000E+20
 24
1.000000000000000E+20
 34
1.000000000000000E+20
 15
-1.000000000000000E+20
 25
-1.000000000000000E+20
 35
-1.000000000000000E+20
146
0.0
 13
0.0
 23
0.0
 33
0.0
 16
1.0
 26
0.0
 36
0.0
 17
0.0
 27
1.0
 37
0.0
 76
     0
330
1B
  0
LAYOUT
  5
26
102
{ACAD_REACTORS
330
1A
102
}
330
1A
100
AcDbPlotSettings
  1

  2
none_device
  4

  6

 40
0.0
 41
0.0
 42
0.0
 43
0.0
 44
0.0
 45
0.0
 46
0.0
 47
0.0
 48
0.0
 49
0.0
140
0.0
141
0.0
142
1.0
143
1.0
 70
   688
 72
     0
 73
     0
 74
     5
  7

 75
    16
 76
     0
 77
     2
 78
   300
147
1.0
148
0.0
149
0.0
100
AcDbLayout
  1
Layout2
 70
     1
 71
     2
 10
0.0
 20
0.0
 11
0.0
 21
0.0
 12
0.0
 22
0.0
 32
0.0
 14
0.0
 24
0.0
 34
0.0
 15
0.0
 25
0.0
 35
0.0
146
0.0
 13
0.0
 23
0.0
 33
0.0
 16
1.0
 26
0.0
 36
0.0
 17
0.0
 27
1.0
 37
0.0
 76
     0
330
23
  0
LAYOUT
  5
22
102
{ACAD_REACTORS
330
1A
102
}
330
1A
100
AcDbPlotSettings
  1

  2
none_device
  4
Letter_(8.50_x_11.00_Inches)
  6

 40
6.35
 41
6.35
 42
6.35000508
 43
6.35000508
 44
215.9
 45
279.4
 46
0.0
 47
0.0
 48
0.0
 49
0.0
140
0.0
141
0.0
142
1.0
143
1.0
 70
  1712
 72
     0
 73
     0
 74
     0
  7

 75
     0
 76
     0
 77
     2
 78
   300
147
1.0
148
0.0
149
0.0
100
AcDbLayout
  1
Model
 70
     1
 71
     0
 10
0.0
 20
0.0
 11
12.0
 21
9.0
 12
0.0
 22
0.0
 32
0.0
 14
1.000000000000000E+20
 24
1.000000000000000E+20
 34
1.000000000000000E+20
 15
-1.000000000000000E+20
 25
-1.000000000000000E+20
 35
-1.000000000000000E+20
146
0.0
 13
0.0
 23
0.0
 33
0.0
 16
1.0
 26
0.0
 36
0.0
 17
0.0
 27
1.0
 37
0.0
 76
     0
330
1F
331
29
  0
MATERIAL
  5
45
102
{ACAD_REACTORS
330
43
102
}
330
43
100
AcDbMaterial
  1
ByBlock
 72
     1
 94
      127
  0
MATERIAL
  5
44
102
{ACAD_REACTORS
330
43
102
}
330
43
100
AcDbMaterial
  1
ByLayer
 72
     1
 94
      127
  0
MATERIAL
  5
46
102
{ACAD_REACTORS
330
43
102
}
330
43
100
AcDbMaterial
  1
Global
 72
     1
 94
      127
  0
MLEADERSTYLE
  5
6C
102
{ACAD_REACTORS
330
6B
102
}
102
{ACAD_XDICTIONARY
360
3CE
102
}
330
6B
100
AcDbMLeaderStyle
170
     2
171
     1
172
     0
 90
        2
 40
0.0
 41
0.0
173
     1
 91
-1056964608
340
14
 92
       -2
290
     1
 42
0.09
291
     1
 43
0.36
  3
Standard
341
0
 44
0.18
300

342
11
174
     1
178
     6
175
     1
176
     0
 93
-1056964608
 45
0.18
292
     0
297
     0
 46
0.18
343
0
 94
-1056964608
 47
1.0
 49
1.0
140
1.0
293
     1
141
0.0
294
     1
177
     0
142
1.0
295
     0
296
     0
143
0.125
1001
ACAD_MLEADERVER
1070
     2
  0
MLINESTYLE
  5
18
102
{ACAD_REACTORS
330
17
102
}
330
17
100
AcDbMlineStyle
  2
Standard
 70
     0
  3

 62
   256
 51
90.0
 52
90.0
 71
     2
 49
0.5
 62
   256
  6
BYLAYER
 49
-0.5
 62
   256
  6
BYLAYER
  0
ACDBPLACEHOLDER
  5
F
102
{ACAD_REACTORS
330
E
102
}
330
E
  0
SCALE
  5
48
102
{ACAD_REACTORS
330
47
102
}
330
47
100
AcDbScale
 70
     0
300
1:1
140
1.0
141
1.0
290
     1
  0
SCALE
  5
49
102
{ACAD_REACTORS
330
47
102
}
330
47
100
AcDbScale
 70
     0
300
1:2
140
1.0
141
2.0
290
     0
  0
SCALE
  5
4A
102
{ACAD_REACTORS
330
47
102
}
330
47
100
AcDbScale
 70
     0
300
1:4
140
1.0
141
4.0
290
     0
  0
SCALE
  5
4B
102
{ACAD_REACTORS
330
47
102
}
330
47
100
AcDbScale
 70
     0
300
1:5
140
1.0
141
5.0
290
     0
  0
SCALE
  5
4C
102
{ACAD_REACTORS
330
47
102
}
330
47
100
AcDbScale
 70
     0
300
1:8
140
1.0
141
8.0
290
     0
  0
SCALE
  5
4D
102
{ACAD_REACTORS
330
47
102
}
330
47
100
AcDbScale
 70
     0
300
1:10
140
1.0
141
10.0
290
     0
  0
SCALE
  5
4E
102
{ACAD_REACTORS
330
47
102
}
330
47
100
AcDbScale
 70
     0
300
1:16
140
1.0
141
16.0
290
     0
  0
SCALE
  5
4F
102
{ACAD_REACTORS
330
47
102
}
330
47
100
AcDbScale
 70
     0
300
1:20
140
1.0
141
20.0
290
     0
  0
SCALE
  5
50
102
{ACAD_REACTORS
330
47
102
}
330
47
100
AcDbScale
 70
     0
300
1:30
140
1.0
141
30.0
290
     0
  0
SCALE
  5
51
102
{ACAD_REACTORS
330
47
102
}
330
47
100
AcDbScale
 70
     0
300
1:40
140
1.0
141
40.0
290
     0
  0
SCALE
  5
52
102
{ACAD_REACTORS
330
47
102
}
330
47
100
AcDbScale
 70
     0
300
1:50
140
1.0
141
50.0
290
     0
  0
SCALE
  5
53
102
{ACAD_REACTORS
330
47
102
}
330
47
100
AcDbScale
 70
     0
300
1:100
140
1.0
141
100.0
290
     0
  0
SCALE
  5
54
102
{ACAD_REACTORS
330
47
102
}
330
47
100
AcDbScale
 70
     0
300
2:1
140
2.0
141
1.0
290
     0
  0
SCALE
  5
55
102
{ACAD_REACTORS
330
47
102
}
330
47
100
AcDbScale
 70
     0
300
4:1
140
4.0
141
1.0
290
     0
  0
SCALE
  5
56
102
{ACAD_REACTORS
330
47
102
}
330
47
100
AcDbScale
 70
     0
300
8:1
140
8.0
141
1.0
290
     0
  0
SCALE
  5
57
102
{ACAD_REACTORS
330
47
102
}
330
47
100
AcDbScale
 70
     0
300
10:1
140
10.0
141
1.0
290
     0
  0
SCALE
  5
58
102
{ACAD_REACTORS
330
47
102
}
330
47
100
AcDbScale
 70
     0
300
100:1
140
100.0
141
1.0
290
     0
  0
SCALE
  5
59
102
{ACAD_REACTORS
330
47
102
}
330
47
100
AcDbScale
 70
     0
300
1/128" = 1'-0"
140
0.0078125
141
12.0
290
     0
  0
SCALE
  5
5A
102
{ACAD_REACTORS
330
47
102
}
330
47
100
AcDbScale
 70
     0
300
1/64" = 1'-0"
140
0.015625
141
12.0
290
     0
  0
SCALE
  5
5B
102
{ACAD_REACTORS
330
47
102
}
330
47
100
AcDbScale
 70
     0
300
1/32" = 1'-0"
140
0.03125
141
12.0
290
     0
  0
SCALE
  5
5C
102
{ACAD_REACTORS
330
47
102
}
330
47
100
AcDbScale
 70
     0
300
1/16" = 1'-0"
140
0.0625
141
12.0
290
     0
  0
SCALE
  5
5D
102
{ACAD_REACTORS
330
47
102
}
330
47
100
AcDbScale
 70
     0
300
3/32" = 1'-0"
140
0.09375
141
12.0
290
     0
  0
SCALE
  5
5E
102
{ACAD_REACTORS
330
47
102
}
330
47
100
AcDbScale
 70
     0
300
1/8" = 1'-0"
140
0.125
141
12.0
290
     0
  0
SCALE
  5
5F
102
{ACAD_REACTORS
330
47
102
}
330
47
100
AcDbScale
 70
     0
300
3/16" = 1'-0"
140
0.1875
141
12.0
290
     0
  0
SCALE
  5
60
102
{ACAD_REACTORS
330
47
102
}
330
47
100
AcDbScale
 70
     0
300
1/4" = 1'-0"
140
0.25
141
12.0
290
     0
  0
SCALE
  5
61
102
{ACAD_REACTORS
330
47
102
}
330
47
100
AcDbScale
 70
     0
300
3/8" = 1'-0"
140
0.375
141
12.0
290
     0
  0
SCALE
  5
62
102
{ACAD_REACTORS
330
47
102
}
330
47
100
AcDbScale
 70
     0
300
1/2" = 1'-0"
140
0.5
141
12.0
290
     0
  0
SCALE
  5
63
102
{ACAD_REACTORS
330
47
102
}
330
47
100
AcDbScale
 70
     0
300
3/4" = 1'-0"
140
0.75
141
12.0
290
     0
  0
SCALE
  5
64
102
{ACAD_REACTORS
330
47
102
}
330
47
100
AcDbScale
 70
     0
300
1" = 1'-0"
140
1.0
141
12.0
290
     0
  0
SCALE
  5
65
102
{ACAD_REACTORS
330
47
102
}
330
47
100
AcDbScale
 70
     0
300
1-1/2" = 1'-0"
140
1.5
141
12.0
290
     0
  0
SCALE
  5
66
102
{ACAD_REACTORS
330
47
102
}
330
47
100
AcDbScale
 70
     0
300
3" = 1'-0"
140
3.0
141
12.0
290
     0
  0
SCALE
  5
67
102
{ACAD_REACTORS
330
47
102
}
330
47
100
AcDbScale
 70
     0
300
6" = 1'-0"
140
6.0
141
12.0
290
     0
  0
SCALE
  5
68
102
{ACAD_REACTORS
330
47
102
}
330
47
100
AcDbScale
 70
     0
300
1'-0" = 1'-0"
140
12.0
141
12.0
290
     0
  0
TABLESTYLE
  5
6A
102
{ACAD_REACTORS
330
69
102
}
102
{ACAD_XDICTIONARY
360
3CB
102
}
330
69
100
AcDbTableStyle
  3
Standard
 70
     0
 71
     0
 40
0.06
 41
0.06
280
     0
281
     0
  7
Standard
140
0.18
170
     2
 62
     0
 63
   257
283
     0
 90
        4
 91
        0
  1

274
    -2
284
     1
 64
     0
275
    -2
285
     1
 65
     0
276
    -2
286
     1
 66
     0
277
    -2
287
     1
 67
     0
278
    -2
288
     1
 68
     0
279
    -2
289
     1
 69
     0
  7
Standard
140
0.25
170
     5
 62
     0
 63
   257
283
     0
 90
        4
 91
        0
  1

274
    -2
284
     1
 64
     0
275
    -2
285
     1
 65
     0
276
    -2
286
     1
 66
     0
277
    -2
287
     1
 67
     0
278
    -2
288
     1
 68
     0
279
    -2
289
     1
 69
     0
  7
Standard
140
0.18
170
     5
 62
     0
 63
   257
283
     0
 90
        4
 91
        0
  1

274
    -2
284
     1
 64
     0
275
    -2
285
     1
 65
     0
276
    -2
286
     1
 66
     0
277
    -2
287
     1
 67
     0
278
    -2
288
     1
 68
     0
279
    -2
289
     1
 69
     0
  0
VISUALSTYLE
  5
2F
102
{ACAD_REACTORS
330
2A
102
}
102
{ACAD_XDICTIONARY
360
3A3
102
}
330
2A
100
AcDbVisualStyle
  2
2dWireframe
 70
     4
 71
     0
 72
     2
 73
     0
 90
        0
 40
0.6
 41
30.0
 62
     5
 63
     7
421
 16777215
 74
     1
 91
        4
 64
     7
 65
   257
 75
     1
175
     1
 42
1.0
 92
        0
 66
   257
 43
1.0
 76
     1
 77
     6
 78
     2
 67
     7
 79
     5
170
     0
171
     0
290
     0
174
     0
 93
        1
 44
0.0
173
     0
291
     0
 45
0.0
  0
VISUALSTYLE
  5
32
102
{ACAD_REACTORS
330
2A
102
}
102
{ACAD_XDICTIONARY
360
3A9
102
}
330
2A
100
AcDbVisualStyle
  2
Basic
 70
     7
 71
     1
 72
     0
 73
     1
 90
        0
 40
0.6
 41
30.0
 62
     5
 63
     7
421
 16777215
 74
     0
 91
        4
 64
     7
 65
   257
 75
     1
175
     1
 42
1.0
 92
        8
 66
     7
 43
1.0
 76
     1
 77
     6
 78
     2
 67
     7
 79
     5
170
     0
171
     0
290
     0
174
     0
 93
        1
 44
0.0
173
     0
291
     1
 45
0.0
  0
VISUALSTYLE
  5
36
102
{ACAD_REACTORS
330
2A
102
}
102
{ACAD_XDICTIONARY
360
3B1
102
}
330
2A
100
AcDbVisualStyle
  2
Brighten
 70
    12
 71
     2
 72
     2
 73
     0
 90
        0
 40
0.6
 41
30.0
 62
     5
 63
     7
421
 16777215
 74
     1
 91
        4
 64
     7
 65
   257
 75
     1
175
     1
 42
1.0
 92
        8
 66
     7
 43
1.0
 76
     1
 77
     6
 78
     2
 67
     7
 79
     5
170
     0
171
     0
290
     0
174
     0
 93
        1
 44
50.0
173
     0
291
     1
 45
0.0
  0
VISUALSTYLE
  5
3A
102
{ACAD_REACTORS
330
2A
102
}
102
{ACAD_XDICTIONARY
360
3B9
102
}
330
2A
100
AcDbVisualStyle
  2
ColorChange
 70
    16
 71
     2
 72
     2
 73
     3
 90
        0
 40
0.6
 41
30.0
 62
     5
 63
     8
421
  8421504
 74
     1
 91
        4
 64
     7
 65
   257
 75
     1
175
     1
 42
1.0
 92
        8
 66
     8
424
  8421504
 43
1.0
 76
     1
 77
     6
 78
     2
 67
     7
 79
     5
170
     0
171
     0
290
     0
174
     0
 93
        1
 44
0.0
173
     0
291
     1
 45
0.0
  0
VISUALSTYLE
  5
34
102
{ACAD_REACTORS
330
2A
102
}
102
{ACAD_XDICTIONARY
360
3AD
102
}
330
2A
100
AcDbVisualStyle
  2
Conceptual
 70
     9
 71
     3
 72
     2
 73
     0
 90
        0
 40
0.6
 41
30.0
 62
     5
 63
     7
421
 16777215
 74
     2
 91
        2
 64
     7
 65
   257
 75
     1
175
     1
 42
179.0
 92
        8
 66
     7
 43
1.0
 76
     1
 77
     6
 78
     2
 67
     7
 79
     3
170
     0
171
     0
290
     0
174
     0
 93
        1
 44
0.0
173
     0
291
     0
 45
0.0
  0
VISUALSTYLE
  5
35
102
{ACAD_REACTORS
330
2A
102
}
102
{ACAD_XDICTIONARY
360
3AF
102
}
330
2A
100
AcDbVisualStyle
  2
Dim
 70
    11
 71
     2
 72
     2
 73
     0
 90
        0
 40
0.6
 41
30.0
 62
     5
 63
     7
421
 16777215
 74
     1
 91
        4
 64
     7
 65
   257
 75
     1
175
     1
 42
1.0
 92
        8
 66
     7
 43
1.0
 76
     1
 77
     6
 78
     2
 67
     7
 79
     5
170
     0
171
     0
290
     0
174
     0
 93
        1
 44
-50.0
173
     0
291
     1
 45
0.0
  0
VISUALSTYLE
  5
3D
102
{ACAD_REACTORS
330
2A
102
}
102
{ACAD_XDICTIONARY
360
3BF
102
}
330
2A
100
AcDbVisualStyle
  2
EdgeColorOff
 70
    22
 71
     2
 72
     2
 73
     0
 90
        0
 40
0.6
 41
30.0
 62
     5
 63
     7
421
 16777215
 74
     1
 91
        4
 64
     7
 65
   257
 75
     1
175
     1
 42
1.0
 92
        8
 66
     7
 43
1.0
 76
     1
 77
     6
 78
     2
 67
     7
 79
     5
170
     0
171
     0
290
     0
174
     0
 93
        1
 44
0.0
173
     0
291
     1
 45
0.0
  0
VISUALSTYLE
  5
39
102
{ACAD_REACTORS
330
2A
102
}
102
{ACAD_XDICTIONARY
360
3B7
102
}
330
2A
100
AcDbVisualStyle
  2
Facepattern
 70
    15
 71
     2
 72
     2
 73
     0
 90
        0
 40
0.6
 41
30.0
 62
     5
 63
     7
421
 16777215
 74
     1
 91
        4
 64
     7
 65
   257
 75
     1
175
     1
 42
1.0
 92
        8
 66
     7
 43
1.0
 76
     1
 77
     6
 78
     2
 67
     7
 79
     5
170
     0
171
     0
290
     0
174
     0
 93
        1
 44
0.0
173
     0
291
     1
 45
0.0
  0
VISUALSTYLE
  5
2B
102
{ACAD_REACTORS
330
2A
102
}
102
{ACAD_XDICTIONARY
360
39B
102
}
330
2A
100
AcDbVisualStyle
  2
Flat
 70
     0
 71
     2
 72
     1
 73
     1
 90
        2
 40
0.6
 41
30.0
 62
     5
 63
     7
421
 16777215
 74
     0
 91
        0
 64
     7
 65
   257
 75
     1
175
     1
 42
1.0
 92
        8
 66
     7
 43
1.0
 76
     1
 77
     6
 78
     2
 67
     7
 79
     5
170
     0
171
     0
290
     0
174
     0
 93
       13
 44
0.0
173
     0
291
     1
 45
0.0
  0
VISUALSTYLE
  5
2C
102
{ACAD_REACTORS
330
2A
102
}
102
{ACAD_XDICTIONARY
360
39D
102
}
330
2A
100
AcDbVisualStyle
  2
FlatWithEdges
 70
     1
 71
     2
 72
     1
 73
     1
 90
        2
 40
0.6
 41
30.0
 62
     5
 63
     7
421
 16777215
 74
     1
 91
        0
 64
     7
 65
   257
 75
     1
175
     1
 42
1.0
 92
        0
 66
   257
 43
1.0
 76
     1
 77
     6
 78
     2
 67
     7
 79
     5
170
     0
171
     0
290
     0
174
     0
 93
       13
 44
0.0
173
     0
291
     1
 45
0.0
  0
VISUALSTYLE
  5
2D
102
{ACAD_REACTORS
330
2A
102
}
102
{ACAD_XDICTIONARY
360
39F
102
}
330
2A
100
AcDbVisualStyle
  2
Gouraud
 70
     2
 71
     2
 72
     2
 73
     1
 90
        2
 40
0.6
 41
30.0
 62
     5
 63
     7
421
 16777215
 74
     0
 91
        0
 64
     7
 65
   257
 75
     1
175
     1
 42
1.0
 92
        0
 66
     7
 43
1.0
 76
     1
 77
     6
 78
     2
 67
     7
 79
     5
170
     0
171
     0
290
     0
174
     0
 93
       13
 44
0.0
173
     0
291
     1
 45
0.0
  0
VISUALSTYLE
  5
2E
102
{ACAD_REACTORS
330
2A
102
}
102
{ACAD_XDICTIONARY
360
3A1
102
}
330
2A
100
AcDbVisualStyle
  2
GouraudWithEdges
 70
     3
 71
     2
 72
     2
 73
     1
 90
        2
 40
0.6
 41
30.0
 62
     5
 63
     7
421
 16777215
 74
     1
 91
        0
 64
     7
 65
   257
 75
     1
175
     1
 42
1.0
 92
        0
 66
   257
 43
1.0
 76
     1
 77
     6
 78
     2
 67
     7
 79
     5
170
     0
171
     0
290
     0
174
     0
 93
       13
 44
0.0
173
     0
291
     1
 45
0.0
  0
VISUALSTYLE
  5
31
102
{ACAD_REACTORS
330
2A
102
}
102
{ACAD_XDICTIONARY
360
3A7
102
}
330
2A
100
AcDbVisualStyle
  2
Hidden
 70
     6
 71
     1
 72
     2
 73
     2
 90
        0
 40
0.6
 41
30.0
 62
     5
 63
     7
421
 16777215
 74
     2
 91
        2
 64
     7
 65
   257
 75
     2
175
     1
 42
40.0
 92
        0
 66
   257
 43
1.0
 76
     1
 77
     6
 78
     2
 67
     7
 79
     3
170
     0
171
     0
290
     0
174
     0
 93
        1
 44
0.0
173
     0
291
     0
 45
0.0
  0
VISUALSTYLE
  5
3B
102
{ACAD_REACTORS
330
2A
102
}
102
{ACAD_XDICTIONARY
360
3BB
102
}
330
2A
100
AcDbVisualStyle
  2
JitterOff
 70
    20
 71
     2
 72
     2
 73
     0
 90
        0
 40
0.6
 41
30.0
 62
     5
 63
     7
421
 16777215
 74
     1
 91
        4
 64
     7
 65
   257
 75
     1
175
     1
 42
1.0
 92
       10
 66
     7
 43
1.0
 76
     1
 77
     6
 78
     2
 67
     7
 79
     5
170
     0
171
     0
290
     0
174
     0
 93
        1
 44
0.0
173
     0
291
     1
 45
0.0
  0
VISUALSTYLE
  5
38
102
{ACAD_REACTORS
330
2A
102
}
102
{ACAD_XDICTIONARY
360
3B5
102
}
330
2A
100
AcDbVisualStyle
  2
Linepattern
 70
    14
 71
     2
 72
     2
 73
     0
 90
        0
 40
0.6
 41
30.0
 62
     5
 63
     7
421
 16777215
 74
     1
 91
        4
 64
     7
 65
   257
 75
     7
175
     7
 42
1.0
 92
        8
 66
     7
 43
1.0
 76
     1
 77
     6
 78
     2
 67
     7
 79
     5
170
     0
171
     0
290
     0
174
     0
 93
        1
 44
0.0
173
     0
291
     1
 45
0.0
  0
VISUALSTYLE
  5
3C
102
{ACAD_REACTORS
330
2A
102
}
102
{ACAD_XDICTIONARY
360
3BD
102
}
330
2A
100
AcDbVisualStyle
  2
OverhangOff
 70
    21
 71
     2
 72
     2
 73
     0
 90
        0
 40
0.6
 41
30.0
 62
     5
 63
     7
421
 16777215
 74
     1
 91
        4
 64
     7
 65
   257
 75
     1
175
     1
 42
1.0
 92
        9
 66
     7
 43
1.0
 76
     1
 77
     6
 78
     2
 67
     7
 79
     5
170
     0
171
     0
290
     0
174
     0
 93
        1
 44
0.0
173
     0
291
     1
 45
0.0
  0
VISUALSTYLE
  5
33
102
{ACAD_REACTORS
330
2A
102
}
102
{ACAD_XDICTIONARY
360
3AB
102
}
330
2A
100
AcDbVisualStyle
  2
Realistic
 70
     8
 71
     2
 72
     3
 73
     0
 90
        2
 40
0.6
 41
30.0
 62
     5
 63
     7
421
 16777215
 74
     0
 91
        0
 64
     7
 65
   257
 75
     1
175
     1
 42
1.0
 92
        8
 66
   257
 43
1.0
 76
     1
 77
     6
 78
     2
 67
     7
 79
     3
170
     0
171
     0
290
     0
174
     0
 93
       13
 44
0.0
173
     0
291
     0
 45
0.0
  0
VISUALSTYLE
  5
42
102
{ACAD_REACTORS
330
2A
102
}
102
{ACAD_XDICTIONARY
360
3C9
102
}
330
2A
100
AcDbVisualStyle
  2
Shaded
 70
    27
 71
     2
 72
     2
 73
     1
 90
        2
 40
0.6
 41
30.0
 62
     5
 63
     7
421
 16777215
 74
     0
 91
        4
 64
     7
 65
   257
 75
     1
175
     1
 42
1.0
 92
        8
 66
   257
 43
1.0
 76
     1
 77
     6
 78
     2
 67
     8
425
  7895160
 79
     3
170
     0
171
     0
290
     0
174
     0
 93
        5
 44
0.0
173
     0
291
     0
 45
0.0
  0
VISUALSTYLE
  5
41
102
{ACAD_REACTORS
330
2A
102
}
102
{ACAD_XDICTIONARY
360
3C7
102
}
330
2A
100
AcDbVisualStyle
  2
Shaded with edges
 70
    26
 71
     2
 72
     2
 73
     1
 90
        2
 40
0.6
 41
30.0
 62
     5
 63
     7
421
 16777215
 74
     1
 91
       10
 64
     7
 65
   257
 75
     2
175
     1
 42
1.0
 92
        8
 66
   257
 43
1.0
 76
     1
 77
     6
 78
     2
 67
     7
 79
     3
170
     0
171
     0
290
     0
174
     0
 93
        5
 44
0.0
173
     0
291
     0
 45
0.0
  0
VISUALSTYLE
  5
3E
102
{ACAD_REACTORS
330
2A
102
}
102
{ACAD_XDICTIONARY
360
3C1
102
}
330
2A
100
AcDbVisualStyle
  2
Shades of Gray
 70
    23
 71
     2
 72
     2
 73
     3
 90
        0
 40
0.6
 41
30.0
 62
     5
 63
     7
421
 16777215
 74
     2
 91
        2
 64
     7
 65
     7
 75
     1
175
     1
 42
40.0
 92
        8
 66
     7
 43
1.0
 76
     1
 77
     6
 78
     2
 67
     7
 79
     3
170
     0
171
     0
290
     0
174
     0
 93
        1
 44
0.0
173
     0
291
     0
 45
0.0
  0
VISUALSTYLE
  5
3F
102
{ACAD_REACTORS
330
2A
102
}
102
{ACAD_XDICTIONARY
360
3C3
102
}
330
2A
100
AcDbVisualStyle
  2
Sketchy
 70
    24
 71
     1
 72
     2
 73
     2
 90
        0
 40
0.6
 41
30.0
 62
     5
 63
     7
421
 16777215
 74
     2
 91
        2
 64
     7
 65
     7
 75
     1
175
     1
 42
40.0
 92
       11
 66
     7
 43
1.0
 76
     1
 77
     6
 78
     2
 67
     7
 79
     6
170
     0
171
     0
290
     0
174
     0
 93
        1
 44
0.0
173
     0
291
     0
 45
0.0
  0
VISUALSTYLE
  5
37
102
{ACAD_REACTORS
330
2A
102
}
102
{ACAD_XDICTIONARY
360
3B3
102
}
330
2A
100
AcDbVisualStyle
  2
Thicken
 70
    13
 71
     2
 72
     2
 73
     0
 90
        0
 40
0.6
 41
30.0
 62
     5
 63
     7
421
 16777215
 74
     1
 91
        4
 64
     7
 65
   257
 75
     1
175
     1
 42
1.0
 92
       12
 66
     7
 43
1.0
 76
     1
 77
     6
 78
     2
 67
     7
 79
     5
170
     0
171
     0
290
     0
174
     0
 93
        1
 44
0.0
173
     0
291
     1
 45
0.0
  0
VISUALSTYLE
  5
30
102
{ACAD_REACTORS
330
2A
102
}
102
{ACAD_XDICTIONARY
360
3A5
102
}
330
2A
100
AcDbVisualStyle
  2
Wireframe
 70
     5
 71
     0
 72
     2
 73
     0
 90
        0
 40
0.6
 41
30.0
 62
     5
 63
     7
421
 16777215
 74
     1
 91
        4
 64
     7
 65
   257
 75
     1
175
     1
 42
1.0
 92
        0
 66
   257
 43
1.0
 76
     1
 77
     6
 78
     2
 67
     7
 79
     3
170
     0
171
     0
290
     0
174
     0
 93
        1
 44
0.0
173
     0
291
     0
 45
0.0
  0
VISUALSTYLE
  5
40
102
{ACAD_REACTORS
330
2A
102
}
102
{ACAD_XDICTIONARY
360
3C5
102
}
330
2A
100
AcDbVisualStyle
  2
X-Ray
 70
    25
 71
     2
 72
     2
 73
     1
 90
        1
 40
0.5
 41
30.0
 62
     5
 63
     7
421
 16777215
 74
     1
 91
        0
 64
     7
 65
   257
 75
     1
175
     1
 42
1.0
 92
        8
 66
     7
 43
1.0
 76
     1
 77
     6
 78
     2
 67
     7
 79
     3
170
     0
171
     0
290
     0
174
     0
 93
       13
 44
0.0
173
     0
291
     0
 45
0.0
  0
DICTIONARYVAR
  5
399
102
{ACAD_REACTORS
330
398
102
}
330
398
100
DictionaryVariables
280
     0
  1
1:1
  0
DICTIONARYVAR
  5
3D2
102
{ACAD_REACTORS
330
398
102
}
330
398
100
DictionaryVariables
280
     0
  1
Standard
  0
DICTIONARYVAR
  5
3D1
102
{ACAD_REACTORS
330
398
102
}
330
398
100
DictionaryVariables
280
     0
  1
Standard
  0
DICTIONARYVAR
  5
39A
102
{ACAD_REACTORS
330
398
102
}
330
398
100
DictionaryVariables
280
     0
  1
2
  0
DICTIONARY
  5
3CE
330
6C
100
AcDbDictionary
280
     1
281
     1
  3
ACAD_XREC_ROUNDTRIP
360
3CF
  0
DICTIONARY
  5
3CB
330
6A
100
AcDbDictionary
280
     1
281
     1
  3
ACAD_ROUNDTRIP_2008_TABLESTYLE_CELLSTYLEMAP
360
3CC
  0
DICTIONARY
  5
3A3
330
2F
100
AcDbDictionary
280
     1
281
     1
  3
ACAD_XREC_ROUNDTRIP
360
3A4
  0
DICTIONARY
  5
3A9
330
32
100
AcDbDictionary
280
     1
281
     1
  3
ACAD_XREC_ROUNDTRIP
360
3AA
  0
DICTIONARY
  5
3B1
330
36
100
AcDbDictionary
280
     1
281
     1
  3
ACAD_XREC_ROUNDTRIP
360
3B2
  0
DICTIONARY
  5
3B9
330
3A
100
AcDbDictionary
280
     1
281
     1
  3
ACAD_XREC_ROUNDTRIP
360
3BA
  0
DICTIONARY
  5
3AD
330
34
100
AcDbDictionary
280
     1
281
     1
  3
ACAD_XREC_ROUNDTRIP
360
3AE
  0
DICTIONARY
  5
3AF
330
35
100
AcDbDictionary
280
     1
281
     1
  3
ACAD_XREC_ROUNDTRIP
360
3B0
  0
DICTIONARY
  5
3BF
330
3D
100
AcDbDictionary
280
     1
281
     1
  3
ACAD_XREC_ROUNDTRIP
360
3C0
  0
DICTIONARY
  5
3B7
330
39
100
AcDbDictionary
280
     1
281
     1
  3
ACAD_XREC_ROUNDTRIP
360
3B8
  0
DICTIONARY
  5
39B
330
2B
100
AcDbDictionary
280
     1
281
     1
  3
ACAD_XREC_ROUNDTRIP
360
39C
  0
DICTIONARY
  5
39D
330
2C
100
AcDbDictionary
280
     1
281
     1
  3
ACAD_XREC_ROUNDTRIP
360
39E
  0
DICTIONARY
  5
39F
330
2D
100
AcDbDictionary
280
     1
281
     1
  3
ACAD_XREC_ROUNDTRIP
360
3A0
  0
DICTIONARY
  5
3A1
330
2E
100
AcDbDictionary
280
     1
281
     1
  3
ACAD_XREC_ROUNDTRIP
360
3A2
  0
DICTIONARY
  5
3A7
330
31
100
AcDbDictionary
280
     1
281
     1
  3
ACAD_XREC_ROUNDTRIP
360
3A8
  0
DICTIONARY
  5
3BB
330
3B
100
AcDbDictionary
280
     1
281
     1
  3
ACAD_XREC_ROUNDTRIP
360
3BC
  0
DICTIONARY
  5
3B5
330
38
100
AcDbDictionary
280
     1
281
     1
  3
ACAD_XREC_ROUNDTRIP
360
3B6
  0
DICTIONARY
  5
3BD
330
3C
100
AcDbDictionary
280
     1
281
     1
  3
ACAD_XREC_ROUNDTRIP
360
3BE
  0
DICTIONARY
  5
3AB
330
33
100
AcDbDictionary
280
     1
281
     1
  3
ACAD_XREC_ROUNDTRIP
360
3AC
  0
DICTIONARY
  5
3C9
330
42
100
AcDbDictionary
280
     1
281
     1
  3
ACAD_XREC_ROUNDTRIP
360
3CA
  0
DICTIONARY
  5
3C7
330
41
100
AcDbDictionary
280
     1
281
     1
  3
ACAD_XREC_ROUNDTRIP
360
3C8
  0
DICTIONARY
  5
3C1
330
3E
100
AcDbDictionary
280
     1
281
     1
  3
ACAD_XREC_ROUNDTRIP
360
3C2
  0
DICTIONARY
  5
3C3
330
3F
100
AcDbDictionary
280
     1
281
     1
  3
ACAD_XREC_ROUNDTRIP
360
3C4
  0
DICTIONARY
  5
3B3
330
37
100
AcDbDictionary
280
     1
281
     1
  3
ACAD_XREC_ROUNDTRIP
360
3B4
  0
DICTIONARY
  5
3A5
330
30
100
AcDbDictionary
280
     1
281
     1
  3
ACAD_XREC_ROUNDTRIP
360
3A6
  0
DICTIONARY
  5
3C5
330
40
100
AcDbDictionary
280
     1
281
     1
  3
ACAD_XREC_ROUNDTRIP
360
3C6
  0
XRECORD
  5
3CF
102
{ACAD_REACTORS
330
3CE
102
}
330
3CE
100
AcDbXrecord
280
     1
102
ACAD_ROUNDTRIP_2010_MLEADER_STYLE
  0
CELLSTYLEMAP
  5
3CC
102
{ACAD_REACTORS
330
3CB
102
}
330
3CB
100
AcDbCellStyleMap
 90
        3
300
CELLSTYLE
  1
TABLEFORMAT_BEGIN
 90
        5
170
     1
 91
        0
 92
    32768
 62
   257
 93
        1
300
CONTENTFORMAT
  1
CONTENTFORMAT_BEGIN
 90
        0
 91
        0
 92
        4
 93
        0
300

 40
0.0
140
1.0
 94
        5
 62
     0
340
11
144
0.25
309
CONTENTFORMAT_END
171
     1
301
MARGIN
  1
CELLMARGIN_BEGIN
 40
0.06
 40
0.06
 40
0.06
 40
0.06
 40
0.06
 40
0.06
309
CELLMARGIN_END
 94
        6
 95
        1
302
GRIDFORMAT
  1
GRIDFORMAT_BEGIN
 90
        0
 91
        1
 62
     0
 92
       -2
340
14
 93
        0
 40
0.045
309
GRIDFORMAT_END
 95
        2
302
GRIDFORMAT
  1
GRIDFORMAT_BEGIN
 90
        0
 91
        1
 62
     0
 92
       -2
340
14
 93
        0
 40
0.045
309
GRIDFORMAT_END
 95
        4
302
GRIDFORMAT
  1
GRIDFORMAT_BEGIN
 90
        0
 91
        1
 62
     0
 92
       -2
340
14
 93
        0
 40
0.045
309
GRIDFORMAT_END
 95
        8
302
GRIDFORMAT
  1
GRIDFORMAT_BEGIN
 90
        0
 91
        1
 62
     0
 92
       -2
340
14
 93
        0
 40
0.045
309
GRIDFORMAT_END
 95
       16
302
GRIDFORMAT
  1
GRIDFORMAT_BEGIN
 90
        0
 91
        1
 62
     0
 92
       -2
340
14
 93
        0
 40
0.045
309
GRIDFORMAT_END
 95
       32
302
GRIDFORMAT
  1
GRIDFORMAT_BEGIN
 90
        0
 91
        1
 62
     0
 92
       -2
340
14
 93
        0
 40
0.045
309
GRIDFORMAT_END
309
TABLEFORMAT_END
  1
CELLSTYLE_BEGIN
 90
        1
 91
        1
300
_TITLE
309
CELLSTYLE_END
300
CELLSTYLE
  1
TABLEFORMAT_BEGIN
 90
        5
170
     1
 91
        0
 92
        0
 62
   257
 93
        1
300
CONTENTFORMAT
  1
CONTENTFORMAT_BEGIN
 90
        0
 91
        0
 92
        4
 93
        0
300

 40
0.0
140
1.0
 94
        5
 62
     0
340
11
144
0.18
309
CONTENTFORMAT_END
171
     1
301
MARGIN
  1
CELLMARGIN_BEGIN
 40
0.06
 40
0.06
 40
0.06
 40
0.06
 40
0.06
 40
0.06
309
CELLMARGIN_END
 94
        6
 95
        1
302
GRIDFORMAT
  1
GRIDFORMAT_BEGIN
 90
        0
 91
        1
 62
     0
 92
       -2
340
14
 93
        0
 40
0.045
309
GRIDFORMAT_END
 95
        2
302
GRIDFORMAT
  1
GRIDFORMAT_BEGIN
 90
        0
 91
        1
 62
     0
 92
       -2
340
14
 93
        0
 40
0.045
309
GRIDFORMAT_END
 95
        4
302
GRIDFORMAT
  1
GRIDFORMAT_BEGIN
 90
        0
 91
        1
 62
     0
 92
       -2
340
14
 93
        0
 40
0.045
309
GRIDFORMAT_END
 95
        8
302
GRIDFORMAT
  1
GRIDFORMAT_BEGIN
 90
        0
 91
        1
 62
     0
 92
       -2
340
14
 93
        0
 40
0.045
309
GRIDFORMAT_END
 95
       16
302
GRIDFORMAT
  1
GRIDFORMAT_BEGIN
 90
        0
 91
        1
 62
     0
 92
       -2
340
14
 93
        0
 40
0.045
309
GRIDFORMAT_END
 95
       32
302
GRIDFORMAT
  1
GRIDFORMAT_BEGIN
 90
        0
 91
        1
 62
     0
 92
       -2
340
14
 93
        0
 40
0.045
309
GRIDFORMAT_END
309
TABLEFORMAT_END
  1
CELLSTYLE_BEGIN
 90
        2
 91
        1
300
_HEADER
309
CELLSTYLE_END
300
CELLSTYLE
  1
TABLEFORMAT_BEGIN
 90
        5
170
     1
 91
        0
 92
        0
 62
   257
 93
        1
300
CONTENTFORMAT
  1
CONTENTFORMAT_BEGIN
 90
        0
 91
        0
 92
        4
 93
        0
300

 40
0.0
140
1.0
 94
        2
 62
     0
340
11
144
0.18
309
CONTENTFORMAT_END
171
     1
301
MARGIN
  1
CELLMARGIN_BEGIN
 40
0.06
 40
0.06
 40
0.06
 40
0.06
 40
0.06
 40
0.06
309
CELLMARGIN_END
 94
        6
 95
        1
302
GRIDFORMAT
  1
GRIDFORMAT_BEGIN
 90
        0
 91
        1
 62
     0
 92
       -2
340
14
 93
        0
 40
0.045
309
GRIDFORMAT_END
 95
        2
302
GRIDFORMAT
  1
GRIDFORMAT_BEGIN
 90
        0
 91
        1
 62
     0
 92
       -2
340
14
 93
        0
 40
0.045
309
GRIDFORMAT_END
 95
        4
302
GRIDFORMAT
  1
GRIDFORMAT_BEGIN
 90
        0
 91
        1
 62
     0
 92
       -2
340
14
 93
        0
 40
0.045
309
GRIDFORMAT_END
 95
        8
302
GRIDFORMAT
  1
GRIDFORMAT_BEGIN
 90
        0
 91
        1
 62
     0
 92
       -2
340
14
 93
        0
 40
0.045
309
GRIDFORMAT_END
 95
       16
302
GRIDFORMAT
  1
GRIDFORMAT_BEGIN
 90
        0
 91
        1
 62
     0
 92
       -2
340
14
 93
        0
 40
0.045
309
GRIDFORMAT_END
 95
       32
302
GRIDFORMAT
  1
GRIDFORMAT_BEGIN
 90
        0
 91
        1
 62
     0
 92
       -2
340
14
 93
        0
 40
0.045
309
GRIDFORMAT_END
309
TABLEFORMAT_END
  1
CELLSTYLE_BEGIN
 90
        3
 91
        2
300
_DATA
309
CELLSTYLE_END
  0
XRECORD
  5
3A4
102
{ACAD_REACTORS
330
3A3
102
}
330
3A3
100
AcDbXrecord
280
     1
102
RTVSPropertyOp0
 70
     1
102
RTVSPropertyOp1
 70
     1
102
RTVSPropertyOp2
 70
     1
102
RTVSPropertyOp3
 70
     1
102
RTVSPropertyOp4
 70
     1
102
RTVSPropertyOp5
 70
     1
102
RTVSPropertyOp6
 70
     1
102
RTVSPropertyOp7
 70
     1
102
RTVSPropertyOp8
 70
     1
102
RTVSPropertyOp9
 70
     1
102
RTVSPropertyOp10
 70
     1
102
RTVSPropertyOp11
 70
     1
102
RTVSPropertyOp12
 70
     1
102
RTVSPropertyOp13
 70
     1
102
RTVSPropertyOp14
 70
     1
102
RTVSPropertyOp15
 70
     1
102
RTVSPropertyOp16
 70
     1
102
RTVSPropertyOp17
 70
     1
102
RTVSPropertyOp18
 70
     1
102
RTVSPropertyOp19
 70
     1
102
RTVSPropertyOp20
 70
     1
102
RTVSPropertyOp21
 70
     1
102
RTVSPropertyOp22
 70
     1
102
RTVSPropertyOp23
 70
     1
102
RTVSPropertyOp24
 70
     1
102
RTVSPropertyOp25
 70
     1
102
RTVSPropertyOp26
 70
     1
102
RTVSPropertyOp27
 70
     1
102
RTVSPropertyOp28
 70
     1
102
RTVSPropertyOp29
 70
     1
102
RTVSPropertyOp30
 70
     1
102
RTVSPropertyOp31
 70
     1
102
RTVSPropertyOp32
 70
     1
102
RTVSPropertyOp33
 70
     1
102
RTVSPropertyOp34
 70
     1
102
RTVSPropertyOp35
 70
     1
102
RTVSPropertyOp36
 70
     1
102
RTVSPropertyOp37
 70
     1
102
RTVSPropertyOp38
 70
     1
102
RTVSPropertyOp39
 70
     1
102
RTVSPropertyOp40
 70
     1
102
RTVSPropertyOp41
 70
     1
102
RTVSPropertyOp42
 70
     1
102
RTVSPropertyOp43
 70
     1
102
RTVSPropertyOp44
 70
     1
102
RTVSPropertyOp45
 70
     1
102
RTVSPropertyOp46
 70
     1
102
RTVSPropertyOp47
 70
     1
102
RTVSPropertyOp48
 70
     1
102
RTVSPropertyOp49
 70
     1
102
RTVSPropertyOp50
 70
     1
102
RTVSPropertyOp51
 70
     0
102
RTVSPropertyOp52
 70
     0
102
RTVSPropertyOp53
 70
     1
102
RTVSPropertyOp54
 70
     1
102
RTVSPropertyOp55
 70
     1
102
RTVSPropertyOp56
 70
     1
102
RTVSPropertyOp57
 70
     1
102
RTVSPost2010Prop28
280
     1
102
RTVSPost2010PropOp28
 70
     1
102
RTVSPost2010Prop29
280
     1
102
RTVSPost2010PropOp29
 70
     1
102
RTVSPost2010Prop30
280
     0
102
RTVSPost2010PropOp30
 70
     1
102
RTVSPost2010Prop31
280
     0
102
RTVSPost2010PropOp31
 70
     1
102
RTVSPost2010Prop32
280
     0
102
RTVSPost2010PropOp32
 70
     1
102
RTVSPost2010Prop33
280
     0
102
RTVSPost2010PropOp33
 70
     1
102
RTVSPost2010Prop34
280
     0
102
RTVSPost2010PropOp34
 70
     1
102
RTVSPost2010Prop35
280
     0
102
RTVSPost2010PropOp35
 70
     1
102
RTVSPost2010Prop36
280
     0
102
RTVSPost2010PropOp36
 70
     1
102
RTVSPost2010Prop37
 90
       50
102
RTVSPost2010PropOp37
 70
     1
102
RTVSPost2010Prop38
140
0.0
102
RTVSPost2010PropOp38
 70
     1
102
RTVSPost2010Prop39
140
1.0
102
RTVSPost2010PropOp39
 70
     1
102
RTVSPost2010Prop40
 90
        0
102
RTVSPost2010PropOp40
 70
     1
102
RTVSPost2010Prop41ColorIndex
 90
       18
102
RTVSPost2010Prop41ColorRGB
 90
        0
102
RTVSPost2010PropOp41
 70
     1
102
RTVSPost2010Prop42
 90
       50
102
RTVSPost2010PropOp42
 70
     1
102
RTVSPost2010Prop43
 90
        3
102
RTVSPost2010PropOp43
 70
     1
102
RTVSPost2010Prop44ColorIndex
 90
        5
102
RTVSPost2010Prop44ColorRGB
 90
      255
102
RTVSPost2010PropOp44
 70
     1
102
RTVSPost2010Prop45
280
     0
102
RTVSPost2010PropOp45
 70
     1
102
RTVSPost2010Prop46
 90
       50
102
RTVSPost2010PropOp46
 70
     1
102
RTVSPost2010Prop47
 90
       50
102
RTVSPost2010PropOp47
 70
     1
102
RTVSPost2010Prop48
 90
       50
102
RTVSPost2010PropOp48
 70
     1
102
RTVSPost2010Prop49
280
     0
102
RTVSPost2010PropOp49
 70
     1
102
RTVSPost2010Prop50
 90
       50
102
RTVSPost2010PropOp50
 70
     1
102
RTVSPost2010Prop51ColorIndex
 90
      256
102
RTVSPost2010Prop51ColorRGB
 90
-16777216
102
RTVSPost2010PropOp51
 70
     0
102
RTVSPost2010Prop52
140
1.0
102
RTVSPost2010PropOp52
 70
     0
102
RTVSPost2010Prop53
 90
        2
102
RTVSPost2010PropOp53
 70
     1
102
RTVSPost2010Prop54
  1
strokes_ogs.tif
102
RTVSPost2010PropOp54
 70
     1
102
RTVSPost2010Prop55
280
     0
102
RTVSPost2010PropOp55
 70
     1
102
RTVSPost2010Prop56
140
1.0
102
RTVSPost2010PropOp56
 70
     1
102
RTVSPost2010Prop57
140
1.0
102
RTVSPost2010PropOp57
 70
     1
  0
XRECORD
  5
3AA
102
{ACAD_REACTORS
330
3A9
102
}
330
3A9
100
AcDbXrecord
280
     1
102
RTVSPropertyOp0
 70
     1
102
RTVSPropertyOp1
 70
     1
102
RTVSPropertyOp2
 70
     1
102
RTVSPropertyOp3
 70
     1
102
RTVSPropertyOp4
 70
     1
102
RTVSPropertyOp5
 70
     1
102
RTVSPropertyOp6
 70
     1
102
RTVSPropertyOp7
 70
     1
102
RTVSPropertyOp8
 70
     1
102
RTVSPropertyOp9
 70
     1
102
RTVSPropertyOp10
 70
     1
102
RTVSPropertyOp11
 70
     1
102
RTVSPropertyOp12
 70
     1
102
RTVSPropertyOp13
 70
     1
102
RTVSPropertyOp14
 70
     1
102
RTVSPropertyOp15
 70
     1
102
RTVSPropertyOp16
 70
     1
102
RTVSPropertyOp17
 70
     1
102
RTVSPropertyOp18
 70
     1
102
RTVSPropertyOp19
 70
     1
102
RTVSPropertyOp20
 70
     1
102
RTVSPropertyOp21
 70
     1
102
RTVSPropertyOp22
 70
     1
102
RTVSPropertyOp23
 70
     1
102
RTVSPropertyOp24
 70
     1
102
RTVSPropertyOp25
 70
     1
102
RTVSPropertyOp26
 70
     1
102
RTVSPropertyOp27
 70
     1
102
RTVSPropertyOp28
 70
     1
102
RTVSPropertyOp29
 70
     1
102
RTVSPropertyOp30
 70
     1
102
RTVSPropertyOp31
 70
     1
102
RTVSPropertyOp32
 70
     1
102
RTVSPropertyOp33
 70
     1
102
RTVSPropertyOp34
 70
     1
102
RTVSPropertyOp35
 70
     1
102
RTVSPropertyOp36
 70
     1
102
RTVSPropertyOp37
 70
     1
102
RTVSPropertyOp38
 70
     1
102
RTVSPropertyOp39
 70
     1
102
RTVSPropertyOp40
 70
     1
102
RTVSPropertyOp41
 70
     1
102
RTVSPropertyOp42
 70
     1
102
RTVSPropertyOp43
 70
     1
102
RTVSPropertyOp44
 70
     1
102
RTVSPropertyOp45
 70
     1
102
RTVSPropertyOp46
 70
     1
102
RTVSPropertyOp47
 70
     1
102
RTVSPropertyOp48
 70
     1
102
RTVSPropertyOp49
 70
     1
102
RTVSPropertyOp50
 70
     1
102
RTVSPropertyOp51
 70
     0
102
RTVSPropertyOp52
 70
     0
102
RTVSPropertyOp53
 70
     1
102
RTVSPropertyOp54
 70
     1
102
RTVSPropertyOp55
 70
     1
102
RTVSPropertyOp56
 70
     1
102
RTVSPropertyOp57
 70
     1
102
RTVSPost2010Prop28
280
     0
102
RTVSPost2010PropOp28
 70
     1
102
RTVSPost2010Prop29
280
     1
102
RTVSPost2010PropOp29
 70
     1
102
RTVSPost2010Prop30
280
     1
102
RTVSPost2010PropOp30
 70
     1
102
RTVSPost2010Prop31
280
     0
102
RTVSPost2010PropOp31
 70
     1
102
RTVSPost2010Prop32
280
     0
102
RTVSPost2010PropOp32
 70
     1
102
RTVSPost2010Prop33
280
     0
102
RTVSPost2010PropOp33
 70
     1
102
RTVSPost2010Prop34
280
     0
102
RTVSPost2010PropOp34
 70
     1
102
RTVSPost2010Prop35
280
     0
102
RTVSPost2010PropOp35
 70
     1
102
RTVSPost2010Prop36
280
     0
102
RTVSPost2010PropOp36
 70
     1
102
RTVSPost2010Prop37
 90
       50
102
RTVSPost2010PropOp37
 70
     1
102
RTVSPost2010Prop38
140
0.0
102
RTVSPost2010PropOp38
 70
     1
102
RTVSPost2010Prop39
140
1.0
102
RTVSPost2010PropOp39
 70
     1
102
RTVSPost2010Prop40
 90
        0
102
RTVSPost2010PropOp40
 70
     1
102
RTVSPost2010Prop41ColorIndex
 90
       18
102
RTVSPost2010Prop41ColorRGB
 90
        0
102
RTVSPost2010PropOp41
 70
     1
102
RTVSPost2010Prop42
 90
       50
102
RTVSPost2010PropOp42
 70
     1
102
RTVSPost2010Prop43
 90
        3
102
RTVSPost2010PropOp43
 70
     1
102
RTVSPost2010Prop44ColorIndex
 90
        5
102
RTVSPost2010Prop44ColorRGB
 90
      255
102
RTVSPost2010PropOp44
 70
     1
102
RTVSPost2010Prop45
280
     0
102
RTVSPost2010PropOp45
 70
     1
102
RTVSPost2010Prop46
 90
       50
102
RTVSPost2010PropOp46
 70
     1
102
RTVSPost2010Prop47
 90
       50
102
RTVSPost2010PropOp47
 70
     1
102
RTVSPost2010Prop48
 90
       50
102
RTVSPost2010PropOp48
 70
     1
102
RTVSPost2010Prop49
280
     0
102
RTVSPost2010PropOp49
 70
     1
102
RTVSPost2010Prop50
 90
       50
102
RTVSPost2010PropOp50
 70
     1
102
RTVSPost2010Prop51ColorIndex
 90
      256
102
RTVSPost2010Prop51ColorRGB
 90
-16777216
102
RTVSPost2010PropOp51
 70
     0
102
RTVSPost2010Prop52
140
1.0
102
RTVSPost2010PropOp52
 70
     0
102
RTVSPost2010Prop53
 90
        2
102
RTVSPost2010PropOp53
 70
     1
102
RTVSPost2010Prop54
  1
strokes_ogs.tif
102
RTVSPost2010PropOp54
 70
     1
102
RTVSPost2010Prop55
280
     0
102
RTVSPost2010PropOp55
 70
     1
102
RTVSPost2010Prop56
140
1.0
102
RTVSPost2010PropOp56
 70
     1
102
RTVSPost2010Prop57
140
1.0
102
RTVSPost2010PropOp57
 70
     1
  0
XRECORD
  5
3B2
102
{ACAD_REACTORS
330
3B1
102
}
330
3B1
100
AcDbXrecord
280
     1
102
RTVSPropertyOp0
 70
     1
102
RTVSPropertyOp1
 70
     1
102
RTVSPropertyOp2
 70
     1
102
RTVSPropertyOp3
 70
     1
102
RTVSPropertyOp4
 70
     1
102
RTVSPropertyOp5
 70
     1
102
RTVSPropertyOp6
 70
     1
102
RTVSPropertyOp7
 70
     1
102
RTVSPropertyOp8
 70
     1
102
RTVSPropertyOp9
 70
     1
102
RTVSPropertyOp10
 70
     1
102
RTVSPropertyOp11
 70
     1
102
RTVSPropertyOp12
 70
     1
102
RTVSPropertyOp13
 70
     1
102
RTVSPropertyOp14
 70
     1
102
RTVSPropertyOp15
 70
     1
102
RTVSPropertyOp16
 70
     1
102
RTVSPropertyOp17
 70
     1
102
RTVSPropertyOp18
 70
     1
102
RTVSPropertyOp19
 70
     1
102
RTVSPropertyOp20
 70
     1
102
RTVSPropertyOp21
 70
     1
102
RTVSPropertyOp22
 70
     1
102
RTVSPropertyOp23
 70
     1
102
RTVSPropertyOp24
 70
     1
102
RTVSPropertyOp25
 70
     1
102
RTVSPropertyOp26
 70
     1
102
RTVSPropertyOp27
 70
     1
102
RTVSPropertyOp28
 70
     1
102
RTVSPropertyOp29
 70
     1
102
RTVSPropertyOp30
 70
     1
102
RTVSPropertyOp31
 70
     1
102
RTVSPropertyOp32
 70
     1
102
RTVSPropertyOp33
 70
     1
102
RTVSPropertyOp34
 70
     1
102
RTVSPropertyOp35
 70
     1
102
RTVSPropertyOp36
 70
     1
102
RTVSPropertyOp37
 70
     1
102
RTVSPropertyOp38
 70
     1
102
RTVSPropertyOp39
 70
     1
102
RTVSPropertyOp40
 70
     1
102
RTVSPropertyOp41
 70
     1
102
RTVSPropertyOp42
 70
     1
102
RTVSPropertyOp43
 70
     1
102
RTVSPropertyOp44
 70
     1
102
RTVSPropertyOp45
 70
     1
102
RTVSPropertyOp46
 70
     1
102
RTVSPropertyOp47
 70
     1
102
RTVSPropertyOp48
 70
     1
102
RTVSPropertyOp49
 70
     1
102
RTVSPropertyOp50
 70
     1
102
RTVSPropertyOp51
 70
     0
102
RTVSPropertyOp52
 70
     0
102
RTVSPropertyOp53
 70
     1
102
RTVSPropertyOp54
 70
     1
102
RTVSPropertyOp55
 70
     1
102
RTVSPropertyOp56
 70
     1
102
RTVSPropertyOp57
 70
     1
102
RTVSPost2010Prop28
280
     0
102
RTVSPost2010PropOp28
 70
     1
102
RTVSPost2010Prop29
280
     1
102
RTVSPost2010PropOp29
 70
     1
102
RTVSPost2010Prop30
280
     1
102
RTVSPost2010PropOp30
 70
     1
102
RTVSPost2010Prop31
280
     0
102
RTVSPost2010PropOp31
 70
     1
102
RTVSPost2010Prop32
280
     0
102
RTVSPost2010PropOp32
 70
     1
102
RTVSPost2010Prop33
280
     0
102
RTVSPost2010PropOp33
 70
     1
102
RTVSPost2010Prop34
280
     0
102
RTVSPost2010PropOp34
 70
     1
102
RTVSPost2010Prop35
280
     0
102
RTVSPost2010PropOp35
 70
     1
102
RTVSPost2010Prop36
280
     0
102
RTVSPost2010PropOp36
 70
     1
102
RTVSPost2010Prop37
 90
       50
102
RTVSPost2010PropOp37
 70
     1
102
RTVSPost2010Prop38
140
0.0
102
RTVSPost2010PropOp38
 70
     1
102
RTVSPost2010Prop39
140
1.0
102
RTVSPost2010PropOp39
 70
     1
102
RTVSPost2010Prop40
 90
        0
102
RTVSPost2010PropOp40
 70
     1
102
RTVSPost2010Prop41ColorIndex
 90
       18
102
RTVSPost2010Prop41ColorRGB
 90
        0
102
RTVSPost2010PropOp41
 70
     1
102
RTVSPost2010Prop42
 90
       50
102
RTVSPost2010PropOp42
 70
     1
102
RTVSPost2010Prop43
 90
        3
102
RTVSPost2010PropOp43
 70
     1
102
RTVSPost2010Prop44ColorIndex
 90
        5
102
RTVSPost2010Prop44ColorRGB
 90
      255
102
RTVSPost2010PropOp44
 70
     1
102
RTVSPost2010Prop45
280
     0
102
RTVSPost2010PropOp45
 70
     1
102
RTVSPost2010Prop46
 90
       50
102
RTVSPost2010PropOp46
 70
     1
102
RTVSPost2010Prop47
 90
       50
102
RTVSPost2010PropOp47
 70
     1
102
RTVSPost2010Prop48
 90
       50
102
RTVSPost2010PropOp48
 70
     1
102
RTVSPost2010Prop49
280
     0
102
RTVSPost2010PropOp49
 70
     1
102
RTVSPost2010Prop50
 90
       50
102
RTVSPost2010PropOp50
 70
     1
102
RTVSPost2010Prop51ColorIndex
 90
      256
102
RTVSPost2010Prop51ColorRGB
 90
-16777216
102
RTVSPost2010PropOp51
 70
     0
102
RTVSPost2010Prop52
140
1.0
102
RTVSPost2010PropOp52
 70
     0
102
RTVSPost2010Prop53
 90
        2
102
RTVSPost2010PropOp53
 70
     1
102
RTVSPost2010Prop54
  1
strokes_ogs.tif
102
RTVSPost2010PropOp54
 70
     1
102
RTVSPost2010Prop55
280
     0
102
RTVSPost2010PropOp55
 70
     1
102
RTVSPost2010Prop56
140
1.0
102
RTVSPost2010PropOp56
 70
     1
102
RTVSPost2010Prop57
140
1.0
102
RTVSPost2010PropOp57
 70
     1
  0
XRECORD
  5
3BA
102
{ACAD_REACTORS
330
3B9
102
}
330
3B9
100
AcDbXrecord
280
     1
102
RTVSPropertyOp0
 70
     1
102
RTVSPropertyOp1
 70
     1
102
RTVSPropertyOp2
 70
     1
102
RTVSPropertyOp3
 70
     1
102
RTVSPropertyOp4
 70
     1
102
RTVSPropertyOp5
 70
     1
102
RTVSPropertyOp6
 70
     1
102
RTVSPropertyOp7
 70
     1
102
RTVSPropertyOp8
 70
     1
102
RTVSPropertyOp9
 70
     1
102
RTVSPropertyOp10
 70
     1
102
RTVSPropertyOp11
 70
     1
102
RTVSPropertyOp12
 70
     1
102
RTVSPropertyOp13
 70
     1
102
RTVSPropertyOp14
 70
     1
102
RTVSPropertyOp15
 70
     1
102
RTVSPropertyOp16
 70
     1
102
RTVSPropertyOp17
 70
     1
102
RTVSPropertyOp18
 70
     1
102
RTVSPropertyOp19
 70
     1
102
RTVSPropertyOp20
 70
     1
102
RTVSPropertyOp21
 70
     1
102
RTVSPropertyOp22
 70
     1
102
RTVSPropertyOp23
 70
     1
102
RTVSPropertyOp24
 70
     1
102
RTVSPropertyOp25
 70
     1
102
RTVSPropertyOp26
 70
     1
102
RTVSPropertyOp27
 70
     1
102
RTVSPropertyOp28
 70
     1
102
RTVSPropertyOp29
 70
     1
102
RTVSPropertyOp30
 70
     1
102
RTVSPropertyOp31
 70
     1
102
RTVSPropertyOp32
 70
     1
102
RTVSPropertyOp33
 70
     1
102
RTVSPropertyOp34
 70
     1
102
RTVSPropertyOp35
 70
     1
102
RTVSPropertyOp36
 70
     1
102
RTVSPropertyOp37
 70
     1
102
RTVSPropertyOp38
 70
     1
102
RTVSPropertyOp39
 70
     1
102
RTVSPropertyOp40
 70
     1
102
RTVSPropertyOp41
 70
     1
102
RTVSPropertyOp42
 70
     1
102
RTVSPropertyOp43
 70
     1
102
RTVSPropertyOp44
 70
     1
102
RTVSPropertyOp45
 70
     1
102
RTVSPropertyOp46
 70
     1
102
RTVSPropertyOp47
 70
     1
102
RTVSPropertyOp48
 70
     1
102
RTVSPropertyOp49
 70
     1
102
RTVSPropertyOp50
 70
     1
102
RTVSPropertyOp51
 70
     0
102
RTVSPropertyOp52
 70
     0
102
RTVSPropertyOp53
 70
     1
102
RTVSPropertyOp54
 70
     1
102
RTVSPropertyOp55
 70
     1
102
RTVSPropertyOp56
 70
     1
102
RTVSPropertyOp57
 70
     1
102
RTVSPost2010Prop28
280
     0
102
RTVSPost2010PropOp28
 70
     1
102
RTVSPost2010Prop29
280
     1
102
RTVSPost2010PropOp29
 70
     1
102
RTVSPost2010Prop30
280
     1
102
RTVSPost2010PropOp30
 70
     1
102
RTVSPost2010Prop31
280
     0
102
RTVSPost2010PropOp31
 70
     1
102
RTVSPost2010Prop32
280
     0
102
RTVSPost2010PropOp32
 70
     1
102
RTVSPost2010Prop33
280
     0
102
RTVSPost2010PropOp33
 70
     1
102
RTVSPost2010Prop34
280
     0
102
RTVSPost2010PropOp34
 70
     1
102
RTVSPost2010Prop35
280
     0
102
RTVSPost2010PropOp35
 70
     1
102
RTVSPost2010Prop36
280
     0
102
RTVSPost2010PropOp36
 70
     1
102
RTVSPost2010Prop37
 90
       50
102
RTVSPost2010PropOp37
 70
     1
102
RTVSPost2010Prop38
140
0.0
102
RTVSPost2010PropOp38
 70
     1
102
RTVSPost2010Prop39
140
1.0
102
RTVSPost2010PropOp39
 70
     1
102
RTVSPost2010Prop40
 90
        0
102
RTVSPost2010PropOp40
 70
     1
102
RTVSPost2010Prop41ColorIndex
 90
       18
102
RTVSPost2010Prop41ColorRGB
 90
        0
102
RTVSPost2010PropOp41
 70
     1
102
RTVSPost2010Prop42
 90
       50
102
RTVSPost2010PropOp42
 70
     1
102
RTVSPost2010Prop43
 90
        3
102
RTVSPost2010PropOp43
 70
     1
102
RTVSPost2010Prop44ColorIndex
 90
        5
102
RTVSPost2010Prop44ColorRGB
 90
      255
102
RTVSPost2010PropOp44
 70
     1
102
RTVSPost2010Prop45
280
     0
102
RTVSPost2010PropOp45
 70
     1
102
RTVSPost2010Prop46
 90
       50
102
RTVSPost2010PropOp46
 70
     1
102
RTVSPost2010Prop47
 90
       50
102
RTVSPost2010PropOp47
 70
     1
102
RTVSPost2010Prop48
 90
       50
102
RTVSPost2010PropOp48
 70
     1
102
RTVSPost2010Prop49
280
     0
102
RTVSPost2010PropOp49
 70
     1
102
RTVSPost2010Prop50
 90
       50
102
RTVSPost2010PropOp50
 70
     1
102
RTVSPost2010Prop51ColorIndex
 90
      256
102
RTVSPost2010Prop51ColorRGB
 90
-16777216
102
RTVSPost2010PropOp51
 70
     0
102
RTVSPost2010Prop52
140
1.0
102
RTVSPost2010PropOp52
 70
     0
102
RTVSPost2010Prop53
 90
        2
102
RTVSPost2010PropOp53
 70
     1
102
RTVSPost2010Prop54
  1
strokes_ogs.tif
102
RTVSPost2010PropOp54
 70
     1
102
RTVSPost2010Prop55
280
     0
102
RTVSPost2010PropOp55
 70
     1
102
RTVSPost2010Prop56
140
1.0
102
RTVSPost2010PropOp56
 70
     1
102
RTVSPost2010Prop57
140
1.0
102
RTVSPost2010PropOp57
 70
     1
  0
XRECORD
  5
3AE
102
{ACAD_REACTORS
330
3AD
102
}
330
3AD
100
AcDbXrecord
280
     1
102
RTVSPropertyOp0
 70
     1
102
RTVSPropertyOp1
 70
     1
102
RTVSPropertyOp2
 70
     1
102
RTVSPropertyOp3
 70
     1
102
RTVSPropertyOp4
 70
     1
102
RTVSPropertyOp5
 70
     1
102
RTVSPropertyOp6
 70
     1
102
RTVSPropertyOp7
 70
     1
102
RTVSPropertyOp8
 70
     1
102
RTVSPropertyOp9
 70
     1
102
RTVSPropertyOp10
 70
     1
102
RTVSPropertyOp11
 70
     1
102
RTVSPropertyOp12
 70
     1
102
RTVSPropertyOp13
 70
     1
102
RTVSPropertyOp14
 70
     1
102
RTVSPropertyOp15
 70
     1
102
RTVSPropertyOp16
 70
     1
102
RTVSPropertyOp17
 70
     1
102
RTVSPropertyOp18
 70
     1
102
RTVSPropertyOp19
 70
     1
102
RTVSPropertyOp20
 70
     1
102
RTVSPropertyOp21
 70
     1
102
RTVSPropertyOp22
 70
     1
102
RTVSPropertyOp23
 70
     1
102
RTVSPropertyOp24
 70
     1
102
RTVSPropertyOp25
 70
     1
102
RTVSPropertyOp26
 70
     1
102
RTVSPropertyOp27
 70
     1
102
RTVSPropertyOp28
 70
     1
102
RTVSPropertyOp29
 70
     1
102
RTVSPropertyOp30
 70
     1
102
RTVSPropertyOp31
 70
     1
102
RTVSPropertyOp32
 70
     1
102
RTVSPropertyOp33
 70
     1
102
RTVSPropertyOp34
 70
     1
102
RTVSPropertyOp35
 70
     1
102
RTVSPropertyOp36
 70
     1
102
RTVSPropertyOp37
 70
     1
102
RTVSPropertyOp38
 70
     1
102
RTVSPropertyOp39
 70
     1
102
RTVSPropertyOp40
 70
     1
102
RTVSPropertyOp41
 70
     1
102
RTVSPropertyOp42
 70
     1
102
RTVSPropertyOp43
 70
     1
102
RTVSPropertyOp44
 70
     1
102
RTVSPropertyOp45
 70
     1
102
RTVSPropertyOp46
 70
     1
102
RTVSPropertyOp47
 70
     1
102
RTVSPropertyOp48
 70
     1
102
RTVSPropertyOp49
 70
     1
102
RTVSPropertyOp50
 70
     1
102
RTVSPropertyOp51
 70
     0
102
RTVSPropertyOp52
 70
     0
102
RTVSPropertyOp53
 70
     1
102
RTVSPropertyOp54
 70
     1
102
RTVSPropertyOp55
 70
     1
102
RTVSPropertyOp56
 70
     1
102
RTVSPropertyOp57
 70
     1
102
RTVSPost2010Prop28
280
     0
102
RTVSPost2010PropOp28
 70
     1
102
RTVSPost2010Prop29
280
     1
102
RTVSPost2010PropOp29
 70
     1
102
RTVSPost2010Prop30
280
     1
102
RTVSPost2010PropOp30
 70
     1
102
RTVSPost2010Prop31
280
     0
102
RTVSPost2010PropOp31
 70
     1
102
RTVSPost2010Prop32
280
     0
102
RTVSPost2010PropOp32
 70
     1
102
RTVSPost2010Prop33
280
     0
102
RTVSPost2010PropOp33
 70
     1
102
RTVSPost2010Prop34
280
     0
102
RTVSPost2010PropOp34
 70
     1
102
RTVSPost2010Prop35
280
     0
102
RTVSPost2010PropOp35
 70
     1
102
RTVSPost2010Prop36
280
     0
102
RTVSPost2010PropOp36
 70
     1
102
RTVSPost2010Prop37
 90
       50
102
RTVSPost2010PropOp37
 70
     1
102
RTVSPost2010Prop38
140
0.0
102
RTVSPost2010PropOp38
 70
     1
102
RTVSPost2010Prop39
140
1.0
102
RTVSPost2010PropOp39
 70
     1
102
RTVSPost2010Prop40
 90
        0
102
RTVSPost2010PropOp40
 70
     1
102
RTVSPost2010Prop41ColorIndex
 90
       18
102
RTVSPost2010Prop41ColorRGB
 90
        0
102
RTVSPost2010PropOp41
 70
     1
102
RTVSPost2010Prop42
 90
       50
102
RTVSPost2010PropOp42
 70
     1
102
RTVSPost2010Prop43
 90
        3
102
RTVSPost2010PropOp43
 70
     1
102
RTVSPost2010Prop44ColorIndex
 90
        5
102
RTVSPost2010Prop44ColorRGB
 90
      255
102
RTVSPost2010PropOp44
 70
     1
102
RTVSPost2010Prop45
280
     0
102
RTVSPost2010PropOp45
 70
     1
102
RTVSPost2010Prop46
 90
       50
102
RTVSPost2010PropOp46
 70
     1
102
RTVSPost2010Prop47
 90
       50
102
RTVSPost2010PropOp47
 70
     1
102
RTVSPost2010Prop48
 90
       50
102
RTVSPost2010PropOp48
 70
     1
102
RTVSPost2010Prop49
280
     0
102
RTVSPost2010PropOp49
 70
     1
102
RTVSPost2010Prop50
 90
       50
102
RTVSPost2010PropOp50
 70
     1
102
RTVSPost2010Prop51ColorIndex
 90
      256
102
RTVSPost2010Prop51ColorRGB
 90
-16777216
102
RTVSPost2010PropOp51
 70
     0
102
RTVSPost2010Prop52
140
1.0
102
RTVSPost2010PropOp52
 70
     0
102
RTVSPost2010Prop53
 90
        2
102
RTVSPost2010PropOp53
 70
     1
102
RTVSPost2010Prop54
  1
strokes_ogs.tif
102
RTVSPost2010PropOp54
 70
     1
102
RTVSPost2010Prop55
280
     0
102
RTVSPost2010PropOp55
 70
     1
102
RTVSPost2010Prop56
140
1.0
102
RTVSPost2010PropOp56
 70
     1
102
RTVSPost2010Prop57
140
1.0
102
RTVSPost2010PropOp57
 70
     1
  0
XRECORD
  5
3B0
102
{ACAD_REACTORS
330
3AF
102
}
330
3AF
100
AcDbXrecord
280
     1
102
RTVSPropertyOp0
 70
     1
102
RTVSPropertyOp1
 70
     1
102
RTVSPropertyOp2
 70
     1
102
RTVSPropertyOp3
 70
     1
102
RTVSPropertyOp4
 70
     1
102
RTVSPropertyOp5
 70
     1
102
RTVSPropertyOp6
 70
     1
102
RTVSPropertyOp7
 70
     1
102
RTVSPropertyOp8
 70
     1
102
RTVSPropertyOp9
 70
     1
102
RTVSPropertyOp10
 70
     1
102
RTVSPropertyOp11
 70
     1
102
RTVSPropertyOp12
 70
     1
102
RTVSPropertyOp13
 70
     1
102
RTVSPropertyOp14
 70
     1
102
RTVSPropertyOp15
 70
     1
102
RTVSPropertyOp16
 70
     1
102
RTVSPropertyOp17
 70
     1
102
RTVSPropertyOp18
 70
     1
102
RTVSPropertyOp19
 70
     1
102
RTVSPropertyOp20
 70
     1
102
RTVSPropertyOp21
 70
     1
102
RTVSPropertyOp22
 70
     1
102
RTVSPropertyOp23
 70
     1
102
RTVSPropertyOp24
 70
     1
102
RTVSPropertyOp25
 70
     1
102
RTVSPropertyOp26
 70
     1
102
RTVSPropertyOp27
 70
     1
102
RTVSPropertyOp28
 70
     1
102
RTVSPropertyOp29
 70
     1
102
RTVSPropertyOp30
 70
     1
102
RTVSPropertyOp31
 70
     1
102
RTVSPropertyOp32
 70
     1
102
RTVSPropertyOp33
 70
     1
102
RTVSPropertyOp34
 70
     1
102
RTVSPropertyOp35
 70
     1
102
RTVSPropertyOp36
 70
     1
102
RTVSPropertyOp37
 70
     1
102
RTVSPropertyOp38
 70
     1
102
RTVSPropertyOp39
 70
     1
102
RTVSPropertyOp40
 70
     1
102
RTVSPropertyOp41
 70
     1
102
RTVSPropertyOp42
 70
     1
102
RTVSPropertyOp43
 70
     1
102
RTVSPropertyOp44
 70
     1
102
RTVSPropertyOp45
 70
     1
102
RTVSPropertyOp46
 70
     1
102
RTVSPropertyOp47
 70
     1
102
RTVSPropertyOp48
 70
     1
102
RTVSPropertyOp49
 70
     1
102
RTVSPropertyOp50
 70
     1
102
RTVSPropertyOp51
 70
     0
102
RTVSPropertyOp52
 70
     0
102
RTVSPropertyOp53
 70
     1
102
RTVSPropertyOp54
 70
     1
102
RTVSPropertyOp55
 70
     1
102
RTVSPropertyOp56
 70
     1
102
RTVSPropertyOp57
 70
     1
102
RTVSPost2010Prop28
280
     0
102
RTVSPost2010PropOp28
 70
     1
102
RTVSPost2010Prop29
280
     1
102
RTVSPost2010PropOp29
 70
     1
102
RTVSPost2010Prop30
280
     1
102
RTVSPost2010PropOp30
 70
     1
102
RTVSPost2010Prop31
280
     0
102
RTVSPost2010PropOp31
 70
     1
102
RTVSPost2010Prop32
280
     0
102
RTVSPost2010PropOp32
 70
     1
102
RTVSPost2010Prop33
280
     0
102
RTVSPost2010PropOp33
 70
     1
102
RTVSPost2010Prop34
280
     0
102
RTVSPost2010PropOp34
 70
     1
102
RTVSPost2010Prop35
280
     0
102
RTVSPost2010PropOp35
 70
     1
102
RTVSPost2010Prop36
280
     0
102
RTVSPost2010PropOp36
 70
     1
102
RTVSPost2010Prop37
 90
       50
102
RTVSPost2010PropOp37
 70
     1
102
RTVSPost2010Prop38
140
0.0
102
RTVSPost2010PropOp38
 70
     1
102
RTVSPost2010Prop39
140
1.0
102
RTVSPost2010PropOp39
 70
     1
102
RTVSPost2010Prop40
 90
        0
102
RTVSPost2010PropOp40
 70
     1
102
RTVSPost2010Prop41ColorIndex
 90
       18
102
RTVSPost2010Prop41ColorRGB
 90
        0
102
RTVSPost2010PropOp41
 70
     1
102
RTVSPost2010Prop42
 90
       50
102
RTVSPost2010PropOp42
 70
     1
102
RTVSPost2010Prop43
 90
        3
102
RTVSPost2010PropOp43
 70
     1
102
RTVSPost2010Prop44ColorIndex
 90
        5
102
RTVSPost2010Prop44ColorRGB
 90
      255
102
RTVSPost2010PropOp44
 70
     1
102
RTVSPost2010Prop45
280
     0
102
RTVSPost2010PropOp45
 70
     1
102
RTVSPost2010Prop46
 90
       50
102
RTVSPost2010PropOp46
 70
     1
102
RTVSPost2010Prop47
 90
       50
102
RTVSPost2010PropOp47
 70
     1
102
RTVSPost2010Prop48
 90
       50
102
RTVSPost2010PropOp48
 70
     1
102
RTVSPost2010Prop49
280
     0
102
RTVSPost2010PropOp49
 70
     1
102
RTVSPost2010Prop50
 90
       50
102
RTVSPost2010PropOp50
 70
     1
102
RTVSPost2010Prop51ColorIndex
 90
      256
102
RTVSPost2010Prop51ColorRGB
 90
-16777216
102
RTVSPost2010PropOp51
 70
     0
102
RTVSPost2010Prop52
140
1.0
102
RTVSPost2010PropOp52
 70
     0
102
RTVSPost2010Prop53
 90
        2
102
RTVSPost2010PropOp53
 70
     1
102
RTVSPost2010Prop54
  1
strokes_ogs.tif
102
RTVSPost2010PropOp54
 70
     1
102
RTVSPost2010Prop55
280
     0
102
RTVSPost2010PropOp55
 70
     1
102
RTVSPost2010Prop56
140
1.0
102
RTVSPost2010PropOp56
 70
     1
102
RTVSPost2010Prop57
140
1.0
102
RTVSPost2010PropOp57
 70
     1
  0
XRECORD
  5
3C0
102
{ACAD_REACTORS
330
3BF
102
}
330
3BF
100
AcDbXrecord
280
     1
102
RTVSPropertyOp0
 70
     0
102
RTVSPropertyOp1
 70
     0
102
RTVSPropertyOp2
 70
     0
102
RTVSPropertyOp3
 70
     0
102
RTVSPropertyOp4
 70
     0
102
RTVSPropertyOp5
 70
     0
102
RTVSPropertyOp6
 70
     0
102
RTVSPropertyOp7
 70
     0
102
RTVSPropertyOp8
 70
     0
102
RTVSPropertyOp9
 70
     0
102
RTVSPropertyOp10
 70
     0
102
RTVSPropertyOp11
 70
     0
102
RTVSPropertyOp12
 70
     0
102
RTVSPropertyOp13
 70
     0
102
RTVSPropertyOp14
 70
     2
102
RTVSPropertyOp15
 70
     0
102
RTVSPropertyOp16
 70
     0
102
RTVSPropertyOp17
 70
     0
102
RTVSPropertyOp18
 70
     0
102
RTVSPropertyOp19
 70
     0
102
RTVSPropertyOp20
 70
     0
102
RTVSPropertyOp21
 70
     0
102
RTVSPropertyOp22
 70
     0
102
RTVSPropertyOp23
 70
     0
102
RTVSPropertyOp24
 70
     0
102
RTVSPropertyOp25
 70
     0
102
RTVSPropertyOp26
 70
     0
102
RTVSPropertyOp27
 70
     0
102
RTVSPropertyOp28
 70
     0
102
RTVSPropertyOp29
 70
     0
102
RTVSPropertyOp30
 70
     0
102
RTVSPropertyOp31
 70
     0
102
RTVSPropertyOp32
 70
     0
102
RTVSPropertyOp33
 70
     0
102
RTVSPropertyOp34
 70
     0
102
RTVSPropertyOp35
 70
     0
102
RTVSPropertyOp36
 70
     0
102
RTVSPropertyOp37
 70
     0
102
RTVSPropertyOp38
 70
     0
102
RTVSPropertyOp39
 70
     0
102
RTVSPropertyOp40
 70
     0
102
RTVSPropertyOp41
 70
     0
102
RTVSPropertyOp42
 70
     0
102
RTVSPropertyOp43
 70
     0
102
RTVSPropertyOp44
 70
     0
102
RTVSPropertyOp45
 70
     0
102
RTVSPropertyOp46
 70
     0
102
RTVSPropertyOp47
 70
     0
102
RTVSPropertyOp48
 70
     0
102
RTVSPropertyOp49
 70
     0
102
RTVSPropertyOp50
 70
     0
102
RTVSPropertyOp51
 70
     0
102
RTVSPropertyOp52
 70
     0
102
RTVSPropertyOp53
 70
     0
102
RTVSPropertyOp54
 70
     0
102
RTVSPropertyOp55
 70
     0
102
RTVSPropertyOp56
 70
     0
102
RTVSPropertyOp57
 70
     0
102
RTVSPost2010Prop28
280
     0
102
RTVSPost2010PropOp28
 70
     0
102
RTVSPost2010Prop29
280
     1
102
RTVSPost2010PropOp29
 70
     0
102
RTVSPost2010Prop30
280
     1
102
RTVSPost2010PropOp30
 70
     0
102
RTVSPost2010Prop31
280
     0
102
RTVSPost2010PropOp31
 70
     0
102
RTVSPost2010Prop32
280
     0
102
RTVSPost2010PropOp32
 70
     0
102
RTVSPost2010Prop33
280
     0
102
RTVSPost2010PropOp33
 70
     0
102
RTVSPost2010Prop34
280
     0
102
RTVSPost2010PropOp34
 70
     0
102
RTVSPost2010Prop35
280
     0
102
RTVSPost2010PropOp35
 70
     0
102
RTVSPost2010Prop36
280
     0
102
RTVSPost2010PropOp36
 70
     0
102
RTVSPost2010Prop37
 90
       50
102
RTVSPost2010PropOp37
 70
     0
102
RTVSPost2010Prop38
140
0.0
102
RTVSPost2010PropOp38
 70
     0
102
RTVSPost2010Prop39
140
1.0
102
RTVSPost2010PropOp39
 70
     0
102
RTVSPost2010Prop40
 90
        0
102
RTVSPost2010PropOp40
 70
     0
102
RTVSPost2010Prop41ColorIndex
 90
       18
102
RTVSPost2010Prop41ColorRGB
 90
        0
102
RTVSPost2010PropOp41
 70
     0
102
RTVSPost2010Prop42
 90
       50
102
RTVSPost2010PropOp42
 70
     0
102
RTVSPost2010Prop43
 90
        3
102
RTVSPost2010PropOp43
 70
     0
102
RTVSPost2010Prop44ColorIndex
 90
        5
102
RTVSPost2010Prop44ColorRGB
 90
      255
102
RTVSPost2010PropOp44
 70
     0
102
RTVSPost2010Prop45
280
     0
102
RTVSPost2010PropOp45
 70
     0
102
RTVSPost2010Prop46
 90
       50
102
RTVSPost2010PropOp46
 70
     0
102
RTVSPost2010Prop47
 90
       50
102
RTVSPost2010PropOp47
 70
     0
102
RTVSPost2010Prop48
 90
       50
102
RTVSPost2010PropOp48
 70
     0
102
RTVSPost2010Prop49
280
     0
102
RTVSPost2010PropOp49
 70
     0
102
RTVSPost2010Prop50
 90
       50
102
RTVSPost2010PropOp50
 70
     0
102
RTVSPost2010Prop51ColorIndex
 90
      256
102
RTVSPost2010Prop51ColorRGB
 90
-16777216
102
RTVSPost2010PropOp51
 70
     0
102
RTVSPost2010Prop52
140
1.0
102
RTVSPost2010PropOp52
 70
     0
102
RTVSPost2010Prop53
 90
        2
102
RTVSPost2010PropOp53
 70
     0
102
RTVSPost2010Prop54
  1
strokes_ogs.tif
102
RTVSPost2010PropOp54
 70
     0
102
RTVSPost2010Prop55
280
     0
102
RTVSPost2010PropOp55
 70
     0
102
RTVSPost2010Prop56
140
1.0
102
RTVSPost2010PropOp56
 70
     0
102
RTVSPost2010Prop57
140
1.0
102
RTVSPost2010PropOp57
 70
     0
  0
XRECORD
  5
3B8
102
{ACAD_REACTORS
330
3B7
102
}
330
3B7
100
AcDbXrecord
280
     1
102
RTVSPropertyOp0
 70
     1
102
RTVSPropertyOp1
 70
     1
102
RTVSPropertyOp2
 70
     1
102
RTVSPropertyOp3
 70
     1
102
RTVSPropertyOp4
 70
     1
102
RTVSPropertyOp5
 70
     1
102
RTVSPropertyOp6
 70
     1
102
RTVSPropertyOp7
 70
     1
102
RTVSPropertyOp8
 70
     1
102
RTVSPropertyOp9
 70
     1
102
RTVSPropertyOp10
 70
     1
102
RTVSPropertyOp11
 70
     1
102
RTVSPropertyOp12
 70
     1
102
RTVSPropertyOp13
 70
     1
102
RTVSPropertyOp14
 70
     1
102
RTVSPropertyOp15
 70
     1
102
RTVSPropertyOp16
 70
     1
102
RTVSPropertyOp17
 70
     1
102
RTVSPropertyOp18
 70
     1
102
RTVSPropertyOp19
 70
     1
102
RTVSPropertyOp20
 70
     1
102
RTVSPropertyOp21
 70
     1
102
RTVSPropertyOp22
 70
     1
102
RTVSPropertyOp23
 70
     1
102
RTVSPropertyOp24
 70
     1
102
RTVSPropertyOp25
 70
     1
102
RTVSPropertyOp26
 70
     1
102
RTVSPropertyOp27
 70
     1
102
RTVSPropertyOp28
 70
     1
102
RTVSPropertyOp29
 70
     1
102
RTVSPropertyOp30
 70
     1
102
RTVSPropertyOp31
 70
     1
102
RTVSPropertyOp32
 70
     1
102
RTVSPropertyOp33
 70
     1
102
RTVSPropertyOp34
 70
     1
102
RTVSPropertyOp35
 70
     1
102
RTVSPropertyOp36
 70
     1
102
RTVSPropertyOp37
 70
     1
102
RTVSPropertyOp38
 70
     1
102
RTVSPropertyOp39
 70
     1
102
RTVSPropertyOp40
 70
     1
102
RTVSPropertyOp41
 70
     1
102
RTVSPropertyOp42
 70
     1
102
RTVSPropertyOp43
 70
     1
102
RTVSPropertyOp44
 70
     1
102
RTVSPropertyOp45
 70
     1
102
RTVSPropertyOp46
 70
     1
102
RTVSPropertyOp47
 70
     1
102
RTVSPropertyOp48
 70
     1
102
RTVSPropertyOp49
 70
     1
102
RTVSPropertyOp50
 70
     1
102
RTVSPropertyOp51
 70
     0
102
RTVSPropertyOp52
 70
     0
102
RTVSPropertyOp53
 70
     1
102
RTVSPropertyOp54
 70
     1
102
RTVSPropertyOp55
 70
     1
102
RTVSPropertyOp56
 70
     1
102
RTVSPropertyOp57
 70
     1
102
RTVSPost2010Prop28
280
     0
102
RTVSPost2010PropOp28
 70
     1
102
RTVSPost2010Prop29
280
     1
102
RTVSPost2010PropOp29
 70
     1
102
RTVSPost2010Prop30
280
     1
102
RTVSPost2010PropOp30
 70
     1
102
RTVSPost2010Prop31
280
     0
102
RTVSPost2010PropOp31
 70
     1
102
RTVSPost2010Prop32
280
     0
102
RTVSPost2010PropOp32
 70
     1
102
RTVSPost2010Prop33
280
     0
102
RTVSPost2010PropOp33
 70
     1
102
RTVSPost2010Prop34
280
     0
102
RTVSPost2010PropOp34
 70
     1
102
RTVSPost2010Prop35
280
     0
102
RTVSPost2010PropOp35
 70
     1
102
RTVSPost2010Prop36
280
     0
102
RTVSPost2010PropOp36
 70
     1
102
RTVSPost2010Prop37
 90
       50
102
RTVSPost2010PropOp37
 70
     1
102
RTVSPost2010Prop38
140
0.0
102
RTVSPost2010PropOp38
 70
     1
102
RTVSPost2010Prop39
140
1.0
102
RTVSPost2010PropOp39
 70
     1
102
RTVSPost2010Prop40
 90
        0
102
RTVSPost2010PropOp40
 70
     1
102
RTVSPost2010Prop41ColorIndex
 90
       18
102
RTVSPost2010Prop41ColorRGB
 90
        0
102
RTVSPost2010PropOp41
 70
     1
102
RTVSPost2010Prop42
 90
       50
102
RTVSPost2010PropOp42
 70
     1
102
RTVSPost2010Prop43
 90
        3
102
RTVSPost2010PropOp43
 70
     1
102
RTVSPost2010Prop44ColorIndex
 90
        5
102
RTVSPost2010Prop44ColorRGB
 90
      255
102
RTVSPost2010PropOp44
 70
     1
102
RTVSPost2010Prop45
280
     0
102
RTVSPost2010PropOp45
 70
     1
102
RTVSPost2010Prop46
 90
       50
102
RTVSPost2010PropOp46
 70
     1
102
RTVSPost2010Prop47
 90
       50
102
RTVSPost2010PropOp47
 70
     1
102
RTVSPost2010Prop48
 90
       50
102
RTVSPost2010PropOp48
 70
     1
102
RTVSPost2010Prop49
280
     0
102
RTVSPost2010PropOp49
 70
     1
102
RTVSPost2010Prop50
 90
       50
102
RTVSPost2010PropOp50
 70
     1
102
RTVSPost2010Prop51ColorIndex
 90
      256
102
RTVSPost2010Prop51ColorRGB
 90
-16777216
102
RTVSPost2010PropOp51
 70
     0
102
RTVSPost2010Prop52
140
1.0
102
RTVSPost2010PropOp52
 70
     0
102
RTVSPost2010Prop53
 90
        2
102
RTVSPost2010PropOp53
 70
     1
102
RTVSPost2010Prop54
  1
strokes_ogs.tif
102
RTVSPost2010PropOp54
 70
     1
102
RTVSPost2010Prop55
280
     0
102
RTVSPost2010PropOp55
 70
     1
102
RTVSPost2010Prop56
140
1.0
102
RTVSPost2010PropOp56
 70
     1
102
RTVSPost2010Prop57
140
1.0
102
RTVSPost2010PropOp57
 70
     1
  0
XRECORD
  5
39C
102
{ACAD_REACTORS
330
39B
102
}
330
39B
100
AcDbXrecord
280
     1
102
RTVSPropertyOp0
 70
     1
102
RTVSPropertyOp1
 70
     1
102
RTVSPropertyOp2
 70
     1
102
RTVSPropertyOp3
 70
     1
102
RTVSPropertyOp4
 70
     1
102
RTVSPropertyOp5
 70
     1
102
RTVSPropertyOp6
 70
     1
102
RTVSPropertyOp7
 70
     1
102
RTVSPropertyOp8
 70
     1
102
RTVSPropertyOp9
 70
     1
102
RTVSPropertyOp10
 70
     1
102
RTVSPropertyOp11
 70
     1
102
RTVSPropertyOp12
 70
     1
102
RTVSPropertyOp13
 70
     1
102
RTVSPropertyOp14
 70
     1
102
RTVSPropertyOp15
 70
     1
102
RTVSPropertyOp16
 70
     1
102
RTVSPropertyOp17
 70
     1
102
RTVSPropertyOp18
 70
     1
102
RTVSPropertyOp19
 70
     1
102
RTVSPropertyOp20
 70
     1
102
RTVSPropertyOp21
 70
     1
102
RTVSPropertyOp22
 70
     1
102
RTVSPropertyOp23
 70
     1
102
RTVSPropertyOp24
 70
     1
102
RTVSPropertyOp25
 70
     1
102
RTVSPropertyOp26
 70
     1
102
RTVSPropertyOp27
 70
     1
102
RTVSPropertyOp28
 70
     1
102
RTVSPropertyOp29
 70
     1
102
RTVSPropertyOp30
 70
     1
102
RTVSPropertyOp31
 70
     1
102
RTVSPropertyOp32
 70
     1
102
RTVSPropertyOp33
 70
     1
102
RTVSPropertyOp34
 70
     1
102
RTVSPropertyOp35
 70
     1
102
RTVSPropertyOp36
 70
     1
102
RTVSPropertyOp37
 70
     1
102
RTVSPropertyOp38
 70
     1
102
RTVSPropertyOp39
 70
     1
102
RTVSPropertyOp40
 70
     1
102
RTVSPropertyOp41
 70
     1
102
RTVSPropertyOp42
 70
     1
102
RTVSPropertyOp43
 70
     1
102
RTVSPropertyOp44
 70
     1
102
RTVSPropertyOp45
 70
     1
102
RTVSPropertyOp46
 70
     1
102
RTVSPropertyOp47
 70
     1
102
RTVSPropertyOp48
 70
     1
102
RTVSPropertyOp49
 70
     1
102
RTVSPropertyOp50
 70
     1
102
RTVSPropertyOp51
 70
     0
102
RTVSPropertyOp52
 70
     0
102
RTVSPropertyOp53
 70
     1
102
RTVSPropertyOp54
 70
     1
102
RTVSPropertyOp55
 70
     1
102
RTVSPropertyOp56
 70
     1
102
RTVSPropertyOp57
 70
     1
102
RTVSPost2010Prop28
280
     0
102
RTVSPost2010PropOp28
 70
     1
102
RTVSPost2010Prop29
280
     1
102
RTVSPost2010PropOp29
 70
     1
102
RTVSPost2010Prop30
280
     1
102
RTVSPost2010PropOp30
 70
     1
102
RTVSPost2010Prop31
280
     0
102
RTVSPost2010PropOp31
 70
     1
102
RTVSPost2010Prop32
280
     0
102
RTVSPost2010PropOp32
 70
     1
102
RTVSPost2010Prop33
280
     0
102
RTVSPost2010PropOp33
 70
     1
102
RTVSPost2010Prop34
280
     0
102
RTVSPost2010PropOp34
 70
     1
102
RTVSPost2010Prop35
280
     0
102
RTVSPost2010PropOp35
 70
     1
102
RTVSPost2010Prop36
280
     0
102
RTVSPost2010PropOp36
 70
     1
102
RTVSPost2010Prop37
 90
       50
102
RTVSPost2010PropOp37
 70
     1
102
RTVSPost2010Prop38
140
0.0
102
RTVSPost2010PropOp38
 70
     1
102
RTVSPost2010Prop39
140
1.0
102
RTVSPost2010PropOp39
 70
     1
102
RTVSPost2010Prop40
 90
        0
102
RTVSPost2010PropOp40
 70
     1
102
RTVSPost2010Prop41ColorIndex
 90
       18
102
RTVSPost2010Prop41ColorRGB
 90
        0
102
RTVSPost2010PropOp41
 70
     1
102
RTVSPost2010Prop42
 90
       50
102
RTVSPost2010PropOp42
 70
     1
102
RTVSPost2010Prop43
 90
        3
102
RTVSPost2010PropOp43
 70
     1
102
RTVSPost2010Prop44ColorIndex
 90
        5
102
RTVSPost2010Prop44ColorRGB
 90
      255
102
RTVSPost2010PropOp44
 70
     1
102
RTVSPost2010Prop45
280
     0
102
RTVSPost2010PropOp45
 70
     1
102
RTVSPost2010Prop46
 90
       50
102
RTVSPost2010PropOp46
 70
     1
102
RTVSPost2010Prop47
 90
       50
102
RTVSPost2010PropOp47
 70
     1
102
RTVSPost2010Prop48
 90
       50
102
RTVSPost2010PropOp48
 70
     1
102
RTVSPost2010Prop49
280
     0
102
RTVSPost2010PropOp49
 70
     1
102
RTVSPost2010Prop50
 90
       50
102
RTVSPost2010PropOp50
 70
     1
102
RTVSPost2010Prop51ColorIndex
 90
      256
102
RTVSPost2010Prop51ColorRGB
 90
-16777216
102
RTVSPost2010PropOp51
 70
     0
102
RTVSPost2010Prop52
140
1.0
102
RTVSPost2010PropOp52
 70
     0
102
RTVSPost2010Prop53
 90
        2
102
RTVSPost2010PropOp53
 70
     1
102
RTVSPost2010Prop54
  1
strokes_ogs.tif
102
RTVSPost2010PropOp54
 70
     1
102
RTVSPost2010Prop55
280
     0
102
RTVSPost2010PropOp55
 70
     1
102
RTVSPost2010Prop56
140
1.0
102
RTVSPost2010PropOp56
 70
     1
102
RTVSPost2010Prop57
140
1.0
102
RTVSPost2010PropOp57
 70
     1
  0
XRECORD
  5
39E
102
{ACAD_REACTORS
330
39D
102
}
330
39D
100
AcDbXrecord
280
     1
102
RTVSPropertyOp0
 70
     1
102
RTVSPropertyOp1
 70
     1
102
RTVSPropertyOp2
 70
     1
102
RTVSPropertyOp3
 70
     1
102
RTVSPropertyOp4
 70
     1
102
RTVSPropertyOp5
 70
     1
102
RTVSPropertyOp6
 70
     1
102
RTVSPropertyOp7
 70
     1
102
RTVSPropertyOp8
 70
     1
102
RTVSPropertyOp9
 70
     1
102
RTVSPropertyOp10
 70
     1
102
RTVSPropertyOp11
 70
     1
102
RTVSPropertyOp12
 70
     1
102
RTVSPropertyOp13
 70
     1
102
RTVSPropertyOp14
 70
     1
102
RTVSPropertyOp15
 70
     1
102
RTVSPropertyOp16
 70
     1
102
RTVSPropertyOp17
 70
     1
102
RTVSPropertyOp18
 70
     1
102
RTVSPropertyOp19
 70
     1
102
RTVSPropertyOp20
 70
     1
102
RTVSPropertyOp21
 70
     1
102
RTVSPropertyOp22
 70
     1
102
RTVSPropertyOp23
 70
     1
102
RTVSPropertyOp24
 70
     1
102
RTVSPropertyOp25
 70
     1
102
RTVSPropertyOp26
 70
     1
102
RTVSPropertyOp27
 70
     1
102
RTVSPropertyOp28
 70
     1
102
RTVSPropertyOp29
 70
     1
102
RTVSPropertyOp30
 70
     1
102
RTVSPropertyOp31
 70
     1
102
RTVSPropertyOp32
 70
     1
102
RTVSPropertyOp33
 70
     1
102
RTVSPropertyOp34
 70
     1
102
RTVSPropertyOp35
 70
     1
102
RTVSPropertyOp36
 70
     1
102
RTVSPropertyOp37
 70
     1
102
RTVSPropertyOp38
 70
     1
102
RTVSPropertyOp39
 70
     1
102
RTVSPropertyOp40
 70
     1
102
RTVSPropertyOp41
 70
     1
102
RTVSPropertyOp42
 70
     1
102
RTVSPropertyOp43
 70
     1
102
RTVSPropertyOp44
 70
     1
102
RTVSPropertyOp45
 70
     1
102
RTVSPropertyOp46
 70
     1
102
RTVSPropertyOp47
 70
     1
102
RTVSPropertyOp48
 70
     1
102
RTVSPropertyOp49
 70
     1
102
RTVSPropertyOp50
 70
     1
102
RTVSPropertyOp51
 70
     0
102
RTVSPropertyOp52
 70
     0
102
RTVSPropertyOp53
 70
     1
102
RTVSPropertyOp54
 70
     1
102
RTVSPropertyOp55
 70
     1
102
RTVSPropertyOp56
 70
     1
102
RTVSPropertyOp57
 70
     1
102
RTVSPost2010Prop28
280
     0
102
RTVSPost2010PropOp28
 70
     1
102
RTVSPost2010Prop29
280
     1
102
RTVSPost2010PropOp29
 70
     1
102
RTVSPost2010Prop30
280
     1
102
RTVSPost2010PropOp30
 70
     1
102
RTVSPost2010Prop31
280
     0
102
RTVSPost2010PropOp31
 70
     1
102
RTVSPost2010Prop32
280
     0
102
RTVSPost2010PropOp32
 70
     1
102
RTVSPost2010Prop33
280
     0
102
RTVSPost2010PropOp33
 70
     1
102
RTVSPost2010Prop34
280
     0
102
RTVSPost2010PropOp34
 70
     1
102
RTVSPost2010Prop35
280
     0
102
RTVSPost2010PropOp35
 70
     1
102
RTVSPost2010Prop36
280
     0
102
RTVSPost2010PropOp36
 70
     1
102
RTVSPost2010Prop37
 90
       50
102
RTVSPost2010PropOp37
 70
     1
102
RTVSPost2010Prop38
140
0.0
102
RTVSPost2010PropOp38
 70
     1
102
RTVSPost2010Prop39
140
1.0
102
RTVSPost2010PropOp39
 70
     1
102
RTVSPost2010Prop40
 90
        0
102
RTVSPost2010PropOp40
 70
     1
102
RTVSPost2010Prop41ColorIndex
 90
       18
102
RTVSPost2010Prop41ColorRGB
 90
        0
102
RTVSPost2010PropOp41
 70
     1
102
RTVSPost2010Prop42
 90
       50
102
RTVSPost2010PropOp42
 70
     1
102
RTVSPost2010Prop43
 90
        3
102
RTVSPost2010PropOp43
 70
     1
102
RTVSPost2010Prop44ColorIndex
 90
        5
102
RTVSPost2010Prop44ColorRGB
 90
      255
102
RTVSPost2010PropOp44
 70
     1
102
RTVSPost2010Prop45
280
     0
102
RTVSPost2010PropOp45
 70
     1
102
RTVSPost2010Prop46
 90
       50
102
RTVSPost2010PropOp46
 70
     1
102
RTVSPost2010Prop47
 90
       50
102
RTVSPost2010PropOp47
 70
     1
102
RTVSPost2010Prop48
 90
       50
102
RTVSPost2010PropOp48
 70
     1
102
RTVSPost2010Prop49
280
     0
102
RTVSPost2010PropOp49
 70
     1
102
RTVSPost2010Prop50
 90
       50
102
RTVSPost2010PropOp50
 70
     1
102
RTVSPost2010Prop51ColorIndex
 90
      256
102
RTVSPost2010Prop51ColorRGB
 90
-16777216
102
RTVSPost2010PropOp51
 70
     0
102
RTVSPost2010Prop52
140
1.0
102
RTVSPost2010PropOp52
 70
     0
102
RTVSPost2010Prop53
 90
        2
102
RTVSPost2010PropOp53
 70
     1
102
RTVSPost2010Prop54
  1
strokes_ogs.tif
102
RTVSPost2010PropOp54
 70
     1
102
RTVSPost2010Prop55
280
     0
102
RTVSPost2010PropOp55
 70
     1
102
RTVSPost2010Prop56
140
1.0
102
RTVSPost2010PropOp56
 70
     1
102
RTVSPost2010Prop57
140
1.0
102
RTVSPost2010PropOp57
 70
     1
  0
XRECORD
  5
3A0
102
{ACAD_REACTORS
330
39F
102
}
330
39F
100
AcDbXrecord
280
     1
102
RTVSPropertyOp0
 70
     1
102
RTVSPropertyOp1
 70
     1
102
RTVSPropertyOp2
 70
     1
102
RTVSPropertyOp3
 70
     1
102
RTVSPropertyOp4
 70
     1
102
RTVSPropertyOp5
 70
     1
102
RTVSPropertyOp6
 70
     1
102
RTVSPropertyOp7
 70
     1
102
RTVSPropertyOp8
 70
     1
102
RTVSPropertyOp9
 70
     1
102
RTVSPropertyOp10
 70
     1
102
RTVSPropertyOp11
 70
     1
102
RTVSPropertyOp12
 70
     1
102
RTVSPropertyOp13
 70
     1
102
RTVSPropertyOp14
 70
     1
102
RTVSPropertyOp15
 70
     1
102
RTVSPropertyOp16
 70
     1
102
RTVSPropertyOp17
 70
     1
102
RTVSPropertyOp18
 70
     1
102
RTVSPropertyOp19
 70
     1
102
RTVSPropertyOp20
 70
     1
102
RTVSPropertyOp21
 70
     1
102
RTVSPropertyOp22
 70
     1
102
RTVSPropertyOp23
 70
     1
102
RTVSPropertyOp24
 70
     1
102
RTVSPropertyOp25
 70
     1
102
RTVSPropertyOp26
 70
     1
102
RTVSPropertyOp27
 70
     1
102
RTVSPropertyOp28
 70
     1
102
RTVSPropertyOp29
 70
     1
102
RTVSPropertyOp30
 70
     1
102
RTVSPropertyOp31
 70
     1
102
RTVSPropertyOp32
 70
     1
102
RTVSPropertyOp33
 70
     1
102
RTVSPropertyOp34
 70
     1
102
RTVSPropertyOp35
 70
     1
102
RTVSPropertyOp36
 70
     1
102
RTVSPropertyOp37
 70
     1
102
RTVSPropertyOp38
 70
     1
102
RTVSPropertyOp39
 70
     1
102
RTVSPropertyOp40
 70
     1
102
RTVSPropertyOp41
 70
     1
102
RTVSPropertyOp42
 70
     1
102
RTVSPropertyOp43
 70
     1
102
RTVSPropertyOp44
 70
     1
102
RTVSPropertyOp45
 70
     1
102
RTVSPropertyOp46
 70
     1
102
RTVSPropertyOp47
 70
     1
102
RTVSPropertyOp48
 70
     1
102
RTVSPropertyOp49
 70
     1
102
RTVSPropertyOp50
 70
     1
102
RTVSPropertyOp51
 70
     0
102
RTVSPropertyOp52
 70
     0
102
RTVSPropertyOp53
 70
     1
102
RTVSPropertyOp54
 70
     1
102
RTVSPropertyOp55
 70
     1
102
RTVSPropertyOp56
 70
     1
102
RTVSPropertyOp57
 70
     1
102
RTVSPost2010Prop28
280
     0
102
RTVSPost2010PropOp28
 70
     1
102
RTVSPost2010Prop29
280
     1
102
RTVSPost2010PropOp29
 70
     1
102
RTVSPost2010Prop30
280
     1
102
RTVSPost2010PropOp30
 70
     1
102
RTVSPost2010Prop31
280
     0
102
RTVSPost2010PropOp31
 70
     1
102
RTVSPost2010Prop32
280
     0
102
RTVSPost2010PropOp32
 70
     1
102
RTVSPost2010Prop33
280
     0
102
RTVSPost2010PropOp33
 70
     1
102
RTVSPost2010Prop34
280
     0
102
RTVSPost2010PropOp34
 70
     1
102
RTVSPost2010Prop35
280
     0
102
RTVSPost2010PropOp35
 70
     1
102
RTVSPost2010Prop36
280
     0
102
RTVSPost2010PropOp36
 70
     1
102
RTVSPost2010Prop37
 90
       50
102
RTVSPost2010PropOp37
 70
     1
102
RTVSPost2010Prop38
140
0.0
102
RTVSPost2010PropOp38
 70
     1
102
RTVSPost2010Prop39
140
1.0
102
RTVSPost2010PropOp39
 70
     1
102
RTVSPost2010Prop40
 90
        0
102
RTVSPost2010PropOp40
 70
     1
102
RTVSPost2010Prop41ColorIndex
 90
       18
102
RTVSPost2010Prop41ColorRGB
 90
        0
102
RTVSPost2010PropOp41
 70
     1
102
RTVSPost2010Prop42
 90
       50
102
RTVSPost2010PropOp42
 70
     1
102
RTVSPost2010Prop43
 90
        3
102
RTVSPost2010PropOp43
 70
     1
102
RTVSPost2010Prop44ColorIndex
 90
        5
102
RTVSPost2010Prop44ColorRGB
 90
      255
102
RTVSPost2010PropOp44
 70
     1
102
RTVSPost2010Prop45
280
     0
102
RTVSPost2010PropOp45
 70
     1
102
RTVSPost2010Prop46
 90
       50
102
RTVSPost2010PropOp46
 70
     1
102
RTVSPost2010Prop47
 90
       50
102
RTVSPost2010PropOp47
 70
     1
102
RTVSPost2010Prop48
 90
       50
102
RTVSPost2010PropOp48
 70
     1
102
RTVSPost2010Prop49
280
     0
102
RTVSPost2010PropOp49
 70
     1
102
RTVSPost2010Prop50
 90
       50
102
RTVSPost2010PropOp50
 70
     1
102
RTVSPost2010Prop51ColorIndex
 90
      256
102
RTVSPost2010Prop51ColorRGB
 90
-16777216
102
RTVSPost2010PropOp51
 70
     0
102
RTVSPost2010Prop52
140
1.0
102
RTVSPost2010PropOp52
 70
     0
102
RTVSPost2010Prop53
 90
        2
102
RTVSPost2010PropOp53
 70
     1
102
RTVSPost2010Prop54
  1
strokes_ogs.tif
102
RTVSPost2010PropOp54
 70
     1
102
RTVSPost2010Prop55
280
     0
102
RTVSPost2010PropOp55
 70
     1
102
RTVSPost2010Prop56
140
1.0
102
RTVSPost2010PropOp56
 70
     1
102
RTVSPost2010Prop57
140
1.0
102
RTVSPost2010PropOp57
 70
     1
  0
XRECORD
  5
3A2
102
{ACAD_REACTORS
330
3A1
102
}
330
3A1
100
AcDbXrecord
280
     1
102
RTVSPropertyOp0
 70
     1
102
RTVSPropertyOp1
 70
     1
102
RTVSPropertyOp2
 70
     1
102
RTVSPropertyOp3
 70
     1
102
RTVSPropertyOp4
 70
     1
102
RTVSPropertyOp5
 70
     1
102
RTVSPropertyOp6
 70
     1
102
RTVSPropertyOp7
 70
     1
102
RTVSPropertyOp8
 70
     1
102
RTVSPropertyOp9
 70
     1
102
RTVSPropertyOp10
 70
     1
102
RTVSPropertyOp11
 70
     1
102
RTVSPropertyOp12
 70
     1
102
RTVSPropertyOp13
 70
     1
102
RTVSPropertyOp14
 70
     1
102
RTVSPropertyOp15
 70
     1
102
RTVSPropertyOp16
 70
     1
102
RTVSPropertyOp17
 70
     1
102
RTVSPropertyOp18
 70
     1
102
RTVSPropertyOp19
 70
     1
102
RTVSPropertyOp20
 70
     1
102
RTVSPropertyOp21
 70
     1
102
RTVSPropertyOp22
 70
     1
102
RTVSPropertyOp23
 70
     1
102
RTVSPropertyOp24
 70
     1
102
RTVSPropertyOp25
 70
     1
102
RTVSPropertyOp26
 70
     1
102
RTVSPropertyOp27
 70
     1
102
RTVSPropertyOp28
 70
     1
102
RTVSPropertyOp29
 70
     1
102
RTVSPropertyOp30
 70
     1
102
RTVSPropertyOp31
 70
     1
102
RTVSPropertyOp32
 70
     1
102
RTVSPropertyOp33
 70
     1
102
RTVSPropertyOp34
 70
     1
102
RTVSPropertyOp35
 70
     1
102
RTVSPropertyOp36
 70
     1
102
RTVSPropertyOp37
 70
     1
102
RTVSPropertyOp38
 70
     1
102
RTVSPropertyOp39
 70
     1
102
RTVSPropertyOp40
 70
     1
102
RTVSPropertyOp41
 70
     1
102
RTVSPropertyOp42
 70
     1
102
RTVSPropertyOp43
 70
     1
102
RTVSPropertyOp44
 70
     1
102
RTVSPropertyOp45
 70
     1
102
RTVSPropertyOp46
 70
     1
102
RTVSPropertyOp47
 70
     1
102
RTVSPropertyOp48
 70
     1
102
RTVSPropertyOp49
 70
     1
102
RTVSPropertyOp50
 70
     1
102
RTVSPropertyOp51
 70
     0
102
RTVSPropertyOp52
 70
     0
102
RTVSPropertyOp53
 70
     1
102
RTVSPropertyOp54
 70
     1
102
RTVSPropertyOp55
 70
     1
102
RTVSPropertyOp56
 70
     1
102
RTVSPropertyOp57
 70
     1
102
RTVSPost2010Prop28
280
     0
102
RTVSPost2010PropOp28
 70
     1
102
RTVSPost2010Prop29
280
     1
102
RTVSPost2010PropOp29
 70
     1
102
RTVSPost2010Prop30
280
     1
102
RTVSPost2010PropOp30
 70
     1
102
RTVSPost2010Prop31
280
     0
102
RTVSPost2010PropOp31
 70
     1
102
RTVSPost2010Prop32
280
     0
102
RTVSPost2010PropOp32
 70
     1
102
RTVSPost2010Prop33
280
     0
102
RTVSPost2010PropOp33
 70
     1
102
RTVSPost2010Prop34
280
     0
102
RTVSPost2010PropOp34
 70
     1
102
RTVSPost2010Prop35
280
     0
102
RTVSPost2010PropOp35
 70
     1
102
RTVSPost2010Prop36
280
     0
102
RTVSPost2010PropOp36
 70
     1
102
RTVSPost2010Prop37
 90
       50
102
RTVSPost2010PropOp37
 70
     1
102
RTVSPost2010Prop38
140
0.0
102
RTVSPost2010PropOp38
 70
     1
102
RTVSPost2010Prop39
140
1.0
102
RTVSPost2010PropOp39
 70
     1
102
RTVSPost2010Prop40
 90
        0
102
RTVSPost2010PropOp40
 70
     1
102
RTVSPost2010Prop41ColorIndex
 90
       18
102
RTVSPost2010Prop41ColorRGB
 90
        0
102
RTVSPost2010PropOp41
 70
     1
102
RTVSPost2010Prop42
 90
       50
102
RTVSPost2010PropOp42
 70
     1
102
RTVSPost2010Prop43
 90
        3
102
RTVSPost2010PropOp43
 70
     1
102
RTVSPost2010Prop44ColorIndex
 90
        5
102
RTVSPost2010Prop44ColorRGB
 90
      255
102
RTVSPost2010PropOp44
 70
     1
102
RTVSPost2010Prop45
280
     0
102
RTVSPost2010PropOp45
 70
     1
102
RTVSPost2010Prop46
 90
       50
102
RTVSPost2010PropOp46
 70
     1
102
RTVSPost2010Prop47
 90
       50
102
RTVSPost2010PropOp47
 70
     1
102
RTVSPost2010Prop48
 90
       50
102
RTVSPost2010PropOp48
 70
     1
102
RTVSPost2010Prop49
280
     0
102
RTVSPost2010PropOp49
 70
     1
102
RTVSPost2010Prop50
 90
       50
102
RTVSPost2010PropOp50
 70
     1
102
RTVSPost2010Prop51ColorIndex
 90
      256
102
RTVSPost2010Prop51ColorRGB
 90
-16777216
102
RTVSPost2010PropOp51
 70
     0
102
RTVSPost2010Prop52
140
1.0
102
RTVSPost2010PropOp52
 70
     0
102
RTVSPost2010Prop53
 90
        2
102
RTVSPost2010PropOp53
 70
     1
102
RTVSPost2010Prop54
  1
strokes_ogs.tif
102
RTVSPost2010PropOp54
 70
     1
102
RTVSPost2010Prop55
280
     0
102
RTVSPost2010PropOp55
 70
     1
102
RTVSPost2010Prop56
140
1.0
102
RTVSPost2010PropOp56
 70
     1
102
RTVSPost2010Prop57
140
1.0
102
RTVSPost2010PropOp57
 70
     1
  0
XRECORD
  5
3A8
102
{ACAD_REACTORS
330
3A7
102
}
330
3A7
100
AcDbXrecord
280
     1
102
RTVSPropertyOp0
 70
     1
102
RTVSPropertyOp1
 70
     1
102
RTVSPropertyOp2
 70
     1
102
RTVSPropertyOp3
 70
     1
102
RTVSPropertyOp4
 70
     1
102
RTVSPropertyOp5
 70
     1
102
RTVSPropertyOp6
 70
     1
102
RTVSPropertyOp7
 70
     1
102
RTVSPropertyOp8
 70
     1
102
RTVSPropertyOp9
 70
     1
102
RTVSPropertyOp10
 70
     1
102
RTVSPropertyOp11
 70
     1
102
RTVSPropertyOp12
 70
     1
102
RTVSPropertyOp13
 70
     1
102
RTVSPropertyOp14
 70
     1
102
RTVSPropertyOp15
 70
     1
102
RTVSPropertyOp16
 70
     1
102
RTVSPropertyOp17
 70
     1
102
RTVSPropertyOp18
 70
     1
102
RTVSPropertyOp19
 70
     1
102
RTVSPropertyOp20
 70
     1
102
RTVSPropertyOp21
 70
     1
102
RTVSPropertyOp22
 70
     1
102
RTVSPropertyOp23
 70
     1
102
RTVSPropertyOp24
 70
     1
102
RTVSPropertyOp25
 70
     1
102
RTVSPropertyOp26
 70
     1
102
RTVSPropertyOp27
 70
     1
102
RTVSPropertyOp28
 70
     1
102
RTVSPropertyOp29
 70
     1
102
RTVSPropertyOp30
 70
     1
102
RTVSPropertyOp31
 70
     1
102
RTVSPropertyOp32
 70
     1
102
RTVSPropertyOp33
 70
     1
102
RTVSPropertyOp34
 70
     1
102
RTVSPropertyOp35
 70
     1
102
RTVSPropertyOp36
 70
     1
102
RTVSPropertyOp37
 70
     1
102
RTVSPropertyOp38
 70
     1
102
RTVSPropertyOp39
 70
     1
102
RTVSPropertyOp40
 70
     1
102
RTVSPropertyOp41
 70
     1
102
RTVSPropertyOp42
 70
     1
102
RTVSPropertyOp43
 70
     1
102
RTVSPropertyOp44
 70
     1
102
RTVSPropertyOp45
 70
     1
102
RTVSPropertyOp46
 70
     1
102
RTVSPropertyOp47
 70
     1
102
RTVSPropertyOp48
 70
     1
102
RTVSPropertyOp49
 70
     1
102
RTVSPropertyOp50
 70
     1
102
RTVSPropertyOp51
 70
     0
102
RTVSPropertyOp52
 70
     0
102
RTVSPropertyOp53
 70
     1
102
RTVSPropertyOp54
 70
     1
102
RTVSPropertyOp55
 70
     1
102
RTVSPropertyOp56
 70
     1
102
RTVSPropertyOp57
 70
     1
102
RTVSPost2010Prop28
280
     0
102
RTVSPost2010PropOp28
 70
     1
102
RTVSPost2010Prop29
280
     1
102
RTVSPost2010PropOp29
 70
     1
102
RTVSPost2010Prop30
280
     1
102
RTVSPost2010PropOp30
 70
     1
102
RTVSPost2010Prop31
280
     0
102
RTVSPost2010PropOp31
 70
     1
102
RTVSPost2010Prop32
280
     0
102
RTVSPost2010PropOp32
 70
     1
102
RTVSPost2010Prop33
280
     0
102
RTVSPost2010PropOp33
 70
     1
102
RTVSPost2010Prop34
280
     0
102
RTVSPost2010PropOp34
 70
     1
102
RTVSPost2010Prop35
280
     0
102
RTVSPost2010PropOp35
 70
     1
102
RTVSPost2010Prop36
280
     0
102
RTVSPost2010PropOp36
 70
     1
102
RTVSPost2010Prop37
 90
       50
102
RTVSPost2010PropOp37
 70
     1
102
RTVSPost2010Prop38
140
0.0
102
RTVSPost2010PropOp38
 70
     1
102
RTVSPost2010Prop39
140
1.0
102
RTVSPost2010PropOp39
 70
     1
102
RTVSPost2010Prop40
 90
        0
102
RTVSPost2010PropOp40
 70
     1
102
RTVSPost2010Prop41ColorIndex
 90
       18
102
RTVSPost2010Prop41ColorRGB
 90
        0
102
RTVSPost2010PropOp41
 70
     1
102
RTVSPost2010Prop42
 90
       50
102
RTVSPost2010PropOp42
 70
     1
102
RTVSPost2010Prop43
 90
        3
102
RTVSPost2010PropOp43
 70
     1
102
RTVSPost2010Prop44ColorIndex
 90
        5
102
RTVSPost2010Prop44ColorRGB
 90
      255
102
RTVSPost2010PropOp44
 70
     1
102
RTVSPost2010Prop45
280
     0
102
RTVSPost2010PropOp45
 70
     1
102
RTVSPost2010Prop46
 90
       50
102
RTVSPost2010PropOp46
 70
     1
102
RTVSPost2010Prop47
 90
       50
102
RTVSPost2010PropOp47
 70
     1
102
RTVSPost2010Prop48
 90
       50
102
RTVSPost2010PropOp48
 70
     1
102
RTVSPost2010Prop49
280
     0
102
RTVSPost2010PropOp49
 70
     1
102
RTVSPost2010Prop50
 90
       50
102
RTVSPost2010PropOp50
 70
     1
102
RTVSPost2010Prop51ColorIndex
 90
      256
102
RTVSPost2010Prop51ColorRGB
 90
-16777216
102
RTVSPost2010PropOp51
 70
     0
102
RTVSPost2010Prop52
140
1.0
102
RTVSPost2010PropOp52
 70
     0
102
RTVSPost2010Prop53
 90
        2
102
RTVSPost2010PropOp53
 70
     1
102
RTVSPost2010Prop54
  1
strokes_ogs.tif
102
RTVSPost2010PropOp54
 70
     1
102
RTVSPost2010Prop55
280
     0
102
RTVSPost2010PropOp55
 70
     1
102
RTVSPost2010Prop56
140
1.0
102
RTVSPost2010PropOp56
 70
     1
102
RTVSPost2010Prop57
140
1.0
102
RTVSPost2010PropOp57
 70
     1
  0
XRECORD
  5
3BC
102
{ACAD_REACTORS
330
3BB
102
}
330
3BB
100
AcDbXrecord
280
     1
102
RTVSPropertyOp0
 70
     0
102
RTVSPropertyOp1
 70
     0
102
RTVSPropertyOp2
 70
     0
102
RTVSPropertyOp3
 70
     0
102
RTVSPropertyOp4
 70
     0
102
RTVSPropertyOp5
 70
     0
102
RTVSPropertyOp6
 70
     0
102
RTVSPropertyOp7
 70
     0
102
RTVSPropertyOp8
 70
     0
102
RTVSPropertyOp9
 70
     0
102
RTVSPropertyOp10
 70
     0
102
RTVSPropertyOp11
 70
     0
102
RTVSPropertyOp12
 70
     0
102
RTVSPropertyOp13
 70
     0
102
RTVSPropertyOp14
 70
     2
102
RTVSPropertyOp15
 70
     0
102
RTVSPropertyOp16
 70
     0
102
RTVSPropertyOp17
 70
     0
102
RTVSPropertyOp18
 70
     0
102
RTVSPropertyOp19
 70
     0
102
RTVSPropertyOp20
 70
     0
102
RTVSPropertyOp21
 70
     0
102
RTVSPropertyOp22
 70
     0
102
RTVSPropertyOp23
 70
     0
102
RTVSPropertyOp24
 70
     0
102
RTVSPropertyOp25
 70
     0
102
RTVSPropertyOp26
 70
     0
102
RTVSPropertyOp27
 70
     0
102
RTVSPropertyOp28
 70
     0
102
RTVSPropertyOp29
 70
     0
102
RTVSPropertyOp30
 70
     0
102
RTVSPropertyOp31
 70
     0
102
RTVSPropertyOp32
 70
     0
102
RTVSPropertyOp33
 70
     0
102
RTVSPropertyOp34
 70
     0
102
RTVSPropertyOp35
 70
     0
102
RTVSPropertyOp36
 70
     0
102
RTVSPropertyOp37
 70
     0
102
RTVSPropertyOp38
 70
     0
102
RTVSPropertyOp39
 70
     0
102
RTVSPropertyOp40
 70
     0
102
RTVSPropertyOp41
 70
     0
102
RTVSPropertyOp42
 70
     0
102
RTVSPropertyOp43
 70
     0
102
RTVSPropertyOp44
 70
     0
102
RTVSPropertyOp45
 70
     0
102
RTVSPropertyOp46
 70
     0
102
RTVSPropertyOp47
 70
     0
102
RTVSPropertyOp48
 70
     0
102
RTVSPropertyOp49
 70
     0
102
RTVSPropertyOp50
 70
     0
102
RTVSPropertyOp51
 70
     0
102
RTVSPropertyOp52
 70
     0
102
RTVSPropertyOp53
 70
     0
102
RTVSPropertyOp54
 70
     0
102
RTVSPropertyOp55
 70
     0
102
RTVSPropertyOp56
 70
     0
102
RTVSPropertyOp57
 70
     0
102
RTVSPost2010Prop28
280
     0
102
RTVSPost2010PropOp28
 70
     0
102
RTVSPost2010Prop29
280
     1
102
RTVSPost2010PropOp29
 70
     0
102
RTVSPost2010Prop30
280
     1
102
RTVSPost2010PropOp30
 70
     0
102
RTVSPost2010Prop31
280
     0
102
RTVSPost2010PropOp31
 70
     0
102
RTVSPost2010Prop32
280
     0
102
RTVSPost2010PropOp32
 70
     0
102
RTVSPost2010Prop33
280
     0
102
RTVSPost2010PropOp33
 70
     0
102
RTVSPost2010Prop34
280
     0
102
RTVSPost2010PropOp34
 70
     0
102
RTVSPost2010Prop35
280
     0
102
RTVSPost2010PropOp35
 70
     0
102
RTVSPost2010Prop36
280
     0
102
RTVSPost2010PropOp36
 70
     0
102
RTVSPost2010Prop37
 90
       50
102
RTVSPost2010PropOp37
 70
     0
102
RTVSPost2010Prop38
140
0.0
102
RTVSPost2010PropOp38
 70
     0
102
RTVSPost2010Prop39
140
1.0
102
RTVSPost2010PropOp39
 70
     0
102
RTVSPost2010Prop40
 90
        0
102
RTVSPost2010PropOp40
 70
     0
102
RTVSPost2010Prop41ColorIndex
 90
       18
102
RTVSPost2010Prop41ColorRGB
 90
        0
102
RTVSPost2010PropOp41
 70
     0
102
RTVSPost2010Prop42
 90
       50
102
RTVSPost2010PropOp42
 70
     0
102
RTVSPost2010Prop43
 90
        3
102
RTVSPost2010PropOp43
 70
     0
102
RTVSPost2010Prop44ColorIndex
 90
        5
102
RTVSPost2010Prop44ColorRGB
 90
      255
102
RTVSPost2010PropOp44
 70
     0
102
RTVSPost2010Prop45
280
     0
102
RTVSPost2010PropOp45
 70
     0
102
RTVSPost2010Prop46
 90
       50
102
RTVSPost2010PropOp46
 70
     0
102
RTVSPost2010Prop47
 90
       50
102
RTVSPost2010PropOp47
 70
     0
102
RTVSPost2010Prop48
 90
       50
102
RTVSPost2010PropOp48
 70
     0
102
RTVSPost2010Prop49
280
     0
102
RTVSPost2010PropOp49
 70
     0
102
RTVSPost2010Prop50
 90
       50
102
RTVSPost2010PropOp50
 70
     0
102
RTVSPost2010Prop51ColorIndex
 90
      256
102
RTVSPost2010Prop51ColorRGB
 90
-16777216
102
RTVSPost2010PropOp51
 70
     0
102
RTVSPost2010Prop52
140
1.0
102
RTVSPost2010PropOp52
 70
     0
102
RTVSPost2010Prop53
 90
        2
102
RTVSPost2010PropOp53
 70
     0
102
RTVSPost2010Prop54
  1
strokes_ogs.tif
102
RTVSPost2010PropOp54
 70
     0
102
RTVSPost2010Prop55
280
     0
102
RTVSPost2010PropOp55
 70
     0
102
RTVSPost2010Prop56
140
1.0
102
RTVSPost2010PropOp56
 70
     0
102
RTVSPost2010Prop57
140
1.0
102
RTVSPost2010PropOp57
 70
     0
  0
XRECORD
  5
3B6
102
{ACAD_REACTORS
330
3B5
102
}
330
3B5
100
AcDbXrecord
280
     1
102
RTVSPropertyOp0
 70
     1
102
RTVSPropertyOp1
 70
     1
102
RTVSPropertyOp2
 70
     1
102
RTVSPropertyOp3
 70
     1
102
RTVSPropertyOp4
 70
     1
102
RTVSPropertyOp5
 70
     1
102
RTVSPropertyOp6
 70
     1
102
RTVSPropertyOp7
 70
     1
102
RTVSPropertyOp8
 70
     1
102
RTVSPropertyOp9
 70
     1
102
RTVSPropertyOp10
 70
     1
102
RTVSPropertyOp11
 70
     1
102
RTVSPropertyOp12
 70
     1
102
RTVSPropertyOp13
 70
     1
102
RTVSPropertyOp14
 70
     1
102
RTVSPropertyOp15
 70
     1
102
RTVSPropertyOp16
 70
     1
102
RTVSPropertyOp17
 70
     1
102
RTVSPropertyOp18
 70
     1
102
RTVSPropertyOp19
 70
     1
102
RTVSPropertyOp20
 70
     1
102
RTVSPropertyOp21
 70
     1
102
RTVSPropertyOp22
 70
     1
102
RTVSPropertyOp23
 70
     1
102
RTVSPropertyOp24
 70
     1
102
RTVSPropertyOp25
 70
     1
102
RTVSPropertyOp26
 70
     1
102
RTVSPropertyOp27
 70
     1
102
RTVSPropertyOp28
 70
     1
102
RTVSPropertyOp29
 70
     1
102
RTVSPropertyOp30
 70
     1
102
RTVSPropertyOp31
 70
     1
102
RTVSPropertyOp32
 70
     1
102
RTVSPropertyOp33
 70
     1
102
RTVSPropertyOp34
 70
     1
102
RTVSPropertyOp35
 70
     1
102
RTVSPropertyOp36
 70
     1
102
RTVSPropertyOp37
 70
     1
102
RTVSPropertyOp38
 70
     1
102
RTVSPropertyOp39
 70
     1
102
RTVSPropertyOp40
 70
     1
102
RTVSPropertyOp41
 70
     1
102
RTVSPropertyOp42
 70
     1
102
RTVSPropertyOp43
 70
     1
102
RTVSPropertyOp44
 70
     1
102
RTVSPropertyOp45
 70
     1
102
RTVSPropertyOp46
 70
     1
102
RTVSPropertyOp47
 70
     1
102
RTVSPropertyOp48
 70
     1
102
RTVSPropertyOp49
 70
     1
102
RTVSPropertyOp50
 70
     1
102
RTVSPropertyOp51
 70
     0
102
RTVSPropertyOp52
 70
     0
102
RTVSPropertyOp53
 70
     1
102
RTVSPropertyOp54
 70
     1
102
RTVSPropertyOp55
 70
     1
102
RTVSPropertyOp56
 70
     1
102
RTVSPropertyOp57
 70
     1
102
RTVSPost2010Prop28
280
     0
102
RTVSPost2010PropOp28
 70
     1
102
RTVSPost2010Prop29
280
     1
102
RTVSPost2010PropOp29
 70
     1
102
RTVSPost2010Prop30
280
     1
102
RTVSPost2010PropOp30
 70
     1
102
RTVSPost2010Prop31
280
     0
102
RTVSPost2010PropOp31
 70
     1
102
RTVSPost2010Prop32
280
     0
102
RTVSPost2010PropOp32
 70
     1
102
RTVSPost2010Prop33
280
     0
102
RTVSPost2010PropOp33
 70
     1
102
RTVSPost2010Prop34
280
     0
102
RTVSPost2010PropOp34
 70
     1
102
RTVSPost2010Prop35
280
     0
102
RTVSPost2010PropOp35
 70
     1
102
RTVSPost2010Prop36
280
     0
102
RTVSPost2010PropOp36
 70
     1
102
RTVSPost2010Prop37
 90
       50
102
RTVSPost2010PropOp37
 70
     1
102
RTVSPost2010Prop38
140
0.0
102
RTVSPost2010PropOp38
 70
     1
102
RTVSPost2010Prop39
140
1.0
102
RTVSPost2010PropOp39
 70
     1
102
RTVSPost2010Prop40
 90
        0
102
RTVSPost2010PropOp40
 70
     1
102
RTVSPost2010Prop41ColorIndex
 90
       18
102
RTVSPost2010Prop41ColorRGB
 90
        0
102
RTVSPost2010PropOp41
 70
     1
102
RTVSPost2010Prop42
 90
       50
102
RTVSPost2010PropOp42
 70
     1
102
RTVSPost2010Prop43
 90
        3
102
RTVSPost2010PropOp43
 70
     1
102
RTVSPost2010Prop44ColorIndex
 90
        5
102
RTVSPost2010Prop44ColorRGB
 90
      255
102
RTVSPost2010PropOp44
 70
     1
102
RTVSPost2010Prop45
280
     0
102
RTVSPost2010PropOp45
 70
     1
102
RTVSPost2010Prop46
 90
       50
102
RTVSPost2010PropOp46
 70
     1
102
RTVSPost2010Prop47
 90
       50
102
RTVSPost2010PropOp47
 70
     1
102
RTVSPost2010Prop48
 90
       50
102
RTVSPost2010PropOp48
 70
     1
102
RTVSPost2010Prop49
280
     0
102
RTVSPost2010PropOp49
 70
     1
102
RTVSPost2010Prop50
 90
       50
102
RTVSPost2010PropOp50
 70
     1
102
RTVSPost2010Prop51ColorIndex
 90
      256
102
RTVSPost2010Prop51ColorRGB
 90
-16777216
102
RTVSPost2010PropOp51
 70
     0
102
RTVSPost2010Prop52
140
1.0
102
RTVSPost2010PropOp52
 70
     0
102
RTVSPost2010Prop53
 90
        2
102
RTVSPost2010PropOp53
 70
     1
102
RTVSPost2010Prop54
  1
strokes_ogs.tif
102
RTVSPost2010PropOp54
 70
     1
102
RTVSPost2010Prop55
280
     0
102
RTVSPost2010PropOp55
 70
     1
102
RTVSPost2010Prop56
140
1.0
102
RTVSPost2010PropOp56
 70
     1
102
RTVSPost2010Prop57
140
1.0
102
RTVSPost2010PropOp57
 70
     1
  0
XRECORD
  5
3BE
102
{ACAD_REACTORS
330
3BD
102
}
330
3BD
100
AcDbXrecord
280
     1
102
RTVSPropertyOp0
 70
     0
102
RTVSPropertyOp1
 70
     0
102
RTVSPropertyOp2
 70
     0
102
RTVSPropertyOp3
 70
     0
102
RTVSPropertyOp4
 70
     0
102
RTVSPropertyOp5
 70
     0
102
RTVSPropertyOp6
 70
     0
102
RTVSPropertyOp7
 70
     0
102
RTVSPropertyOp8
 70
     0
102
RTVSPropertyOp9
 70
     0
102
RTVSPropertyOp10
 70
     0
102
RTVSPropertyOp11
 70
     0
102
RTVSPropertyOp12
 70
     0
102
RTVSPropertyOp13
 70
     0
102
RTVSPropertyOp14
 70
     2
102
RTVSPropertyOp15
 70
     0
102
RTVSPropertyOp16
 70
     0
102
RTVSPropertyOp17
 70
     0
102
RTVSPropertyOp18
 70
     0
102
RTVSPropertyOp19
 70
     0
102
RTVSPropertyOp20
 70
     0
102
RTVSPropertyOp21
 70
     0
102
RTVSPropertyOp22
 70
     0
102
RTVSPropertyOp23
 70
     0
102
RTVSPropertyOp24
 70
     0
102
RTVSPropertyOp25
 70
     0
102
RTVSPropertyOp26
 70
     0
102
RTVSPropertyOp27
 70
     0
102
RTVSPropertyOp28
 70
     0
102
RTVSPropertyOp29
 70
     0
102
RTVSPropertyOp30
 70
     0
102
RTVSPropertyOp31
 70
     0
102
RTVSPropertyOp32
 70
     0
102
RTVSPropertyOp33
 70
     0
102
RTVSPropertyOp34
 70
     0
102
RTVSPropertyOp35
 70
     0
102
RTVSPropertyOp36
 70
     0
102
RTVSPropertyOp37
 70
     0
102
RTVSPropertyOp38
 70
     0
102
RTVSPropertyOp39
 70
     0
102
RTVSPropertyOp40
 70
     0
102
RTVSPropertyOp41
 70
     0
102
RTVSPropertyOp42
 70
     0
102
RTVSPropertyOp43
 70
     0
102
RTVSPropertyOp44
 70
     0
102
RTVSPropertyOp45
 70
     0
102
RTVSPropertyOp46
 70
     0
102
RTVSPropertyOp47
 70
     0
102
RTVSPropertyOp48
 70
     0
102
RTVSPropertyOp49
 70
     0
102
RTVSPropertyOp50
 70
     0
102
RTVSPropertyOp51
 70
     0
102
RTVSPropertyOp52
 70
     0
102
RTVSPropertyOp53
 70
     0
102
RTVSPropertyOp54
 70
     0
102
RTVSPropertyOp55
 70
     0
102
RTVSPropertyOp56
 70
     0
102
RTVSPropertyOp57
 70
     0
102
RTVSPost2010Prop28
280
     0
102
RTVSPost2010PropOp28
 70
     0
102
RTVSPost2010Prop29
280
     1
102
RTVSPost2010PropOp29
 70
     0
102
RTVSPost2010Prop30
280
     1
102
RTVSPost2010PropOp30
 70
     0
102
RTVSPost2010Prop31
280
     0
102
RTVSPost2010PropOp31
 70
     0
102
RTVSPost2010Prop32
280
     0
102
RTVSPost2010PropOp32
 70
     0
102
RTVSPost2010Prop33
280
     0
102
RTVSPost2010PropOp33
 70
     0
102
RTVSPost2010Prop34
280
     0
102
RTVSPost2010PropOp34
 70
     0
102
RTVSPost2010Prop35
280
     0
102
RTVSPost2010PropOp35
 70
     0
102
RTVSPost2010Prop36
280
     0
102
RTVSPost2010PropOp36
 70
     0
102
RTVSPost2010Prop37
 90
       50
102
RTVSPost2010PropOp37
 70
     0
102
RTVSPost2010Prop38
140
0.0
102
RTVSPost2010PropOp38
 70
     0
102
RTVSPost2010Prop39
140
1.0
102
RTVSPost2010PropOp39
 70
     0
102
RTVSPost2010Prop40
 90
        0
102
RTVSPost2010PropOp40
 70
     0
102
RTVSPost2010Prop41ColorIndex
 90
       18
102
RTVSPost2010Prop41ColorRGB
 90
        0
102
RTVSPost2010PropOp41
 70
     0
102
RTVSPost2010Prop42
 90
       50
102
RTVSPost2010PropOp42
 70
     0
102
RTVSPost2010Prop43
 90
        3
102
RTVSPost2010PropOp43
 70
     0
102
RTVSPost2010Prop44ColorIndex
 90
        5
102
RTVSPost2010Prop44ColorRGB
 90
      255
102
RTVSPost2010PropOp44
 70
     0
102
RTVSPost2010Prop45
280
     0
102
RTVSPost2010PropOp45
 70
     0
102
RTVSPost2010Prop46
 90
       50
102
RTVSPost2010PropOp46
 70
     0
102
RTVSPost2010Prop47
 90
       50
102
RTVSPost2010PropOp47
 70
     0
102
RTVSPost2010Prop48
 90
       50
102
RTVSPost2010PropOp48
 70
     0
102
RTVSPost2010Prop49
280
     0
102
RTVSPost2010PropOp49
 70
     0
102
RTVSPost2010Prop50
 90
       50
102
RTVSPost2010PropOp50
 70
     0
102
RTVSPost2010Prop51ColorIndex
 90
      256
102
RTVSPost2010Prop51ColorRGB
 90
-16777216
102
RTVSPost2010PropOp51
 70
     0
102
RTVSPost2010Prop52
140
1.0
102
RTVSPost2010PropOp52
 70
     0
102
RTVSPost2010Prop53
 90
        2
102
RTVSPost2010PropOp53
 70
     0
102
RTVSPost2010Prop54
  1
strokes_ogs.tif
102
RTVSPost2010PropOp54
 70
     0
102
RTVSPost2010Prop55
280
     0
102
RTVSPost2010PropOp55
 70
     0
102
RTVSPost2010Prop56
140
1.0
102
RTVSPost2010PropOp56
 70
     0
102
RTVSPost2010Prop57
140
1.0
102
RTVSPost2010PropOp57
 70
     0
  0
XRECORD
  5
3AC
102
{ACAD_REACTORS
330
3AB
102
}
330
3AB
100
AcDbXrecord
280
     1
102
RTVSPropertyOp0
 70
     1
102
RTVSPropertyOp1
 70
     1
102
RTVSPropertyOp2
 70
     1
102
RTVSPropertyOp3
 70
     1
102
RTVSPropertyOp4
 70
     1
102
RTVSPropertyOp5
 70
     1
102
RTVSPropertyOp6
 70
     1
102
RTVSPropertyOp7
 70
     1
102
RTVSPropertyOp8
 70
     1
102
RTVSPropertyOp9
 70
     1
102
RTVSPropertyOp10
 70
     1
102
RTVSPropertyOp11
 70
     1
102
RTVSPropertyOp12
 70
     1
102
RTVSPropertyOp13
 70
     1
102
RTVSPropertyOp14
 70
     1
102
RTVSPropertyOp15
 70
     1
102
RTVSPropertyOp16
 70
     1
102
RTVSPropertyOp17
 70
     1
102
RTVSPropertyOp18
 70
     1
102
RTVSPropertyOp19
 70
     1
102
RTVSPropertyOp20
 70
     1
102
RTVSPropertyOp21
 70
     1
102
RTVSPropertyOp22
 70
     1
102
RTVSPropertyOp23
 70
     1
102
RTVSPropertyOp24
 70
     1
102
RTVSPropertyOp25
 70
     1
102
RTVSPropertyOp26
 70
     1
102
RTVSPropertyOp27
 70
     1
102
RTVSPropertyOp28
 70
     1
102
RTVSPropertyOp29
 70
     1
102
RTVSPropertyOp30
 70
     1
102
RTVSPropertyOp31
 70
     1
102
RTVSPropertyOp32
 70
     1
102
RTVSPropertyOp33
 70
     1
102
RTVSPropertyOp34
 70
     1
102
RTVSPropertyOp35
 70
     1
102
RTVSPropertyOp36
 70
     1
102
RTVSPropertyOp37
 70
     1
102
RTVSPropertyOp38
 70
     1
102
RTVSPropertyOp39
 70
     1
102
RTVSPropertyOp40
 70
     1
102
RTVSPropertyOp41
 70
     1
102
RTVSPropertyOp42
 70
     1
102
RTVSPropertyOp43
 70
     1
102
RTVSPropertyOp44
 70
     1
102
RTVSPropertyOp45
 70
     1
102
RTVSPropertyOp46
 70
     1
102
RTVSPropertyOp47
 70
     1
102
RTVSPropertyOp48
 70
     1
102
RTVSPropertyOp49
 70
     1
102
RTVSPropertyOp50
 70
     1
102
RTVSPropertyOp51
 70
     0
102
RTVSPropertyOp52
 70
     0
102
RTVSPropertyOp53
 70
     1
102
RTVSPropertyOp54
 70
     1
102
RTVSPropertyOp55
 70
     1
102
RTVSPropertyOp56
 70
     1
102
RTVSPropertyOp57
 70
     1
102
RTVSPost2010Prop28
280
     0
102
RTVSPost2010PropOp28
 70
     1
102
RTVSPost2010Prop29
280
     1
102
RTVSPost2010PropOp29
 70
     1
102
RTVSPost2010Prop30
280
     1
102
RTVSPost2010PropOp30
 70
     1
102
RTVSPost2010Prop31
280
     0
102
RTVSPost2010PropOp31
 70
     1
102
RTVSPost2010Prop32
280
     0
102
RTVSPost2010PropOp32
 70
     1
102
RTVSPost2010Prop33
280
     0
102
RTVSPost2010PropOp33
 70
     1
102
RTVSPost2010Prop34
280
     0
102
RTVSPost2010PropOp34
 70
     1
102
RTVSPost2010Prop35
280
     0
102
RTVSPost2010PropOp35
 70
     1
102
RTVSPost2010Prop36
280
     0
102
RTVSPost2010PropOp36
 70
     1
102
RTVSPost2010Prop37
 90
       50
102
RTVSPost2010PropOp37
 70
     1
102
RTVSPost2010Prop38
140
0.0
102
RTVSPost2010PropOp38
 70
     1
102
RTVSPost2010Prop39
140
1.0
102
RTVSPost2010PropOp39
 70
     1
102
RTVSPost2010Prop40
 90
        0
102
RTVSPost2010PropOp40
 70
     1
102
RTVSPost2010Prop41ColorIndex
 90
       18
102
RTVSPost2010Prop41ColorRGB
 90
        0
102
RTVSPost2010PropOp41
 70
     1
102
RTVSPost2010Prop42
 90
       50
102
RTVSPost2010PropOp42
 70
     1
102
RTVSPost2010Prop43
 90
        3
102
RTVSPost2010PropOp43
 70
     1
102
RTVSPost2010Prop44ColorIndex
 90
        5
102
RTVSPost2010Prop44ColorRGB
 90
      255
102
RTVSPost2010PropOp44
 70
     1
102
RTVSPost2010Prop45
280
     0
102
RTVSPost2010PropOp45
 70
     1
102
RTVSPost2010Prop46
 90
       50
102
RTVSPost2010PropOp46
 70
     1
102
RTVSPost2010Prop47
 90
       50
102
RTVSPost2010PropOp47
 70
     1
102
RTVSPost2010Prop48
 90
       50
102
RTVSPost2010PropOp48
 70
     1
102
RTVSPost2010Prop49
280
     0
102
RTVSPost2010PropOp49
 70
     1
102
RTVSPost2010Prop50
 90
       50
102
RTVSPost2010PropOp50
 70
     1
102
RTVSPost2010Prop51ColorIndex
 90
      256
102
RTVSPost2010Prop51ColorRGB
 90
-16777216
102
RTVSPost2010PropOp51
 70
     0
102
RTVSPost2010Prop52
140
1.0
102
RTVSPost2010PropOp52
 70
     0
102
RTVSPost2010Prop53
 90
        2
102
RTVSPost2010PropOp53
 70
     1
102
RTVSPost2010Prop54
  1
strokes_ogs.tif
102
RTVSPost2010PropOp54
 70
     1
102
RTVSPost2010Prop55
280
     0
102
RTVSPost2010PropOp55
 70
     1
102
RTVSPost2010Prop56
140
1.0
102
RTVSPost2010PropOp56
 70
     1
102
RTVSPost2010Prop57
140
1.0
102
RTVSPost2010PropOp57
 70
     1
  0
XRECORD
  5
3CA
102
{ACAD_REACTORS
330
3C9
102
}
330
3C9
100
AcDbXrecord
280
     1
102
RTVSPropertyOp0
 70
     1
102
RTVSPropertyOp1
 70
     1
102
RTVSPropertyOp2
 70
     1
102
RTVSPropertyOp3
 70
     1
102
RTVSPropertyOp4
 70
     1
102
RTVSPropertyOp5
 70
     1
102
RTVSPropertyOp6
 70
     1
102
RTVSPropertyOp7
 70
     1
102
RTVSPropertyOp8
 70
     1
102
RTVSPropertyOp9
 70
     1
102
RTVSPropertyOp10
 70
     1
102
RTVSPropertyOp11
 70
     1
102
RTVSPropertyOp12
 70
     1
102
RTVSPropertyOp13
 70
     1
102
RTVSPropertyOp14
 70
     1
102
RTVSPropertyOp15
 70
     1
102
RTVSPropertyOp16
 70
     1
102
RTVSPropertyOp17
 70
     1
102
RTVSPropertyOp18
 70
     1
102
RTVSPropertyOp19
 70
     1
102
RTVSPropertyOp20
 70
     1
102
RTVSPropertyOp21
 70
     1
102
RTVSPropertyOp22
 70
     1
102
RTVSPropertyOp23
 70
     1
102
RTVSPropertyOp24
 70
     1
102
RTVSPropertyOp25
 70
     1
102
RTVSPropertyOp26
 70
     1
102
RTVSPropertyOp27
 70
     1
102
RTVSPropertyOp28
 70
     1
102
RTVSPropertyOp29
 70
     1
102
RTVSPropertyOp30
 70
     1
102
RTVSPropertyOp31
 70
     1
102
RTVSPropertyOp32
 70
     1
102
RTVSPropertyOp33
 70
     1
102
RTVSPropertyOp34
 70
     1
102
RTVSPropertyOp35
 70
     1
102
RTVSPropertyOp36
 70
     1
102
RTVSPropertyOp37
 70
     1
102
RTVSPropertyOp38
 70
     1
102
RTVSPropertyOp39
 70
     1
102
RTVSPropertyOp40
 70
     1
102
RTVSPropertyOp41
 70
     1
102
RTVSPropertyOp42
 70
     1
102
RTVSPropertyOp43
 70
     1
102
RTVSPropertyOp44
 70
     1
102
RTVSPropertyOp45
 70
     1
102
RTVSPropertyOp46
 70
     1
102
RTVSPropertyOp47
 70
     1
102
RTVSPropertyOp48
 70
     1
102
RTVSPropertyOp49
 70
     1
102
RTVSPropertyOp50
 70
     1
102
RTVSPropertyOp51
 70
     0
102
RTVSPropertyOp52
 70
     0
102
RTVSPropertyOp53
 70
     1
102
RTVSPropertyOp54
 70
     1
102
RTVSPropertyOp55
 70
     1
102
RTVSPropertyOp56
 70
     1
102
RTVSPropertyOp57
 70
     1
102
RTVSPost2010Prop28
280
     0
102
RTVSPost2010PropOp28
 70
     1
102
RTVSPost2010Prop29
280
     1
102
RTVSPost2010PropOp29
 70
     1
102
RTVSPost2010Prop30
280
     1
102
RTVSPost2010PropOp30
 70
     1
102
RTVSPost2010Prop31
280
     0
102
RTVSPost2010PropOp31
 70
     1
102
RTVSPost2010Prop32
280
     0
102
RTVSPost2010PropOp32
 70
     1
102
RTVSPost2010Prop33
280
     0
102
RTVSPost2010PropOp33
 70
     1
102
RTVSPost2010Prop34
280
     0
102
RTVSPost2010PropOp34
 70
     1
102
RTVSPost2010Prop35
280
     0
102
RTVSPost2010PropOp35
 70
     1
102
RTVSPost2010Prop36
280
     0
102
RTVSPost2010PropOp36
 70
     1
102
RTVSPost2010Prop37
 90
       50
102
RTVSPost2010PropOp37
 70
     1
102
RTVSPost2010Prop38
140
0.0
102
RTVSPost2010PropOp38
 70
     1
102
RTVSPost2010Prop39
140
1.0
102
RTVSPost2010PropOp39
 70
     1
102
RTVSPost2010Prop40
 90
        0
102
RTVSPost2010PropOp40
 70
     1
102
RTVSPost2010Prop41ColorIndex
 90
       18
102
RTVSPost2010Prop41ColorRGB
 90
        0
102
RTVSPost2010PropOp41
 70
     1
102
RTVSPost2010Prop42
 90
       50
102
RTVSPost2010PropOp42
 70
     1
102
RTVSPost2010Prop43
 90
        3
102
RTVSPost2010PropOp43
 70
     1
102
RTVSPost2010Prop44ColorIndex
 90
        5
102
RTVSPost2010Prop44ColorRGB
 90
      255
102
RTVSPost2010PropOp44
 70
     1
102
RTVSPost2010Prop45
280
     0
102
RTVSPost2010PropOp45
 70
     1
102
RTVSPost2010Prop46
 90
       50
102
RTVSPost2010PropOp46
 70
     1
102
RTVSPost2010Prop47
 90
       50
102
RTVSPost2010PropOp47
 70
     1
102
RTVSPost2010Prop48
 90
       50
102
RTVSPost2010PropOp48
 70
     1
102
RTVSPost2010Prop49
280
     0
102
RTVSPost2010PropOp49
 70
     1
102
RTVSPost2010Prop50
 90
       50
102
RTVSPost2010PropOp50
 70
     1
102
RTVSPost2010Prop51ColorIndex
 90
      256
102
RTVSPost2010Prop51ColorRGB
 90
-16777216
102
RTVSPost2010PropOp51
 70
     0
102
RTVSPost2010Prop52
140
1.0
102
RTVSPost2010PropOp52
 70
     0
102
RTVSPost2010Prop53
 90
        2
102
RTVSPost2010PropOp53
 70
     1
102
RTVSPost2010Prop54
  1
strokes_ogs.tif
102
RTVSPost2010PropOp54
 70
     1
102
RTVSPost2010Prop55
280
     0
102
RTVSPost2010PropOp55
 70
     1
102
RTVSPost2010Prop56
140
1.0
102
RTVSPost2010PropOp56
 70
     1
102
RTVSPost2010Prop57
140
1.0
102
RTVSPost2010PropOp57
 70
     1
  0
XRECORD
  5
3C8
102
{ACAD_REACTORS
330
3C7
102
}
330
3C7
100
AcDbXrecord
280
     1
102
RTVSPropertyOp0
 70
     1
102
RTVSPropertyOp1
 70
     1
102
RTVSPropertyOp2
 70
     1
102
RTVSPropertyOp3
 70
     1
102
RTVSPropertyOp4
 70
     1
102
RTVSPropertyOp5
 70
     1
102
RTVSPropertyOp6
 70
     1
102
RTVSPropertyOp7
 70
     1
102
RTVSPropertyOp8
 70
     1
102
RTVSPropertyOp9
 70
     1
102
RTVSPropertyOp10
 70
     1
102
RTVSPropertyOp11
 70
     1
102
RTVSPropertyOp12
 70
     1
102
RTVSPropertyOp13
 70
     1
102
RTVSPropertyOp14
 70
     1
102
RTVSPropertyOp15
 70
     1
102
RTVSPropertyOp16
 70
     1
102
RTVSPropertyOp17
 70
     1
102
RTVSPropertyOp18
 70
     1
102
RTVSPropertyOp19
 70
     1
102
RTVSPropertyOp20
 70
     1
102
RTVSPropertyOp21
 70
     1
102
RTVSPropertyOp22
 70
     1
102
RTVSPropertyOp23
 70
     1
102
RTVSPropertyOp24
 70
     1
102
RTVSPropertyOp25
 70
     1
102
RTVSPropertyOp26
 70
     1
102
RTVSPropertyOp27
 70
     1
102
RTVSPropertyOp28
 70
     1
102
RTVSPropertyOp29
 70
     1
102
RTVSPropertyOp30
 70
     1
102
RTVSPropertyOp31
 70
     1
102
RTVSPropertyOp32
 70
     1
102
RTVSPropertyOp33
 70
     1
102
RTVSPropertyOp34
 70
     1
102
RTVSPropertyOp35
 70
     1
102
RTVSPropertyOp36
 70
     1
102
RTVSPropertyOp37
 70
     1
102
RTVSPropertyOp38
 70
     1
102
RTVSPropertyOp39
 70
     1
102
RTVSPropertyOp40
 70
     1
102
RTVSPropertyOp41
 70
     1
102
RTVSPropertyOp42
 70
     1
102
RTVSPropertyOp43
 70
     1
102
RTVSPropertyOp44
 70
     1
102
RTVSPropertyOp45
 70
     1
102
RTVSPropertyOp46
 70
     1
102
RTVSPropertyOp47
 70
     1
102
RTVSPropertyOp48
 70
     1
102
RTVSPropertyOp49
 70
     1
102
RTVSPropertyOp50
 70
     1
102
RTVSPropertyOp51
 70
     0
102
RTVSPropertyOp52
 70
     0
102
RTVSPropertyOp53
 70
     1
102
RTVSPropertyOp54
 70
     1
102
RTVSPropertyOp55
 70
     1
102
RTVSPropertyOp56
 70
     1
102
RTVSPropertyOp57
 70
     1
102
RTVSPost2010Prop28
280
     0
102
RTVSPost2010PropOp28
 70
     1
102
RTVSPost2010Prop29
280
     1
102
RTVSPost2010PropOp29
 70
     1
102
RTVSPost2010Prop30
280
     1
102
RTVSPost2010PropOp30
 70
     1
102
RTVSPost2010Prop31
280
     0
102
RTVSPost2010PropOp31
 70
     1
102
RTVSPost2010Prop32
280
     0
102
RTVSPost2010PropOp32
 70
     1
102
RTVSPost2010Prop33
280
     0
102
RTVSPost2010PropOp33
 70
     1
102
RTVSPost2010Prop34
280
     0
102
RTVSPost2010PropOp34
 70
     1
102
RTVSPost2010Prop35
280
     0
102
RTVSPost2010PropOp35
 70
     1
102
RTVSPost2010Prop36
280
     0
102
RTVSPost2010PropOp36
 70
     1
102
RTVSPost2010Prop37
 90
       50
102
RTVSPost2010PropOp37
 70
     1
102
RTVSPost2010Prop38
140
0.0
102
RTVSPost2010PropOp38
 70
     1
102
RTVSPost2010Prop39
140
1.0
102
RTVSPost2010PropOp39
 70
     1
102
RTVSPost2010Prop40
 90
        0
102
RTVSPost2010PropOp40
 70
     1
102
RTVSPost2010Prop41ColorIndex
 90
       18
102
RTVSPost2010Prop41ColorRGB
 90
        0
102
RTVSPost2010PropOp41
 70
     1
102
RTVSPost2010Prop42
 90
       50
102
RTVSPost2010PropOp42
 70
     1
102
RTVSPost2010Prop43
 90
        3
102
RTVSPost2010PropOp43
 70
     1
102
RTVSPost2010Prop44ColorIndex
 90
        5
102
RTVSPost2010Prop44ColorRGB
 90
      255
102
RTVSPost2010PropOp44
 70
     1
102
RTVSPost2010Prop45
280
     0
102
RTVSPost2010PropOp45
 70
     1
102
RTVSPost2010Prop46
 90
       50
102
RTVSPost2010PropOp46
 70
     1
102
RTVSPost2010Prop47
 90
       50
102
RTVSPost2010PropOp47
 70
     1
102
RTVSPost2010Prop48
 90
       50
102
RTVSPost2010PropOp48
 70
     1
102
RTVSPost2010Prop49
280
     0
102
RTVSPost2010PropOp49
 70
     1
102
RTVSPost2010Prop50
 90
       50
102
RTVSPost2010PropOp50
 70
     1
102
RTVSPost2010Prop51ColorIndex
 90
      256
102
RTVSPost2010Prop51ColorRGB
 90
-16777216
102
RTVSPost2010PropOp51
 70
     0
102
RTVSPost2010Prop52
140
1.0
102
RTVSPost2010PropOp52
 70
     0
102
RTVSPost2010Prop53
 90
        2
102
RTVSPost2010PropOp53
 70
     1
102
RTVSPost2010Prop54
  1
strokes_ogs.tif
102
RTVSPost2010PropOp54
 70
     1
102
RTVSPost2010Prop55
280
     0
102
RTVSPost2010PropOp55
 70
     1
102
RTVSPost2010Prop56
140
1.0
102
RTVSPost2010PropOp56
 70
     1
102
RTVSPost2010Prop57
140
1.0
102
RTVSPost2010PropOp57
 70
     1
  0
XRECORD
  5
3C2
102
{ACAD_REACTORS
330
3C1
102
}
330
3C1
100
AcDbXrecord
280
     1
102
RTVSPropertyOp0
 70
     1
102
RTVSPropertyOp1
 70
     1
102
RTVSPropertyOp2
 70
     1
102
RTVSPropertyOp3
 70
     1
102
RTVSPropertyOp4
 70
     1
102
RTVSPropertyOp5
 70
     1
102
RTVSPropertyOp6
 70
     1
102
RTVSPropertyOp7
 70
     1
102
RTVSPropertyOp8
 70
     1
102
RTVSPropertyOp9
 70
     1
102
RTVSPropertyOp10
 70
     1
102
RTVSPropertyOp11
 70
     1
102
RTVSPropertyOp12
 70
     1
102
RTVSPropertyOp13
 70
     1
102
RTVSPropertyOp14
 70
     1
102
RTVSPropertyOp15
 70
     1
102
RTVSPropertyOp16
 70
     1
102
RTVSPropertyOp17
 70
     1
102
RTVSPropertyOp18
 70
     1
102
RTVSPropertyOp19
 70
     1
102
RTVSPropertyOp20
 70
     1
102
RTVSPropertyOp21
 70
     1
102
RTVSPropertyOp22
 70
     1
102
RTVSPropertyOp23
 70
     1
102
RTVSPropertyOp24
 70
     1
102
RTVSPropertyOp25
 70
     1
102
RTVSPropertyOp26
 70
     1
102
RTVSPropertyOp27
 70
     1
102
RTVSPropertyOp28
 70
     1
102
RTVSPropertyOp29
 70
     1
102
RTVSPropertyOp30
 70
     1
102
RTVSPropertyOp31
 70
     1
102
RTVSPropertyOp32
 70
     1
102
RTVSPropertyOp33
 70
     1
102
RTVSPropertyOp34
 70
     1
102
RTVSPropertyOp35
 70
     1
102
RTVSPropertyOp36
 70
     1
102
RTVSPropertyOp37
 70
     1
102
RTVSPropertyOp38
 70
     1
102
RTVSPropertyOp39
 70
     1
102
RTVSPropertyOp40
 70
     1
102
RTVSPropertyOp41
 70
     1
102
RTVSPropertyOp42
 70
     1
102
RTVSPropertyOp43
 70
     1
102
RTVSPropertyOp44
 70
     1
102
RTVSPropertyOp45
 70
     1
102
RTVSPropertyOp46
 70
     1
102
RTVSPropertyOp47
 70
     1
102
RTVSPropertyOp48
 70
     1
102
RTVSPropertyOp49
 70
     1
102
RTVSPropertyOp50
 70
     1
102
RTVSPropertyOp51
 70
     0
102
RTVSPropertyOp52
 70
     0
102
RTVSPropertyOp53
 70
     1
102
RTVSPropertyOp54
 70
     1
102
RTVSPropertyOp55
 70
     1
102
RTVSPropertyOp56
 70
     1
102
RTVSPropertyOp57
 70
     1
102
RTVSPost2010Prop28
280
     0
102
RTVSPost2010PropOp28
 70
     1
102
RTVSPost2010Prop29
280
     1
102
RTVSPost2010PropOp29
 70
     1
102
RTVSPost2010Prop30
280
     1
102
RTVSPost2010PropOp30
 70
     1
102
RTVSPost2010Prop31
280
     0
102
RTVSPost2010PropOp31
 70
     1
102
RTVSPost2010Prop32
280
     0
102
RTVSPost2010PropOp32
 70
     1
102
RTVSPost2010Prop33
280
     0
102
RTVSPost2010PropOp33
 70
     1
102
RTVSPost2010Prop34
280
     0
102
RTVSPost2010PropOp34
 70
     1
102
RTVSPost2010Prop35
280
     0
102
RTVSPost2010PropOp35
 70
     1
102
RTVSPost2010Prop36
280
     0
102
RTVSPost2010PropOp36
 70
     1
102
RTVSPost2010Prop37
 90
       50
102
RTVSPost2010PropOp37
 70
     1
102
RTVSPost2010Prop38
140
0.0
102
RTVSPost2010PropOp38
 70
     1
102
RTVSPost2010Prop39
140
1.0
102
RTVSPost2010PropOp39
 70
     1
102
RTVSPost2010Prop40
 90
        0
102
RTVSPost2010PropOp40
 70
     1
102
RTVSPost2010Prop41ColorIndex
 90
       18
102
RTVSPost2010Prop41ColorRGB
 90
        0
102
RTVSPost2010PropOp41
 70
     1
102
RTVSPost2010Prop42
 90
       50
102
RTVSPost2010PropOp42
 70
     1
102
RTVSPost2010Prop43
 90
        3
102
RTVSPost2010PropOp43
 70
     1
102
RTVSPost2010Prop44ColorIndex
 90
        5
102
RTVSPost2010Prop44ColorRGB
 90
      255
102
RTVSPost2010PropOp44
 70
     1
102
RTVSPost2010Prop45
280
     0
102
RTVSPost2010PropOp45
 70
     1
102
RTVSPost2010Prop46
 90
       50
102
RTVSPost2010PropOp46
 70
     1
102
RTVSPost2010Prop47
 90
       50
102
RTVSPost2010PropOp47
 70
     1
102
RTVSPost2010Prop48
 90
       50
102
RTVSPost2010PropOp48
 70
     1
102
RTVSPost2010Prop49
280
     0
102
RTVSPost2010PropOp49
 70
     1
102
RTVSPost2010Prop50
 90
       50
102
RTVSPost2010PropOp50
 70
     1
102
RTVSPost2010Prop51ColorIndex
 90
      256
102
RTVSPost2010Prop51ColorRGB
 90
-16777216
102
RTVSPost2010PropOp51
 70
     0
102
RTVSPost2010Prop52
140
1.0
102
RTVSPost2010PropOp52
 70
     0
102
RTVSPost2010Prop53
 90
        2
102
RTVSPost2010PropOp53
 70
     1
102
RTVSPost2010Prop54
  1
strokes_ogs.tif
102
RTVSPost2010PropOp54
 70
     1
102
RTVSPost2010Prop55
280
     0
102
RTVSPost2010PropOp55
 70
     1
102
RTVSPost2010Prop56
140
1.0
102
RTVSPost2010PropOp56
 70
     1
102
RTVSPost2010Prop57
140
1.0
102
RTVSPost2010PropOp57
 70
     1
  0
XRECORD
  5
3C4
102
{ACAD_REACTORS
330
3C3
102
}
330
3C3
100
AcDbXrecord
280
     1
102
RTVSPropertyOp0
 70
     1
102
RTVSPropertyOp1
 70
     1
102
RTVSPropertyOp2
 70
     1
102
RTVSPropertyOp3
 70
     1
102
RTVSPropertyOp4
 70
     1
102
RTVSPropertyOp5
 70
     1
102
RTVSPropertyOp6
 70
     1
102
RTVSPropertyOp7
 70
     1
102
RTVSPropertyOp8
 70
     1
102
RTVSPropertyOp9
 70
     1
102
RTVSPropertyOp10
 70
     1
102
RTVSPropertyOp11
 70
     1
102
RTVSPropertyOp12
 70
     1
102
RTVSPropertyOp13
 70
     1
102
RTVSPropertyOp14
 70
     1
102
RTVSPropertyOp15
 70
     1
102
RTVSPropertyOp16
 70
     1
102
RTVSPropertyOp17
 70
     1
102
RTVSPropertyOp18
 70
     1
102
RTVSPropertyOp19
 70
     1
102
RTVSPropertyOp20
 70
     1
102
RTVSPropertyOp21
 70
     1
102
RTVSPropertyOp22
 70
     1
102
RTVSPropertyOp23
 70
     1
102
RTVSPropertyOp24
 70
     1
102
RTVSPropertyOp25
 70
     1
102
RTVSPropertyOp26
 70
     1
102
RTVSPropertyOp27
 70
     1
102
RTVSPropertyOp28
 70
     1
102
RTVSPropertyOp29
 70
     1
102
RTVSPropertyOp30
 70
     1
102
RTVSPropertyOp31
 70
     1
102
RTVSPropertyOp32
 70
     1
102
RTVSPropertyOp33
 70
     1
102
RTVSPropertyOp34
 70
     1
102
RTVSPropertyOp35
 70
     1
102
RTVSPropertyOp36
 70
     1
102
RTVSPropertyOp37
 70
     1
102
RTVSPropertyOp38
 70
     1
102
RTVSPropertyOp39
 70
     1
102
RTVSPropertyOp40
 70
     1
102
RTVSPropertyOp41
 70
     1
102
RTVSPropertyOp42
 70
     1
102
RTVSPropertyOp43
 70
     1
102
RTVSPropertyOp44
 70
     1
102
RTVSPropertyOp45
 70
     1
102
RTVSPropertyOp46
 70
     1
102
RTVSPropertyOp47
 70
     1
102
RTVSPropertyOp48
 70
     1
102
RTVSPropertyOp49
 70
     1
102
RTVSPropertyOp50
 70
     1
102
RTVSPropertyOp51
 70
     0
102
RTVSPropertyOp52
 70
     0
102
RTVSPropertyOp53
 70
     1
102
RTVSPropertyOp54
 70
     1
102
RTVSPropertyOp55
 70
     1
102
RTVSPropertyOp56
 70
     1
102
RTVSPropertyOp57
 70
     1
102
RTVSPost2010Prop28
280
     0
102
RTVSPost2010PropOp28
 70
     1
102
RTVSPost2010Prop29
280
     1
102
RTVSPost2010PropOp29
 70
     1
102
RTVSPost2010Prop30
280
     1
102
RTVSPost2010PropOp30
 70
     1
102
RTVSPost2010Prop31
280
     0
102
RTVSPost2010PropOp31
 70
     1
102
RTVSPost2010Prop32
280
     0
102
RTVSPost2010PropOp32
 70
     1
102
RTVSPost2010Prop33
280
     0
102
RTVSPost2010PropOp33
 70
     1
102
RTVSPost2010Prop34
280
     0
102
RTVSPost2010PropOp34
 70
     1
102
RTVSPost2010Prop35
280
     0
102
RTVSPost2010PropOp35
 70
     1
102
RTVSPost2010Prop36
280
     0
102
RTVSPost2010PropOp36
 70
     1
102
RTVSPost2010Prop37
 90
       50
102
RTVSPost2010PropOp37
 70
     1
102
RTVSPost2010Prop38
140
0.0
102
RTVSPost2010PropOp38
 70
     1
102
RTVSPost2010Prop39
140
1.0
102
RTVSPost2010PropOp39
 70
     1
102
RTVSPost2010Prop40
 90
        0
102
RTVSPost2010PropOp40
 70
     1
102
RTVSPost2010Prop41ColorIndex
 90
       18
102
RTVSPost2010Prop41ColorRGB
 90
        0
102
RTVSPost2010PropOp41
 70
     1
102
RTVSPost2010Prop42
 90
       50
102
RTVSPost2010PropOp42
 70
     1
102
RTVSPost2010Prop43
 90
        3
102
RTVSPost2010PropOp43
 70
     1
102
RTVSPost2010Prop44ColorIndex
 90
        5
102
RTVSPost2010Prop44ColorRGB
 90
      255
102
RTVSPost2010PropOp44
 70
     1
102
RTVSPost2010Prop45
280
     0
102
RTVSPost2010PropOp45
 70
     1
102
RTVSPost2010Prop46
 90
       50
102
RTVSPost2010PropOp46
 70
     1
102
RTVSPost2010Prop47
 90
       50
102
RTVSPost2010PropOp47
 70
     1
102
RTVSPost2010Prop48
 90
       50
102
RTVSPost2010PropOp48
 70
     1
102
RTVSPost2010Prop49
280
     0
102
RTVSPost2010PropOp49
 70
     1
102
RTVSPost2010Prop50
 90
       50
102
RTVSPost2010PropOp50
 70
     1
102
RTVSPost2010Prop51ColorIndex
 90
      256
102
RTVSPost2010Prop51ColorRGB
 90
-16777216
102
RTVSPost2010PropOp51
 70
     0
102
RTVSPost2010Prop52
140
1.0
102
RTVSPost2010PropOp52
 70
     0
102
RTVSPost2010Prop53
 90
        2
102
RTVSPost2010PropOp53
 70
     1
102
RTVSPost2010Prop54
  1
strokes_ogs.tif
102
RTVSPost2010PropOp54
 70
     1
102
RTVSPost2010Prop55
280
     0
102
RTVSPost2010PropOp55
 70
     1
102
RTVSPost2010Prop56
140
1.0
102
RTVSPost2010PropOp56
 70
     1
102
RTVSPost2010Prop57
140
1.0
102
RTVSPost2010PropOp57
 70
     1
  0
XRECORD
  5
3B4
102
{ACAD_REACTORS
330
3B3
102
}
330
3B3
100
AcDbXrecord
280
     1
102
RTVSPropertyOp0
 70
     1
102
RTVSPropertyOp1
 70
     1
102
RTVSPropertyOp2
 70
     1
102
RTVSPropertyOp3
 70
     1
102
RTVSPropertyOp4
 70
     1
102
RTVSPropertyOp5
 70
     1
102
RTVSPropertyOp6
 70
     1
102
RTVSPropertyOp7
 70
     1
102
RTVSPropertyOp8
 70
     1
102
RTVSPropertyOp9
 70
     1
102
RTVSPropertyOp10
 70
     1
102
RTVSPropertyOp11
 70
     1
102
RTVSPropertyOp12
 70
     1
102
RTVSPropertyOp13
 70
     1
102
RTVSPropertyOp14
 70
     1
102
RTVSPropertyOp15
 70
     1
102
RTVSPropertyOp16
 70
     1
102
RTVSPropertyOp17
 70
     1
102
RTVSPropertyOp18
 70
     1
102
RTVSPropertyOp19
 70
     1
102
RTVSPropertyOp20
 70
     1
102
RTVSPropertyOp21
 70
     1
102
RTVSPropertyOp22
 70
     1
102
RTVSPropertyOp23
 70
     1
102
RTVSPropertyOp24
 70
     1
102
RTVSPropertyOp25
 70
     1
102
RTVSPropertyOp26
 70
     1
102
RTVSPropertyOp27
 70
     1
102
RTVSPropertyOp28
 70
     1
102
RTVSPropertyOp29
 70
     1
102
RTVSPropertyOp30
 70
     1
102
RTVSPropertyOp31
 70
     1
102
RTVSPropertyOp32
 70
     1
102
RTVSPropertyOp33
 70
     1
102
RTVSPropertyOp34
 70
     1
102
RTVSPropertyOp35
 70
     1
102
RTVSPropertyOp36
 70
     1
102
RTVSPropertyOp37
 70
     1
102
RTVSPropertyOp38
 70
     1
102
RTVSPropertyOp39
 70
     1
102
RTVSPropertyOp40
 70
     1
102
RTVSPropertyOp41
 70
     1
102
RTVSPropertyOp42
 70
     1
102
RTVSPropertyOp43
 70
     1
102
RTVSPropertyOp44
 70
     1
102
RTVSPropertyOp45
 70
     1
102
RTVSPropertyOp46
 70
     1
102
RTVSPropertyOp47
 70
     1
102
RTVSPropertyOp48
 70
     1
102
RTVSPropertyOp49
 70
     1
102
RTVSPropertyOp50
 70
     1
102
RTVSPropertyOp51
 70
     0
102
RTVSPropertyOp52
 70
     0
102
RTVSPropertyOp53
 70
     1
102
RTVSPropertyOp54
 70
     1
102
RTVSPropertyOp55
 70
     1
102
RTVSPropertyOp56
 70
     1
102
RTVSPropertyOp57
 70
     1
102
RTVSPost2010Prop28
280
     0
102
RTVSPost2010PropOp28
 70
     1
102
RTVSPost2010Prop29
280
     1
102
RTVSPost2010PropOp29
 70
     1
102
RTVSPost2010Prop30
280
     1
102
RTVSPost2010PropOp30
 70
     1
102
RTVSPost2010Prop31
280
     0
102
RTVSPost2010PropOp31
 70
     1
102
RTVSPost2010Prop32
280
     0
102
RTVSPost2010PropOp32
 70
     1
102
RTVSPost2010Prop33
280
     0
102
RTVSPost2010PropOp33
 70
     1
102
RTVSPost2010Prop34
280
     0
102
RTVSPost2010PropOp34
 70
     1
102
RTVSPost2010Prop35
280
     0
102
RTVSPost2010PropOp35
 70
     1
102
RTVSPost2010Prop36
280
     0
102
RTVSPost2010PropOp36
 70
     1
102
RTVSPost2010Prop37
 90
       50
102
RTVSPost2010PropOp37
 70
     1
102
RTVSPost2010Prop38
140
0.0
102
RTVSPost2010PropOp38
 70
     1
102
RTVSPost2010Prop39
140
1.0
102
RTVSPost2010PropOp39
 70
     1
102
RTVSPost2010Prop40
 90
        0
102
RTVSPost2010PropOp40
 70
     1
102
RTVSPost2010Prop41ColorIndex
 90
       18
102
RTVSPost2010Prop41ColorRGB
 90
        0
102
RTVSPost2010PropOp41
 70
     1
102
RTVSPost2010Prop42
 90
       50
102
RTVSPost2010PropOp42
 70
     1
102
RTVSPost2010Prop43
 90
        3
102
RTVSPost2010PropOp43
 70
     1
102
RTVSPost2010Prop44ColorIndex
 90
        5
102
RTVSPost2010Prop44ColorRGB
 90
      255
102
RTVSPost2010PropOp44
 70
     1
102
RTVSPost2010Prop45
280
     0
102
RTVSPost2010PropOp45
 70
     1
102
RTVSPost2010Prop46
 90
       50
102
RTVSPost2010PropOp46
 70
     1
102
RTVSPost2010Prop47
 90
       50
102
RTVSPost2010PropOp47
 70
     1
102
RTVSPost2010Prop48
 90
       50
102
RTVSPost2010PropOp48
 70
     1
102
RTVSPost2010Prop49
280
     0
102
RTVSPost2010PropOp49
 70
     1
102
RTVSPost2010Prop50
 90
       50
102
RTVSPost2010PropOp50
 70
     1
102
RTVSPost2010Prop51ColorIndex
 90
      256
102
RTVSPost2010Prop51ColorRGB
 90
-16777216
102
RTVSPost2010PropOp51
 70
     0
102
RTVSPost2010Prop52
140
1.0
102
RTVSPost2010PropOp52
 70
     0
102
RTVSPost2010Prop53
 90
        2
102
RTVSPost2010PropOp53
 70
     1
102
RTVSPost2010Prop54
  1
strokes_ogs.tif
102
RTVSPost2010PropOp54
 70
     1
102
RTVSPost2010Prop55
280
     0
102
RTVSPost2010PropOp55
 70
     1
102
RTVSPost2010Prop56
140
1.0
102
RTVSPost2010PropOp56
 70
     1
102
RTVSPost2010Prop57
140
1.0
102
RTVSPost2010PropOp57
 70
     1
  0
XRECORD
  5
3A6
102
{ACAD_REACTORS
330
3A5
102
}
330
3A5
100
AcDbXrecord
280
     1
102
RTVSPropertyOp0
 70
     1
102
RTVSPropertyOp1
 70
     1
102
RTVSPropertyOp2
 70
     1
102
RTVSPropertyOp3
 70
     1
102
RTVSPropertyOp4
 70
     1
102
RTVSPropertyOp5
 70
     1
102
RTVSPropertyOp6
 70
     1
102
RTVSPropertyOp7
 70
     1
102
RTVSPropertyOp8
 70
     1
102
RTVSPropertyOp9
 70
     1
102
RTVSPropertyOp10
 70
     1
102
RTVSPropertyOp11
 70
     1
102
RTVSPropertyOp12
 70
     1
102
RTVSPropertyOp13
 70
     1
102
RTVSPropertyOp14
 70
     1
102
RTVSPropertyOp15
 70
     1
102
RTVSPropertyOp16
 70
     1
102
RTVSPropertyOp17
 70
     1
102
RTVSPropertyOp18
 70
     1
102
RTVSPropertyOp19
 70
     1
102
RTVSPropertyOp20
 70
     1
102
RTVSPropertyOp21
 70
     1
102
RTVSPropertyOp22
 70
     1
102
RTVSPropertyOp23
 70
     1
102
RTVSPropertyOp24
 70
     1
102
RTVSPropertyOp25
 70
     1
102
RTVSPropertyOp26
 70
     1
102
RTVSPropertyOp27
 70
     1
102
RTVSPropertyOp28
 70
     1
102
RTVSPropertyOp29
 70
     1
102
RTVSPropertyOp30
 70
     1
102
RTVSPropertyOp31
 70
     1
102
RTVSPropertyOp32
 70
     1
102
RTVSPropertyOp33
 70
     1
102
RTVSPropertyOp34
 70
     1
102
RTVSPropertyOp35
 70
     1
102
RTVSPropertyOp36
 70
     1
102
RTVSPropertyOp37
 70
     1
102
RTVSPropertyOp38
 70
     1
102
RTVSPropertyOp39
 70
     1
102
RTVSPropertyOp40
 70
     1
102
RTVSPropertyOp41
 70
     1
102
RTVSPropertyOp42
 70
     1
102
RTVSPropertyOp43
 70
     1
102
RTVSPropertyOp44
 70
     1
102
RTVSPropertyOp45
 70
     1
102
RTVSPropertyOp46
 70
     1
102
RTVSPropertyOp47
 70
     1
102
RTVSPropertyOp48
 70
     1
102
RTVSPropertyOp49
 70
     1
102
RTVSPropertyOp50
 70
     1
102
RTVSPropertyOp51
 70
     0
102
RTVSPropertyOp52
 70
     0
102
RTVSPropertyOp53
 70
     1
102
RTVSPropertyOp54
 70
     1
102
RTVSPropertyOp55
 70
     1
102
RTVSPropertyOp56
 70
     1
102
RTVSPropertyOp57
 70
     1
102
RTVSPost2010Prop28
280
     0
102
RTVSPost2010PropOp28
 70
     1
102
RTVSPost2010Prop29
280
     1
102
RTVSPost2010PropOp29
 70
     1
102
RTVSPost2010Prop30
280
     1
102
RTVSPost2010PropOp30
 70
     1
102
RTVSPost2010Prop31
280
     0
102
RTVSPost2010PropOp31
 70
     1
102
RTVSPost2010Prop32
280
     0
102
RTVSPost2010PropOp32
 70
     1
102
RTVSPost2010Prop33
280
     0
102
RTVSPost2010PropOp33
 70
     1
102
RTVSPost2010Prop34
280
     0
102
RTVSPost2010PropOp34
 70
     1
102
RTVSPost2010Prop35
280
     0
102
RTVSPost2010PropOp35
 70
     1
102
RTVSPost2010Prop36
280
     0
102
RTVSPost2010PropOp36
 70
     1
102
RTVSPost2010Prop37
 90
       50
102
RTVSPost2010PropOp37
 70
     1
102
RTVSPost2010Prop38
140
0.0
102
RTVSPost2010PropOp38
 70
     1
102
RTVSPost2010Prop39
140
1.0
102
RTVSPost2010PropOp39
 70
     1
102
RTVSPost2010Prop40
 90
        0
102
RTVSPost2010PropOp40
 70
     1
102
RTVSPost2010Prop41ColorIndex
 90
       18
102
RTVSPost2010Prop41ColorRGB
 90
        0
102
RTVSPost2010PropOp41
 70
     1
102
RTVSPost2010Prop42
 90
       50
102
RTVSPost2010PropOp42
 70
     1
102
RTVSPost2010Prop43
 90
        3
102
RTVSPost2010PropOp43
 70
     1
102
RTVSPost2010Prop44ColorIndex
 90
        5
102
RTVSPost2010Prop44ColorRGB
 90
      255
102
RTVSPost2010PropOp44
 70
     1
102
RTVSPost2010Prop45
280
     0
102
RTVSPost2010PropOp45
 70
     1
102
RTVSPost2010Prop46
 90
       50
102
RTVSPost2010PropOp46
 70
     1
102
RTVSPost2010Prop47
 90
       50
102
RTVSPost2010PropOp47
 70
     1
102
RTVSPost2010Prop48
 90
       50
102
RTVSPost2010PropOp48
 70
     1
102
RTVSPost2010Prop49
280
     0
102
RTVSPost2010PropOp49
 70
     1
102
RTVSPost2010Prop50
 90
       50
102
RTVSPost2010PropOp50
 70
     1
102
RTVSPost2010Prop51ColorIndex
 90
      256
102
RTVSPost2010Prop51ColorRGB
 90
-16777216
102
RTVSPost2010PropOp51
 70
     0
102
RTVSPost2010Prop52
140
1.0
102
RTVSPost2010PropOp52
 70
     0
102
RTVSPost2010Prop53
 90
        2
102
RTVSPost2010PropOp53
 70
     1
102
RTVSPost2010Prop54
  1
strokes_ogs.tif
102
RTVSPost2010PropOp54
 70
     1
102
RTVSPost2010Prop55
280
     0
102
RTVSPost2010PropOp55
 70
     1
102
RTVSPost2010Prop56
140
1.0
102
RTVSPost2010PropOp56
 70
     1
102
RTVSPost2010Prop57
140
1.0
102
RTVSPost2010PropOp57
 70
     1
  0
XRECORD
  5
3C6
102
{ACAD_REACTORS
330
3C5
102
}
330
3C5
100
AcDbXrecord
280
     1
102
RTVSPropertyOp0
 70
     1
102
RTVSPropertyOp1
 70
     1
102
RTVSPropertyOp2
 70
     1
102
RTVSPropertyOp3
 70
     1
102
RTVSPropertyOp4
 70
     1
102
RTVSPropertyOp5
 70
     1
102
RTVSPropertyOp6
 70
     1
102
RTVSPropertyOp7
 70
     1
102
RTVSPropertyOp8
 70
     1
102
RTVSPropertyOp9
 70
     1
102
RTVSPropertyOp10
 70
     1
102
RTVSPropertyOp11
 70
     1
102
RTVSPropertyOp12
 70
     1
102
RTVSPropertyOp13
 70
     1
102
RTVSPropertyOp14
 70
     1
102
RTVSPropertyOp15
 70
     1
102
RTVSPropertyOp16
 70
     1
102
RTVSPropertyOp17
 70
     1
102
RTVSPropertyOp18
 70
     1
102
RTVSPropertyOp19
 70
     1
102
RTVSPropertyOp20
 70
     1
102
RTVSPropertyOp21
 70
     1
102
RTVSPropertyOp22
 70
     1
102
RTVSPropertyOp23
 70
     1
102
RTVSPropertyOp24
 70
     1
102
RTVSPropertyOp25
 70
     1
102
RTVSPropertyOp26
 70
     1
102
RTVSPropertyOp27
 70
     1
102
RTVSPropertyOp28
 70
     1
102
RTVSPropertyOp29
 70
     1
102
RTVSPropertyOp30
 70
     1
102
RTVSPropertyOp31
 70
     1
102
RTVSPropertyOp32
 70
     1
102
RTVSPropertyOp33
 70
     1
102
RTVSPropertyOp34
 70
     1
102
RTVSPropertyOp35
 70
     1
102
RTVSPropertyOp36
 70
     1
102
RTVSPropertyOp37
 70
     1
102
RTVSPropertyOp38
 70
     1
102
RTVSPropertyOp39
 70
     1
102
RTVSPropertyOp40
 70
     1
102
RTVSPropertyOp41
 70
     1
102
RTVSPropertyOp42
 70
     1
102
RTVSPropertyOp43
 70
     1
102
RTVSPropertyOp44
 70
     1
102
RTVSPropertyOp45
 70
     1
102
RTVSPropertyOp46
 70
     1
102
RTVSPropertyOp47
 70
     1
102
RTVSPropertyOp48
 70
     1
102
RTVSPropertyOp49
 70
     1
102
RTVSPropertyOp50
 70
     1
102
RTVSPropertyOp51
 70
     0
102
RTVSPropertyOp52
 70
     0
102
RTVSPropertyOp53
 70
     1
102
RTVSPropertyOp54
 70
     1
102
RTVSPropertyOp55
 70
     1
102
RTVSPropertyOp56
 70
     1
102
RTVSPropertyOp57
 70
     1
102
RTVSPost2010Prop28
280
     0
102
RTVSPost2010PropOp28
 70
     1
102
RTVSPost2010Prop29
280
     1
102
RTVSPost2010PropOp29
 70
     1
102
RTVSPost2010Prop30
280
     1
102
RTVSPost2010PropOp30
 70
     1
102
RTVSPost2010Prop31
280
     0
102
RTVSPost2010PropOp31
 70
     1
102
RTVSPost2010Prop32
280
     0
102
RTVSPost2010PropOp32
 70
     1
102
RTVSPost2010Prop33
280
     0
102
RTVSPost2010PropOp33
 70
     1
102
RTVSPost2010Prop34
280
     0
102
RTVSPost2010PropOp34
 70
     1
102
RTVSPost2010Prop35
280
     0
102
RTVSPost2010PropOp35
 70
     1
102
RTVSPost2010Prop36
280
     0
102
RTVSPost2010PropOp36
 70
     1
102
RTVSPost2010Prop37
 90
       50
102
RTVSPost2010PropOp37
 70
     1
102
RTVSPost2010Prop38
140
0.0
102
RTVSPost2010PropOp38
 70
     1
102
RTVSPost2010Prop39
140
1.0
102
RTVSPost2010PropOp39
 70
     1
102
RTVSPost2010Prop40
 90
        0
102
RTVSPost2010PropOp40
 70
     1
102
RTVSPost2010Prop41ColorIndex
 90
       18
102
RTVSPost2010Prop41ColorRGB
 90
        0
102
RTVSPost2010PropOp41
 70
     1
102
RTVSPost2010Prop42
 90
       50
102
RTVSPost2010PropOp42
 70
     1
102
RTVSPost2010Prop43
 90
        3
102
RTVSPost2010PropOp43
 70
     1
102
RTVSPost2010Prop44ColorIndex
 90
        5
102
RTVSPost2010Prop44ColorRGB
 90
      255
102
RTVSPost2010PropOp44
 70
     1
102
RTVSPost2010Prop45
280
     0
102
RTVSPost2010PropOp45
 70
     1
102
RTVSPost2010Prop46
 90
       50
102
RTVSPost2010PropOp46
 70
     1
102
RTVSPost2010Prop47
 90
       50
102
RTVSPost2010PropOp47
 70
     1
102
RTVSPost2010Prop48
 90
       50
102
RTVSPost2010PropOp48
 70
     1
102
RTVSPost2010Prop49
280
     0
102
RTVSPost2010PropOp49
 70
     1
102
RTVSPost2010Prop50
 90
       50
102
RTVSPost2010PropOp50
 70
     1
102
RTVSPost2010Prop51ColorIndex
 90
      256
102
RTVSPost2010Prop51ColorRGB
 90
-16777216
102
RTVSPost2010PropOp51
 70
     0
102
RTVSPost2010Prop52
140
1.0
102
RTVSPost2010PropOp52
 70
     0
102
RTVSPost2010Prop53
 90
        2
102
RTVSPost2010PropOp53
 70
     1
102
RTVSPost2010Prop54
  1
strokes_ogs.tif
102
RTVSPost2010PropOp54
 70
     1
102
RTVSPost2010Prop55
280
     0
102
RTVSPost2010PropOp55
 70
     1
102
RTVSPost2010Prop56
140
1.0
102
RTVSPost2010PropOp56
 70
     1
102
RTVSPost2010Prop57
140
1.0
102
RTVSPost2010PropOp57
 70
     1
  0
ENDSEC
  0
EOF
