0
SECTION
2
HEADER
9
$INSUNITS
70
4
9
$ACADVER
1
AC1014
9
$HANDSEED
5
FFFF
0
ENDSEC
0
SECTION
2
TABLES
0
TABLE
2
VPORT
5
8
100
AcDbSymbolTable
0
ENDTAB
0
TABLE
2
LTYPE
5
5
100
AcDbSymbolTable
0
LTYPE
5
14
100
AcDbSymbolTableRecord
100
AcDbLinetypeTableRecord
2
BYBLOCK
70
0
0
LTYPE
5
15
100
AcDbSymbolTableRecord
100
AcDbLinetypeTableRecord
2
BYLAYER
70
0
0
ENDTAB
0
TABLE
2
LAYER
5
2
100
AcDbSymbolTable
70
2
0
LAYER
5
50
100
AcDbSymbolTableRecord
100
AcDbLayerTableRecord
2
0
70
0
6
CONTINUOUS
0
ENDTAB
0
TABLE
2
STYLE
5
3
100
AcDbSymbolTable
70
1
0
STYLE
5
11
100
AcDbSymbolTableRecord
100
AcDbTextStyleTableRecord
2
STANDARD
70
0
0
ENDTAB
0
TABLE
2
VIEW
5
6
100
AcDbSymbolTable
70
0
0
ENDTAB
0
TABLE
2
UCS
5
7
100
AcDbSymbolTable
70
0
0
ENDTAB
0
TABLE
2
APPID
5
9
100
AcDbSymbolTable
70
2
0
APPID
5
12
100
AcDbSymbolTableRecord
100
AcDbRegAppTableRecord
2
ACAD
70
0
0
ENDTAB
0
TABLE
2
DIMSTYLE
5
A
100
AcDbSymbolTable
70
1
0
ENDTAB
0
TABLE
2
BLOCK_RECORD
5
1
100
AcDbSymbolTable
70
1
0
BLOCK_RECORD
5
1F
100
AcDbSymbolTableRecord
100
AcDbBlockTableRecord
2
*MODEL_SPACE
0
BLOCK_RECORD
5
1B
100
AcDbSymbolTableRecord
100
AcDbBlockTableRecord
2
*PAPER_SPACE
0
ENDTAB
0
ENDSEC
0
SECTION
2
BLOCKS
0
BLOCK
5
20
100
AcDbEntity
100
AcDbBlockBegin
2
*MODEL_SPACE
0
ENDBLK
5
21
100
AcDbEntity
100
AcDbBlockEnd
0
BLOCK
5
1C
100
AcDbEntity
100
AcDbBlockBegin
2
*PAPER_SPACE
0
ENDBLK
5
1D
100
AcDbEntity
100
AcDbBlockEnd
0
ENDSEC
0
SECTION
2
ENTITIES
0
LINE
5
100
100
AcDbEntity
8
0
100
AcDbLine
10
5.4160980880260468
20
25.020464658737183
30
0
11
6.1937247216701508
21
25.020464658737183
31
0
0
LINE
5
101
100
AcDbEntity
8
0
100
AcDbLine
10
6.1937247216701508
20
25.020464658737183
30
0
11
6.1937247216701508
21
20.000000596046448
31
0
0
LINE
5
102
100
AcDbEntity
8
0
100
AcDbLine
10
6.1937247216701508
20
20.000000596046448
30
0
11
5.2353344857692719
21
20.000000596046448
31
0
0
LINE
5
103
100
AcDbEntity
8
0
100
AcDbLine
10
5.2353344857692719
20
20.000000596046448
30
0
11
5.2353344857692719
21
23.611869215965271
31
0
0
SPLINE
5
104
100
AcDbEntity
8
0
100
AcDbSpline
70
0
71
3
72
9
73
5
74
0
42
0.000000001
43
0.0000000001
44
0.0000000001
40
0
40
0
40
0
40
0
40
0.071401856549423076
40
0.14441085976618004
40
0.14441085976618004
40
0.14441085976618004
40
0.14441085976618004
10
5.2353344857692719
20
23.611869215965271
30
0
10
5.0511439948281485
20
23.458392915490233
30
0
10
4.678617166493499
20
23.147985797574584
30
0
10
4.2260655412915469
20
22.97357761938968
30
0
10
3.9972715079784393
20
22.885403037071228
30
0
0
LINE
5
105
100
AcDbEntity
8
0
100
AcDbLine
10
3.9972715079784393
20
22.885403037071228
30
0
11
3.9972715079784393
21
23.75511646270752
31
0
0
SPLINE
5
106
100
AcDbEntity
8
0
100
AcDbSpline
70
0
71
3
72
9
73
5
74
0
42
0.000000001
43
0.0000000001
44
0.0000000001
40
0
40
0
40
0
40
0
40
0.042985708149103963
40
0.09421030731603508
40
0.09421030731603508
40
0.09421030731603508
40
0.09421030731603508
10
3.9972715079784393
20
23.75511646270752
30
0
10
4.1304478204974968
20
23.809531698490218
30
0
10
4.4223257927322805
20
23.928791710864115
30
0
10
4.6750191368883653
20
24.117864740268246
30
0
10
4.8124150931835175
20
24.22066867351532
30
0
0
SPLINE
5
107
100
AcDbEntity
8
0
100
AcDbSpline
70
0
71
3
72
9
73
5
74
0
42
0.000000001
43
0.0000000001
44
0.0000000001
40
0
40
0
40
0
40
0
40
0.052484383308088703
40
0.10124546270251858
40
0.10124546270251858
40
0.10124546270251858
40
0.10124546270251858
10
4.8124150931835175
20
24.22066867351532
30
0
10
4.946449421703619
20
24.336684270694249
30
0
10
5.2050095257517093
20
24.560485182065158
30
0
10
5.3474817063640865
20
24.870943874721529
30
0
10
5.4160980880260468
20
25.020464658737183
30
0
0
LINE
5
108
100
AcDbEntity
8
0
100
AcDbLine
10
5.4826061427593231
20
40.020464658737183
30
0
11
6.2602321803569794
21
40.020464658737183
31
0
0
LINE
5
109
100
AcDbEntity
8
0
100
AcDbLine
10
6.2602321803569794
20
40.020464658737183
30
0
11
6.2602321803569794
21
35.000000596046448
31
0
0
LINE
5
110
100
AcDbEntity
8
0
100
AcDbLine
10
6.2602321803569794
20
35.000000596046448
30
0
11
5.3018419444561005
21
35.000000596046448
31
0
0
LINE
5
111
100
AcDbEntity
8
0
100
AcDbLine
10
5.3018419444561005
20
35.000000596046448
30
0
11
5.3018419444561005
21
38.611869215965271
31
0
0
SPLINE
5
112
100
AcDbEntity
8
0
100
AcDbSpline
70
0
71
3
72
9
73
5
74
0
42
0.000000001
43
0.0000000001
44
0.0000000001
40
0
40
0
40
0
40
0
40
0.071401856549423076
40
0.14441085976618004
40
0.14441085976618004
40
0.14441085976618004
40
0.14441085976618004
10
5.3018419444561005
20
38.611869215965271
30
0
10
5.1176514535149789
20
38.458392915490236
30
0
10
4.7451246251803276
20
38.147985797574584
30
0
10
4.2925729999783755
20
37.97357761938968
30
0
10
4.0637789666652679
20
37.885403037071228
30
0
0
LINE
5
113
100
AcDbEntity
8
0
100
AcDbLine
10
4.0637789666652679
20
37.885403037071228
30
0
11
4.0637789666652679
21
38.75511646270752
31
0
0
SPLINE
5
114
100
AcDbEntity
8
0
100
AcDbSpline
70
0
71
3
72
9
73
5
74
0
42
0.000000001
43
0.0000000001
44
0.0000000001
40
0
40
0
40
0
40
0
40
0.042985708149103963
40
0.09421030731603508
40
0.09421030731603508
40
0.09421030731603508
40
0.09421030731603508
10
4.0637789666652679
20
38.75511646270752
30
0
10
4.1969552791843245
20
38.809531698490218
30
0
10
4.4888332514191074
20
38.928791710864118
30
0
10
4.741526595575194
20
39.117864740268246
30
0
10
4.8789225518703461
20
39.22066867351532
30
0
0
SPLINE
5
115
100
AcDbEntity
8
0
100
AcDbSpline
70
0
71
3
72
9
73
5
74
0
42
0.000000001
43
0.0000000001
44
0.0000000001
40
0
40
0
40
0
40
0
40
0.052484383308088703
40
0.10124549115663239
40
0.10124549115663239
40
0.10124549115663239
40
0.10124549115663239
10
4.8789225518703461
20
39.22066867351532
30
0
10
5.0129568346705859
20
39.336684296126919
30
0
10
5.271516923188301
20
39.560485319456134
30
0
10
5.4139895334272738
20
39.870943888854178
30
0
10
5.4826061427593231
20
40.020464658737183
30
0
0
SPLINE
5
116
100
AcDbEntity
8
0
100
AcDbSpline
70
0
71
3
72
9
73
5
74
0
42
0.000000001
43
0.0000000001
44
0.0000000001
40
0
40
0
40
0
40
0
40
0.063524621942421686
40
0.12081786801165897
40
0.12081786801165897
40
0.12081786801165897
40
0.12081786801165897
10
7.4693043902516365
20
49.948839545249939
30
0
10
7.2533966210977212
20
49.960873454080257
30
0
10
6.8427603109757413
20
49.983760819077787
30
0
10
6.5019829131292974
20
50.212247450254388
30
0
10
6.3403822854161263
20
50.320598483085632
30
0
0
SPLINE
5
117
100
AcDbEntity
8
0
100
AcDbSpline
70
0
71
3
72
9
73
5
74
0
42
0.000000001
43
0.0000000001
44
0.0000000001
40
0
40
0
40
0
40
0
40
0.055808749969617197
40
0.11476758425405524
40
0.11476758425405524
40
0.11476758425405524
40
0.11476758425405524
10
6.3403822854161263
20
50.320598483085632
30
0
10
6.2091509840271621
20
50.457909991849085
30
0
10
5.9392811258574909
20
50.740283457652204
30
0
10
5.8595262985645977
20
51.123202325755308
30
0
10
5.8185543492436409
20
51.319916844367981
30
0
0
LINE
5
118
100
AcDbEntity
8
0
100
AcDbLine
10
5.8185543492436409
20
51.319916844367988
30
0
11
6.773534007370472
21
51.418825387954712
31
0
0
SPLINE
5
119
100
AcDbEntity
8
0
100
AcDbSpline
70
0
71
3
72
9
73
5
74
0
42
0.000000001
43
0.0000000001
44
0.0000000001
40
0
40
0
40
0
40
0
40
0.030141811846991745
40
0.057653005449847229
40
0.057653005449847229
40
0.057653005449847229
40
0.057653005449847229
10
6.773534007370472
20
51.418825387954712
30
0
10
6.792207989286144
20
51.318037141424071
30
0
10
6.8279261865405001
20
51.125256914541595
30
0
10
6.9550347867970697
20
50.976505807340793
30
0
10
7.0156892016530037
20
50.905523896217346
30
0
0
SPLINE
5
120
100
AcDbEntity
8
0
100
AcDbSpline
70
0
71
3
72
9
73
5
74
0
42
0.000000001
43
0.0000000001
44
0.0000000001
40
0
40
0
40
0
40
0
40
0.02589592333888719
40
0.051071842877534496
40
0.051071842877534496
40
0.051071842877534496
40
0.051071842877534496
10
7.0156892016530037
20
50.905523896217346
30
0
10
7.084689493956966
20
50.850317479207867
30
0
10
7.2207716116299085
20
50.741439590652107
30
0
10
7.3940961856067178
20
50.724556424384147
30
0
10
7.4795367196202278
20
50.716233849525452
30
0
0
SPLINE
5
121
100
AcDbEntity
8
0
100
AcDbSpline
70
0
71
3
72
9
73
5
74
0
42
0.000000001
43
0.0000000001
44
0.0000000001
40
0
40
0
40
0
40
0
40
0.028374194598540504
40
0.057843569737864434
40
0.057843569737864434
40
0.057843569737864434
40
0.057843569737864434
10
7.4795367196202278
20
50.716233849525452
30
0
10
7.5763748858278159
20
50.727142628921825
30
0
10
7.7737889551809447
20
50.7493812422357
30
0
10
7.9155167476990851
20
50.888975632962151
30
0
10
7.9877223446965218
20
50.960094332695007
30
0
0
SPLINE
5
122
100
AcDbEntity
8
0
100
AcDbSpline
70
0
71
3
72
9
73
5
74
0
42
0.000000001
43
0.0000000001
44
0.0000000001
40
0
40
0
40
0
40
0
40
0.034320107995475281
40
0.07756546635888617
40
0.07756546635888617
40
0.07756546635888617
40
0.07756546635888617
10
7.9877223446965218
20
50.960094332695007
30
0
10
8.0481973835856007
20
51.059403947276408
30
0
10
8.1848745349256138
20
51.283849527982156
30
0
10
8.1918706150393383
20
51.54788107644854
30
0
10
8.1957711651921272
20
51.695087552070618
30
0
0
SPLINE
5
123
100
AcDbEntity
8
0
100
AcDbSpline
70
0
71
3
72
9
73
5
74
0
42
0.000000001
43
0.0000000001
44
0.0000000001
40
0
40
0
40
0
40
0
40
0.040617135054200143
40
0.073291772127783483
40
0.073291772127783483
40
0.073291772127783483
40
0.073291772127783483
10
8.1957711651921272
20
51.695087552070618
30
0
10
8.1915794670692463
20
51.833552530506793
30
0
10
8.1840157385285472
20
52.083406283945621
30
0
10
8.049428270299769
20
52.29251754160358
30
0
10
7.9894270375370979
20
52.385742664337158
30
0
0
SPLINE
5
124
100
AcDbEntity
8
0
100
AcDbSpline
70
0
71
3
72
9
73
5
74
0
42
0.000000001
43
0.0000000001
44
0.0000000001
40
0
40
0
40
0
40
0
40
0.029360295604657447
40
0.05987891228217565
40
0.05987891228217565
40
0.05987891228217565
40
0.05987891228217565
10
7.9894270375370979
20
52.385742664337158
30
0
10
7.914428965171302
20
52.452882735483058
30
0
10
7.7614739998333029
20
52.58981168486757
30
0
10
7.5566464224253762
20
52.607132763989014
30
0
10
7.4522515013813972
20
52.615960836410522
30
0
0
SPLINE
5
125
100
AcDbEntity
8
0
100
AcDbSpline
70
0
71
3
72
9
73
5
74
0
42
0.000000001
43
0.0000000001
44
0.0000000001
40
0
40
0
40
0
40
0
40
0.040186418316959967
40
0.084518349296185333
40
0.084518349296185333
40
0.084518349296185333
40
0.084518349296185333
10
7.4522515013813972
20
52.615960836410522
30
0
10
7.3158319126150051
20
52.597980791038253
30
0
10
7.0289200917291499
20
52.560165931720647
30
0
10
6.8211322138551802
20
52.357385650356527
30
0
10
6.7121424153447151
20
52.251022458076477
30
0
0
LINE
5
126
100
AcDbEntity
8
0
100
AcDbLine
10
6.7121424153447151
20
52.251022458076484
30
0
11
5.9345157817006111
21
52.363573312759399
31
0
0
LINE
5
127
100
AcDbEntity
8
0
100
AcDbLine
10
5.9345157817006111
20
52.363573312759399
30
0
11
6.4256485179066658
21
54.965892434120178
31
0
0
LINE
5
128
100
AcDbEntity
8
0
100
AcDbLine
10
6.4256485179066658
20
54.965892434120178
30
0
11
8.9597548916935921
21
54.965892434120178
31
0
0
LINE
5
129
100
AcDbEntity
8
0
100
AcDbLine
10
8.9597548916935921
20
54.965892434120178
30
0
11
8.9597548916935921
21
54.068893790245056
31
0
0
LINE
5
130
100
AcDbEntity
8
0
100
AcDbLine
10
8.9597548916935921
20
54.068893790245056
30
0
11
7.1521146968007088
21
54.068893790245056
31
0
0
LINE
5
131
100
AcDbEntity
8
0
100
AcDbLine
10
7.1521146968007088
20
54.068893790245056
30
0
11
7.0020462945103645
21
53.2196444272995
31
0
0
SPLINE
5
132
100
AcDbEntity
8
0
100
AcDbSpline
70
0
71
3
72
9
73
5
74
0
42
0.000000001
43
0.0000000001
44
0.0000000001
40
0
40
0
40
0
40
0
40
0.034559689356230099
40
0.067884782323567247
40
0.067884782323567247
40
0.067884782323567247
40
0.067884782323567247
10
7.0020462945103645
20
53.2196444272995
30
0
10
7.1084311532957756
20
53.266394359628137
30
0
10
7.3174004211248285
20
53.358224148578458
30
0
10
7.5451070428878193
20
53.372792742747464
30
0
10
7.6568897441029549
20
53.379944562911987
30
0
0
SPLINE
5
133
100
AcDbEntity
8
0
100
AcDbSpline
70
0
71
3
72
9
73
5
74
0
42
0.000000001
43
0.0000000001
44
0.0000000001
40
0
40
0
40
0
40
0
40
0.060049153940389746
40
0.1203046971554961
40
0.1203046971554961
40
0.1203046971554961
40
0.1203046971554961
10
7.6568897441029549
20
53.379944562911987
30
0
10
7.8615124701069732
20
53.360485223326073
30
0
10
8.2714612115577317
20
53.32149966229629
30
0
10
8.5823509997247456
20
53.051385715801665
30
0
10
8.7380625680088997
20
52.916097044944763
30
0
0
SPLINE
5
134
100
AcDbEntity
8
0
100
AcDbSpline
70
0
71
3
72
9
73
5
74
0
42
0.000000001
43
0.0000000001
44
0.0000000001
40
0
40
0
40
0
40
0
40
0.062815388236298411
40
0.13082912057859847
40
0.13082912057859847
40
0.13082912057859847
40
0.13082912057859847
10
8.7380625680088997
20
52.916097044944763
30
0
10
8.867326783236102
20
52.745408869729275
30
0
10
9.1365525904036051
20
52.389907065416558
30
0
10
9.1660903296655469
20
51.94396892816323
30
0
10
9.1814460232853889
20
51.712140440940857
30
0
0
SPLINE
5
135
100
AcDbEntity
8
0
100
AcDbSpline
70
0
71
3
72
9
73
5
74
0
42
0.000000001
43
0.0000000001
44
0.0000000001
40
0
40
0
40
0
40
0
40
0.059089384101083338
40
0.1173999706624812
40
0.1173999706624812
40
0.1173999706624812
40
0.1173999706624812
10
9.1814460232853889
20
51.712140440940857
30
0
10
9.1669241043627139
20
51.512450684111627
30
0
10
9.1380716652753726
20
51.115703079613908
30
0
10
8.9277784780082907
20
50.7781570016637
30
0
10
8.823329396545887
20
50.610503554344177
30
0
0
SPLINE
5
136
100
AcDbEntity
8
0
100
AcDbSpline
70
0
71
3
72
9
73
5
74
0
42
0.000000001
43
0.0000000001
44
0.0000000001
40
0
40
0
40
0
40
0
40
0.076512372393073028
40
0.15543114912319819
40
0.15543114912319819
40
0.15543114912319819
40
0.15543114912319819
10
8.823329396545887
20
50.610503554344177
30
0
10
8.6428062735391897
20
50.41753123338529
30
0
10
8.2760823624298894
20
50.025517384415579
30
0
10
7.7409918269994025
20
49.974661278485939
30
0
10
7.4693043902516365
20
49.948839545249939
30
0
0
LWPOLYLINE
5
137
100
AcDbEntity
8
0
100
AcDbPolyline
90
4
70
1
43
0.0
10
7.600613459944725
20
60.6042406062274
10
8.4682806581258845
20
63.706559846797468
10
8.1736012548208308
20
63.706559846797468
10
7.3038878291845331
20
60.6042406062274
0
LINE
5
138
100
AcDbEntity
8
0
100
AcDbLine
10
4.4573666900396383
20
61.782958219447615
30
0
11
4.4573666900396365
21
60.655400464931013
31
0
0
LINE
5
139
100
AcDbEntity
8
0
100
AcDbLine
10
4.4573666900396365
20
60.655400464931013
30
0
11
4.0890174359083193
21
60.655400464931013
31
0
0
LINE
5
140
100
AcDbEntity
8
0
100
AcDbLine
10
4.0890174359083193
20
60.655400464931013
30
0
11
4.0890174359083238
21
62.828660915294172
31
0
0
LINE
5
141
100
AcDbEntity
8
0
100
AcDbLine
10
4.0890174359083238
20
62.828660915294172
30
0
11
4.4184853881597572
21
62.828660915294172
31
0
0
LINE
5
142
100
AcDbEntity
8
0
100
AcDbLine
10
4.4184853881597572
20
62.828660915294172
30
0
11
4.4184853881597572
21
62.523749778666975
31
0
0
SPLINE
5
143
100
AcDbEntity
8
0
100
AcDbSpline
70
0
71
3
72
9
73
5
74
0
42
0.000000001
43
0.0000000001
44
0.0000000001
40
0
40
0
40
0
40
0
40
0.018694681929824385
40
0.037701088728259433
40
0.037701088728259433
40
0.037701088728259433
40
0.037701088728259433
10
4.4184853881597572
20
62.523749778666975
30
0
10
4.4556363016177798
20
62.574486319373797
30
0
10
4.5305576022247918
20
62.676805408306855
30
0
10
4.6369955138590004
20
62.745792131741297
30
0
10
4.6906545013189369
20
62.780570695796492
30
0
0
SPLINE
5
144
100
AcDbEntity
8
0
100
AcDbSpline
70
0
71
3
72
9
73
5
74
0
42
0.000000001
43
0.0000000001
44
0.0000000001
40
0
40
0
40
0
40
0
40
0.019570271262511024
40
0.040228661489193067
40
0.040228661489193067
40
0.040228661489193067
40
0.040228661489193067
10
4.6906545013189369
20
62.780570695796492
30
0
10
4.7501616628783356
20
62.808915874891902
30
0
10
4.8724846203092547
20
62.867182242250045
30
0
10
5.0078882535365121
20
62.874180285900032
30
0
10
5.0774212926626259
20
62.877773950496199
30
0
0
SPLINE
5
145
100
AcDbEntity
8
0
100
AcDbSpline
70
0
71
3
72
9
73
5
74
0
42
0.000000001
43
0.0000000001
44
0.0000000001
40
0
40
0
40
0
40
0
40
0.022115604607000905
40
0.041277543062518601
40
0.041277543062518601
40
0.041277543062518601
40
0.041277543062518601
10
5.0774212926626259
20
62.877773950496199
30
0
10
5.1521220933954854
20
62.874930116532681
30
0
10
5.2915469734224647
20
62.869622258982425
30
0
10
5.4157426511728382
20
62.806707882487757
30
0
10
5.4733970016241127
20
62.777501652637007
30
0
0
SPLINE
5
146
100
AcDbEntity
8
0
100
AcDbSpline
70
0
71
3
72
9
73
5
74
0
42
0.000000001
43
0.0000000001
44
0.0000000001
40
0
40
0
40
0
40
0
40
0.017834938749414605
40
0.036020761969832123
40
0.036020761969832123
40
0.036020761969832123
40
0.036020761969832123
10
5.4733970016241127
20
62.777501652637007
30
0
10
5.5212035606614362
20
62.740464412809011
30
0
10
5.6177572246731335
20
62.665661262733281
30
0
10
5.666651390631773
20
62.553682046288529
30
0
10
5.6913366168737456
20
62.497147033610823
30
0
0
SPLINE
5
147
100
AcDbEntity
8
0
100
AcDbSpline
70
0
71
3
72
9
73
5
74
0
42
0.000000001
43
0.0000000001
44
0.0000000001
40
0
40
0
40
0
40
0
40
0.041175175963976289
40
0.079814055040354631
40
0.079814055040354631
40
0.079814055040354631
40
0.079814055040354631
10
5.6913366168737456
20
62.497147033610823
30
0
10
5.7814456883644105
20
62.608129983980291
30
0
10
5.9561133181490042
20
62.823259588212672
30
0
10
6.2299726867928218
20
62.859991580917047
30
0
10
6.3625510782003456
20
62.877773950496199
30
0
0
SPLINE
5
148
100
AcDbEntity
8
0
100
AcDbSpline
70
0
71
3
72
9
73
5
74
0
42
0.000000001
43
0.0000000001
44
0.0000000001
40
0
40
0
40
0
40
0
40
0.02894647217576489
40
0.053982026658312074
40
0.053982026658312074
40
0.053982026658312074
40
0.053982026658312074
10
6.3625510782003456
20
62.877773950496199
30
0
10
6.461604185549529
20
62.872728740860651
30
0
10
6.6463274723474628
20
62.86331997286333
30
0
10
6.7921797489357303
20
62.750868091756232
30
0
10
6.8598224967718169
20
62.698715637126448
30
0
0
SPLINE
5
149
100
AcDbEntity
8
0
100
AcDbSpline
70
0
71
3
72
9
73
5
74
0
42
0.000000001
43
0.0000000001
44
0.0000000001
40
0
40
0
40
0
40
0
40
0.026216800041788235
40
0.058916784210265513
40
0.058916784210265513
40
0.058916784210265513
40
0.058916784210265513
10
6.8598224967718169
20
62.698715637126448
30
0
10
6.9103977645512016
20
62.625319487934625
30
0
10
7.0240551191247915
20
62.460376967226274
30
0
10
7.0302996827952686
20
62.258989407787467
30
0
10
7.0337655395269429
20
62.147215316691877
30
0
0
LINE
5
150
100
AcDbEntity
8
0
100
AcDbLine
10
7.0337655395269429
20
62.147215316691877
30
0
11
7.0337655395269394
21
60.655400464931013
31
0
0
LINE
5
151
100
AcDbEntity
8
0
100
AcDbLine
10
7.0337655395269394
20
60.655400464931013
30
0
11
6.6674628108739862
21
60.655400464931013
31
0
0
LINE
5
152
100
AcDbEntity
8
0
100
AcDbLine
10
6.6674628108739862
20
60.655400464931013
30
0
11
6.6674628108739888
21
62.024432132640364
31
0
0
SPLINE
5
153
100
AcDbEntity
8
0
100
AcDbSpline
70
0
71
3
72
9
73
5
74
0
42
0.000000001
43
0.0000000001
44
0.0000000001
40
0
40
0
40
0
40
0
40
0.019026852100991965
40
0.032120762684294112
40
0.032120762684294112
40
0.032120762684294112
40
0.032120762684294112
10
6.6674628108739888
20
62.024432132640364
30
0
10
6.6674476631209956
20
62.08816334931214
30
0
10
6.6674220909781887
20
62.19575315320769
30
0
10
6.6420097850518207
20
62.300105707462627
30
0
10
6.6316505521535918
20
62.342644641795637
30
0
0
SPLINE
5
154
100
AcDbEntity
8
0
100
AcDbSpline
70
0
71
3
72
9
73
5
74
0
42
0.000000001
43
0.0000000001
44
0.0000000001
40
0
40
0
40
0
40
0
40
0.010118021851258522
40
0.020636345981322628
40
0.020636345981322628
40
0.020636345981322628
40
0.020636345981322628
10
6.6316505521535918
20
62.342644641795637
30
0
10
6.6169887053010932
20
62.373651637515096
30
0
10
6.5870849406303638
20
62.436892367858896
30
0
10
6.5305308402548352
20
62.478159464655931
30
0
10
6.5017052739858672
20
62.499193261065962
30
0
0
SPLINE
5
155
100
AcDbEntity
8
0
100
AcDbSpline
70
0
71
3
72
9
73
5
74
0
42
0.000000001
43
0.0000000001
44
0.0000000001
40
0
40
0
40
0
40
0
40
0.011158077355574133
40
0.023119516140698314
40
0.023119516140698314
40
0.023119516140698314
40
0.023119516140698314
10
6.5017052739858672
20
62.499193261065962
30
0
10
6.4682745787808846
20
62.516496627779119
30
0
10
6.3990062386577335
20
62.552349172376644
30
0
10
6.3210354762649956
20
62.556428227945339
30
0
10
6.280695423483853
20
62.558538625636579
30
0
0
SPLINE
5
156
100
AcDbEntity
8
0
100
AcDbSpline
70
0
71
3
72
9
73
5
74
0
42
0.000000001
43
0.0000000001
44
0.0000000001
40
0
40
0
40
0
40
0
40
0.021318883153205459
40
0.041878991887791386
40
0.041878991887791386
40
0.041878991887791386
40
0.041878991887791386
10
6.280695423483853
20
62.558538625636579
30
0
10
6.2080136547048976
20
62.552659326029527
30
0
10
6.0652369818740546
20
62.541109980841952
30
0
10
5.9544552100506127
20
62.450544672563282
30
0
10
5.9000679105520293
20
62.406082461276533
30
0
0
SPLINE
5
157
100
AcDbEntity
8
0
100
AcDbSpline
70
0
71
3
72
9
73
5
74
0
42
0.000000001
43
0.0000000001
44
0.0000000001
40
0
40
0
40
0
40
0
40
0.022847210832720666
40
0.052075350022487324
40
0.052075350022487324
40
0.052075350022487324
40
0.052075350022487324
10
5.9000679105520293
20
62.406082461276533
30
0
10
5.8560689170093703
20
62.342071043669094
30
0
10
5.7557825841984664
20
62.196170653387377
30
0
10
5.7512049985584932
20
62.01801354302625
30
0
10
5.7486357539892232
20
61.918019960322859
30
0
0
LINE
5
158
100
AcDbEntity
8
0
100
AcDbLine
10
5.7486357539892232
20
61.918019960322852
30
0
11
5.7486357539892206
21
60.655400464931013
31
0
0
LINE
5
159
100
AcDbEntity
8
0
100
AcDbLine
10
5.7486357539892206
20
60.655400464931013
30
0
11
5.3802862018346795
21
60.655400464931013
31
0
0
LINE
5
160
100
AcDbEntity
8
0
100
AcDbLine
10
5.3802862018346795
20
60.655400464931013
30
0
11
5.3802862018346831
21
62.067405889430525
31
0
0
SPLINE
5
161
100
AcDbEntity
8
0
100
AcDbSpline
70
0
71
3
72
9
73
5
74
0
42
0.000000001
43
0.0000000001
44
0.0000000001
40
0
40
0
40
0
40
0
40
0.021604640491986352
40
0.038372531171397689
40
0.038372531171397689
40
0.038372531171397689
40
0.038372531171397689
10
5.3802862018346822
20
62.067405889430525
30
0
10
5.378835536464158
20
62.140635917456599
30
0
10
5.3762589741663351
20
62.270701563962263
30
0
10
5.3164018069672823
20
62.385563490140072
30
0
10
5.2902456372976348
20
62.435755441585066
30
0
0
SPLINE
5
162
100
AcDbEntity
8
0
100
AcDbSpline
70
0
71
3
72
9
73
5
74
0
42
0.000000001
43
0.0000000001
44
0.0000000001
40
0
40
0
40
0
40
0
40
0.015022508518838084
40
0.032887067099111725
40
0.032887067099111725
40
0.032887067099111725
40
0.032887067099111725
10
5.2902456372976348
20
62.435755441585066
30
0
10
5.2529127323138702
20
62.471496868248479
30
0
10
5.1711840549983501
20
62.54974150331882
30
0
10
5.0573836597222943
20
62.555442040948314
30
0
10
4.9955662339925819
20
62.558538625636579
30
0
0
SPLINE
5
163
100
AcDbEntity
8
0
100
AcDbSpline
70
0
71
3
72
9
73
5
74
0
42
0.000000001
43
0.0000000001
44
0.0000000001
40
0
40
0
40
0
40
0
40
0.015103501112623338
40
0.030196037442353201
40
0.030196037442353201
40
0.030196037442353201
40
0.030196037442353201
10
4.9955662339925819
20
62.558538625636579
30
0
10
4.9447128894046104
20
62.555132855435367
30
0
10
4.8430431185483771
20
62.548323787541172
30
0
10
4.7530360949373556
20
62.500557461492185
30
0
10
4.7080489248037392
20
62.476682970920088
30
0
0
SPLINE
5
164
100
AcDbEntity
8
0
100
AcDbSpline
70
0
71
3
72
9
73
5
74
0
42
0.000000001
43
0.0000000001
44
0.0000000001
40
0
40
0
40
0
40
0
40
0.01520357121781874
40
0.03108721786801643
40
0.03108721786801643
40
0.03108721786801643
40
0.03108721786801643
10
4.7080489248037392
20
62.476682970920088
30
0
10
4.6668744248205147
20
62.445689909975926
30
0
10
4.5826836361402243
20
62.382317428329081
30
0
10
4.539020778028739
20
62.286309829464777
30
0
10
4.5167117565870329
20
62.237255881228926
30
0
0
SPLINE
5
165
100
AcDbEntity
8
0
100
AcDbSpline
70
0
71
3
72
9
73
5
74
0
42
0.000000001
43
0.0000000001
44
0.0000000001
40
0
40
0
40
0
40
0
40
0.019744244217364072
40
0.045979964819787202
40
0.045979964819787202
40
0.045979964819787202
40
0.045979964819787202
10
4.5167117565870329
20
62.237255881228926
30
0
10
4.4994891217818385
20
62.173476896823018
30
0
10
4.4593814259020217
20
62.024949790546316
30
0
10
4.4580986369409823
20
61.870872959996966
30
0
10
4.4573666900396383
20
61.782958219447615
30
0
0
LINE
5
166
100
AcDbEntity
8
0
100
AcDbLine
10
10.329809170216308
20
72.060710489749894
30
0
11
10.329809170216308
21
70.841065049171434
31
0
0
LINE
5
167
100
AcDbEntity
8
0
100
AcDbLine
10
10.329809170216308
20
70.841065049171434
30
0
11
9.9328103475272513
21
70.841065049171434
31
0
0
LINE
5
168
100
AcDbEntity
8
0
100
AcDbLine
10
9.9328103475272513
20
70.841065049171434
30
0
11
9.9328103475272513
21
73.841065168380723
31
0
0
LINE
5
169
100
AcDbEntity
8
0
100
AcDbLine
10
9.9328103475272513
20
73.841065168380723
30
0
11
11.064461451023803
21
73.841065168380723
31
0
0
SPLINE
5
170
100
AcDbEntity
8
0
100
AcDbSpline
70
0
71
3
72
9
73
5
74
0
42
0.000000001
43
0.0000000001
44
0.0000000001
40
0
40
0
40
0
40
0
40
0.026356923700866858
40
0.045763414232482438
40
0.045763414232482438
40
0.045763414232482438
40
0.045763414232482438
10
11.064461451023803
20
73.841065168380723
30
0
10
11.152431632691718
20
73.840791439386379
30
0
10
11.30517388400548
20
73.840316164900742
30
0
10
11.456593746460406
20
73.820723914127996
30
0
10
11.520805042237029
20
73.812415599822984
30
0
0
SPLINE
5
171
100
AcDbEntity
8
0
100
AcDbSpline
70
0
71
3
72
9
73
5
74
0
42
0.000000001
43
0.0000000001
44
0.0000000001
40
0
40
0
40
0
40
0
40
0.021002206695462926
40
0.03984527976373918
40
0.03984527976373918
40
0.03984527976373918
40
0.03984527976373918
10
11.520805042237029
20
73.812415599822984
30
0
10
11.589968338809387
20
73.798389280997725
30
0
10
11.721184593428159
20
73.771778620234699
30
0
10
11.836613498551539
20
73.704197710186307
30
0
10
11.891200523823485
20
73.672238290309892
30
0
0
SPLINE
5
172
100
AcDbEntity
8
0
100
AcDbSpline
70
0
71
3
72
9
73
5
74
0
42
0.000000001
43
0.0000000001
44
0.0000000001
40
0
40
0
40
0
40
0
40
0.018320493406300823
40
0.037955006972610464
40
0.037955006972610464
40
0.037955006972610464
40
0.037955006972610464
10
11.891200523823485
20
73.672238290309892
30
0
10
11.939050649741338
20
73.633326959853989
30
0
10
12.038182906857715
20
73.552713420359495
30
0
10
12.099784098405831
20
73.44064776313401
30
0
10
12.131651025265441
20
73.382675051689134
30
0
0
SPLINE
5
173
100
AcDbEntity
8
0
100
AcDbSpline
70
0
71
3
72
9
73
5
74
0
42
0.000000001
43
0.0000000001
44
0.0000000001
40
0
40
0
40
0
40
0
40
0.0207020454196046
40
0.042207602485463305
40
0.042207602485463305
40
0.042207602485463305
40
0.042207602485463305
10
12.131651025265441
20
73.382675051689134
30
0
10
12.158208652835265
20
73.318384141904389
30
0
10
12.212354693224228
20
73.187306989448061
30
0
10
12.219218012806227
20
73.045600206797886
30
0
10
12.222715001553283
20
72.973397970199571
30
0
0
SPLINE
5
174
100
AcDbEntity
8
0
100
AcDbSpline
70
0
71
3
72
9
73
5
74
0
42
0.000000001
43
0.0000000001
44
0.0000000001
40
0
40
0
40
0
40
0
40
0.035846470858490402
40
0.070493613703679375
40
0.070493613703679375
40
0.070493613703679375
40
0.070493613703679375
10
12.222715001553283
20
72.973397970199571
30
0
10
12.213276641200776
20
72.85152317565975
30
0
10
12.194715703045604
20
72.61185119454835
30
0
10
12.050216067774349
20
72.420007240005219
30
0
10
11.979195456951842
20
72.325717210769639
30
0
0
SPLINE
5
175
100
AcDbEntity
8
0
100
AcDbSpline
70
0
71
3
72
9
73
5
74
0
42
0.000000001
43
0.0000000001
44
0.0000000001
40
0
40
0
40
0
40
0
40
0.039534062917651026
40
0.093760230339680284
40
0.093760230339680284
40
0.093760230339680284
40
0.093760230339680284
10
11.979195456951842
20
72.325717210769639
30
0
10
11.868838149369623
20
72.248892416058851
30
0
10
11.607111278541069
20
72.066692310218826
30
0
10
11.285343743670664
20
72.062902388486151
30
0
10
11.09924970194696
20
72.060710489749894
30
0
0
LINE
5
176
100
AcDbEntity
8
0
100
AcDbLine
10
11.09924970194696
20
72.060710489749894
30
0
11
10.329809170216308
21
72.060710489749894
31
0
0
SPLINE
5
177
100
AcDbEntity
8
0
100
AcDbSpline
70
0
71
3
72
9
73
5
74
0
42
0.000000001
43
0.0000000001
44
0.0000000001
40
0
40
0
40
0
40
0
40
0.025454486461510488
40
0.050926893640169647
40
0.050926893640169647
40
0.050926893640169647
40
0.050926893640169647
10
11.96180103346704
20
66.048431694507585
30
0
10
11.874861714959039
20
66.056927457096023
30
0
10
11.70092187007155
20
66.07392496354295
30
0
10
11.57267352212936
20
66.192659141700034
30
0
10
11.508526783436523
20
66.252047121524797
30
0
0
SPLINE
5
178
100
AcDbEntity
8
0
100
AcDbSpline
70
0
71
3
72
9
73
5
74
0
42
0.000000001
43
0.0000000001
44
0.0000000001
40
0
40
0
40
0
40
0
40
0.028849451972192904
40
0.064768678479840747
40
0.064768678479840747
40
0.064768678479840747
40
0.064768678479840747
10
11.508526783436523
20
66.252047121524797
30
0
10
11.455866572613481
20
66.334535118944657
30
0
10
11.337641371428866
20
66.519725416094232
30
0
10
11.331067413276392
20
66.740471873959862
30
0
10
11.327421646565185
20
66.862892806529985
30
0
0
SPLINE
5
179
100
AcDbEntity
8
0
100
AcDbSpline
70
0
71
3
72
9
73
5
74
0
42
0.000000001
43
0.0000000001
44
0.0000000001
40
0
40
0
40
0
40
0
40
0.0301240291306955
40
0.057809395861384116
40
0.057809395861384116
40
0.057809395861384116
40
0.057809395861384116
10
11.327421646565185
20
66.862892806529985
30
0
10
11.332945953809846
20
66.964804280734398
30
0
10
11.343547353210335
20
67.160377081754476
30
0
10
11.441956994337538
20
67.329369091658947
30
0
10
11.489086132496581
20
67.410300672054277
30
0
0
SPLINE
5
180
100
AcDbEntity
8
0
100
AcDbSpline
70
0
71
3
72
9
73
5
74
0
42
0.000000001
43
0.0000000001
44
0.0000000001
40
0
40
0
40
0
40
0
40
0.026008810758471168
40
0.053796266374240564
40
0.053796266374240564
40
0.053796266374240564
40
0.053796266374240564
10
11.489086132496581
20
67.410300672054277
30
0
10
11.55072002358458
20
67.475637357811834
30
0
10
11.678202716024519
20
67.610778859807596
30
0
10
11.863857633410696
20
67.626341546772096
30
0
10
11.959754209965453
20
67.634380161762223
30
0
0
SPLINE
5
181
100
AcDbEntity
8
0
100
AcDbSpline
70
0
71
3
72
9
73
5
74
0
42
0.000000001
43
0.0000000001
44
0.0000000001
40
0
40
0
40
0
40
0
40
0.026297395970786938
40
0.052132271998627008
40
0.052132271998627008
40
0.052132271998627008
40
0.052132271998627008
10
11.959754209965453
20
67.634380161762223
30
0
10
12.049558545730093
20
67.626283577329872
30
0
10
12.227587734016982
20
67.610232811605528
30
0
10
12.361159759931947
20
67.491600742255486
30
0
10
12.42735324427484
20
67.432810962200151
30
0
0
SPLINE
5
182
100
AcDbEntity
8
0
100
AcDbSpline
70
0
71
3
72
9
73
5
74
0
42
0.000000001
43
0.0000000001
44
0.0000000001
40
0
40
0
40
0
40
0
40
0.028502609523048155
40
0.063166877848423134
40
0.063166877848423134
40
0.063166877848423134
40
0.063166877848423134
10
12.42735324427484
20
67.432810962200151
30
0
10
12.481235514388862
20
67.352372465845633
30
0
10
12.600648256991814
20
67.174106378685138
30
0
10
12.608333809473379
20
66.958630068026125
30
0
10
12.612551432102904
20
66.840382516384111
30
0
0
SPLINE
5
183
100
AcDbEntity
8
0
100
AcDbSpline
70
0
71
3
72
9
73
5
74
0
42
0.000000001
43
0.0000000001
44
0.0000000001
40
0
40
0
40
0
40
0
40
0.034012275576846648
40
0.062634545014948473
40
0.062634545014948473
40
0.062634545014948473
40
0.062634545014948473
10
12.612551432102904
20
66.840382516384111
30
0
10
12.607814426697846
20
66.724420233931795
30
0
10
12.599091100391469
20
66.510872487504585
30
0
10
12.479813574974916
20
66.334630914672829
30
0
10
12.425307016819701
20
66.254093348979936
30
0
0
SPLINE
5
184
100
AcDbEntity
8
0
100
AcDbSpline
70
0
71
3
72
9
73
5
74
0
42
0.000000001
43
0.0000000001
44
0.0000000001
40
0
40
0
40
0
40
0
40
0.026015691921144675
40
0.051931584423122963
40
0.051931584423122963
40
0.051931584423122963
40
0.051931584423122963
10
12.425307016819701
20
66.254093348979936
30
0
10
12.359272110376811
20
66.194108539370717
30
0
10
12.227455615577965
20
66.074369029317793
30
0
10
12.050239038969369
20
66.05706638900611
30
0
10
11.96180103346704
20
66.048431694507585
30
0
0
SPLINE
5
185
100
AcDbEntity
8
0
100
AcDbSpline
70
0
71
3
72
9
73
5
74
0
42
0.000000001
43
0.0000000001
44
0.0000000001
40
0
40
0
40
0
40
0
40
0.063524621942421686
40
0.12081786801165897
40
0.12081786801165897
40
0.12081786801165897
40
0.12081786801165897
10
20.593451447784901
20
64.914734959602356
30
0
10
20.377543678630985
20
64.926768868432674
30
0
10
19.966907368509009
20
64.949656233430204
30
0
10
19.626129970662561
20
65.178142864606798
30
0
10
19.46452934294939
20
65.286493897438049
30
0
0
SPLINE
5
186
100
AcDbEntity
8
0
100
AcDbSpline
70
0
71
3
72
9
73
5
74
0
42
0.000000001
43
0.0000000001
44
0.0000000001
40
0
40
0
40
0
40
0
40
0.055808731346708641
40
0.11476758312971966
40
0.11476758312971966
40
0.11476758312971966
40
0.11476758312971966
10
19.46452934294939
20
65.286493897438049
30
0
10
19.333298207262871
20
65.423805436029113
30
0
10
19.063428602441647
20
65.706179054630411
30
0
10
18.983673309731955
20
66.089097762244251
30
0
10
18.942701108753681
20
66.285812258720398
30
0
0
LINE
5
187
100
AcDbEntity
8
0
100
AcDbLine
10
18.942701108753681
20
66.285812258720398
30
0
11
19.897680468857288
21
66.384720802307129
31
0
0
SPLINE
5
188
100
AcDbEntity
8
0
100
AcDbSpline
70
0
71
3
72
9
73
5
74
0
42
0.000000001
43
0.0000000001
44
0.0000000001
40
0
40
0
40
0
40
0
40
0.030141827865003096
40
0.057653021467858584
40
0.057653021467858584
40
0.057653021467858584
40
0.057653021467858584
10
19.897680468857288
20
66.384720802307129
30
0
10
19.916354691104633
20
66.283932566071343
30
0
10
19.952073338989678
20
66.091152407766614
30
0
10
20.079181886399802
20
65.942401233821428
30
0
10
20.139836259186268
20
65.871419310569763
30
0
0
SPLINE
5
189
100
AcDbEntity
8
0
100
AcDbSpline
70
0
71
3
72
9
73
5
74
0
42
0.000000001
43
0.0000000001
44
0.0000000001
40
0
40
0
40
0
40
0
40
0.02589592333888719
40
0.051071784335328607
40
0.051071784335328607
40
0.051071784335328607
40
0.051071784335328607
10
20.139836259186268
20
65.871419310569763
30
0
10
20.208836549662308
20
65.816212894088451
30
0
10
20.344918507743159
20
65.707335131377988
30
0
10
20.518242858077365
20
65.690451873890495
30
0
10
20.603683181107044
20
65.682129263877869
30
0
0
SPLINE
5
190
100
AcDbEntity
8
0
100
AcDbSpline
70
0
71
3
72
9
73
5
74
0
42
0.000000001
43
0.0000000001
44
0.0000000001
40
0
40
0
40
0
40
0
40
0.028374194598540504
40
0.057843569737864434
40
0.057843569737864434
40
0.057843569737864434
40
0.057843569737864434
10
20.603683181107044
20
65.682129263877869
30
0
10
20.700521347314634
20
65.693038043274242
30
0
10
20.89793541666776
20
65.715276656588117
30
0
10
21.039663209185903
20
65.854871047314575
30
0
10
21.111868806183338
20
65.925989747047424
30
0
0
SPLINE
5
191
100
AcDbEntity
8
0
100
AcDbSpline
70
0
71
3
72
9
73
5
74
0
42
0.000000001
43
0.0000000001
44
0.0000000001
40
0
40
0
40
0
40
0
40
0.034320135094810529
40
0.077565493458221418
40
0.077565493458221418
40
0.077565493458221418
40
0.077565493458221418
10
21.111868806183338
20
65.925989747047424
30
0
10
21.172344089031721
20
66.025299340652396
30
0
10
21.309021731564354
20
66.249744775142219
30
0
10
21.316017723241632
20
66.513776463973102
30
0
10
21.319918222725391
20
66.660982966423035
30
0
0
SPLINE
5
192
100
AcDbEntity
8
0
100
AcDbSpline
70
0
71
3
72
9
73
5
74
0
42
0.000000001
43
0.0000000001
44
0.0000000001
40
0
40
0
40
0
40
0
40
0.040617127484032643
40
0.07329176455761599
40
0.07329176455761599
40
0.07329176455761599
40
0.07329176455761599
10
21.319918222725391
20
66.660982966423035
30
0
10
21.315726773945713
20
66.799447950670753
30
0
10
21.308163494705049
20
67.04930173535675
30
0
10
21.173575959801546
20
67.258412960723064
30
0
10
21.11357469111681
20
67.351638078689575
30
0
0
SPLINE
5
193
100
AcDbEntity
8
0
100
AcDbSpline
70
0
71
3
72
9
73
5
74
0
42
0.000000001
43
0.0000000001
44
0.0000000001
40
0
40
0
40
0
40
0
40
0.029360343812799346
40
0.059878960490317552
40
0.059878960490317552
40
0.059878960490317552
40
0.059878960490317552
10
21.11357469111681
20
67.351638078689575
30
0
10
21.038576413527462
20
67.418778150427443
30
0
10
20.88562115764736
20
67.55570698642957
30
0
10
20.680793458141089
20
67.57302814497082
30
0
10
20.576398558914661
20
67.581856250762939
30
0
0
SPLINE
5
194
100
AcDbEntity
8
0
100
AcDbSpline
70
0
71
3
72
9
73
5
74
0
42
0.000000001
43
0.0000000001
44
0.0000000001
40
0
40
0
40
0
40
0
40
0.040186476365202894
40
0.084518407344428254
40
0.084518407344428254
40
0.084518407344428254
40
0.084518407344428254
10
20.576398558914661
20
67.581856250762939
30
0
10
20.439978755900867
20
67.563876243210402
30
0
10
20.153066701801233
20
67.526061492084395
30
0
10
19.945278677362989
20
67.323281067027651
30
0
10
19.836288876831532
20
67.216917872428894
30
0
0
LINE
5
195
100
AcDbEntity
8
0
100
AcDbLine
10
19.836288876831535
20
67.216917872428894
30
0
11
19.058663137257099
21
67.329468727111816
31
0
0
LINE
5
196
100
AcDbEntity
8
0
100
AcDbLine
10
19.058663137257099
20
67.329468727111816
30
0
11
19.549795277416706
21
69.931787848472595
31
0
0
LINE
5
197
100
AcDbEntity
8
0
100
AcDbLine
10
19.549795277416706
20
69.931787848472595
30
0
11
22.083901353180408
21
69.931787848472595
31
0
0
LINE
5
198
100
AcDbEntity
8
0
100
AcDbLine
10
22.083901353180408
20
69.931787848472595
30
0
11
22.083901353180408
21
69.034789204597473
31
0
0
LINE
5
199
100
AcDbEntity
8
0
100
AcDbLine
10
22.083901353180408
20
69.034789204597473
30
0
11
20.276261754333973
21
69.034789204597473
31
0
0
LINE
5
200
100
AcDbEntity
8
0
100
AcDbLine
10
20.276261754333973
20
69.034789204597473
30
0
11
20.126193948090076
21
68.185539841651917
31
0
0
SPLINE
5
201
100
AcDbEntity
8
0
100
AcDbSpline
70
0
71
3
72
9
73
5
74
0
42
0.000000001
43
0.0000000001
44
0.0000000001
40
0
40
0
40
0
40
0
40
0.034559689356230099
40
0.067884723151461102
40
0.067884723151461102
40
0.067884723151461102
40
0.067884723151461102
10
20.126193948090076
20
68.185539841651917
30
0
10
20.232578806222925
20
68.232289773537389
30
0
10
20.441547890621084
20
68.324119481573348
30
0
10
20.669254303841619
20
68.33868813464774
30
0
10
20.781036801636219
20
68.345839977264404
30
0
0
SPLINE
5
202
100
AcDbEntity
8
0
100
AcDbSpline
70
0
71
3
72
9
73
5
74
0
42
0.000000001
43
0.0000000001
44
0.0000000001
40
0
40
0
40
0
40
0
40
0.060049153940389746
40
0.1203047458224982
40
0.1203047458224982
40
0.1203047458224982
40
0.1203047458224982
10
20.781036801636219
20
68.345839977264404
30
0
10
20.985659507840523
20
68.326380606618983
30
0
10
21.395608375460831
20
68.287394967592562
30
0
10
21.706498448066618
20
68.017281130100372
30
0
10
21.862210221588612
20
67.88199245929718
30
0
0
SPLINE
5
203
100
AcDbEntity
8
0
100
AcDbSpline
70
0
71
3
72
9
73
5
74
0
42
0.000000001
43
0.0000000001
44
0.0000000001
40
0
40
0
40
0
40
0
40
0.062815388236298411
40
0.13082912057859847
40
0.13082912057859847
40
0.13082912057859847
40
0.13082912057859847
10
21.862210221588612
20
67.88199245929718
30
0
10
21.991474436815814
20
67.711304284081692
30
0
10
22.260700243983319
20
67.355802479768968
30
0
10
22.290237983245259
20
66.909864342515661
30
0
10
22.305593676865101
20
66.678035855293274
30
0
0
SPLINE
5
204
100
AcDbEntity
8
0
100
AcDbSpline
70
0
71
3
72
9
73
5
74
0
42
0.000000001
43
0.0000000001
44
0.0000000001
40
0
40
0
40
0
40
0
40
0.059089384101083338
40
0.11740002557207532
40
0.11740002557207532
40
0.11740002557207532
40
0.11740002557207532
10
22.305593676865101
20
66.678035855293274
30
0
10
22.291071830612026
20
66.478346059371972
30
0
10
22.262219522411474
20
66.08159819164095
30
0
10
22.051925435726005
20
65.74405236877908
30
0
10
21.947475858032703
20
65.576398968696594
30
0
0
SPLINE
5
205
100
AcDbEntity
8
0
100
AcDbSpline
70
0
71
3
72
9
73
5
74
0
42
0.000000001
43
0.0000000001
44
0.0000000001
40
0
40
0
40
0
40
0
40
0.07651232702548609
40
0.15543110375561126
40
0.15543110375561126
40
0.15543110375561126
40
0.15543110375561126
10
21.947475858032703
20
65.576398968696594
30
0
10
21.7669529421212
20
65.383426648232245
30
0
10
21.400229341309007
20
64.991412682246548
30
0
10
20.865138910641129
20
64.940556658597842
30
0
10
20.593451447784901
20
64.914734959602356
30
0
0
SPLINE
5
206
100
AcDbEntity
8
0
100
AcDbSpline
70
0
71
3
72
9
73
5
74
0
42
0.000000001
43
0.0000000001
44
0.0000000001
40
0
40
0
40
0
40
0
40
0.052661897697746013
40
0.10121117030537627
40
0.10121117030537627
40
0.10121117030537627
40
0.10121117030537627
10
35.763983577489853
20
70.020464062690735
30
0
10
35.942899783435969
20
70.009473670564773
30
0
10
36.286759753966024
20
69.988351179773261
30
0
10
36.570784422782467
20
69.794538374376572
30
0
10
36.707026213407516
20
69.701569676399231
30
0
0
SPLINE
5
207
100
AcDbEntity
8
0
100
AcDbSpline
70
0
71
3
72
9
73
5
74
0
42
0.000000001
43
0.0000000001
44
0.0000000001
40
0
40
0
40
0
40
0
40
0.049626328166988268
40
0.10576974378139591
40
0.10576974378139591
40
0.10576974378139591
40
0.10576974378139591
10
36.707026213407516
20
69.701569676399231
30
0
10
36.82106460822002
20
69.577666275312438
30
0
10
37.064117283001295
20
69.313588083944012
30
0
10
37.141653772431155
20
68.962134738013475
30
0
10
37.182810753583908
20
68.775580525398254
30
0
0
LINE
5
208
100
AcDbEntity
8
0
100
AcDbLine
10
37.182810753583908
20
68.775580525398254
30
0
11
36.255116313695908
21
68.673261404037476
31
0
0
SPLINE
5
209
100
AcDbEntity
8
0
100
AcDbSpline
70
0
71
3
72
9
73
5
74
0
42
0.000000001
43
0.0000000001
44
0.0000000001
40
0
40
0
40
0
40
0
40
0.02564335203253271
40
0.046548704021327214
40
0.046548704021327214
40
0.046548704021327214
40
0.046548704021327214
10
36.255116313695908
20
68.673261404037476
30
0
10
36.242075927696341
20
68.759523140323807
30
0
10
36.218404565721215
20
68.916108442653382
30
0
10
36.121350403439834
20
69.040372796840003
30
0
10
36.077762693166733
20
69.09618079662323
30
0
0
SPLINE
5
210
100
AcDbEntity
8
0
100
AcDbSpline
70
0
71
3
72
9
73
5
74
0
42
0.000000001
43
0.0000000001
44
0.0000000001
40
0
40
0
40
0
40
0
40
0.019377906291258337
40
0.040376378365322818
40
0.040376378365322818
40
0.040376378365322818
40
0.040376378365322818
10
36.077762693166733
20
69.09618079662323
30
0
10
36.025039472116916
20
69.135954248700273
30
0
10
35.915183810222914
20
69.218827389163465
30
0
10
35.777571139095812
20
69.227892049706924
30
0
10
35.706003159284592
20
69.232606291770935
30
0
0
SPLINE
5
211
100
AcDbEntity
8
0
100
AcDbSpline
70
0
71
3
72
9
73
5
74
0
42
0.000000001
43
0.0000000001
44
0.0000000001
40
0
40
0
40
0
40
0
40
0.028828524272294244
40
0.05985440542560206
40
0.05985440542560206
40
0.05985440542560206
40
0.05985440542560206
10
35.706003159284592
20
69.232606291770935
30
0
10
35.607546519965474
20
69.219656708087996
30
0
10
35.403128716577861
20
69.192770502449065
30
0
10
35.264539567540986
20
69.039305027873468
30
0
10
35.192701071500778
20
68.959755301475525
30
0
0
SPLINE
5
212
100
AcDbEntity
8
0
100
AcDbSpline
70
0
71
3
72
9
73
5
74
0
42
0.000000001
43
0.0000000001
44
0.0000000001
40
0
40
0
40
0
40
0
40
0.04537958342208475
40
0.11752449674261103
40
0.11752449674261103
40
0.11752449674261103
40
0.11752449674261103
10
35.192701071500778
20
68.959755301475525
30
0
10
35.128492522909212
20
68.821540767811797
30
0
10
34.962204584793753
20
68.463591393083973
30
0
10
34.941243768674575
20
68.067289683204294
30
0
10
34.928376525640488
20
67.824011445045471
30
0
0
SPLINE
5
213
100
AcDbEntity
8
0
100
AcDbSpline
70
0
71
3
72
9
73
5
74
0
42
0.000000001
43
0.0000000001
44
0.0000000001
40
0
40
0
40
0
40
0
40
0.051175605318090664
40
0.10116399818191302
40
0.10116399818191302
40
0.10116399818191302
40
0.10116399818191302
10
34.928376525640488
20
67.824011445045471
30
0
10
35.053933196833526
20
67.947358046766894
30
0
10
35.3021337755536
20
68.191189757495664
30
0
10
35.647765992805134
20
68.228496814227753
30
0
10
35.818554013967514
20
68.246931433677673
30
0
0
SPLINE
5
214
100
AcDbEntity
8
0
100
AcDbSpline
70
0
71
3
72
9
73
5
74
0
42
0.000000001
43
0.0000000001
44
0.0000000001
40
0
40
0
40
0
40
0
40
0.056880700088615246
40
0.11514058070363342
40
0.11514058070363342
40
0.11514058070363342
40
0.11514058070363342
10
35.818554013967514
20
68.246931433677673
30
0
10
36.012300625014227
20
68.226992399338528
30
0
10
36.404491601400331
20
68.18663087093077
30
0
10
36.698232558959731
20
67.923198821171525
30
0
10
36.846862286329269
20
67.789905071258545
30
0
0
SPLINE
5
215
100
AcDbEntity
8
0
100
AcDbSpline
70
0
71
3
72
9
73
5
74
0
42
0.000000001
43
0.0000000001
44
0.0000000001
40
0
40
0
40
0
40
0
40
0.061412133635615179
40
0.12793334321921934
40
0.12793334321921934
40
0.12793334321921934
40
0.12793334321921934
10
36.846862286329269
20
67.789905071258545
30
0
10
36.971651200862809
20
67.622001651044556
30
0
10
37.231610627247463
20
67.272226376774327
30
0
10
37.260089467673765
20
66.836425499149911
30
0
10
37.274897545576096
20
66.609823107719421
30
0
0
SPLINE
5
216
100
AcDbEntity
8
0
100
AcDbSpline
70
0
71
3
72
9
73
5
74
0
42
0.000000001
43
0.0000000001
44
0.0000000001
40
0
40
0
40
0
40
0
40
0.070060774961620692
40
0.13372564383761906
40
0.13372564383761906
40
0.13372564383761906
40
0.13372564383761906
10
37.274897545576096
20
66.609823107719421
30
0
10
37.259998041573603
20
66.370802261278953
30
0
10
37.231559221610695
20
65.914580979136787
30
0
10
36.955920562902698
20
65.551459046682211
30
0
10
36.824692934751511
20
65.378581881523132
30
0
0
SPLINE
5
217
100
AcDbEntity
8
0
100
AcDbSpline
70
0
71
3
72
9
73
5
74
0
42
0.000000001
43
0.0000000001
44
0.0000000001
40
0
40
0
40
0
40
0
40
0.062078826371014272
40
0.12732297320031152
40
0.12732297320031152
40
0.12732297320031152
40
0.12732297320031152
10
36.824692934751511
20
65.378581881523132
30
0
10
36.661170417512245
20
65.243316653005152
30
0
10
36.325787577706762
20
64.965889193880869
30
0
10
35.891187732248049
20
64.93206665346419
30
0
10
35.66848561167717
20
64.914734959602356
30
0
0
SPLINE
5
218
100
AcDbEntity
8
0
100
AcDbSpline
70
0
71
3
72
9
73
5
74
0
42
0.000000001
43
0.0000000001
44
0.0000000001
40
0
40
0
40
0
40
0
40
0.070530896481450597
40
0.14144055201941791
40
0.14144055201941791
40
0.14144055201941791
40
0.14144055201941791
10
35.66848561167717
20
64.914734959602356
30
0
10
35.427108494115664
20
64.939510586821498
30
0
10
34.943058036005667
20
64.989194889238149
30
0
10
34.597062706125129
20
65.331472610561633
30
0
10
34.423601776361465
20
65.503069758415222
30
0
0
SPLINE
5
219
100
AcDbEntity
8
0
100
AcDbSpline
70
0
71
3
72
9
73
5
74
0
42
0.000000001
43
0.0000000001
44
0.0000000001
40
0
40
0
40
0
40
0
40
0.085820725032230136
40
0.20170099160838445
40
0.20170099160838445
40
0.20170099160838445
40
0.20170099160838445
10
34.423601776361465
20
65.503069758415222
30
0
10
34.282135213211866
20
65.756385329860407
30
0
10
33.949652050712508
20
66.35174270922478
30
0
10
33.940905145263798
20
67.037696838928213
30
0
10
33.935879915952682
20
67.431787848472595
30
0
0
SPLINE
5
220
100
AcDbEntity
8
0
100
AcDbSpline
70
0
71
3
72
9
73
5
74
0
42
0.000000001
43
0.0000000001
44
0.0000000001
40
0
40
0
40
0
40
0
40
0.11894440760731648
40
0.20746429744456146
40
0.20746429744456146
40
0.20746429744456146
40
0.20746429744456146
10
33.935879915952682
20
67.431787848472595
30
0
10
33.941431652892206
20
67.836425786556859
30
0
10
33.95111506068686
20
68.542200250718409
30
0
10
34.296639009173219
20
69.152829904019683
30
0
10
34.444065541028976
20
69.413370490074158
30
0
0
SPLINE
5
221
100
AcDbEntity
8
0
100
AcDbSpline
70
0
71
3
72
9
73
5
74
0
42
0.000000001
43
0.0000000001
44
0.0000000001
40
0
40
0
40
0
40
0
40
0.074057872331205074
40
0.1491913502245576
40
0.1491913502245576
40
0.1491913502245576
40
0.1491913502245576
10
34.444065541028976
20
69.413370490074158
30
0
10
34.62707132199813
20
69.590436689655078
30
0
10
34.995740832777258
20
69.947140772057907
30
0
10
35.506674791115778
20
69.995905774238892
30
0
10
35.763983577489853
20
70.020464062690735
30
0
0
SPLINE
5
222
100
AcDbEntity
8
0
100
AcDbSpline
70
0
71
3
72
9
73
5
74
0
42
0.000000001
43
0.0000000001
44
0.0000000001
40
0
40
0
40
0
40
0
40
0.11244679946370108
40
0.22156151434967986
40
0.22156151434967986
40
0.22156151434967986
40
0.22156151434967986
10
50.035812109708786
20
67.114598155021667
30
0
10
50.180090909750135
20
67.462132856834586
30
0
10
50.464373162141257
20
68.146903923596639
30
0
10
50.900497120356292
20
68.746380074145449
30
0
10
51.115279644727707
20
69.041610360145569
30
0
0
LINE
5
223
100
AcDbEntity
8
0
100
AcDbLine
10
51.115279644727707
20
69.041610360145569
30
0
11
48.935879915952682
21
69.041610360145569
31
0
0
LINE
5
224
100
AcDbEntity
8
0
100
AcDbLine
10
48.935879915952682
20
69.041610360145569
30
0
11
48.935879915952682
21
69.931787848472595
31
0
0
LINE
5
225
100
AcDbEntity
8
0
100
AcDbLine
10
48.935879915952682
20
69.931787848472595
30
0
11
52.213506549596786
21
69.931787848472595
31
0
0
LINE
5
226
100
AcDbEntity
8
0
100
AcDbLine
10
52.213506549596786
20
69.931787848472595
30
0
11
52.213506549596786
21
69.236016869544983
31
0
0
SPLINE
5
227
100
AcDbEntity
8
0
100
AcDbSpline
70
0
71
3
72
9
73
5
74
0
42
0.000000001
43
0.0000000001
44
0.0000000001
40
0
40
0
40
0
40
0
40
0.063538928818325013
40
0.14155713451262747
40
0.14155713451262747
40
0.14155713451262747
40
0.14155713451262747
10
52.213506549596786
20
69.236016869544983
30
0
10
52.071814125870617
20
69.077861309430531
30
0
10
51.756140351416931
20
68.725509636001249
30
0
10
51.518890045887211
20
68.315832121697753
30
0
10
51.388131231069565
20
68.090041279792786
30
0
0
SPLINE
5
228
100
AcDbEntity
8
0
100
AcDbSpline
70
0
71
3
72
9
73
5
74
0
42
0.000000001
43
0.0000000001
44
0.0000000001
40
0
40
0
40
0
40
0
40
0.085446373035054202
40
0.17151412683845269
40
0.17151412683845269
40
0.17151412683845269
40
0.17151412683845269
10
51.388131231069565
20
68.090041279792786
30
0
10
51.256476810622374
20
67.83665227420606
30
0
10
50.992210556065736
20
67.328031574462102
30
0
10
50.830023367054196
20
66.778266521613844
30
0
10
50.748635977506638
20
66.502388119697571
30
0
0
SPLINE
5
229
100
AcDbEntity
8
0
100
AcDbSpline
70
0
71
3
72
9
73
5
74
0
42
0.000000001
43
0.0000000001
44
0.0000000001
40
0
40
0
40
0
40
0
40
0.081270543396521927
40
0.15210785407214011
40
0.15210785407214011
40
0.15210785407214011
40
0.15210785407214011
10
50.748635977506638
20
66.502388119697571
30
0
10
50.684664833421991
20
66.238361544900656
30
0
10
50.564934940614719
20
65.744203218501525
30
0
10
50.542505573508841
20
65.236459244665738
30
0
10
50.532060116529465
20
65.000000596046448
30
0
0
LINE
5
230
100
AcDbEntity
8
0
100
AcDbLine
10
50.532060116529472
20
65.000000596046462
30
0
11
49.607776254415512
21
65.000000596046448
31
0
0
SPLINE
5
231
100
AcDbEntity
8
0
100
AcDbSpline
70
0
71
3
72
9
73
5
74
0
42
0.000000001
43
0.0000000001
44
0.0000000001
40
0
40
0
40
0
40
0
40
0.10538009322942744
40
0.21651779787135908
40
0.21651779787135908
40
0.21651779787135908
40
0.21651779787135908
10
49.607776254415512
20
65.000000596046448
30
0
10
49.633300080231926
20
65.351848871801664
30
0
10
49.685742267268054
20
66.074769221525543
30
0
10
49.917071669048411
20
66.761897834097439
30
0
10
50.035812109708786
20
67.114598155021667
30
0
0
SPLINE
5
232
100
AcDbEntity
8
0
100
AcDbSpline
70
0
71
3
72
9
73
5
74
0
42
0.000000001
43
0.0000000001
44
0.0000000001
40
0
40
0
40
0
40
0
40
0.039247725848345967
40
0.077913280265269502
40
0.077913280265269502
40
0.077913280265269502
40
0.077913280265269502
10
63.929059002548456
20
66.429058909416199
30
0
10
63.937190061752929
20
66.56114743300742
30
0
10
63.953331570106798
20
66.823365177754084
30
0
10
64.071596194511699
20
67.057895106616257
30
0
10
64.130286667495966
20
67.174283862113953
30
0
0
SPLINE
5
233
100
AcDbEntity
8
0
100
AcDbSpline
70
0
71
3
72
9
73
5
74
0
42
0.000000001
43
0.0000000001
44
0.0000000001
40
0
40
0
40
0
40
0
40
0.039689676137827333
40
0.083332441754821601
40
0.083332441754821601
40
0.083332441754821601
40
0.083332441754821601
10
64.130286667495966
20
67.174283862113953
30
0
10
64.210182141019146
20
67.282233700369815
30
0
10
64.377930672670672
20
67.508885174613638
30
0
10
64.631740879713192
20
67.632879516461188
30
0
10
64.764666054397821
20
67.69781768321991
30
0
0
SPLINE
5
234
100
AcDbEntity
8
0
100
AcDbSpline
70
0
71
3
72
9
73
5
74
0
42
0.000000001
43
0.0000000001
44
0.0000000001
40
0
40
0
40
0
40
0
40
0.037117110934091507
40
0.070026096504458069
40
0.070026096504458069
40
0.070026096504458069
40
0.070026096504458069
10
64.764666054397821
20
67.69781768321991
30
0
10
64.65117382579875
20
67.751953179964971
30
0
10
64.437056467190303
20
67.854086601020214
30
0
10
64.292169454408793
20
68.041287748702132
30
0
10
64.224079344421625
20
68.129263520240784
30
0
0
SPLINE
5
235
100
AcDbEntity
8
0
100
AcDbSpline
70
0
71
3
72
9
73
5
74
0
42
0.000000001
43
0.0000000001
44
0.0000000001
40
0
40
0
40
0
40
0
40
0.031439770200446998
40
0.063142508954021404
40
0.063142508954021404
40
0.063142508954021404
40
0.063142508954021404
10
64.224079344421625
20
68.129263520240784
30
0
10
64.174838501581306
20
68.223210627003738
30
0
10
64.075944955600349
20
68.411890633001349
30
0
10
64.062169285217635
20
68.624496280764731
30
0
10
64.055252764374018
20
68.731241822242737
30
0
0
SPLINE
5
236
100
AcDbEntity
8
0
100
AcDbSpline
70
0
71
3
72
9
73
5
74
0
42
0.000000001
43
0.0000000001
44
0.0000000001
40
0
40
0
40
0
40
0
40
0.051998997525743114
40
0.10267440824691418
40
0.10267440824691418
40
0.10267440824691418
40
0.10267440824691418
10
64.055252764374018
20
68.731241822242737
30
0
10
64.070668813786426
20
68.908782263077072
30
0
10
64.101108511208295
20
69.259344015609628
30
0
10
64.331875164331422
20
69.5246045648029
30
0
10
64.44577107205987
20
69.655525088310242
30
0
0
SPLINE
5
237
100
AcDbEntity
8
0
100
AcDbSpline
70
0
71
3
72
9
73
5
74
0
42
0.000000001
43
0.0000000001
44
0.0000000001
40
0
40
0
40
0
40
0
40
0.05463095618104457
40
0.11901694587864317
40
0.11901694587864317
40
0.11901694587864317
40
0.11901694587864317
10
64.44577107205987
20
69.655525088310242
30
0
10
64.598169136997569
20
69.761776936005134
30
0
10
64.930177827941833
20
69.993253214119335
30
0
10
65.336254405744768
20
70.010911339827956
30
0
10
65.555934403091669
20
70.020464062690735
30
0
0
SPLINE
5
238
100
AcDbEntity
8
0
100
AcDbSpline
70
0
71
3
72
9
73
5
74
0
42
0.000000001
43
0.0000000001
44
0.0000000001
40
0
40
0
40
0
40
0
40
0.063964027193724252
40
0.11866881742860746
40
0.11866881742860746
40
0.11866881742860746
40
0.11866881742860746
10
65.555934403091669
20
70.020464062690735
30
0
10
65.774089760046863
20
70.010606656058968
30
0
10
66.178820971657132
20
69.992318770833052
30
0
10
66.510012664770542
20
69.761794018184531
30
0
10
66.662687752395868
20
69.655525088310242
30
0
0
SPLINE
5
239
100
AcDbEntity
8
0
100
AcDbSpline
70
0
71
3
72
9
73
5
74
0
42
0.000000001
43
0.0000000001
44
0.0000000001
40
0
40
0
40
0
40
0
40
0.050823649197589145
40
0.10283878692712584
40
0.10283878692712584
40
0.10283878692712584
40
0.10283878692712584
10
66.662687752395868
20
69.655525088310242
30
0
10
66.777579495044108
20
69.524721188961323
30
0
10
67.010056454657018
20
69.260046877951424
30
0
10
67.040977557022188
20
68.90886643114915
30
0
10
67.056617233902216
20
68.731241822242737
30
0
0
SPLINE
5
240
100
AcDbEntity
8
0
100
AcDbSpline
70
0
71
3
72
9
73
5
74
0
42
0.000000001
43
0.0000000001
44
0.0000000001
40
0
40
0
40
0
40
0
40
0.03317925218696996
40
0.065221718394979811
40
0.065221718394979811
40
0.065221718394979811
40
0.065221718394979811
10
67.056617233902216
20
68.731241822242737
30
0
10
67.049624471203714
20
68.619295063384484
30
0
10
67.035878531513603
20
68.399237060258343
30
0
10
66.928571428974664
20
68.206767889892618
30
0
10
66.875853035598993
20
68.112210631370544
30
0
0
SPLINE
5
241
100
AcDbEntity
8
0
100
AcDbSpline
70
0
71
3
72
9
73
5
74
0
42
0.000000001
43
0.0000000001
44
0.0000000001
40
0
40
0
40
0
40
0
40
0.032323137448382326
40
0.066270437248304365
40
0.066270437248304365
40
0.066270437248304365
40
0.066270437248304365
10
66.875853035598993
20
68.112210631370544
30
0
10
66.808206847151837
20
68.02660651661067
30
0
10
66.669515406887598
20
67.851096879761499
30
0
10
66.469914026026245
20
67.749738780136951
30
0
10
66.367667410522699
20
67.69781768321991
30
0
0
SPLINE
5
242
100
AcDbEntity
8
0
100
AcDbSpline
70
0
71
3
72
9
73
5
74
0
42
0.000000001
43
0.0000000001
44
0.0000000001
40
0
40
0
40
0
40
0
40
0.041993132376063558
40
0.080807149172774512
40
0.080807149172774512
40
0.080807149172774512
40
0.080807149172774512
10
66.367667410522699
20
67.69781768321991
30
0
10
66.496490428741865
20
67.63796930337287
30
0
10
66.74438384038119
20
67.522803401607348
30
0
10
66.917289774753215
20
67.311561656218558
30
0
10
67.000341508537531
20
67.210096120834351
30
0
0
SPLINE
5
243
100
AcDbEntity
8
0
100
AcDbSpline
70
0
71
3
72
9
73
5
74
0
42
0.000000001
43
0.0000000001
44
0.0000000001
40
0
40
0
40
0
40
0
40
0.038162146051855368
40
0.078009884803413365
40
0.078009884803413365
40
0.078009884803413365
40
0.078009884803413365
10
67.000341508537531
20
67.210096120834351
30
0
10
67.063501119579996
20
67.097657636262809
30
0
10
67.192610053206437
20
66.867814345558543
30
0
10
67.208698655626705
20
66.60449270587155
30
0
10
67.216916773468256
20
66.469987034797668
30
0
0
SPLINE
5
244
100
AcDbEntity
8
0
100
AcDbSpline
70
0
71
3
72
9
73
5
74
0
42
0.000000001
43
0.0000000001
44
0.0000000001
40
0
40
0
40
0
40
0
40
0.063719838041136456
40
0.12352703314709061
40
0.12352703314709061
40
0.12352703314709061
40
0.12352703314709061
10
67.216916773468256
20
66.469987034797668
30
0
10
67.200959589454897
20
66.252459205885756
30
0
10
67.170025053851063
20
65.830760592730655
30
0
10
66.904026034828263
20
65.503110769709153
30
0
10
66.775239203125238
20
65.344474911689758
30
0
0
SPLINE
5
245
100
AcDbEntity
8
0
100
AcDbSpline
70
0
71
3
72
9
73
5
74
0
42
0.000000001
43
0.0000000001
44
0.0000000001
40
0
40
0
40
0
40
0
40
0.060854737752544893
40
0.12777516469786848
40
0.12777516469786848
40
0.12777516469786848
40
0.12777516469786848
10
66.775239203125238
20
65.344474911689758
30
0
10
66.610534317603125
20
65.218216853355699
30
0
10
66.264707605479131
20
64.9531159788163
30
0
10
65.828651365819141
20
64.925688916174252
30
0
10
65.600273106247187
20
64.911324381828308
30
0
0
SPLINE
5
246
100
AcDbEntity
8
0
100
AcDbSpline
70
0
71
3
72
9
73
5
74
0
42
0.000000001
43
0.0000000001
44
0.0000000001
40
0
40
0
40
0
40
0
40
0.063137989881222212
40
0.12084395935956613
40
0.12084395935956613
40
0.12084395935956613
40
0.12084395935956613
10
65.600273106247187
20
64.911324381828308
30
0
10
65.386176978095719
20
64.923373869430378
30
0
10
64.976404290399344
20
64.94643617776218
30
0
10
64.62996354416336
20
65.165048321160199
30
0
10
64.464529547840357
20
65.26944100856781
30
0
0
SPLINE
5
247
100
AcDbEntity
8
0
100
AcDbSpline
70
0
71
3
72
9
73
5
74
0
42
0.000000001
43
0.0000000001
44
0.0000000001
40
0
40
0
40
0
40
0
40
0.064237939540515862
40
0.13141070961527743
40
0.13141070961527743
40
0.13141070961527743
40
0.13141070961527743
10
64.464529547840357
20
65.26944100856781
30
0
10
64.30837237248528
20
65.426123514199844
30
0
10
63.988923688861405
20
65.746646859074872
30
0
10
63.949308807897694
20
66.198226476499954
30
0
10
63.929059002548456
20
66.429058909416199
30
0
0
SPLINE
5
248
100
AcDbEntity
8
0
100
AcDbSpline
70
0
71
3
72
9
73
5
74
0
42
0.000000001
43
0.0000000001
44
0.0000000001
40
0
40
0
40
0
40
0
40
0.05360622336718622
40
0.10149583218769301
40
0.10149583218769301
40
0.10149583218769301
40
0.10149583218769301
10
80.40586655959487
20
64.911324381828308
30
0
10
80.223564496541741
20
64.921135952593787
30
0
10
79.878401221890371
20
64.939712779636608
30
0
10
79.592573015819568
20
65.132454642588272
30
0
10
79.457708355039358
20
65.223397612571716
30
0
0
SPLINE
5
249
100
AcDbEntity
8
0
100
AcDbSpline
70
0
71
3
72
9
73
5
74
0
42
0.000000001
43
0.0000000001
44
0.0000000001
40
0
40
0
40
0
40
0
40
0.0489441479034275
40
0.1058123930415682
40
0.1058123930415682
40
0.1058123930415682
40
0.1058123930415682
10
79.457708355039358
20
65.223397612571716
30
0
10
79.347012897719594
20
65.347085014414432
30
0
10
79.10770029877628
20
65.614484908757177
30
0
10
79.033655873663918
20
65.966837891470064
30
0
10
78.993861135095358
20
66.156207919120789
30
0
0
LINE
5
250
100
AcDbEntity
8
0
100
AcDbLine
10
78.993861135095358
20
66.156207919120789
30
0
11
79.921555574983358
21
66.25852644443512
31
0
0
SPLINE
5
251
100
AcDbEntity
8
0
100
AcDbSpline
70
0
71
3
72
9
73
5
74
0
42
0.000000001
43
0.0000000001
44
0.0000000001
40
0
40
0
40
0
40
0
40
0.025395085598330785
40
0.046229472686351698
40
0.046229472686351698
40
0.046229472686351698
40
0.046229472686351698
10
79.921555574983358
20
66.25852644443512
30
0
10
79.934698966588314
20
66.173142229425139
30
0
10
79.958625330642278
20
66.017707934062571
30
0
10
80.055327512208635
20
65.894530845519427
30
0
10
80.098908599466085
20
65.839018225669861
30
0
0
SPLINE
5
252
100
AcDbEntity
8
0
100
AcDbSpline
70
0
71
3
72
9
73
5
74
0
42
0.000000001
43
0.0000000001
44
0.0000000001
40
0
40
0
40
0
40
0
40
0.01952298300858404
40
0.041026409271449113
40
0.041026409271449113
40
0.041026409271449113
40
0.041026409271449113
10
80.098908599466085
20
65.839018225669861
30
0
10
80.152230670157593
20
65.799252439279897
30
0
10
80.264283889403259
20
65.715686960238159
30
0
10
80.404170334927812
20
65.707095713790238
30
0
10
80.47748988494277
20
65.702592730522156
30
0
0
SPLINE
5
253
100
AcDbEntity
8
0
100
AcDbSpline
70
0
71
3
72
9
73
5
74
0
42
0.000000001
43
0.0000000001
44
0.0000000001
40
0
40
0
40
0
40
0
40
0.028290361727454444
40
0.059092507291841401
40
0.059092507291841401
40
0.059092507291841401
40
0.059092507291841401
10
80.47748988494277
20
65.702592730522156
30
0
10
80.574044624861187
20
65.715776268559608
30
0
10
80.775726799435631
20
65.74331385627643
30
0
10
80.911495232054222
20
65.895905086980548
30
0
10
80.982264932245016
20
65.975443720817566
30
0
0
SPLINE
5
254
100
AcDbEntity
8
0
100
AcDbSpline
70
0
71
3
72
9
73
5
74
0
42
0.000000001
43
0.0000000001
44
0.0000000001
40
0
40
0
40
0
40
0
40
0.045284573987274521
40
0.11720381536096042
40
0.11720381536096042
40
0.11720381536096042
40
0.11720381536096042
10
80.982264932245016
20
65.975443720817566
30
0
10
81.04621822876021
20
66.113391700455765
30
0
10
81.211739723090687
20
66.470423424757186
30
0
10
81.234393706639452
20
66.8654057816441
30
0
10
81.248294766992331
20
67.107776999473572
30
0
0
SPLINE
5
255
100
AcDbEntity
8
0
100
AcDbSpline
70
0
71
3
72
9
73
5
74
0
42
0.000000001
43
0.0000000001
44
0.0000000001
40
0
40
0
40
0
40
0
40
0.051421195059865539
40
0.10222557359869491
40
0.10222557359869491
40
0.10222557359869491
40
0.10222557359869491
10
81.248294766992331
20
67.107776999473572
30
0
10
81.120805081782791
20
66.985421069250378
30
0
10
80.86735499795472
20
66.742176914078442
30
0
10
80.518065788340152
20
66.706164933150532
30
0
10
80.344474967569113
20
66.688267588615417
30
0
0
SPLINE
5
256
100
AcDbEntity
8
0
100
AcDbSpline
70
0
71
3
72
9
73
5
74
0
42
0.000000001
43
0.0000000001
44
0.0000000001
40
0
40
0
40
0
40
0
40
0.05612054218851574
40
0.11409832469190626
40
0.11409832469190626
40
0.11409832469190626
40
0.11409832469190626
10
80.344474967569113
20
66.688267588615417
30
0
10
80.153424209229684
20
66.708445021565623
30
0
10
79.765000102698011
20
66.749467634791074
30
0
10
79.474176948656662
20
67.010797052803696
30
0
10
79.326398428529501
20
67.143588662147522
30
0
0
SPLINE
5
257
100
AcDbEntity
8
0
100
AcDbSpline
70
0
71
3
72
9
73
5
74
0
42
0.000000001
43
0.0000000001
44
0.0000000001
40
0
40
0
40
0
40
0
40
0.061448468578293482
40
0.12843252355050955
40
0.12843252355050955
40
0.12843252355050955
40
0.12843252355050955
10
79.326398428529501
20
67.143588662147522
30
0
10
79.201618336899458
20
67.311652469244137
30
0
10
78.94081733684699
20
67.662920114513796
30
0
10
78.91291542639118
20
68.100543285216034
30
0
10
78.898363169282675
20
68.32878589630127
30
0
0
SPLINE
5
258
100
AcDbEntity
8
0
100
AcDbSpline
70
0
71
3
72
9
73
5
74
0
42
0.000000001
43
0.0000000001
44
0.0000000001
40
0
40
0
40
0
40
0
40
0.069604783323752639
40
0.13330154688588092
40
0.13330154688588092
40
0.13330154688588092
40
0.13330154688588092
10
78.898363169282675
20
68.32878589630127
30
0
10
78.913622447099769
20
68.566209227167263
30
0
10
78.942845802740692
20
69.020903513392184
30
0
10
79.218536922687747
20
69.382247008953016
30
0
10
79.350273068994284
20
69.554911255836487
30
0
0
SPLINE
5
259
100
AcDbEntity
8
0
100
AcDbSpline
70
0
71
3
72
9
73
5
74
0
42
0.000000001
43
0.0000000001
44
0.0000000001
40
0
40
0
40
0
40
0
40
0.06211537935290036
40
0.12690571938671441
40
0.12690571938671441
40
0.12690571938671441
40
0.12690571938671441
10
79.350273068994284
20
69.554911255836487
30
0
10
79.513576433627435
20
69.690680610056688
30
0
10
79.847215722044226
20
69.968066142391535
30
0
10
80.280272221628636
20
70.002754365978589
30
0
10
80.501364525407553
20
70.020464062690735
30
0
0
SPLINE
5
260
100
AcDbEntity
8
0
100
AcDbSpline
70
0
71
3
72
9
73
5
74
0
42
0.000000001
43
0.0000000001
44
0.0000000001
40
0
40
0
40
0
40
0
40
0.070781056937231177
40
0.14175759821676009
40
0.14175759821676009
40
0.14175759821676009
40
0.14175759821676009
10
80.501364525407553
20
70.020464062690735
30
0
10
80.74363161201876
20
69.995815122740325
30
0
10
81.228834882654184
20
69.94644916697257
30
0
10
81.575891587664984
20
69.603725975769507
30
0
10
81.749659236520529
20
69.432128071784973
30
0
0
SPLINE
5
261
100
AcDbEntity
8
0
100
AcDbSpline
70
0
71
3
72
9
73
5
74
0
42
0.000000001
43
0.0000000001
44
0.0000000001
40
0
40
0
40
0
40
0
40
0.085974857115666561
40
0.20236393906521652
40
0.20236393906521652
40
0.20236393906521652
40
0.20236393906521652
10
81.749659236520529
20
69.432128071784973
30
0
10
81.891113305689899
20
69.17822741149773
30
0
10
82.224061839648002
20
68.5806069039363
30
0
10
82.232517530675295
20
67.892406596695935
30
0
10
82.237380798906088
20
67.4965900182724
30
0
0
SPLINE
5
262
100
AcDbEntity
8
0
100
AcDbSpline
70
0
71
3
72
9
73
5
74
0
42
0.000000001
43
0.0000000001
44
0.0000000001
40
0
40
0
40
0
40
0
40
0.11869005430005153
40
0.20713298404347269
40
0.20713298404347269
40
0.20713298404347269
40
0.20713298404347269
10
82.237380798906088
20
67.4965900182724
30
0
10
82.231746741933321
20
67.092815335110515
30
0
10
82.221914418240146
20
66.388164423138605
30
0
10
81.876628218759549
20
65.778665566774791
30
0
10
81.729195769876242
20
65.518417954444885
30
0
0
SPLINE
5
263
100
AcDbEntity
8
0
100
AcDbSpline
70
0
71
3
72
9
73
5
74
0
42
0.000000001
43
0.0000000001
44
0.0000000001
40
0
40
0
40
0
40
0
40
0.074125159923006001
40
0.14950920471888018
40
0.14950920471888018
40
0.14950920471888018
40
0.14950920471888018
10
81.729195769876242
20
65.518417954444885
30
0
10
81.545883869219097
20
65.341352700825894
30
0
10
81.176146839157752
20
64.984215053103838
30
0
10
80.664063918676291
20
64.935757278949467
30
0
10
80.40586655959487
20
64.911324381828308
30
0
0
SPLINE
5
264
100
AcDbEntity
8
0
100
AcDbSpline
70
0
71
3
72
9
73
5
74
0
42
0.000000001
43
0.0000000001
44
0.0000000001
40
0
40
0
40
0
40
0
40
0.017364996683472304
40
0.03309152496742887
40
0.03309152496742887
40
0.03309152496742887
40
0.03309152496742887
10
5.526944138109684
20
6.1562079191207886
30
0
10
5.4891968649933256
20
6.1121996931612781
30
0
10
5.4172639499717352
20
6.0283356225451623
30
0
10
5.3586759155313688
20
5.9346849478592123
30
0
10
5.330832339823246
20
5.8901780843734741
30
0
0
LINE
5
265
100
AcDbEntity
8
0
100
AcDbLine
10
5.3308323398232451
20
5.8901780843734741
30
0
11
7.2339705005288124
21
5.8901780843734741
31
0
0
LINE
5
266
100
AcDbEntity
8
0
100
AcDbLine
10
7.2339705005288124
20
5.8901780843734741
30
0
11
7.2339705005288124
21
5.0000005960464478
31
0
0
LINE
5
267
100
AcDbEntity
8
0
100
AcDbLine
10
7.2339705005288124
20
5.0000005960464478
30
0
11
3.8744885101914406
21
5.0000005960464478
31
0
0
SPLINE
5
268
100
AcDbEntity
8
0
100
AcDbSpline
70
0
71
3
72
9
73
5
74
0
42
0.000000001
43
0.0000000001
44
0.0000000001
40
0
40
0
40
0
40
0
40
0.050352872359644002
40
0.10173272164293135
40
0.10173272164293135
40
0.10173272164293135
40
0.10173272164293135
10
3.8744885101914406
20
5.0000005960464478
30
0
10
3.9022252552590944
20
5.1668007423714162
30
0
10
3.9582644528860822
20
5.5038030236887003
30
0
10
4.1201500385134846
20
5.804711762690637
30
0
10
4.2019099369645119
20
5.956684947013855
30
0
0
SPLINE
5
269
100
AcDbEntity
8
0
100
AcDbSpline
70
0
71
3
72
9
73
5
74
0
42
0.000000001
43
0.0000000001
44
0.0000000001
40
0
40
0
40
0
40
0
40
0.06641174546195
40
0.16152268485425336
40
0.16152268485425336
40
0.16152268485425336
40
0.16152268485425336
10
4.2019099369645119
20
5.956684947013855
30
0
10
4.3328616711472119
20
6.1357182115763687
30
0
10
4.6513546657881806
20
6.571152235621522
30
0
10
5.0468117333180089
20
6.9389511500247272
30
0
10
5.2796724811196327
20
7.1555256843566895
30
0
0
SPLINE
5
270
100
AcDbEntity
8
0
100
AcDbSpline
70
0
71
3
72
9
73
5
74
0
42
0.000000001
43
0.0000000001
44
0.0000000001
40
0
40
0
40
0
40
0
40
0.072781703184348762
40
0.1141789658519661
40
0.1141789658519661
40
0.1141789658519661
40
0.1141789658519661
10
5.2796724811196327
20
7.1555256843566895
30
0
10
5.4586241470119408
20
7.3198707063237745
30
0
10
5.7393611352260931
20
7.5776929862392519
30
0
10
5.9852143178660713
20
7.8686053081793315
30
0
10
6.074352003633976
20
7.9740798473358154
30
0
0
SPLINE
5
271
100
AcDbEntity
8
0
100
AcDbSpline
70
0
71
3
72
9
73
5
74
0
42
0.000000001
43
0.0000000001
44
0.0000000001
40
0
40
0
40
0
40
0
40
0.033022483049496718
40
0.062599840773554655
40
0.062599840773554655
40
0.062599840773554655
40
0.062599840773554655
10
6.074352003633976
20
7.9740798473358154
30
0
10
6.1319956632530186
20
8.0697335208749976
30
0
10
6.2412692120757534
20
8.2510616397806302
30
0
10
6.2622540925022898
20
8.4613515535397443
30
0
10
6.2721690908074379
20
8.5607099533081055
30
0
0
SPLINE
5
272
100
AcDbEntity
8
0
100
AcDbSpline
70
0
71
3
72
9
73
5
74
0
42
0.000000001
43
0.0000000001
44
0.0000000001
40
0
40
0
40
0
40
0
40
0.028676071783442128
40
0.053273923940221443
40
0.053273923940221443
40
0.053273923940221443
40
0.053273923940221443
10
6.2721690908074379
20
8.5607099533081055
30
0
10
6.2674634669717202
20
8.6587545406621018
30
0
10
6.2587214381398599
20
8.8409001263229356
30
0
10
6.150089781793068
20
8.9863775517197393
30
0
10
6.0999319329857826
20
9.0535479784011841
30
0
0
SPLINE
5
273
100
AcDbEntity
8
0
100
AcDbSpline
70
0
71
3
72
9
73
5
74
0
42
0.000000001
43
0.0000000001
44
0.0000000001
40
0
40
0
40
0
40
0
40
0.02423602768964498
40
0.051648286082872877
40
0.051648286082872877
40
0.051648286082872877
40
0.051648286082872877
10
6.0999319329857826
20
9.0535479784011841
30
0
10
6.0342584280907783
20
9.1037325354059249
30
0
10
5.8943046364745335
20
9.2106785411752821
30
0
10
5.717817632740382
20
9.2205473037536905
30
0
10
5.624147392809391
20
9.2257851362228394
30
0
0
SPLINE
5
274
100
AcDbEntity
8
0
100
AcDbSpline
70
0
71
3
72
9
73
5
74
0
42
0.000000001
43
0.0000000001
44
0.0000000001
40
0
40
0
40
0
40
0
40
0.027320448030697012
40
0.052152763743388605
40
0.052152763743388605
40
0.052152763743388605
40
0.052152763743388605
10
5.624147392809391
20
9.2257851362228394
30
0
10
5.5307936691901602
20
9.2197986400518577
30
0
10
5.3525881475600272
20
9.2083708508697342
30
0
10
5.2130825555534699
20
9.0977111038410801
30
0
10
5.1466575637459755
20
9.0450209379196167
30
0
0
SPLINE
5
275
100
AcDbEntity
8
0
100
AcDbSpline
70
0
71
3
72
9
73
5
74
0
42
0.000000001
43
0.0000000001
44
0.0000000001
40
0
40
0
40
0
40
0
40
0.02781551442898126
40
0.064376636008797422
40
0.064376636008797422
40
0.064376636008797422
40
0.064376636008797422
10
5.1466575637459755
20
9.0450209379196167
30
0
10
5.0935258988134766
20
8.9672690719574604
30
0
10
4.9705571914529143
20
8.787319008951064
30
0
10
4.9523561521101422
20
8.5688325263243392
30
0
10
4.9420193210244179
20
8.4447485208511353
30
0
0
LINE
5
276
100
AcDbEntity
8
0
100
AcDbLine
10
4.9420193210244179
20
8.444748520851137
30
0
11
3.9870396628975868
21
8.5402458906173706
31
0
0
SPLINE
5
277
100
AcDbEntity
8
0
100
AcDbSpline
70
0
71
3
72
9
73
5
74
0
42
0.000000001
43
0.0000000001
44
0.0000000001
40
0
40
0
40
0
40
0
40
0.070211713231549872
40
0.12825943227481654
40
0.12825943227481654
40
0.12825943227481654
40
0.12825943227481654
10
3.9870396628975868
20
8.5402458906173706
30
0
10
4.0223622602731153
20
8.778429872886047
30
0
10
4.0868879081648872
20
9.2135330905213682
30
0
10
4.3867835735561886
20
9.531902126804221
30
0
10
4.5225105062127113
20
9.6759897470474243
30
0
0
SPLINE
5
278
100
AcDbEntity
8
0
100
AcDbSpline
70
0
71
3
72
9
73
5
74
0
42
0.000000001
43
0.0000000001
44
0.0000000001
40
0
40
0
40
0
40
0
40
0.056856866395658276
40
0.11935614838403516
40
0.11935614838403516
40
0.11935614838403516
40
0.11935614838403516
10
4.5225105062127113
20
9.6759897470474243
30
0
10
4.686838439236519
20
9.776400411419937
30
0
10
5.0318020364411842
20
9.9871863888388468
30
0
10
5.4362422295582649
20
10.009027727927901
30
0
10
5.6480220332741737
20
10.020464658737183
30
0
0
SPLINE
5
279
100
AcDbEntity
8
0
100
AcDbSpline
70
0
71
3
72
9
73
5
74
0
42
0.000000001
43
0.0000000001
44
0.0000000001
40
0
40
0
40
0
40
0
40
0.066829955012771267
40
0.12529301318781033
40
0.12529301318781033
40
0.12529301318781033
40
0.12529301318781033
10
5.6480220332741737
20
10.020464658737183
30
0
10
5.8760018822679427
20
10.008755995884407
30
0
10
6.3034192315849156
20
9.9868045573574129
30
0
10
6.6495446805397247
20
9.7376687426609969
30
0
10
6.8110505118966103
20
9.6214193105697632
30
0
0
SPLINE
5
280
100
AcDbEntity
8
0
100
AcDbSpline
70
0
71
3
72
9
73
5
74
0
42
0.000000001
43
0.0000000001
44
0.0000000001
40
0
40
0
40
0
40
0
40
0.054863155458361262
40
0.11036450852068599
40
0.11036450852068599
40
0.11036450852068599
40
0.11036450852068599
10
6.8110505118966103
20
9.6214193105697632
30
0
10
6.934400855085963
20
9.4797382081581354
30
0
10
7.1825364187117717
20
9.1947278928802305
30
0
10
7.2167598394131405
20
8.8182505059423715
30
0
10
7.2339705005288124
20
8.6289232969284058
30
0
0
SPLINE
5
281
100
AcDbEntity
8
0
100
AcDbSpline
70
0
71
3
72
9
73
5
74
0
42
0.000000001
43
0.0000000001
44
0.0000000001
40
0
40
0
40
0
40
0
40
0.03309412974291305
40
0.065718651745339168
40
0.065718651745339168
40
0.065718651745339168
40
0.065718651745339168
10
7.2339705005288124
20
8.6289232969284058
30
0
10
7.2290713191643157
20
8.5180907046313354
30
0
10
7.219342476120798
20
8.2979982413519782
30
0
10
7.1482060577061022
20
8.0895140696147099
30
0
10
7.1128920093178749
20
7.9860168695449829
30
0
0
SPLINE
5
282
100
AcDbEntity
8
0
100
AcDbSpline
70
0
71
3
72
9
73
5
74
0
42
0.000000001
43
0.0000000001
44
0.0000000001
40
0
40
0
40
0
40
0
40
0.034948083525539436
40
0.07476781242331404
40
0.07476781242331404
40
0.07476781242331404
40
0.07476781242331404
10
7.1128920093178749
20
7.9860168695449829
30
0
10
7.0640853126095706
20
7.8798628696008421
30
0
10
6.959668429726098
20
7.6527573589364941
30
0
10
6.8092859354610908
20
7.4529400286878893
30
0
10
6.7291954532265663
20
7.3465216159820557
30
0
0
SPLINE
5
283
100
AcDbEntity
8
0
100
AcDbSpline
70
0
71
3
72
9
73
5
74
0
42
0.000000001
43
0.0000000001
44
0.0000000001
40
0
40
0
40
0
40
0
40
0.036404220044812925
40
0.089533991613177072
40
0.089533991613177072
40
0.089533991613177072
40
0.089533991613177072
10
6.7291954532265663
20
7.3465216159820557
30
0
10
6.6491991032666151
20
7.2551710559714682
30
0
10
6.4524528876470448
20
7.0304998430247583
30
0
10
6.2322853680419961
20
6.8285621544607693
30
0
10
6.1016372218728065
20
6.7087316513061523
30
0
0
SPLINE
5
284
100
AcDbEntity
8
0
100
AcDbSpline
70
0
71
3
72
9
73
5
74
0
42
0.000000001
43
0.0000000001
44
0.0000000001
40
0
40
0
40
0
40
0
40
0.050704684252419301
40
0.079735782811008057
40
0.079735782811008057
40
0.079735782811008057
40
0.079735782811008057
10
6.1016372218728065
20
6.7087316513061523
30
0
10
5.9766797439369839
20
6.5948448869790655
30
0
10
5.7801775377167219
20
6.4157519601751716
30
0
10
5.59453496805485
20
6.2254831299318809
30
0
10
5.526944138109684
20
6.1562079191207886
30
0
0
SPLINE
5
285
100
AcDbEntity
8
0
100
AcDbSpline
70
0
71
3
72
9
73
5
74
0
42
0.000000001
43
0.0000000001
44
0.0000000001
40
0
40
0
40
0
40
0
40
0.12203806901063394
40
0.21179954795917336
40
0.21179954795917336
40
0.21179954795917336
40
0.21179954795917336
10
82.854706700891256
20
67.476125955581665
30
0
10
82.859332333316971
20
67.890583226842111
30
0
10
82.867360212361078
20
68.609882240772819
30
0
10
83.203417177500683
20
69.24127972583625
30
0
10
83.345839437097311
20
69.508868455886841
30
0
0
SPLINE
5
286
100
AcDbEntity
8
0
100
AcDbSpline
70
0
71
3
72
9
73
5
74
0
42
0.000000001
43
0.0000000001
44
0.0000000001
40
0
40
0
40
0
40
0
40
0.061922117636732485
40
0.12780709831209944
40
0.12780709831209944
40
0.12780709831209944
40
0.12780709831209944
10
83.345839437097311
20
69.508868455886841
30
0
10
83.498039829990034
20
69.65804401314368
30
0
10
83.81218106611017
20
69.965941995960335
30
0
10
84.251633130990541
20
70.001918207167421
30
0
10
84.478172119706869
20
70.020464062690735
30
0
0
SPLINE
5
287
100
AcDbEntity
8
0
100
AcDbSpline
70
0
71
3
72
9
73
5
74
0
42
0.000000001
43
0.0000000001
44
0.0000000001
40
0
40
0
40
0
40
0
40
0.066001869896162538
40
0.1284422903286935
40
0.1284422903286935
40
0.1284422903286935
40
0.1284422903286935
10
84.478172119706869
20
70.020464062690735
30
0
10
84.70509103449281
20
70.00136160705776
30
0
10
85.146684358740458
20
69.964187460987915
30
0
10
85.461077539010617
20
69.653219448183066
30
0
10
85.613915380090475
20
69.502046704292297
30
0
0
SPLINE
5
288
100
AcDbEntity
8
0
100
AcDbSpline
70
0
71
3
72
9
73
5
74
0
42
0.000000001
43
0.0000000001
44
0.0000000001
40
0
40
0
40
0
40
0
40
0.089423245191601705
40
0.21204667652541623
40
0.21204667652541623
40
0.21204667652541623
40
0.21204667652541623
10
85.613915380090475
20
69.502046704292297
30
0
10
85.755306076310532
20
69.235235727615446
30
0
10
86.090581620838577
20
68.602554809543165
30
0
10
86.097586640246519
20
67.882367693302996
30
0
10
86.101637538522482
20
67.465894222259521
30
0
0
SPLINE
5
289
100
AcDbEntity
8
0
100
AcDbSpline
70
0
71
3
72
9
73
5
74
0
42
0.000000001
43
0.0000000001
44
0.0000000001
40
0
40
0
40
0
40
0
40
0.12254707063600076
40
0.21246403138997075
40
0.21246403138997075
40
0.21246403138997075
40
0.21246403138997075
10
86.101637538522482
20
67.465894222259521
30
0
10
86.097166509545261
20
67.049713635159009
30
0
10
86.089414934285003
20
66.328167172540901
30
0
10
85.752915022071235
20
65.694503948548387
30
0
10
85.610504802316427
20
65.426331162452698
30
0
0
SPLINE
5
290
100
AcDbEntity
8
0
100
AcDbSpline
70
0
71
3
72
9
73
5
74
0
42
0.000000001
43
0.0000000001
44
0.0000000001
40
0
40
0
40
0
40
0
40
0.061922117636732485
40
0.12780710988286187
40
0.12780710988286187
40
0.12780710988286187
40
0.12780710988286187
10
85.610504802316427
20
65.426331162452698
30
0
10
85.45830439992173
20
65.277155650652887
30
0
10
85.144163115749393
20
64.969257733784474
30
0
10
84.704711101564953
20
64.933281056808909
30
0
10
84.478172119706869
20
64.914734959602356
30
0
0
SPLINE
5
291
100
AcDbEntity
8
0
100
AcDbSpline
70
0
71
3
72
9
73
5
74
0
42
0.000000001
43
0.0000000001
44
0.0000000001
40
0
40
0
40
0
40
0
40
0.067386562225899213
40
0.1340900495748274
40
0.1340900495748274
40
0.1340900495748274
40
0.1340900495748274
10
84.478172119706869
20
64.914734959602356
30
0
10
84.24705872113654
20
64.937632195651815
30
0
10
83.787174642648964
20
64.98319456618357
30
0
10
83.462841302575015
20
65.312146857022185
30
0
10
83.301500733941793
20
65.475785136222839
30
0
0
SPLINE
5
292
100
AcDbEntity
8
0
100
AcDbSpline
70
0
71
3
72
9
73
5
74
0
42
0.000000001
43
0.0000000001
44
0.0000000001
40
0
40
0
40
0
40
0
40
0.084949440409265747
40
0.20743291700256605
40
0.20743291700256605
40
0.20743291700256605
40
0.20743291700256605
10
83.301500733941793
20
65.475785136222839
30
0
10
83.172218073294886
20
65.731528339824692
30
0
10
82.856530538607871
20
66.356012250149831
30
0
10
82.85538381178543
20
67.060276899626132
30
0
10
82.854706700891256
20
67.476125955581665
30
0
0
SPLINE
5
293
100
AcDbEntity
8
0
100
AcDbSpline
70
0
71
3
72
9
73
5
74
0
42
0.000000001
43
0.0000000001
44
0.0000000001
40
0
40
0
40
0
40
0
40
0.12203806301379169
40
0.21179954196233111
40
0.21179954196233111
40
0.21179954196233111
40
0.21179954196233111
10
67.824010942131281
20
67.476125955581665
30
0
10
67.828636321754175
20
67.890583231891227
30
0
10
67.836663762221022
20
68.609882269564395
30
0
10
68.172720791485418
20
69.24127972908498
30
0
10
68.315143082290888
20
69.508868455886841
30
0
0
SPLINE
5
294
100
AcDbEntity
8
0
100
AcDbSpline
70
0
71
3
72
9
73
5
74
0
42
0.000000001
43
0.0000000001
44
0.0000000001
40
0
40
0
40
0
40
0
40
0.061922117636732485
40
0.12780715678287724
40
0.12780715678287724
40
0.12780715678287724
40
0.12780715678287724
10
68.315143082290888
20
69.508868455886841
30
0
10
68.467343477964675
20
69.658044012024021
30
0
10
68.781484863542147
20
69.965942133390683
30
0
10
69.220937156994708
20
70.001918248653013
30
0
10
69.447476360946894
20
70.020464062690735
30
0
0
SPLINE
5
295
100
AcDbEntity
8
0
100
AcDbSpline
70
0
71
3
72
9
73
5
74
0
42
0.000000001
43
0.0000000001
44
0.0000000001
40
0
40
0
40
0
40
0
40
0.066001928340361962
40
0.12844234877289293
40
0.12844234877289293
40
0.12844234877289293
40
0.12844234877289293
10
69.447476360946894
20
70.020464062690735
30
0
10
69.674395491116854
20
70.001361648599968
30
0
10
70.115989044417759
20
69.964187599375265
30
0
10
70.43038237349927
20
69.653219447165654
30
0
10
70.583220217376947
20
69.502046704292297
30
0
0
SPLINE
5
296
100
AcDbEntity
8
0
100
AcDbSpline
70
0
71
3
72
9
73
5
74
0
42
0.000000001
43
0.0000000001
44
0.0000000001
40
0
40
0
40
0
40
0
40
0.089423245191601705
40
0.21204666467187566
40
0.21204666467187566
40
0.21204666467187566
40
0.21204666467187566
10
70.583220217376947
20
69.502046704292297
30
0
10
70.724610975182628
20
69.235235733950972
30
0
10
71.059886647004703
20
68.602554866269173
30
0
10
71.066890791534306
20
67.882367703330345
30
0
10
71.070941183716059
20
67.465894222259521
30
0
0
SPLINE
5
297
100
AcDbEntity
8
0
100
AcDbSpline
70
0
71
3
72
9
73
5
74
0
42
0.000000001
43
0.0000000001
44
0.0000000001
40
0
40
0
40
0
40
0
40
0.12254707063600076
40
0.21246403138997075
40
0.21246403138997075
40
0.21246403138997075
40
0.21246403138997075
10
71.070941183716059
20
67.465894222259521
30
0
10
71.066470154738838
20
67.049713635159009
30
0
10
71.05871857947858
20
66.328167172540901
30
0
10
70.722218667264812
20
65.694503948548387
30
0
10
70.579808447510004
20
65.426331162452698
30
0
0
SPLINE
5
298
100
AcDbEntity
8
0
100
AcDbSpline
70
0
71
3
72
9
73
5
74
0
42
0.000000001
43
0.0000000001
44
0.0000000001
40
0
40
0
40
0
40
0
40
0.061922117636732485
40
0.12780705141209636
40
0.12780705141209636
40
0.12780705141209636
40
0.12780705141209636
10
70.579808447510004
20
65.426331162452698
30
0
10
70.427608047896342
20
65.277155649533285
30
0
10
70.113466913181256
20
64.969257871214964
30
0
10
69.674015127569135
20
64.933281098294472
30
0
10
69.447476360946894
20
64.914734959602356
30
0
0
SPLINE
5
299
100
AcDbEntity
8
0
100
AcDbSpline
70
0
71
3
72
9
73
5
74
0
42
0.000000001
43
0.0000000001
44
0.0000000001
40
0
40
0
40
0
40
0
40
0.067386562225899213
40
0.1340900495748274
40
0.1340900495748274
40
0.1340900495748274
40
0.1340900495748274
10
69.447476360946894
20
64.914734959602356
30
0
10
69.216362962376564
20
64.937632195651815
30
0
10
68.756478883888988
20
64.98319456618357
30
0
10
68.432145543815025
20
65.312146857022185
30
0
10
68.270804975181818
20
65.475785136222839
30
0
0
SPLINE
5
300
100
AcDbEntity
8
0
100
AcDbSpline
70
0
71
3
72
9
73
5
74
0
42
0.000000001
43
0.0000000001
44
0.0000000001
40
0
40
0
40
0
40
0
40
0.084949440409265747
40
0.20743291700256605
40
0.20743291700256605
40
0.20743291700256605
40
0.20743291700256605
10
68.270804975181818
20
65.475785136222839
30
0
10
68.14152231453491
20
65.731528339824692
30
0
10
67.825834779847909
20
66.356012250149831
30
0
10
67.824688053025469
20
67.060276899626132
30
0
10
67.824010942131281
20
67.476125955581665
30
0
0
SPLINE
5
301
100
AcDbEntity
8
0
100
AcDbSpline
70
0
71
3
72
9
73
5
74
0
42
0.000000001
43
0.0000000001
44
0.0000000001
40
0
40
0
40
0
40
0
40
0.12203806301379169
40
0.21179954196233111
40
0.21179954196233111
40
0.21179954196233111
40
0.21179954196233111
10
52.817189544439316
20
67.476125955581665
30
0
10
52.82181492406221
20
67.890583231891227
30
0
10
52.82984236452905
20
68.609882269564395
30
0
10
53.165899393793453
20
69.24127972908498
30
0
10
53.308321684598923
20
69.508868455886841
30
0
0
SPLINE
5
302
100
AcDbEntity
8
0
100
AcDbSpline
70
0
71
3
72
9
73
5
74
0
42
0.000000001
43
0.0000000001
44
0.0000000001
40
0
40
0
40
0
40
0
40
0.061922117636732485
40
0.12780715678287724
40
0.12780715678287724
40
0.12780715678287724
40
0.12780715678287724
10
53.308321684598923
20
69.508868455886841
30
0
10
53.460522080272703
20
69.658044012024021
30
0
10
53.774663465850168
20
69.965942133390683
30
0
10
54.214115759302743
20
70.001918248653013
30
0
10
54.440654963254929
20
70.020464062690735
30
0
0
SPLINE
5
303
100
AcDbEntity
8
0
100
AcDbSpline
70
0
71
3
72
9
73
5
74
0
42
0.000000001
43
0.0000000001
44
0.0000000001
40
0
40
0
40
0
40
0
40
0.066001928340361962
40
0.12844234877289293
40
0.12844234877289293
40
0.12844234877289293
40
0.12844234877289293
10
54.440654963254929
20
70.020464062690735
30
0
10
54.667574093424889
20
70.001361648599968
30
0
10
55.109167646725794
20
69.964187599375265
30
0
10
55.423560975807305
20
69.653219447165654
30
0
10
55.576398819684982
20
69.502046704292297
30
0
0
SPLINE
5
304
100
AcDbEntity
8
0
100
AcDbSpline
70
0
71
3
72
9
73
5
74
0
42
0.000000001
43
0.0000000001
44
0.0000000001
40
0
40
0
40
0
40
0
40
0.089423245191601705
40
0.21204666467187566
40
0.21204666467187566
40
0.21204666467187566
40
0.21204666467187566
10
55.576398819684982
20
69.502046704292297
30
0
10
55.71778957749067
20
69.235235733950972
30
0
10
56.053065249312738
20
68.602554866269173
30
0
10
56.06006939384234
20
67.882367703330345
30
0
10
56.064119786024094
20
67.465894222259521
30
0
0
SPLINE
5
305
100
AcDbEntity
8
0
100
AcDbSpline
70
0
71
3
72
9
73
5
74
0
42
0.000000001
43
0.0000000001
44
0.0000000001
40
0
40
0
40
0
40
0
40
0.12254707063600076
40
0.21246403138997075
40
0.21246403138997075
40
0.21246403138997075
40
0.21246403138997075
10
56.064119786024094
20
67.465894222259521
30
0
10
56.059648757046872
20
67.049713635159009
30
0
10
56.051897181786607
20
66.328167172540901
30
0
10
55.715397269572847
20
65.694503948548387
30
0
10
55.572987049818039
20
65.426331162452698
30
0
0
SPLINE
5
306
100
AcDbEntity
8
0
100
AcDbSpline
70
0
71
3
72
9
73
5
74
0
42
0.000000001
43
0.0000000001
44
0.0000000001
40
0
40
0
40
0
40
0
40
0.061922117636732485
40
0.12780705141209636
40
0.12780705141209636
40
0.12780705141209636
40
0.12780705141209636
10
55.572987049818039
20
65.426331162452698
30
0
10
55.420786650204377
20
65.277155649533285
30
0
10
55.106645515489291
20
64.969257871214964
30
0
10
54.66719372987717
20
64.933281098294472
30
0
10
54.440654963254929
20
64.914734959602356
30
0
0
SPLINE
5
307
100
AcDbEntity
8
0
100
AcDbSpline
70
0
71
3
72
9
73
5
74
0
42
0.000000001
43
0.0000000001
44
0.0000000001
40
0
40
0
40
0
40
0
40
0.067386562225899213
40
0.1340900495748274
40
0.1340900495748274
40
0.1340900495748274
40
0.1340900495748274
10
54.440654963254929
20
64.914734959602356
30
0
10
54.209541564684599
20
64.937632195651815
30
0
10
53.749657486197016
20
64.98319456618357
30
0
10
53.425324146123067
20
65.312146857022185
30
0
10
53.263983577489853
20
65.475785136222839
30
0
0
SPLINE
5
308
100
AcDbEntity
8
0
100
AcDbSpline
70
0
71
3
72
9
73
5
74
0
42
0.000000001
43
0.0000000001
44
0.0000000001
40
0
40
0
40
0
40
0
40
0.084949440409265747
40
0.20743291700256605
40
0.20743291700256605
40
0.20743291700256605
40
0.20743291700256605
10
53.263983577489853
20
65.475785136222839
30
0
10
53.134700916842945
20
65.731528339824692
30
0
10
52.819013382155937
20
66.356012250149831
30
0
10
52.817866655333503
20
67.060276899626132
30
0
10
52.817189544439316
20
67.476125955581665
30
0
0
SPLINE
5
309
100
AcDbEntity
8
0
100
AcDbSpline
70
0
71
3
72
9
73
5
74
0
42
0.000000001
43
0.0000000001
44
0.0000000001
40
0
40
0
40
0
40
0
40
0.12203806301379169
40
0.21179954196233111
40
0.21179954196233111
40
0.21179954196233111
40
0.21179954196233111
10
37.817189544439316
20
67.476125955581665
30
0
10
37.82181492406221
20
67.890583231891227
30
0
10
37.829842364529057
20
68.609882269564395
30
0
10
38.165899393793453
20
69.24127972908498
30
0
10
38.308321684598923
20
69.508868455886841
30
0
0
SPLINE
5
310
100
AcDbEntity
8
0
100
AcDbSpline
70
0
71
3
72
9
73
5
74
0
42
0.000000001
43
0.0000000001
44
0.0000000001
40
0
40
0
40
0
40
0
40
0.061922117636732485
40
0.12780715678287724
40
0.12780715678287724
40
0.12780715678287724
40
0.12780715678287724
10
38.308321684598923
20
69.508868455886841
30
0
10
38.460522080272696
20
69.658044012024021
30
0
10
38.774663465850175
20
69.965942133390683
30
0
10
39.214115759302743
20
70.001918248653013
30
0
10
39.440654963254929
20
70.020464062690735
30
0
0
SPLINE
5
311
100
AcDbEntity
8
0
100
AcDbSpline
70
0
71
3
72
9
73
5
74
0
42
0.000000001
43
0.0000000001
44
0.0000000001
40
0
40
0
40
0
40
0
40
0.066001928340361962
40
0.12844234877289293
40
0.12844234877289293
40
0.12844234877289293
40
0.12844234877289293
10
39.440654963254929
20
70.020464062690735
30
0
10
39.667574093424889
20
70.001361648599968
30
0
10
40.109167646725794
20
69.964187599375265
30
0
10
40.423560975807305
20
69.653219447165654
30
0
10
40.576398819684982
20
69.502046704292297
30
0
0
SPLINE
5
312
100
AcDbEntity
8
0
100
AcDbSpline
70
0
71
3
72
9
73
5
74
0
42
0.000000001
43
0.0000000001
44
0.0000000001
40
0
40
0
40
0
40
0
40
0.089423245191601705
40
0.21204666467187566
40
0.21204666467187566
40
0.21204666467187566
40
0.21204666467187566
10
40.576398819684982
20
69.502046704292297
30
0
10
40.71778957749067
20
69.235235733950972
30
0
10
41.053065249312738
20
68.602554866269173
30
0
10
41.06006939384234
20
67.882367703330345
30
0
10
41.064119786024094
20
67.465894222259521
30
0
0
SPLINE
5
313
100
AcDbEntity
8
0
100
AcDbSpline
70
0
71
3
72
9
73
5
74
0
42
0.000000001
43
0.0000000001
44
0.0000000001
40
0
40
0
40
0
40
0
40
0.12254707063600076
40
0.21246403138997075
40
0.21246403138997075
40
0.21246403138997075
40
0.21246403138997075
10
41.064119786024094
20
67.465894222259521
30
0
10
41.059648757046872
20
67.049713635159009
30
0
10
41.051897181786607
20
66.328167172540901
30
0
10
40.715397269572847
20
65.694503948548387
30
0
10
40.572987049818039
20
65.426331162452698
30
0
0
SPLINE
5
314
100
AcDbEntity
8
0
100
AcDbSpline
70
0
71
3
72
9
73
5
74
0
42
0.000000001
43
0.0000000001
44
0.0000000001
40
0
40
0
40
0
40
0
40
0.061922117636732485
40
0.12780705141209636
40
0.12780705141209636
40
0.12780705141209636
40
0.12780705141209636
10
40.572987049818039
20
65.426331162452698
30
0
10
40.420786650204377
20
65.277155649533285
30
0
10
40.106645515489291
20
64.969257871214964
30
0
10
39.667193729877162
20
64.933281098294472
30
0
10
39.440654963254929
20
64.914734959602356
30
0
0
SPLINE
5
315
100
AcDbEntity
8
0
100
AcDbSpline
70
0
71
3
72
9
73
5
74
0
42
0.000000001
43
0.0000000001
44
0.0000000001
40
0
40
0
40
0
40
0
40
0.067386562225899213
40
0.1340900495748274
40
0.1340900495748274
40
0.1340900495748274
40
0.1340900495748274
10
39.440654963254929
20
64.914734959602356
30
0
10
39.209541564684592
20
64.937632195651815
30
0
10
38.749657486197016
20
64.98319456618357
30
0
10
38.425324146123067
20
65.312146857022185
30
0
10
38.263983577489853
20
65.475785136222839
30
0
0
SPLINE
5
316
100
AcDbEntity
8
0
100
AcDbSpline
70
0
71
3
72
9
73
5
74
0
42
0.000000001
43
0.0000000001
44
0.0000000001
40
0
40
0
40
0
40
0
40
0.084949440409265747
40
0.20743291700256605
40
0.20743291700256605
40
0.20743291700256605
40
0.20743291700256605
10
38.263983577489853
20
65.475785136222839
30
0
10
38.134700916842938
20
65.731528339824692
30
0
10
37.819013382155944
20
66.356012250149831
30
0
10
37.817866655333503
20
67.060276899626132
30
0
10
37.817189544439316
20
67.476125955581665
30
0
0
SPLINE
5
317
100
AcDbEntity
8
0
100
AcDbSpline
70
0
71
3
72
9
73
5
74
0
42
0.000000001
43
0.0000000001
44
0.0000000001
40
0
40
0
40
0
40
0
40
0.12203806301379169
40
0.21179954196233111
40
0.21179954196233111
40
0.21179954196233111
40
0.21179954196233111
10
22.810368128120899
20
67.476125955581665
30
0
10
22.814993507743793
20
67.890583231891227
30
0
10
22.82302094821064
20
68.609882269564395
30
0
10
23.159077977475032
20
69.24127972908498
30
0
10
23.301500268280506
20
69.508868455886841
30
0
0
SPLINE
5
318
100
AcDbEntity
8
0
100
AcDbSpline
70
0
71
3
72
9
73
5
74
0
42
0.000000001
43
0.0000000001
44
0.0000000001
40
0
40
0
40
0
40
0
40
0.061922117636732485
40
0.12780715678287724
40
0.12780715678287724
40
0.12780715678287724
40
0.12780715678287724
10
23.301500268280506
20
69.508868455886841
30
0
10
23.453700663954283
20
69.658044012024021
30
0
10
23.767842049531758
20
69.965942133390683
30
0
10
24.207294342984326
20
70.001918248653013
30
0
10
24.433833546936512
20
70.020464062690735
30
0
0
SPLINE
5
319
100
AcDbEntity
8
0
100
AcDbSpline
70
0
71
3
72
9
73
5
74
0
42
0.000000001
43
0.0000000001
44
0.0000000001
40
0
40
0
40
0
40
0
40
0.066001928340361962
40
0.12844234877289293
40
0.12844234877289293
40
0.12844234877289293
40
0.12844234877289293
10
24.433833546936512
20
70.020464062690735
30
0
10
24.660752677106473
20
70.001361648599968
30
0
10
25.102346230407381
20
69.964187599375265
30
0
10
25.416739559488892
20
69.653219447165654
30
0
10
25.569577403366566
20
69.502046704292297
30
0
0
SPLINE
5
320
100
AcDbEntity
8
0
100
AcDbSpline
70
0
71
3
72
9
73
5
74
0
42
0.000000001
43
0.0000000001
44
0.0000000001
40
0
40
0
40
0
40
0
40
0.089423245191601705
40
0.21204666467187566
40
0.21204666467187566
40
0.21204666467187566
40
0.21204666467187566
10
25.569577403366566
20
69.502046704292297
30
0
10
25.710968161172254
20
69.235235733950972
30
0
10
26.046243832994325
20
68.602554866269173
30
0
10
26.053247977523924
20
67.882367703330345
30
0
10
26.057298369705677
20
67.465894222259521
30
0
0
SPLINE
5
321
100
AcDbEntity
8
0
100
AcDbSpline
70
0
71
3
72
9
73
5
74
0
42
0.000000001
43
0.0000000001
44
0.0000000001
40
0
40
0
40
0
40
0
40
0.12254707063600076
40
0.21246403138997075
40
0.21246403138997075
40
0.21246403138997075
40
0.21246403138997075
10
26.057298369705677
20
67.465894222259521
30
0
10
26.052827340728459
20
67.049713635159009
30
0
10
26.045075765468191
20
66.328167172540901
30
0
10
25.708575853254434
20
65.694503948548387
30
0
10
25.566165633499622
20
65.426331162452698
30
0
0
SPLINE
5
322
100
AcDbEntity
8
0
100
AcDbSpline
70
0
71
3
72
9
73
5
74
0
42
0.000000001
43
0.0000000001
44
0.0000000001
40
0
40
0
40
0
40
0
40
0.061922117636732485
40
0.12780705141209636
40
0.12780705141209636
40
0.12780705141209636
40
0.12780705141209636
10
25.566165633499622
20
65.426331162452698
30
0
10
25.413965233885961
20
65.277155649533285
30
0
10
25.099824099170878
20
64.969257871214964
30
0
10
24.660372313558746
20
64.933281098294472
30
0
10
24.433833546936512
20
64.914734959602356
30
0
0
SPLINE
5
323
100
AcDbEntity
8
0
100
AcDbSpline
70
0
71
3
72
9
73
5
74
0
42
0.000000001
43
0.0000000001
44
0.0000000001
40
0
40
0
40
0
40
0
40
0.067386562225899213
40
0.1340900495748274
40
0.1340900495748274
40
0.1340900495748274
40
0.1340900495748274
10
24.433833546936512
20
64.914734959602356
30
0
10
24.202720148366176
20
64.937632195651815
30
0
10
23.742836069878599
20
64.98319456618357
30
0
10
23.418502729804651
20
65.312146857022185
30
0
10
23.257162161171436
20
65.475785136222839
30
0
0
SPLINE
5
324
100
AcDbEntity
8
0
100
AcDbSpline
70
0
71
3
72
9
73
5
74
0
42
0.000000001
43
0.0000000001
44
0.0000000001
40
0
40
0
40
0
40
0
40
0.084949440409265747
40
0.20743291700256605
40
0.20743291700256605
40
0.20743291700256605
40
0.20743291700256605
10
23.257162161171436
20
65.475785136222839
30
0
10
23.127879500524529
20
65.731528339824692
30
0
10
22.812191965837528
20
66.356012250149831
30
0
10
22.811045239015087
20
67.060276899626132
30
0
10
22.810368128120899
20
67.476125955581665
30
0
0
LWPOLYLINE
5
325
100
AcDbEntity
8
0
100
AcDbPolyline
90
4
70
1
43
0.0
10
10.33492503687738
20
66.048431694507585
10
11.969986539334045
20
69.210096299648271
10
11.671214085072265
20
69.210096299648271
10
10.030013602226958
20
66.048431694507585
0
SPLINE
5
326
100
AcDbEntity
8
0
100
AcDbSpline
70
0
71
3
72
9
73
5
74
0
42
0.000000001
43
0.0000000001
44
0.0000000001
40
0
40
0
40
0
40
0
40
0.025449385259133723
40
0.050875841152637047
40
0.050875841152637047
40
0.050875841152637047
40
0.050875841152637047
10
10.021828096359954
20
67.624147832393632
30
0
10
9.9349130085866086
20
67.632573863755056
30
0
10
9.761161141722269
20
67.649418334799279
30
0
10
9.6327369848542368
20
67.767650438818293
30
0
10
9.5685538463294364
20
67.826739847660036
30
0
0
SPLINE
5
327
100
AcDbEntity
8
0
100
AcDbSpline
70
0
71
3
72
9
73
5
74
0
42
0.000000001
43
0.0000000001
44
0.0000000001
40
0
40
0
40
0
40
0
40
0.028827000676791212
40
0.064873003851627212
40
0.064873003851627212
40
0.064873003851627212
40
0.064873003851627212
10
9.5685538463294364
20
67.826739847660036
30
0
10
9.5158996863926113
20
67.909145061505782
30
0
10
9.397405446957702
20
68.09459181731458
30
0
10
9.3910050325145438
20
68.315733751515594
30
0
10
9.3874487094580985
20
68.438608944416018
30
0
0
SPLINE
5
328
100
AcDbEntity
8
0
100
AcDbSpline
70
0
71
3
72
9
73
5
74
0
42
0.000000001
43
0.0000000001
44
0.0000000001
40
0
40
0
40
0
40
0
40
0.029997278932143611
40
0.057705689273215441
40
0.057705689273215441
40
0.057705689273215441
40
0.057705689273215441
10
9.3874487094580985
20
68.438608944416018
30
0
10
9.3930497936979869
20
68.540071522704153
30
0
10
9.4038245852206188
20
68.735254826789813
30
0
10
9.5019814402504448
20
68.903978384856671
30
0
10
9.549113195389495
20
68.984993994235964
30
0
0
SPLINE
5
329
100
AcDbEntity
8
0
100
AcDbSpline
70
0
71
3
72
9
73
5
74
0
42
0.000000001
43
0.0000000001
44
0.0000000001
40
0
40
0
40
0
40
0
40
0.026019532019707661
40
0.053661868772231336
40
0.053661868772231336
40
0.053661868772231336
40
0.053661868772231336
10
9.549113195389495
20
68.984993994235964
30
0
10
9.6105223294840894
20
69.050632108485928
30
0
10
9.7371706063518086
20
69.186002101715246
30
0
10
9.9223471049823875
20
69.201904596294824
30
0
10
10.017735343426452
20
69.210096299648271
30
0
0
SPLINE
5
330
100
AcDbEntity
8
0
100
AcDbSpline
70
0
71
3
72
9
73
5
74
0
42
0.000000001
43
0.0000000001
44
0.0000000001
40
0
40
0
40
0
40
0
40
0.026297407392538989
40
0.052132248541780862
40
0.052132248541780862
40
0.052132248541780862
40
0.052132248541780862
10
10.017735343426452
20
69.210096299648271
30
0
10
10.107539650534187
20
69.201999446193355
30
0
10
10.28556862458397
20
69.185948161349287
30
0
10
10.41914085274742
20
69.06731658360323
30
0
10
10.485334377735839
20
69.008527100086198
30
0
0
SPLINE
5
331
100
AcDbEntity
8
0
100
AcDbSpline
70
0
71
3
72
9
73
5
74
0
42
0.000000001
43
0.0000000001
44
0.0000000001
40
0
40
0
40
0
40
0
40
0.028502580476649032
40
0.063166848802024
40
0.063166848802024
40
0.063166848802024
40
0.063166848802024
10
10.485334377735839
20
69.008527100086198
30
0
10
10.539216403019381
20
68.928088580670874
30
0
10
10.65862866981468
20
68.74982234270945
30
0
10
10.666314301489431
20
68.534346179416261
30
0
10
10.670531969517455
20
68.416098654270158
30
0
0
SPLINE
5
332
100
AcDbEntity
8
0
100
AcDbSpline
70
0
71
3
72
9
73
5
74
0
42
0.000000001
43
0.0000000001
44
0.0000000001
40
0
40
0
40
0
40
0
40
0.034012212437729339
40
0.062634533812972723
40
0.062634533812972723
40
0.062634533812972723
40
0.062634533812972723
10
10.670531969517455
20
68.416098654270158
30
0
10
10.665795016753759
20
68.300136596235035
30
0
10
10.657071772754518
20
68.086588904848568
30
0
10
10.537794433840384
20
67.91034725040042
30
0
10
10.483287852257476
20
67.829809486865983
30
0
0
SPLINE
5
333
100
AcDbEntity
8
0
100
AcDbSpline
70
0
71
3
72
9
73
5
74
0
42
0.000000001
43
0.0000000001
44
0.0000000001
40
0
40
0
40
0
40
0
40
0.025974491720998246
40
0.05173998293709596
40
0.05173998293709596
40
0.05173998293709596
40
0.05173998293709596
10
10.483287852257476
20
67.829809486865983
30
0
10
10.417435324778722
20
67.769825193135929
30
0
10
10.286260143962352
20
67.650339261806735
30
0
10
10.1097344239348
20
67.632854766347052
30
0
10
10.021828096359954
20
67.624147832393632
30
0
0
SPLINE
5
334
100
AcDbEntity
8
0
100
AcDbSpline
70
0
71
3
72
9
73
5
74
0
42
0.000000001
43
0.0000000001
44
0.0000000001
40
0
40
0
40
0
40
0
40
0.037579421839167515
40
0.067851006068399777
40
0.067851006068399777
40
0.067851006068399777
40
0.067851006068399777
10
9.526262506842615
20
60.606287429728987
30
0
10
9.3986267059449808
20
60.609889513279569
30
0
10
9.1681756484935271
20
60.616393205483668
30
0
10
8.9693386743680819
20
60.731099936242217
30
0
10
8.8806279748678225
20
60.782276103892805
30
0
0
SPLINE
5
335
100
AcDbEntity
8
0
100
AcDbSpline
70
0
71
3
72
9
73
5
74
0
42
0.000000001
43
0.0000000001
44
0.0000000001
40
0
40
0
40
0
40
0
40
0.028425098898219314
40
0.060417342025974874
40
0.060417342025974874
40
0.060417342025974874
40
0.060417342025974874
10
8.8806279748678225
20
60.782276103892805
30
0
10
8.8128178472050465
20
60.851086499675517
30
0
10
8.668687911527547
20
60.997342498004066
30
0
10
8.6219515795220865
20
61.1979034353553
30
0
10
8.5972037166357058
20
61.304104636111738
30
0
0
LINE
5
336
100
AcDbEntity
8
0
100
AcDbLine
10
8.5972037166357076
20
61.304104636111738
30
0
11
8.9614602178335208
21
61.361403177180769
31
0
0
SPLINE
5
337
100
AcDbEntity
8
0
100
AcDbSpline
70
0
71
3
72
9
73
5
74
0
42
0.000000001
43
0.0000000001
44
0.0000000001
40
0
40
0
40
0
40
0
40
0.02019126338711014
40
0.038344207750183691
40
0.038344207750183691
40
0.038344207750183691
40
0.038344207750183691
10
8.9614602178335208
20
61.361403177180769
30
0
10
8.9748997892955593
20
61.293853798117148
30
0
10
9.0004222001687104
20
61.165574186556775
30
0
10
9.0899491213590622
20
61.070707910167954
30
0
10
9.1323330253362673
20
61.025796244540693
30
0
0
SPLINE
5
338
100
AcDbEntity
8
0
100
AcDbSpline
70
0
71
3
72
9
73
5
74
0
42
0.000000001
43
0.0000000001
44
0.0000000001
40
0
40
0
40
0
40
0
40
0.018946569024916118
40
0.041518051654223828
40
0.041518051654223828
40
0.041518051654223828
40
0.041518051654223828
10
9.1323330253362673
20
61.025796244540693
30
0
10
9.1868455108150631
20
60.991843252762607
30
0
10
9.3062999716692971
20
60.917441282432009
30
0
10
9.4474686644144832
20
60.912071594704919
30
0
10
9.5242156833410281
20
60.909152338901045
30
0
0
SPLINE
5
339
100
AcDbEntity
8
0
100
AcDbSpline
70
0
71
3
72
9
73
5
74
0
42
0.000000001
43
0.0000000001
44
0.0000000001
40
0
40
0
40
0
40
0
40
0.022251479493685902
40
0.039628305928861352
40
0.039628305928861352
40
0.039628305928861352
40
0.039628305928861352
10
9.5242156833410281
20
60.909152338901045
30
0
10
9.599930985983768
20
60.910893834957356
30
0
10
9.7347745669453953
20
60.913995315850485
30
0
10
9.8501563640562715
20
60.982469335356704
30
0
10
9.9007507413625735
20
61.012494872012617
30
0
0
SPLINE
5
340
100
AcDbEntity
8
0
100
AcDbSpline
70
0
71
3
72
9
73
5
74
0
42
0.000000001
43
0.0000000001
44
0.0000000001
40
0
40
0
40
0
40
0
40
0.014522487331879091
40
0.027899574552643212
40
0.027899574552643212
40
0.027899574552643212
40
0.027899574552643212
10
9.9007507413625735
20
61.012494872012617
30
0
10
9.9365448260451856
20
61.047405701972757
30
0
10
10.005309887520156
20
61.114473917004332
30
0
10
10.017627814455798
20
61.209451727713969
30
0
10
10.023533925414087
20
61.254991004863264
30
0
0
SPLINE
5
341
100
AcDbEntity
8
0
100
AcDbSpline
70
0
71
3
72
9
73
5
74
0
42
0.000000001
43
0.0000000001
44
0.0000000001
40
0
40
0
40
0
40
0
40
0.011477665601655659
40
0.02323738289255594
40
0.02323738289255594
40
0.02323738289255594
40
0.02323738289255594
10
10.023533925414087
20
61.254991004863264
30
0
10
10.01879953758367
20
61.29452468600072
30
0
10
10.009214419268204
20
61.374563547353404
30
0
10
9.9467084500804717
20
61.425610872831641
30
0
10
9.9150761216878927
20
61.451444337764265
30
0
0
SPLINE
5
342
100
AcDbEntity
8
0
100
AcDbSpline
70
0
71
3
72
9
73
5
74
0
42
0.000000001
43
0.0000000001
44
0.0000000001
40
0
40
0
40
0
40
0
40
0.014328819747218082
40
0.03973976592412172
40
0.03973976592412172
40
0.03973976592412172
40
0.03973976592412172
10
9.9150761216878927
20
61.451444337764265
30
0
10
9.8714334335977476
20
61.47104295433094
30
0
10
9.7503941407879893
20
61.525398054648754
30
0
10
9.621170451431988
20
61.556430535036327
30
0
10
9.5385404676198977
20
61.576273749270918
30
0
0
SPLINE
5
343
100
AcDbEntity
8
0
100
AcDbSpline
70
0
71
3
72
9
73
5
74
0
42
0.000000001
43
0.0000000001
44
0.0000000001
40
0
40
0
40
0
40
0
40
0.035604753939098371
40
0.058948156676347424
40
0.058948156676347424
40
0.058948156676347424
40
0.058948156676347424
10
9.5385404676198977
20
61.576273749270918
30
0
10
9.4232484132738321
20
61.605153523789149
30
0
10
9.2323678894326946
20
61.652967629624278
30
0
10
9.0493017858227187
20
61.724828867168625
30
0
10
8.9768078178167379
20
61.75328583518553
30
0
0
SPLINE
5
344
100
AcDbEntity
8
0
100
AcDbSpline
70
0
71
3
72
9
73
5
74
0
42
0.000000001
43
0.0000000001
44
0.0000000001
40
0
40
0
40
0
40
0
40
0.016389980534170061
40
0.03181657219518965
40
0.03181657219518965
40
0.03181657219518965
40
0.03181657219518965
10
8.9768078178167379
20
61.75328583518553
30
0
10
8.9282191822466999
20
61.779867457602791
30
0
10
8.8338979090605072
20
61.831468257673343
30
0
10
8.7702755200788616
20
61.918010167824022
30
0
10
8.7394275516271627
20
61.959970901408674
30
0
0
SPLINE
5
345
100
AcDbEntity
8
0
100
AcDbSpline
70
0
71
3
72
9
73
5
74
0
42
0.000000001
43
0.0000000001
44
0.0000000001
40
0
40
0
40
0
40
0
40
0.01515515780086042
40
0.030559472936367717
40
0.030559472936367717
40
0.030559472936367717
40
0.030559472936367717
10
8.7394275516271627
20
61.959970901408674
30
0
10
8.7158520731232656
20
62.005332579788124
30
0
10
8.6683135250745753
20
62.096801702115989
30
0
10
8.6618522740784272
20
62.199708005997962
30
0
10
8.6585953086614644
20
62.251580665507795
30
0
0
SPLINE
5
346
100
AcDbEntity
8
0
100
AcDbSpline
70
0
71
3
72
9
73
5
74
0
42
0.000000001
43
0.0000000001
44
0.0000000001
40
0
40
0
40
0
40
0
40
0.014090571309922128
40
0.027937985218895674
40
0.027937985218895674
40
0.027937985218895674
40
0.027937985218895674
10
8.6585953086614644
20
62.251580665507795
30
0
10
8.6612686330094739
20
62.298933481569783
30
0
10
8.6665691488279766
20
62.392821958205325
30
0
10
8.7057051006953952
20
62.478308756287731
30
0
10
8.725102767348293
20
62.520680139461042
30
0
0
SPLINE
5
347
100
AcDbEntity
8
0
100
AcDbSpline
70
0
71
3
72
9
73
5
74
0
42
0.000000001
43
0.0000000001
44
0.0000000001
40
0
40
0
40
0
40
0
40
0.01378695500510487
40
0.027588753328262518
40
0.027588753328262518
40
0.027588753328262518
40
0.027588753328262518
10
8.725102767348293
20
62.520680139461042
30
0
10
8.7492857965249886
20
62.56020828058179
30
0
10
8.7976778908227473
20
62.639307119629358
30
0
10
8.8700182595507631
20
62.697319831820337
30
0
10
8.9062079042196309
20
62.726341793933393
30
0
0
SPLINE
5
348
100
AcDbEntity
8
0
100
AcDbSpline
70
0
71
3
72
9
73
5
74
0
42
0.000000001
43
0.0000000001
44
0.0000000001
40
0
40
0
40
0
40
0
40
0.011723545760600702
40
0.02586996078966633
40
0.02586996078966633
40
0.02586996078966633
40
0.02586996078966633
10
8.9062079042196309
20
62.726341793933393
30
0
10
8.9394188903539007
20
62.747233817621797
30
0
10
9.0127044753317058
20
62.793335555498089
30
0
10
9.0953346477501746
20
62.819480560912126
30
0
10
9.140519127249723
20
62.833777378001692
30
0
0
SPLINE
5
349
100
AcDbEntity
8
0
100
AcDbSpline
70
0
71
3
72
9
73
5
74
0
42
0.000000001
43
0.0000000001
44
0.0000000001
40
0
40
0
40
0
40
0
40
0.015723555516853872
40
0.032208135811688798
40
0.032208135811688798
40
0.032208135811688798
40
0.032208135811688798
10
9.140519127249723
20
62.833777378001692
30
0
10
9.1915074405648216
20
62.846607812420871
30
0
10
9.2959519167713207
20
62.872889678112955
30
0
10
9.4036236947407481
20
62.876120808318575
30
0
10
9.4587316364049965
20
62.877774546542646
30
0
0
SPLINE
5
350
100
AcDbEntity
8
0
100
AcDbSpline
70
0
71
3
72
9
73
5
74
0
42
0.000000001
43
0.0000000001
44
0.0000000001
40
0
40
0
40
0
40
0
40
0.024089984527400524
40
0.045706806293306118
40
0.045706806293306118
40
0.045706806293306118
40
0.045706806293306118
10
9.4587316364049965
20
62.877774546542646
30
0
10
9.5394375644695835
20
62.875426492717324
30
0
10
9.6925638654256385
20
62.870971444552467
30
0
10
9.8387676341498125
20
62.825574616628757
30
0
10
9.9079140275716835
20
62.804104397693159
30
0
0
SPLINE
5
351
100
AcDbEntity
8
0
100
AcDbSpline
70
0
71
3
72
9
73
5
74
0
42
0.000000001
43
0.0000000001
44
0.0000000001
40
0
40
0
40
0
40
0
40
0.018911190908072504
40
0.035193371694982871
40
0.035193371694982871
40
0.035193371694982871
40
0.035193371694982871
10
9.9079140275716835
20
62.804104397693159
30
0
10
9.9667717006896925
20
62.779167337586784
30
0
10
10.076304726780593
20
62.732759936298848
30
0
10
10.156351122493415
20
62.645125850282554
30
0
10
10.193384513258941
20
62.604582021632673
30
0
0
SPLINE
5
352
100
AcDbEntity
8
0
100
AcDbSpline
70
0
71
3
72
9
73
5
74
0
42
0.000000001
43
0.0000000001
44
0.0000000001
40
0
40
0
40
0
40
0
40
0.016637525336025742
40
0.03621807452837672
40
0.03621807452837672
40
0.03621807452837672
40
0.03621807452837672
10
10.193384513258941
20
62.604582021632673
30
0
10
10.222064089517
20
62.556623811309194
30
0
10
10.284496392962239
20
62.452224028248786
30
0
10
10.307709354798222
20
62.332615527227446
30
0
10
10.320258960127834
20
62.267951677241804
30
0
0
LINE
5
353
100
AcDbEntity
8
0
100
AcDbLine
10
10.320258960127834
20
62.267951677241797
30
0
11
9.9600967019796407
21
62.218838642039778
31
0
0
SPLINE
5
354
100
AcDbEntity
8
0
100
AcDbSpline
70
0
71
3
72
9
73
5
74
0
42
0.000000001
43
0.0000000001
44
0.0000000001
40
0
40
0
40
0
40
0
40
0.015685738641357892
40
0.030374947334484526
40
0.030374947334484526
40
0.030374947334484526
40
0.030374947334484526
10
9.9600967019796407
20
62.218838642039778
30
0
10
9.9487101432570242
20
62.271147020612432
30
0
10
9.9266604247561272
20
62.372440576537628
30
0
10
9.8533334920199671
20
62.4454627683794
30
0
10
9.8178728669881874
20
62.480776021876814
30
0
0
SPLINE
5
355
100
AcDbEntity
8
0
100
AcDbSpline
70
0
71
3
72
9
73
5
74
0
42
0.000000001
43
0.0000000001
44
0.0000000001
40
0
40
0
40
0
40
0
40
0.015855456928035552
40
0.035057185989084659
40
0.035057185989084659
40
0.035057185989084659
40
0.035057185989084659
10
9.8178728669881874
20
62.480776021876814
30
0
10
9.7717100839917528
20
62.508166556378875
30
0
10
9.6696419268503284
20
62.56872835959512
30
0
10
9.5505591200538777
20
62.572722140237886
30
0
10
9.485334381461147
20
62.574909637370588
30
0
0
SPLINE
5
356
100
AcDbEntity
8
0
100
AcDbSpline
70
0
71
3
72
9
73
5
74
0
42
0.000000001
43
0.0000000001
44
0.0000000001
40
0
40
0
40
0
40
0
40
0.021843697383444379
40
0.03763029138916367
40
0.03763029138916367
40
0.03763029138916367
40
0.03763029138916367
10
9.485334381461147
20
62.574909637370588
30
0
10
9.4112046587889751
20
62.574312636063397
30
0
10
9.2835008632371281
20
62.573284177705148
30
0
10
9.1705215764778849
20
62.51532337129575
30
0
10
9.123124703764919
20
62.491007755198957
30
0
0
SPLINE
5
357
100
AcDbEntity
8
0
100
AcDbSpline
70
0
71
3
72
9
73
5
74
0
42
0.000000001
43
0.0000000001
44
0.0000000001
40
0
40
0
40
0
40
0
40
0.012210465127425242
40
0.023092560727385754
40
0.023092560727385754
40
0.023092560727385754
40
0.023092560727385754
10
9.123124703764919
20
62.491007755198957
30
0
10
9.0915228139300055
20
62.463048974841158
30
0
10
9.0317569858065649
20
62.410173033872631
30
0
10
9.0201404560066383
20
62.331587108432231
30
0
10
9.014666303992275
20
62.294554422297956
30
0
0
SPLINE
5
358
100
AcDbEntity
8
0
100
AcDbSpline
70
0
71
3
72
9
73
5
74
0
42
0.000000001
43
0.0000000001
44
0.0000000001
40
0
40
0
40
0
40
0
40
0.0068966875567034033
40
0.01385831729839857
40
0.01385831729839857
40
0.01385831729839857
40
0.01385831729839857
10
9.014666303992275
20
62.294554422297956
30
0
10
9.0165770777097443
20
62.271232464199699
30
0
10
9.0204166178142344
20
62.224368938385552
30
0
10
9.0465559644745781
20
62.185272420794021
30
0
10
9.059686884284023
20
62.165632555881025
30
0
0
SPLINE
5
359
100
AcDbEntity
8
0
100
AcDbSpline
70
0
71
3
72
9
73
5
74
0
42
0.000000001
43
0.0000000001
44
0.0000000001
40
0
40
0
40
0
40
0
40
0.0079264296109872907
40
0.01735496186518537
40
0.01735496186518537
40
0.01735496186518537
40
0.01735496186518537
10
9.059686884284023
20
62.165632555881025
30
0
10
9.0780209476578726
20
62.146243605044582
30
0
10
9.1181634817246628
20
62.103791388991851
30
0
10
9.1717662280915988
20
62.080214593726907
30
0
10
9.2008873075246846
20
62.067405889430525
30
0
0
SPLINE
5
360
100
AcDbEntity
8
0
100
AcDbSpline
70
0
71
3
72
9
73
5
74
0
42
0.000000001
43
0.0000000001
44
0.0000000001
40
0
40
0
40
0
40
0
40
0.011408103846882338
40
0.033874897723266927
40
0.033874897723266927
40
0.033874897723266927
40
0.033874897723266927
10
9.2008873075246846
20
62.067405889430525
30
0
10
9.2371591794434966
20
62.055976326418246
30
0
10
9.3448638399175525
20
62.022037708462136
30
0
10
9.4539280358044486
20
61.992717962105992
30
0
10
9.5262625068426168
20
61.97327227393675
30
0
0
SPLINE
5
361
100
AcDbEntity
8
0
100
AcDbSpline
70
0
71
3
72
9
73
5
74
0
42
0.000000001
43
0.0000000001
44
0.0000000001
40
0
40
0
40
0
40
0
40
0.034507581645640696
40
0.057177676892140275
40
0.057177676892140275
40
0.057177676892140275
40
0.057177676892140275
10
9.5262625068426168
20
61.97327227393675
30
0
10
9.6375210283062156
20
61.94372470688365
30
0
10
9.821871930002823
20
61.894765574967074
30
0
10
10.000715385050828
20
61.828623296371383
30
0
10
10.07162414491177
20
61.802398870387556
30
0
0
SPLINE
5
362
100
AcDbEntity
8
0
100
AcDbSpline
70
0
71
3
72
9
73
5
74
0
42
0.000000001
43
0.0000000001
44
0.0000000001
40
0
40
0
40
0
40
0
40
0.016021233538524689
40
0.031331702224023074
40
0.031331702224023074
40
0.031331702224023074
40
0.031331702224023074
10
10.07162414491177
20
61.802398870387556
30
0
10
10.120002670673507
20
61.778213771778823
30
0
10
10.214613460757743
20
61.730916520537519
30
0
10
10.281456389028577
20
61.649030153405931
30
0
10
10.314119681715969
20
61.609015772738935
30
0
0
SPLINE
5
363
100
AcDbEntity
8
0
100
AcDbSpline
70
0
71
3
72
9
73
5
74
0
42
0.000000001
43
0.0000000001
44
0.0000000001
40
0
40
0
40
0
40
0
40
0.015678969065457626
40
0.033110364805749297
40
0.033110364805749297
40
0.033110364805749297
40
0.033110364805749297
10
10.314119681715969
20
61.609015772738935
30
0
10
10.33976553548454
20
61.562658712313635
30
0
10
10.393923660963784
20
61.464763297404915
30
0
10
10.399290019465681
20
61.352811062625264
30
0
10
10.402115210890772
20
61.293872306743147
30
0
0
SPLINE
5
364
100
AcDbEntity
8
0
100
AcDbSpline
70
0
71
3
72
9
73
5
74
0
42
0.000000001
43
0.0000000001
44
0.0000000001
40
0
40
0
40
0
40
0
40
0.01808086874121834
40
0.036718642099013293
40
0.036718642099013293
40
0.036718642099013293
40
0.036718642099013293
10
10.402115210890772
20
61.293872306743147
30
0
10
10.39737321219083
20
61.232977626294854
30
0
10
10.387743157596155
20
61.109312662563497
30
0
10
10.32601249211201
20
61.001655313012733
30
0
10
10.294679030776026
20
60.947010229030134
30
0
0
SPLINE
5
365
100
AcDbEntity
8
0
100
AcDbSpline
70
0
71
3
72
9
73
5
74
0
42
0.000000001
43
0.0000000001
44
0.0000000001
40
0
40
0
40
0
40
0
40
0.019502148496079584
40
0.040361885537757387
40
0.040361885537757387
40
0.040361885537757387
40
0.040361885537757387
10
10.294679030776026
20
60.947010229030134
30
0
10
10.253832481172807
20
60.895390792405486
30
0
10
10.169295961515555
20
60.788558573740644
30
0
10
10.047565223927817
20
60.727078941159256
30
0
10
9.9846526235342044
20
60.695305178561689
30
0
0
SPLINE
5
366
100
AcDbEntity
8
0
100
AcDbSpline
70
0
71
3
72
9
73
5
74
0
42
0.000000001
43
0.0000000001
44
0.0000000001
40
0
40
0
40
0
40
0
40
0.022598144111638623
40
0.04694965628771379
40
0.04694965628771379
40
0.04694965628771379
40
0.04694965628771379
10
9.9846526235342044
20
60.695305178561689
30
0
10
9.9134213313911363
20
60.669351423961395
30
0
10
9.7654319802955083
20
60.615430188136017
30
0
10
9.6079461379866338
20
60.609409959099381
30
0
10
9.526262506842615
20
60.606287429728987
30
0
0
LINE
5
367
100
AcDbEntity
8
0
100
AcDbLine
10
0.9662345796823536
20
61.782958219447615
30
0
11
0.96623457968235138
21
60.655400464931013
31
0
0
LINE
5
368
100
AcDbEntity
8
0
100
AcDbLine
10
0.96623457968235138
20
60.655400464931013
30
0
11
0.59788525104522827
21
60.655400464931013
31
0
0
LINE
5
369
100
AcDbEntity
8
0
100
AcDbLine
10
0.59788525104522827
20
60.655400464931013
30
0
11
0.5978852510452326
21
62.828660915294172
31
0
0
LINE
5
370
100
AcDbEntity
8
0
100
AcDbLine
10
0.5978852510452326
20
62.828660915294172
30
0
11
0.92735320329666693
21
62.828660915294172
31
0
0
LINE
5
371
100
AcDbEntity
8
0
100
AcDbLine
10
0.92735320329666693
20
62.828660915294172
30
0
11
0.92735320329666637
21
62.523749778666975
31
0
0
SPLINE
5
372
100
AcDbEntity
8
0
100
AcDbSpline
70
0
71
3
72
9
73
5
74
0
42
0.000000001
43
0.0000000001
44
0.0000000001
40
0
40
0
40
0
40
0
40
0.018694667677782471
40
0.037701098461670163
40
0.037701098461670163
40
0.037701098461670163
40
0.037701098461670163
10
0.92735320329666637
20
62.523749778666975
30
0
10
0.96450402735816454
20
62.574486335148698
30
0
10
1.0394252241408861
20
62.676805560314541
30
0
10
1.1458632779592328
20
62.745792159479414
30
0
10
1.1995223909616524
20
62.780570695796492
30
0
0
SPLINE
5
373
100
AcDbEntity
8
0
100
AcDbSpline
70
0
71
3
72
9
73
5
74
0
42
0.000000001
43
0.0000000001
44
0.0000000001
40
0
40
0
40
0
40
0
40
0.019570229776537863
40
0.04022866439634093
40
0.04022866439634093
40
0.04022866439634093
40
0.04022866439634093
10
1.1995223909616524
20
62.780570695796492
30
0
10
1.2590294024540749
20
62.808915873993868
30
0
10
1.3813523195527708
20
62.867182367232687
30
0
10
1.516755983174948
20
62.874180323374773
30
0
10
1.5862891823053418
20
62.877773950496199
30
0
0
SPLINE
5
374
100
AcDbEntity
8
0
100
AcDbSpline
70
0
71
3
72
9
73
5
74
0
42
0.000000001
43
0.0000000001
44
0.0000000001
40
0
40
0
40
0
40
0
40
0.022115589801875103
40
0.041277528257392795
40
0.041277528257392795
40
0.041277528257392795
40
0.041277528257392795
10
1.5862891823053418
20
62.877773950496199
30
0
10
1.6609899317683174
20
62.87493010963108
30
0
10
1.8004147594319662
20
62.869622237549848
30
0
10
1.9246103920679778
20
62.806707882846993
30
0
10
1.9822647422552164
20
62.777501652637007
30
0
0
SPLINE
5
375
100
AcDbEntity
8
0
100
AcDbSpline
70
0
71
3
72
9
73
5
74
0
42
0.000000001
43
0.0000000001
44
0.0000000001
40
0
40
0
40
0
40
0
40
0.017834960762581599
40
0.036020783982999113
40
0.036020783982999113
40
0.036020783982999113
40
0.036020783982999113
10
1.9822647422552164
20
62.777501652637007
30
0
10
2.030071419043094
20
62.740464430697216
30
0
10
2.1266252607052576
20
62.665661363363157
30
0
10
2.1755194384309831
20
62.553682057090214
30
0
10
2.2002046555280734
20
62.497147033610823
30
0
0
SPLINE
5
376
100
AcDbEntity
8
0
100
AcDbSpline
70
0
71
3
72
9
73
5
74
0
42
0.000000001
43
0.0000000001
44
0.0000000001
40
0
40
0
40
0
40
0
40
0.04117513301029755
40
0.079814040971104311
40
0.079814040971104311
40
0.079814040971104311
40
0.079814040971104311
10
2.2002046555280734
20
62.497147033610823
30
0
10
2.2903135188548234
20
62.608129985873248
30
0
10
2.4649808965563658
20
62.823259780274938
30
0
10
2.738840291980289
20
62.859991632497938
30
0
10
2.8714188188314491
20
62.877773950496199
30
0
0
SPLINE
5
377
100
AcDbEntity
8
0
100
AcDbSpline
70
0
71
3
72
9
73
5
74
0
42
0.000000001
43
0.0000000001
44
0.0000000001
40
0
40
0
40
0
40
0
40
0.02894647217576489
40
0.053982026658312074
40
0.053982026658312074
40
0.053982026658312074
40
0.053982026658312074
10
2.8714188188314491
20
62.877773950496199
30
0
10
2.9704719261806325
20
62.872728740860651
30
0
10
3.1551952129785663
20
62.86331997286333
30
0
10
3.3010474895668351
20
62.750868091756232
30
0
10
3.3686902374029213
20
62.698715637126448
30
0
0
SPLINE
5
378
100
AcDbEntity
8
0
100
AcDbSpline
70
0
71
3
72
9
73
5
74
0
42
0.000000001
43
0.0000000001
44
0.0000000001
40
0
40
0
40
0
40
0
40
0.026216785211882865
40
0.05891676938036014
40
0.05891676938036014
40
0.05891676938036014
40
0.05891676938036014
10
3.3686902374029213
20
62.698715637126448
30
0
10
3.419265382975655
20
62.625319476278747
30
0
10
3.5329224985985213
20
62.460376877591713
30
0
10
3.5391671023082032
20
62.258989393887717
30
0
10
3.5426329821348235
20
62.147215316691877
30
0
0
LINE
5
379
100
AcDbEntity
8
0
100
AcDbLine
10
3.5426329821348235
20
62.14721531669187
30
0
11
3.5426329821348208
21
60.655400464931013
31
0
0
LINE
5
380
100
AcDbEntity
8
0
100
AcDbLine
10
3.5426329821348208
20
60.655400464931013
30
0
11
3.1763302534818667
21
60.655400464931013
31
0
0
LINE
5
381
100
AcDbEntity
8
0
100
AcDbLine
10
3.1763302534818667
20
60.655400464931013
30
0
11
3.1763302534818694
21
62.024432132640364
31
0
0
SPLINE
5
382
100
AcDbEntity
8
0
100
AcDbSpline
70
0
71
3
72
9
73
5
74
0
42
0.000000001
43
0.0000000001
44
0.0000000001
40
0
40
0
40
0
40
0
40
0.019026850698646854
40
0.032120761281949003
40
0.032120761281949003
40
0.032120761281949003
40
0.032120761281949003
10
3.1763302534818689
20
62.024432132640364
30
0
10
3.1763152341192722
20
62.08816335065579
30
0
10
3.1762898787218807
20
62.19575316005222
30
0
10
3.1508775396477557
20
62.3001057081254
30
0
10
3.1405182927846957
20
62.342644641795637
30
0
0
SPLINE
5
383
100
AcDbEntity
8
0
100
AcDbSpline
70
0
71
3
72
9
73
5
74
0
42
0.000000001
43
0.0000000001
44
0.0000000001
40
0
40
0
40
0
40
0
40
0.010118021851258522
40
0.020636345981322628
40
0.020636345981322628
40
0.020636345981322628
40
0.020636345981322628
10
3.1405182927846957
20
62.342644641795637
30
0
10
3.1258564459321976
20
62.373651637515096
30
0
10
3.0959526812614686
20
62.436892367858896
30
0
10
3.0393985808859396
20
62.478159464655931
30
0
10
3.0105730146169711
20
62.499193261065962
30
0
0
SPLINE
5
384
100
AcDbEntity
8
0
100
AcDbSpline
70
0
71
3
72
9
73
5
74
0
42
0.000000001
43
0.0000000001
44
0.0000000001
40
0
40
0
40
0
40
0
40
0.011158077355574133
40
0.023119486568509137
40
0.023119486568509137
40
0.023119486568509137
40
0.023119486568509137
10
3.0105730146169711
20
62.499193261065962
30
0
10
2.9771423199322218
20
62.516496628182381
30
0
10
2.9078740694881726
20
62.552349127756422
30
0
10
2.8299034123367353
20
62.556428214390856
30
0
10
2.7895634621381808
20
62.558538625636579
30
0
0
SPLINE
5
385
100
AcDbEntity
8
0
100
AcDbSpline
70
0
71
3
72
9
73
5
74
0
42
0.000000001
43
0.0000000001
44
0.0000000001
40
0
40
0
40
0
40
0
40
0.021318912475378142
40
0.041878996441501254
40
0.041878996441501254
40
0.041878996441501254
40
0.041878996441501254
10
2.7895634621381808
20
62.558538625636579
30
0
10
2.7168815777989281
20
62.552659360628759
30
0
10
2.5741048588119444
20
62.541110098037358
30
0
10
2.4633231475429489
20
62.450544671985369
30
0
10
2.4089359492063571
20
62.406082461276533
30
0
0
SPLINE
5
386
100
AcDbEntity
8
0
100
AcDbSpline
70
0
71
3
72
9
73
5
74
0
42
0.000000001
43
0.0000000001
44
0.0000000001
40
0
40
0
40
0
40
0
40
0.022847225647571686
40
0.052075364837338343
40
0.052075364837338343
40
0.052075364837338343
40
0.052075364837338343
10
2.4089359492063571
20
62.406082461276533
30
0
10
2.3649368336986853
20
62.342071055164041
30
0
10
2.2646502593930751
20
62.196170744181948
30
0
10
2.2600727151973983
20
62.018013557445883
30
0
10
2.2575034946203272
20
61.918019960322859
30
0
0
LINE
5
387
100
AcDbEntity
8
0
100
AcDbLine
10
2.2575034946203267
20
61.918019960322859
30
0
11
2.2575034946203245
21
60.655400464931013
31
0
0
LINE
5
388
100
AcDbEntity
8
0
100
AcDbLine
10
2.2575034946203245
20
60.655400464931013
30
0
11
1.8891542404890078
21
60.655400464931013
31
0
0
LINE
5
389
100
AcDbEntity
8
0
100
AcDbLine
10
1.8891542404890078
20
60.655400464931013
30
0
11
1.8891542404890103
21
62.067405889430525
31
0
0
SPLINE
5
390
100
AcDbEntity
8
0
100
AcDbSpline
70
0
71
3
72
9
73
5
74
0
42
0.000000001
43
0.0000000001
44
0.0000000001
40
0
40
0
40
0
40
0
40
0.021604646702225731
40
0.038372537381637067
40
0.038372537381637067
40
0.038372537381637067
40
0.038372537381637067
10
1.8891542404890103
20
62.067405889430525
30
0
10
1.8877033236121854
20
62.14063591232437
30
0
10
1.8851263149315538
20
62.270701533377213
30
0
10
1.8252692156595272
20
62.385563486492252
30
0
10
1.7991130799055148
20
62.435755441585066
30
0
0
SPLINE
5
391
100
AcDbEntity
8
0
100
AcDbSpline
70
0
71
3
72
9
73
5
74
0
42
0.000000001
43
0.0000000001
44
0.0000000001
40
0
40
0
40
0
40
0
40
0.015022461426090126
40
0.032887078724539678
40
0.032887078724539678
40
0.032887078724539678
40
0.032887078724539678
10
1.7991130799055148
20
62.435755441585066
30
0
10
1.7617803770079354
20
62.471496863267205
30
0
10
1.6800518570025353
20
62.549741760374815
30
0
10
1.566251346341232
20
62.555442125546094
30
0
10
1.5044336766004616
20
62.558538625636579
30
0
0
SPLINE
5
392
100
AcDbEntity
8
0
100
AcDbSpline
70
0
71
3
72
9
73
5
74
0
42
0.000000001
43
0.0000000001
44
0.0000000001
40
0
40
0
40
0
40
0
40
0.015103471585126109
40
0.030196007914855973
40
0.030196007914855973
40
0.030196007914855973
40
0.030196007914855973
10
1.5044336766004616
20
62.558538625636579
30
0
10
1.453580434661482
20
62.555132842085172
30
0
10
1.3519107696820911
20
62.548323740846755
30
0
10
1.2619038350742047
20
62.500557461496975
30
0
10
1.2169166654348422
20
62.476682970920088
30
0
0
SPLINE
5
393
100
AcDbEntity
8
0
100
AcDbSpline
70
0
71
3
72
9
73
5
74
0
42
0.000000001
43
0.0000000001
44
0.0000000001
40
0
40
0
40
0
40
0
40
0.015203582374402945
40
0.031087214482026344
40
0.031087214482026344
40
0.031087214482026344
40
0.031087214482026344
10
1.2169166654348422
20
62.476682970920088
30
0
10
1.1757420876341982
20
62.445689930009891
30
0
10
1.0915512107885852
20
62.382317542733091
30
0
10
1.0478885492429593
20
62.286309841962947
30
0
10
1.0255796462297482
20
62.237255881228926
30
0
0
SPLINE
5
394
100
AcDbEntity
8
0
100
AcDbSpline
70
0
71
3
72
9
73
5
74
0
42
0.000000001
43
0.0000000001
44
0.0000000001
40
0
40
0
40
0
40
0
40
0.019744244217364072
40
0.045979964819787202
40
0.045979964819787202
40
0.045979964819787202
40
0.045979964819787202
10
1.0255796462297482
20
62.237255881228926
30
0
10
1.0083570114245548
20
62.173476896823018
30
0
10
0.96824931554473903
20
62.024949790546316
30
0
10
0.96696652658369775
20
61.870872959996966
30
0
10
0.9662345796823536
20
61.782958219447615
30
0
0
SPLINE
5
395
100
AcDbEntity
8
0
100
AcDbSpline
70
0
71
3
72
9
73
5
74
0
42
0.000000001
43
0.0000000001
44
0.0000000001
40
0
40
0
40
0
40
0
40
0.028703726937055245
40
0.056657319493137223
40
0.056657319493137223
40
0.056657319493137223
40
0.056657319493137223
10
4.8298092931509125
20
65.40505976478147
30
0
10
4.743364863218372
20
65.449072889139146
30
0
10
4.5727351155263634
20
65.535948912384896
30
0
10
4.4557433349983029
20
65.687420907508027
30
0
10
4.3980219215154763
20
65.762154171863074
30
0
0
SPLINE
5
396
100
AcDbEntity
8
0
100
AcDbSpline
70
0
71
3
72
9
73
5
74
0
42
0.000000001
43
0.0000000001
44
0.0000000001
40
0
40
0
40
0
40
0
40
0.028069548301222609
40
0.056948158663850112
40
0.056948158663850112
40
0.056948158663850112
40
0.056948158663850112
10
4.3980219215154763
20
65.762154171863074
30
0
10
4.3520045902344524
20
65.844916131271859
30
0
10
4.2586435480489406
20
66.012825537763348
30
0
10
4.2418195849230509
20
66.204286173663746
30
0
10
4.233288094401372
20
66.301376531520361
30
0
0
LINE
5
397
100
AcDbEntity
8
0
100
AcDbLine
10
4.233288094401372
20
66.301376531520361
30
0
11
4.6077763289213305
21
66.334118554988379
31
0
0
SPLINE
5
398
100
AcDbEntity
8
0
100
AcDbSpline
70
0
71
3
72
9
73
5
74
0
42
0.000000001
43
0.0000000001
44
0.0000000001
40
0
40
0
40
0
40
0
40
0.020961868856971207
40
0.039232542919217517
40
0.039232542919217517
40
0.039232542919217517
40
0.039232542919217517
10
4.6077763289213305
20
66.334118554988379
30
0
10
4.6183404660733745
20
66.26437883294679
30
0
10
4.6381124609775535
20
66.133852940582884
30
0
10
4.7018840633484356
20
66.018476996226099
30
0
10
4.7315826267004129
20
65.964746187129492
30
0
0
SPLINE
5
399
100
AcDbEntity
8
0
100
AcDbSpline
70
0
71
3
72
9
73
5
74
0
42
0.000000001
43
0.0000000001
44
0.0000000001
40
0
40
0
40
0
40
0
40
0.018002910570106428
40
0.03854064026257023
40
0.03854064026257023
40
0.03854064026257023
40
0.03854064026257023
10
4.7315826267004129
20
65.964746187129492
30
0
10
4.7704629279108017
20
65.918121684325087
30
0
10
4.853697896857331
20
65.818307924599509
30
0
10
4.9709453234201835
20
65.761650348944301
30
0
10
5.0334247201681244
20
65.731458375850195
30
0
0
SPLINE
5
400
100
AcDbEntity
8
0
100
AcDbSpline
70
0
71
3
72
9
73
5
74
0
42
0.000000001
43
0.0000000001
44
0.0000000001
40
0
40
0
40
0
40
0
40
0.022744745602919329
40
0.047147249805186087
40
0.047147249805186087
40
0.047147249805186087
40
0.047147249805186087
10
5.0334247201681244
20
65.731458375850195
30
0
10
5.1051714174146809
20
65.705503798255251
30
0
10
5.2538940945918799
20
65.651702934758248
30
0
10
5.4120187845152596
20
65.645599596698133
30
0
10
5.4938610643148529
20
65.642440627017493
30
0
0
SPLINE
5
401
100
AcDbEntity
8
0
100
AcDbSpline
70
0
71
3
72
9
73
5
74
0
42
0.000000001
43
0.0000000001
44
0.0000000001
40
0
40
0
40
0
40
0
40
0.021451255007361444
40
0.040848594064844625
40
0.040848594064844625
40
0.040848594064844625
40
0.040848594064844625
10
5.4938610643148529
20
65.642440627017493
30
0
10
5.5657365180189187
20
65.644643577411458
30
0
10
5.7026054905138315
20
65.64883854998331
30
0
10
5.8330227688117731
20
65.690288364966889
30
0
10
5.8949526399374115
20
65.709971199431891
30
0
0
SPLINE
5
402
100
AcDbEntity
8
0
100
AcDbSpline
70
0
71
3
72
9
73
5
74
0
42
0.000000001
43
0.0000000001
44
0.0000000001
40
0
40
0
40
0
40
0
40
0.017152138213444714
40
0.032165627583307994
40
0.032165627583307994
40
0.032165627583307994
40
0.032165627583307994
10
5.8949526399374115
20
65.709971199431891
30
0
10
5.9481139701792864
20
65.733100580714137
30
0
10
6.0478081033021773
20
65.77647540986365
30
0
10
6.1200848149072726
20
65.85739800727039
30
0
10
6.153820380568515
20
65.895169089236731
30
0
0
SPLINE
5
403
100
AcDbEntity
8
0
100
AcDbSpline
70
0
71
3
72
9
73
5
74
0
42
0.000000001
43
0.0000000001
44
0.0000000001
40
0
40
0
40
0
40
0
40
0.013854758344612238
40
0.027400412198793356
40
0.027400412198793356
40
0.027400412198793356
40
0.027400412198793356
10
6.153820380568515
20
65.895169089236731
30
0
10
6.1785891732038767
20
65.935019392266327
30
0
10
6.2275741580729358
20
66.013830924167365
30
0
10
6.2350495483198154
20
66.106284835669342
30
0
10
6.2387450784444933
20
66.151990304389471
30
0
0
SPLINE
5
404
100
AcDbEntity
8
0
100
AcDbSpline
70
0
71
3
72
9
73
5
74
0
42
0.000000001
43
0.0000000001
44
0.0000000001
40
0
40
0
40
0
40
0
40
0.013382174691210879
40
0.026360212484241086
40
0.026360212484241086
40
0.026360212484241086
40
0.026360212484241086
10
6.2387450784444933
20
66.151990304389471
30
0
10
6.2355483950384505
20
66.197286694448209
30
0
10
6.2292515669239972
20
66.286511539756887
30
0
10
6.1807623367976721
20
66.361607477392241
30
0
10
6.1568894237280016
20
66.398579786220068
30
0
0
SPLINE
5
405
100
AcDbEntity
8
0
100
AcDbSpline
70
0
71
3
72
9
73
5
74
0
42
0.000000001
43
0.0000000001
44
0.0000000001
40
0
40
0
40
0
40
0
40
0.014547182573352965
40
0.032587619319398145
40
0.032587619319398145
40
0.032587619319398145
40
0.032587619319398145
10
6.1568894237280016
20
66.398579786220068
30
0
10
6.1223661578791564
20
66.433305187649069
30
0
10
6.0450294612733604
20
66.511094694777029
30
0
10
5.9431608078816538
20
66.552609412628129
30
0
10
5.8867665380239611
20
66.57559187213468
30
0
0
SPLINE
5
406
100
AcDbEntity
8
0
100
AcDbSpline
70
0
71
3
72
9
73
5
74
0
42
0.000000001
43
0.0000000001
44
0.0000000001
40
0
40
0
40
0
40
0
40
0.020299898786986972
40
0.055396193620774206
40
0.055396193620774206
40
0.055396193620774206
40
0.055396193620774206
10
5.8867665380239611
20
66.57559187213468
30
0
10
5.8223112812253062
20
66.596255464332771
30
0
10
5.6464199665462456
20
66.652644137316656
30
0
10
5.4665912454040591
20
66.695045406290063
30
0
10
5.3526606410741939
20
66.721908758082861
30
0
0
SPLINE
5
407
100
AcDbEntity
8
0
100
AcDbSpline
70
0
71
3
72
9
73
5
74
0
42
0.000000001
43
0.0000000001
44
0.0000000001
40
0
40
0
40
0
40
0
40
0.036445650082799805
40
0.060955946353945481
40
0.060955946353945481
40
0.060955946353945481
40
0.060955946353945481
10
5.3526606410741939
20
66.721908758082861
30
0
10
5.2342150471330644
20
66.750208232653605
30
0
10
5.0361128523928445
20
66.797539567116303
30
0
10
4.8488369374289739
20
66.877143823175629
30
0
10
4.7735335677862309
20
66.909152577319617
30
0
0
SPLINE
5
408
100
AcDbEntity
8
0
100
AcDbSpline
70
0
71
3
72
9
73
5
74
0
42
0.000000001
43
0.0000000001
44
0.0000000001
40
0
40
0
40
0
40
0
40
0.022596383633647577
40
0.042870105814286519
40
0.042870105814286519
40
0.042870105814286519
40
0.042870105814286519
10
4.7735335677862309
20
66.909152577319617
30
0
10
4.7075607697107582
20
66.947264677644696
30
0
10
4.5823964566855295
20
67.019571370619559
30
0
10
4.494731779442124
20
67.134251123858945
30
0
10
4.4532742351293706
20
67.188484380641455
30
0
0
SPLINE
5
409
100
AcDbEntity
8
0
100
AcDbSpline
70
0
71
3
72
9
73
5
74
0
42
0.000000001
43
0.0000000001
44
0.0000000001
40
0
40
0
40
0
40
0
40
0.019362440957992586
40
0.039208975793604564
40
0.039208975793604564
40
0.039208975793604564
40
0.039208975793604564
10
4.4532742351293706
20
67.188484380641455
30
0
10
4.4225370951587522
20
67.246155911072734
30
0
10
4.360294334564295
20
67.362940858051573
30
0
10
4.3520556674823165
20
67.495069511211213
30
0
10
4.3478854745626601
20
67.561949501433844
30
0
0
SPLINE
5
410
100
AcDbEntity
8
0
100
AcDbSpline
70
0
71
3
72
9
73
5
74
0
42
0.000000001
43
0.0000000001
44
0.0000000001
40
0
40
0
40
0
40
0
40
0.022208169091605608
40
0.044864494281999893
40
0.044864494281999893
40
0.044864494281999893
40
0.044864494281999893
10
4.3478854745626601
20
67.561949501433844
30
0
10
4.3534687203461049
20
67.63675135047842
30
0
10
4.3647478806178537
20
67.787864533870547
30
0
10
4.4392064613724891
20
67.919898001216154
30
0
10
4.476807639002816
20
67.986574182906622
30
0
0
SPLINE
5
411
100
AcDbEntity
8
0
100
AcDbSpline
70
0
71
3
72
9
73
5
74
0
42
0.000000001
43
0.0000000001
44
0.0000000001
40
0
40
0
40
0
40
0
40
0.023520100669800457
40
0.048699688916191725
40
0.048699688916191725
40
0.048699688916191725
40
0.048699688916191725
10
4.476807639002816
20
67.986574182906622
30
0
10
4.5260518614505649
20
68.048968640842332
30
0
10
4.628014788726821
20
68.178159868984693
30
0
10
4.7765460812087364
20
68.249489581309035
30
0
10
4.8533423990011375
20
68.286369750895972
30
0
0
SPLINE
5
412
100
AcDbEntity
8
0
100
AcDbSpline
70
0
71
3
72
9
73
5
74
0
42
0.000000001
43
0.0000000001
44
0.0000000001
40
0
40
0
40
0
40
0
40
0.027245635483229974
40
0.056263752883346632
40
0.056263752883346632
40
0.056263752883346632
40
0.056263752883346632
10
4.8533423990011375
20
68.286369750895972
30
0
10
4.9396797509483434
20
68.316204624231474
30
0
10
5.1179711854626913
20
68.377815297312935
30
0
10
5.3065566561287634
20
68.384989015848475
30
0
10
5.403819903731363
20
68.388688872256751
30
0
0
SPLINE
5
413
100
AcDbEntity
8
0
100
AcDbSpline
70
0
71
3
72
9
73
5
74
0
42
0.000000001
43
0.0000000001
44
0.0000000001
40
0
40
0
40
0
40
0
40
0.03150114643815588
40
0.060106610973807234
40
0.060106610973807234
40
0.060106610973807234
40
0.060106610973807234
10
5.403819903731363
20
68.388688872256751
30
0
10
5.509455325733466
20
68.385140561885223
30
0
10
5.7110158380722664
20
68.378370112703806
30
0
10
5.9015014727736705
20
68.312569090199645
30
0
10
5.9921558946371238
20
68.281253586211676
30
0
0
SPLINE
5
414
100
AcDbEntity
8
0
100
AcDbSpline
70
0
71
3
72
9
73
5
74
0
42
0.000000001
43
0.0000000001
44
0.0000000001
40
0
40
0
40
0
40
0
40
0.026155535085879613
40
0.050928234970641945
40
0.050928234970641945
40
0.050928234970641945
40
0.050928234970641945
10
5.9921558946371238
20
68.281253586211676
30
0
10
6.0715154711480359
20
68.242212175769112
30
0
10
6.2260389074473874
20
68.166193462404024
30
0
10
6.3323340684135401
20
68.030898149568657
30
0
10
6.3840385526418846
20
67.965087304511542
30
0
0
SPLINE
5
415
100
AcDbEntity
8
0
100
AcDbSpline
70
0
71
3
72
9
73
5
74
0
42
0.000000001
43
0.0000000001
44
0.0000000001
40
0
40
0
40
0
40
0
40
0.024623726037919395
40
0.049990076777124796
40
0.049990076777124796
40
0.049990076777124796
40
0.049990076777124796
10
6.3840385526418846
20
67.965087304511542
30
0
10
6.4244769172156477
20
67.892572561520566
30
0
10
6.5065732233015261
20
67.74535611003752
30
0
10
6.5230284275178407
20
67.577531342755691
30
0
10
6.5313782542944097
20
67.492372403541083
30
0
0
LINE
5
416
100
AcDbEntity
8
0
100
AcDbLine
10
6.5313782542944097
20
67.492372403541083
30
0
11
6.1507507413625859
21
67.463722983994955
31
0
0
SPLINE
5
417
100
AcDbEntity
8
0
100
AcDbSpline
70
0
71
3
72
9
73
5
74
0
42
0.000000001
43
0.0000000001
44
0.0000000001
40
0
40
0
40
0
40
0
40
0.025856440269629816
40
0.048693021163162764
40
0.048693021163162764
40
0.048693021163162764
40
0.048693021163162764
10
6.1507507413625859
20
67.463722983994955
30
0
10
6.136443819219652
20
67.550992792856164
30
0
10
6.1095009277999122
20
67.715339880292447
30
0
10
5.9961859500016992
20
67.836595776522358
30
0
10
5.9430422633886497
20
67.893463681140418
30
0
0
SPLINE
5
418
100
AcDbEntity
8
0
100
AcDbSpline
70
0
71
3
72
9
73
5
74
0
42
0.000000001
43
0.0000000001
44
0.0000000001
40
0
40
0
40
0
40
0
40
0.024480930791827206
40
0.055060628509290943
40
0.055060628509290943
40
0.055060628509290943
40
0.055060628509290943
10
5.9430422633886497
20
67.893463681140418
30
0
10
5.8717370137261025
20
67.935707209600409
30
0
10
5.7113627250269801
20
68.03071810797006
30
0
10
5.5241599953666487
20
68.035886642703488
30
0
10
5.4201909154653709
20
68.038757155337805
30
0
0
SPLINE
5
419
100
AcDbEntity
8
0
100
AcDbSpline
70
0
71
3
72
9
73
5
74
0
42
0.000000001
43
0.0000000001
44
0.0000000001
40
0
40
0
40
0
40
0
40
0.031305010683049778
40
0.054846692522023448
40
0.054846692522023448
40
0.054846692522023448
40
0.054846692522023448
10
5.4201909154653709
20
68.038757155337805
30
0
10
5.3138272170467218
20
68.037141405427661
30
0
10
5.1274769512143088
20
68.03431059538859
30
0
10
4.9650229746908296
20
67.945069877989951
30
0
10
4.8952933400869529
20
67.906765351691718
30
0
0
SPLINE
5
420
100
AcDbEntity
8
0
100
AcDbSpline
70
0
71
3
72
9
73
5
74
0
42
0.000000001
43
0.0000000001
44
0.0000000001
40
0
40
0
40
0
40
0
40
0.019091710965446571
40
0.036842440234432422
40
0.036842440234432422
40
0.036842440234432422
40
0.036842440234432422
10
4.8952933400869529
20
67.906765351691718
30
0
10
4.8472646077013239
20
67.861717370863474
30
0
10
4.7545806305734652
20
67.774785531996329
30
0
10
4.7383696727280427
20
67.649105382383539
30
0
10
4.7305592149496229
20
67.58855254451322
30
0
0
SPLINE
5
421
100
AcDbEntity
8
0
100
AcDbSpline
70
0
71
3
72
9
73
5
74
0
42
0.000000001
43
0.0000000001
44
0.0000000001
40
0
40
0
40
0
40
0
40
0.015019770380480213
40
0.029764491926034906
40
0.029764491926034906
40
0.029764491926034906
40
0.029764491926034906
10
4.7305592149496229
20
67.58855254451322
30
0
10
4.7352372164160119
20
67.53721601927019
30
0
10
4.7445075536681243
20
67.435483066475328
30
0
10
4.8131828038927802
20
67.359943279687243
30
0
10
4.8472031205892714
20
67.322522411742682
30
0
0
SPLINE
5
422
100
AcDbEntity
8
0
100
AcDbSpline
70
0
71
3
72
9
73
5
74
0
42
0.000000001
43
0.0000000001
44
0.0000000001
40
0
40
0
40
0
40
0
40
0.023234736537568801
40
0.063864704548343684
40
0.063864704548343684
40
0.063864704548343684
40
0.063864704548343684
10
4.8472031205892714
20
67.322522411742682
30
0
10
4.9151516177952423
20
67.284653609664502
30
0
10
5.1019198512781827
20
67.180564637000117
30
0
10
5.3120735516842785
20
67.136627522706533
30
0
10
5.4457708448171749
20
67.108675251403326
30
0
0
SPLINE
5
423
100
AcDbEntity
8
0
100
AcDbSpline
70
0
71
3
72
9
73
5
74
0
42
0.000000001
43
0.0000000001
44
0.0000000001
40
0
40
0
40
0
40
0
40
0.042069465890282862
40
0.069169696858092655
40
0.069169696858092655
40
0.069169696858092655
40
0.069169696858092655
10
5.4457708448171749
20
67.108675251403326
30
0
10
5.5828354254605674
20
67.078053312952747
30
0
10
5.8081940149375715
20
67.027705390653054
30
0
10
6.0249133931388599
20
66.948406762588192
30
0
10
6.1098226159811153
20
66.917338083186621
30
0
0
SPLINE
5
424
100
AcDbEntity
8
0
100
AcDbSpline
70
0
71
3
72
9
73
5
74
0
42
0.000000001
43
0.0000000001
44
0.0000000001
40
0
40
0
40
0
40
0
40
0.026562699247804945
40
0.049779873877907582
40
0.049779873877907582
40
0.049779873877907582
40
0.049779873877907582
10
6.1098226159811153
20
66.917338083186621
30
0
10
6.1897672961079353
20
66.87675409041843
30
0
10
6.3395877664146774
20
66.800697586423254
30
0
10
6.446654038858183
20
66.671609912712427
30
0
10
6.4965894073248034
20
66.611403832831854
30
0
0
SPLINE
5
425
100
AcDbEntity
8
0
100
AcDbSpline
70
0
71
3
72
9
73
5
74
0
42
0.000000001
43
0.0000000001
44
0.0000000001
40
0
40
0
40
0
40
0
40
0.022016431224702471
40
0.044970017443046142
40
0.044970017443046142
40
0.044970017443046142
40
0.044970017443046142
10
6.4965894073248034
20
66.611403832831854
30
0
10
6.5329936337483527
20
66.54651997846787
30
0
10
6.6073516748204604
20
66.413990413038263
30
0
10
6.6166650751326985
20
66.26220625949388
30
0
10
6.6214188188314562
20
66.184732625880713
30
0
0
SPLINE
5
426
100
AcDbEntity
8
0
100
AcDbSpline
70
0
71
3
72
9
73
5
74
0
42
0.000000001
43
0.0000000001
44
0.0000000001
40
0
40
0
40
0
40
0
40
0.023503356710768929
40
0.047670899180900186
40
0.047670899180900186
40
0.047670899180900186
40
0.047670899180900186
10
6.6214188188314562
20
66.184732625880713
30
0
10
6.6153941940781111
20
66.105596741934193
30
0
10
6.6031746935721358
20
65.945088658274884
30
0
10
6.5242988475070165
20
65.804684691806131
30
0
10
6.4843114465475189
20
65.733504603305335
30
0
0
SPLINE
5
427
100
AcDbEntity
8
0
100
AcDbSpline
70
0
71
3
72
9
73
5
74
0
42
0.000000001
43
0.0000000001
44
0.0000000001
40
0
40
0
40
0
40
0
40
0.025168572994330039
40
0.051892754146618543
40
0.051892754146618543
40
0.051892754146618543
40
0.051892754146618543
10
6.4843114465475189
20
65.733504603305335
30
0
10
6.4324037205306599
20
65.666279676196069
30
0
10
6.3253799784571738
20
65.527674813068046
30
0
10
6.170264619549128
20
65.446064855618729
30
0
10
6.0903819650411704
20
65.4040366510539
30
0
0
SPLINE
5
428
100
AcDbEntity
8
0
100
AcDbSpline
70
0
71
3
72
9
73
5
74
0
42
0.000000001
43
0.0000000001
44
0.0000000001
40
0
40
0
40
0
40
0
40
0.028684892403881432
40
0.059343089585522993
40
0.059343089585522993
40
0.059343089585522993
40
0.059343089585522993
10
6.0903819650411704
20
65.4040366510539
30
0
10
6.0004174390246465
20
65.369727560657068
30
0
10
5.8142995044774937
20
65.298749172579079
30
0
10
5.6151593384878211
20
65.290586620346843
30
0
10
5.5122783035039999
20
65.286369631686682
30
0
0
SPLINE
5
429
100
AcDbEntity
8
0
100
AcDbSpline
70
0
71
3
72
9
73
5
74
0
42
0.000000001
43
0.0000000001
44
0.0000000001
40
0
40
0
40
0
40
0
40
0.037540645826771891
40
0.069624006225870463
40
0.069624006225870463
40
0.069624006225870463
40
0.069624006225870463
10
5.5122783035039999
20
65.286369631686682
30
0
10
5.3863153366936265
20
65.289566793745905
30
0
10
5.152700645409328
20
65.295496346267299
30
0
10
4.9316646451084347
20
65.37049823045615
30
0
10
4.8298092931509125
20
65.40505976478147
30
0
0
SPLINE
5
430
100
AcDbEntity
8
0
100
AcDbSpline
70
0
71
3
72
9
73
5
74
0
42
0.000000001
43
0.0000000001
44
0.0000000001
40
0
40
0
40
0
40
0
40
0.12203806901063394
40
0.21179954795917336
40
0.21179954795917336
40
0.21179954795917336
40
0.21179954795917336
10
7.6892904937267303
20
37.476125955581665
30
0
10
7.6939161261524491
20
37.890583226842118
30
0
10
7.7019440051965447
20
38.609882240772819
30
0
10
8.0380009703361583
20
39.241279725836257
30
0
10
8.180423229932785
20
39.508868455886841
30
0
0
SPLINE
5
431
100
AcDbEntity
8
0
100
AcDbSpline
70
0
71
3
72
9
73
5
74
0
42
0.000000001
43
0.0000000001
44
0.0000000001
40
0
40
0
40
0
40
0
40
0.061922117636732485
40
0.12780709831209944
40
0.12780709831209944
40
0.12780709831209944
40
0.12780709831209944
10
8.180423229932785
20
39.508868455886841
30
0
10
8.3326236228255048
20
39.658044013143673
30
0
10
8.6467648589456498
20
39.965941995960343
30
0
10
9.086216923826008
20
40.001918207167421
30
0
10
9.3127559125423431
20
40.020464062690735
30
0
0
SPLINE
5
432
100
AcDbEntity
8
0
100
AcDbSpline
70
0
71
3
72
9
73
5
74
0
42
0.000000001
43
0.0000000001
44
0.0000000001
40
0
40
0
40
0
40
0
40
0.066001869896162538
40
0.1284422903286935
40
0.1284422903286935
40
0.1284422903286935
40
0.1284422903286935
10
9.3127559125423431
20
40.020464062690735
30
0
10
9.5396748273282821
20
40.001361607057753
30
0
10
9.9812681515759394
20
39.964187460987908
30
0
10
10.295661331846095
20
39.653219448183066
30
0
10
10.448499172925949
20
39.502046704292297
30
0
0
SPLINE
5
433
100
AcDbEntity
8
0
100
AcDbSpline
70
0
71
3
72
9
73
5
74
0
42
0.000000001
43
0.0000000001
44
0.0000000001
40
0
40
0
40
0
40
0
40
0.089423293954965802
40
0.21204671343523976
40
0.21204671343523976
40
0.21204671343523976
40
0.21204671343523976
10
10.448499172925949
20
39.502046704292297
30
0
10
10.589890414611906
20
39.235235769690703
30
0
10
10.925167128117156
20
38.602555186269718
30
0
10
10.932171061950262
20
37.882367759896248
30
0
10
10.936221331357956
20
37.465894222259521
30
0
0
SPLINE
5
434
100
AcDbEntity
8
0
100
AcDbSpline
70
0
71
3
72
9
73
5
74
0
42
0.000000001
43
0.0000000001
44
0.0000000001
40
0
40
0
40
0
40
0
40
0.12254707063600076
40
0.21246403138997075
40
0.21246403138997075
40
0.21246403138997075
40
0.21246403138997075
10
10.936221331357956
20
37.465894222259521
30
0
10
10.93175030238074
20
37.049713635159016
30
0
10
10.92399872712047
20
36.328167172540901
30
0
10
10.587498814906713
20
35.694503948548387
30
0
10
10.445088595151901
20
35.426331162452698
30
0
0
SPLINE
5
435
100
AcDbEntity
8
0
100
AcDbSpline
70
0
71
3
72
9
73
5
74
0
42
0.000000001
43
0.0000000001
44
0.0000000001
40
0
40
0
40
0
40
0
40
0.061922117636732485
40
0.12780710988286187
40
0.12780710988286187
40
0.12780710988286187
40
0.12780710988286187
10
10.445088595151901
20
35.426331162452698
30
0
10
10.292888192757207
20
35.277155650652887
30
0
10
9.9787469085848635
20
34.969257733784474
30
0
10
9.5392948944004257
20
34.933281056808909
30
0
10
9.3127559125423431
20
34.914734959602356
30
0
0
SPLINE
5
436
100
AcDbEntity
8
0
100
AcDbSpline
70
0
71
3
72
9
73
5
74
0
42
0.000000001
43
0.0000000001
44
0.0000000001
40
0
40
0
40
0
40
0
40
0.067386562225899213
40
0.1340900495748274
40
0.1340900495748274
40
0.1340900495748274
40
0.1340900495748274
10
9.3127559125423431
20
34.914734959602356
30
0
10
9.0816425139720067
20
34.937632195651808
30
0
10
8.6217584354844341
20
34.98319456618357
30
0
10
8.2974250954104818
20
35.312146857022185
30
0
10
8.1360845267772675
20
35.475785136222839
30
0
0
SPLINE
5
437
100
AcDbEntity
8
0
100
AcDbSpline
70
0
71
3
72
9
73
5
74
0
42
0.000000001
43
0.0000000001
44
0.0000000001
40
0
40
0
40
0
40
0
40
0.08494941689735723
40
0.20743289892630296
40
0.20743289892630296
40
0.20743289892630296
40
0.20743289892630296
10
8.1360845267772675
20
35.475785136222839
30
0
10
8.0068021353477015
20
35.731528359213968
30
0
10
7.6911151981817563
20
36.356012435307207
30
0
10
7.6899679264588627
20
37.060276933979047
30
0
10
7.6892904937267303
20
37.476125955581665
30
0
0
SPLINE
5
438
100
AcDbEntity
8
0
100
AcDbSpline
70
0
71
3
72
9
73
5
74
0
42
0.000000001
43
0.0000000001
44
0.0000000001
40
0
40
0
40
0
40
0
40
0.063524680905684264
40
0.12081787490454744
40
0.12081787490454744
40
0.12081787490454744
40
0.12081787490454744
10
9.2905865609645844
20
19.914734959602356
30
0
10
9.0746785667114231
20
19.926768802161178
30
0
10
8.6640421861950081
20
19.949656021178484
30
0
10
8.3232648829109994
20
20.178142867322286
30
0
10
8.1616644561290741
20
20.286493897438049
30
0
0
SPLINE
5
439
100
AcDbEntity
8
0
100
AcDbSpline
70
0
71
3
72
9
73
5
74
0
42
0.000000001
43
0.0000000001
44
0.0000000001
40
0
40
0
40
0
40
0
40
0.055808712723809793
40
0.11476756450682082
40
0.11476756450682082
40
0.11476756450682082
40
0.11476756450682082
10
8.1616644561290741
20
20.286493897438049
30
0
10
8.0304334420750401
20
20.42380545181571
30
0
10
7.760564041121877
20
20.706179151287316
30
0
10
7.6808087346521345
20
21.08909777396029
30
0
10
7.6398365199565887
20
21.285812258720398
30
0
0
LINE
5
440
100
AcDbEntity
8
0
100
AcDbLine
10
7.6398365199565896
20
21.285812258720402
30
0
11
8.594815582036972
21
21.384720802307129
31
0
0
SPLINE
5
441
100
AcDbEntity
8
0
100
AcDbSpline
70
0
71
3
72
9
73
5
74
0
42
0.000000001
43
0.0000000001
44
0.0000000001
40
0
40
0
40
0
40
0
40
0.030141843883123801
40
0.057653002571244422
40
0.057653002571244422
40
0.057653002571244422
40
0.057653002571244422
10
8.594815582036972
20
21.384720802307129
30
0
10
8.6134900769514466
20
21.283932600951957
30
0
10
8.6492092156841522
20
21.091152674998774
30
0
10
8.7763172848752582
20
20.942401274913554
30
0
10
8.8369713723659515
20
20.871419310569763
30
0
0
SPLINE
5
442
100
AcDbEntity
8
0
100
AcDbSpline
70
0
71
3
72
9
73
5
74
0
42
0.000000001
43
0.0000000001
44
0.0000000001
40
0
40
0
40
0
40
0
40
0.025895873489643537
40
0.051071793028290839
40
0.051071793028290839
40
0.051071793028290839
40
0.051071793028290839
10
8.8369713723659515
20
20.871419310569763
30
0
10
8.9059714600214122
20
20.816212893123076
30
0
10
9.0420533032186619
20
20.707334900388126
30
0
10
9.2153777430199728
20
20.690451809634837
30
0
10
9.3008182942867279
20
20.682129263877869
30
0
0
SPLINE
5
443
100
AcDbEntity
8
0
100
AcDbSpline
70
0
71
3
72
9
73
5
74
0
42
0.000000001
43
0.0000000001
44
0.0000000001
40
0
40
0
40
0
40
0
40
0.028374252811111975
40
0.057843627950435905
40
0.057843627950435905
40
0.057843627950435905
40
0.057843627950435905
10
9.3008182942867279
20
20.682129263877869
30
0
10
9.3976566752579487
20
20.693038003898714
30
0
10
9.5950709760859247
20
20.715276513697518
30
0
10
9.736798915990013
20
20.854871046502623
30
0
10
9.8090045154094696
20
20.925989747047424
30
0
0
SPLINE
5
444
100
AcDbEntity
8
0
100
AcDbSpline
70
0
71
3
72
9
73
5
74
0
42
0.000000001
43
0.0000000001
44
0.0000000001
40
0
40
0
40
0
40
0
40
0.034320107995475281
40
0.07756546635888617
40
0.07756546635888617
40
0.07756546635888617
40
0.07756546635888617
10
9.8090045154094696
20
20.925989747047424
30
0
10
9.8694795542985485
20
21.025299361628832
30
0
10
10.006156705638563
20
21.249744942334576
30
0
10
10.013152785752286
20
21.513776490800957
30
0
10
10.017053335905075
20
21.660982966423035
30
0
0
SPLINE
5
445
100
AcDbEntity
8
0
100
AcDbSpline
70
0
71
3
72
9
73
5
74
0
42
0.000000001
43
0.0000000001
44
0.0000000001
40
0
40
0
40
0
40
0
40
0.040617135054200143
40
0.073291772127783483
40
0.073291772127783483
40
0.073291772127783483
40
0.073291772127783483
10
10.017053335905075
20
21.660982966423035
30
0
10
10.012861637782191
20
21.799447944859217
30
0
10
10.005297909241495
20
22.049301698298038
30
0
10
9.8707104410127187
20
22.258412955955997
30
0
10
9.8107092082500458
20
22.351638078689575
30
0
0
SPLINE
5
446
100
AcDbEntity
8
0
100
AcDbSpline
70
0
71
3
72
9
73
5
74
0
42
0.000000001
43
0.0000000001
44
0.0000000001
40
0
40
0
40
0
40
0
40
0.029360343812799346
40
0.059878901955195379
40
0.059878901955195379
40
0.059878901955195379
40
0.059878901955195379
10
9.8107092082500458
20
22.351638078689575
30
0
10
9.7357109330578666
20
22.418778151118911
30
0
10
9.5827558315892105
20
22.555706854675446
30
0
10
9.3779283579989396
20
22.573028105989586
30
0
10
9.2735336720943451
20
22.581856250762939
30
0
0
SPLINE
5
447
100
AcDbEntity
8
0
100
AcDbSpline
70
0
71
3
72
9
73
5
74
0
42
0.000000001
43
0.0000000001
44
0.0000000001
40
0
40
0
40
0
40
0
40
0.040186476365202894
40
0.084518407344428254
40
0.084518407344428254
40
0.084518407344428254
40
0.084518407344428254
10
9.2735336720943451
20
22.581856250762939
30
0
10
9.1371138690805491
20
22.563876243210398
30
0
10
8.8502018149809185
20
22.526061492084391
30
0
10
8.6424137905426743
20
22.323281067027658
30
0
10
8.5334239900112152
20
22.216917872428894
30
0
0
LINE
5
448
100
AcDbEntity
8
0
100
AcDbLine
10
8.5334239900112134
20
22.216917872428898
30
0
11
7.755797952413559
21
22.329468727111816
31
0
0
LINE
5
449
100
AcDbEntity
8
0
100
AcDbLine
10
7.755797952413559
20
22.329468727111816
30
0
11
8.2469300925731659
21
24.931787848472595
31
0
0
LINE
5
450
100
AcDbEntity
8
0
100
AcDbLine
10
8.2469300925731659
20
24.931787848472595
30
0
11
10.78103706240654
21
24.931787848472595
31
0
0
LINE
5
451
100
AcDbEntity
8
0
100
AcDbLine
10
10.78103706240654
20
24.931787848472595
30
0
11
10.78103706240654
21
24.034789204597473
31
0
0
LINE
5
452
100
AcDbEntity
8
0
100
AcDbLine
10
10.78103706240654
20
24.034789204597473
30
0
11
8.9733968675136566
21
24.034789204597473
31
0
0
LINE
5
453
100
AcDbEntity
8
0
100
AcDbLine
10
8.9733968675136566
20
24.034789204597473
30
0
11
8.8233284652233124
21
23.185539841651917
31
0
0
SPLINE
5
454
100
AcDbEntity
8
0
100
AcDbSpline
70
0
71
3
72
9
73
5
74
0
42
0.000000001
43
0.0000000001
44
0.0000000001
40
0
40
0
40
0
40
0
40
0.034559745237964186
40
0.067884838205301334
40
0.067884838205301334
40
0.067884838205301334
40
0.067884838205301334
10
8.8233284652233124
20
23.185539841651917
30
0
10
8.9297135249088697
20
23.232289773576991
30
0
10
9.1386830214861199
20
23.324119488842268
30
0
10
9.366389816577156
20
23.33868813665373
30
0
10
9.4781725108623505
20
23.345839977264404
30
0
0
SPLINE
5
455
100
AcDbEntity
8
0
100
AcDbSpline
70
0
71
3
72
9
73
5
74
0
42
0.000000001
43
0.0000000001
44
0.0000000001
40
0
40
0
40
0
40
0
40
0.060049036975010815
40
0.1203047261911824
40
0.1203047261911824
40
0.1203047261911824
40
0.1203047261911824
10
9.4781725108623505
20
23.345839977264404
30
0
10
9.6827947523551927
20
23.326380469595989
30
0
10
10.092743420568919
20
23.287394486476273
30
0
10
10.403633751146637
20
23.0172811298632
30
0
10
10.559345930814743
20
22.88199245929718
30
0
0
SPLINE
5
456
100
AcDbEntity
8
0
100
AcDbSpline
70
0
71
3
72
9
73
5
74
0
42
0.000000001
43
0.0000000001
44
0.0000000001
40
0
40
0
40
0
40
0
40
0.062815325128267846
40
0.13082905747056789
40
0.13082905747056789
40
0.13082905747056789
40
0.13082905747056789
10
10.559345930814743
20
22.88199245929718
30
0
10
10.688609651894488
20
22.711304230626901
30
0
10
10.9578345704867
20
22.355802129306028
30
0
10
10.987372430300443
20
21.909864296217503
30
0
10
11.002728193998337
20
21.678035855293274
30
0
0
SPLINE
5
457
100
AcDbEntity
8
0
100
AcDbSpline
70
0
71
3
72
9
73
5
74
0
42
0.000000001
43
0.0000000001
44
0.0000000001
40
0
40
0
40
0
40
0
40
0.059089366039110011
40
0.11740000751010199
40
0.11740000751010199
40
0.11740000751010199
40
0.11740000751010199
10
11.002728193998337
20
21.678035855293274
30
0
10
10.988206835804426
20
21.478346046682503
30
0
10
10.959355492909777
20
21.081598093504617
30
0
10
10.74906124239366
20
20.744052353445682
30
0
10
10.644611567258835
20
20.576398968696594
30
0
0
SPLINE
5
458
100
AcDbEntity
8
0
100
AcDbSpline
70
0
71
3
72
9
73
5
74
0
42
0.000000001
43
0.0000000001
44
0.0000000001
40
0
40
0
40
0
40
0
40
0.07651232702548609
40
0.15543116203623555
40
0.15543116203623555
40
0.15543116203623555
40
0.15543116203623555
10
10.644611567258835
20
20.576398968696594
30
0
10
10.464088648330954
20
20.383426648848193
30
0
10
10.09736490388403
20
19.991412537123757
30
0
10
9.5622742406633385
20
19.94055661595263
30
0
10
9.2905865609645844
20
19.914734959602356
30
0
0
SPLINE
5
459
100
AcDbEntity
8
0
100
AcDbSpline
70
0
71
3
72
9
73
5
74
0
42
0.000000001
43
0.0000000001
44
0.0000000001
40
0
40
0
40
0
40
0
40
0.12203806901063394
40
0.21179952349953912
40
0.21179952349953912
40
0.21179952349953912
40
0.21179952349953912
10
7.8785810247063637
20
7.476125955581665
30
0
10
7.8832067176569147
20
7.8905831988428137
30
0
10
7.8912347008159784
20
8.6098820811120387
30
0
10
8.2272911473979473
20
9.241279707820814
30
0
10
8.3697131648659706
20
9.5088684558868408
30
0
0
SPLINE
5
460
100
AcDbEntity
8
0
100
AcDbSpline
70
0
71
3
72
9
73
5
74
0
42
0.000000001
43
0.0000000001
44
0.0000000001
40
0
40
0
40
0
40
0
40
0.061922117636732485
40
0.12780715678287724
40
0.12780715678287724
40
0.12780715678287724
40
0.12780715678287724
10
8.3697131648659706
20
9.5088684558868408
30
0
10
8.5219135605397476
20
9.6580440120240123
30
0
10
8.8360549461172226
20
9.965942133390687
30
0
10
9.2755072395697908
20
10.001918248653014
30
0
10
9.5020464435219765
20
10.020464062690735
30
0
0
SPLINE
5
461
100
AcDbEntity
8
0
100
AcDbSpline
70
0
71
3
72
9
73
5
74
0
42
0.000000001
43
0.0000000001
44
0.0000000001
40
0
40
0
40
0
40
0
40
0.066001811451965195
40
0.12844223188449616
40
0.12844223188449616
40
0.12844223188449616
40
0.12844223188449616
10
9.5020464435219765
20
10.020464062690735
30
0
10
9.7289651429238937
20
10.001361565515552
30
0
10
10.170558238118277
20
9.964187322600516
30
0
10
10.484951269577099
20
9.6532194492004582
30
0
10
10.637789107859135
20
9.5020467042922974
30
0
0
SPLINE
5
462
100
AcDbEntity
8
0
100
AcDbSpline
70
0
71
3
72
9
73
5
74
0
42
0.000000001
43
0.0000000001
44
0.0000000001
40
0
40
0
40
0
40
0
40
0.089423293954965802
40
0.21204672528878032
40
0.21204672528878032
40
0.21204672528878032
40
0.21204672528878032
10
10.637789107859135
20
9.5020467042922974
30
0
10
10.779180287959411
20
9.2352357633551705
30
0
10
11.114456874170591
20
8.602555129543715
30
0
10
11.12146168288217
20
7.8823677498688998
30
0
10
11.125512458384037
20
7.4658942222595215
30
0
0
SPLINE
5
463
100
AcDbEntity
8
0
100
AcDbSpline
70
0
71
3
72
9
73
5
74
0
42
0.000000001
43
0.0000000001
44
0.0000000001
40
0
40
0
40
0
40
0
40
0.12254707063600076
40
0.21246403138997075
40
0.21246403138997075
40
0.21246403138997075
40
0.21246403138997075
10
11.125512458384037
20
7.4658942222595215
30
0
10
11.121041429406823
20
7.0497136351590148
30
0
10
11.113289854146553
20
6.3281671725409039
30
0
10
10.776789941932794
20
5.6945039485483839
30
0
10
10.634379722177982
20
5.4263311624526978
30
0
0
SPLINE
5
464
100
AcDbEntity
8
0
100
AcDbSpline
70
0
71
3
72
9
73
5
74
0
42
0.000000001
43
0.0000000001
44
0.0000000001
40
0
40
0
40
0
40
0
40
0.061922117636732485
40
0.12780716835362937
40
0.12780716835362937
40
0.12780716835362937
40
0.12780716835362937
10
10.634379722177982
20
5.4263311624526978
30
0
10
10.482179317002252
20
5.2771556517724916
30
0
10
10.168037883372637
20
4.9692575963540175
30
0
10
9.7285856406159148
20
4.9332810153233346
30
0
10
9.5020464435219765
20
4.914734959602356
30
0
0
SPLINE
5
465
100
AcDbEntity
8
0
100
AcDbSpline
70
0
71
3
72
9
73
5
74
0
42
0.000000001
43
0.0000000001
44
0.0000000001
40
0
40
0
40
0
40
0
40
0.067386620525062654
40
0.13409006162562687
40
0.13409006162562687
40
0.13409006162562687
40
0.13409006162562687
10
9.5020464435219765
20
4.914734959602356
30
0
10
9.2709328053166935
20
4.9376321216657715
30
0
10
8.8110486065246967
20
4.9831943096522346
30
0
10
8.4867154224325017
20
5.3121468573905002
30
0
10
8.3253750577569008
20
5.4757851362228394
30
0
0
SPLINE
5
466
100
AcDbEntity
8
0
100
AcDbSpline
70
0
71
3
72
9
73
5
74
0
42
0.000000001
43
0.0000000001
44
0.0000000001
40
0
40
0
40
0
40
0
40
0.084949440409265747
40
0.20743291700256605
40
0.20743291700256605
40
0.20743291700256605
40
0.20743291700256605
10
8.3253750577569008
20
5.4757851362228394
30
0
10
8.1960923971099913
20
5.7315283398246875
30
0
10
7.8804048624229921
20
6.3560122501498402
30
0
10
7.8792581356005496
20
7.0602768996261371
30
0
10
7.8785810247063637
20
7.476125955581665
30
0
0
CIRCLE
5
467
100
AcDbEntity
8
0
100
AcDbCircle
10
67.5
20
37.5
30
0
40
5
210
0
220
-0
230
1
0
CIRCLE
5
468
100
AcDbEntity
8
0
100
AcDbCircle
10
82.5
20
37.5
30
0
40
5
210
0
220
-0
230
1
0
CIRCLE
5
469
100
AcDbEntity
8
0
100
AcDbCircle
10
22.5
20
22.5
30
0
40
5
210
0
220
-0
230
1
0
CIRCLE
5
470
100
AcDbEntity
8
0
100
AcDbCircle
10
52.5
20
22.5
30
0
40
5
210
0
220
-0
230
1
0
CIRCLE
5
471
100
AcDbEntity
8
0
100
AcDbCircle
10
37.5
20
22.5
30
0
40
5
210
0
220
-0
230
1
0
CIRCLE
5
472
100
AcDbEntity
8
0
100
AcDbCircle
10
52.5
20
37.5
30
0
40
5
210
0
220
-0
230
1
0
CIRCLE
5
473
100
AcDbEntity
8
0
100
AcDbCircle
10
37.5
20
37.5
30
0
40
5
210
0
220
-0
230
1
0
CIRCLE
5
474
100
AcDbEntity
8
0
100
AcDbCircle
10
22.5
20
37.5
30
0
40
5
210
0
220
-0
230
1
0
CIRCLE
5
475
100
AcDbEntity
8
0
100
AcDbCircle
10
82.5
20
52.5
30
0
40
5
210
0
220
-0
230
1
0
CIRCLE
5
476
100
AcDbEntity
8
0
100
AcDbCircle
10
67.5
20
52.5
30
0
40
5
210
0
220
-0
230
1
0
CIRCLE
5
477
100
AcDbEntity
8
0
100
AcDbCircle
10
52.5
20
52.5
30
0
40
5
210
0
220
-0
230
1
0
CIRCLE
5
478
100
AcDbEntity
8
0
100
AcDbCircle
10
37.5
20
52.5
30
0
40
5
210
0
220
-0
230
1
0
CIRCLE
5
479
100
AcDbEntity
8
0
100
AcDbCircle
10
22.5
20
52.5
30
0
40
5
210
0
220
-0
230
1
0
CIRCLE
5
480
100
AcDbEntity
8
0
100
AcDbCircle
10
67.5
20
22.5
30
0
40
5
210
0
220
-0
230
1
0
CIRCLE
5
481
100
AcDbEntity
8
0
100
AcDbCircle
10
82.5
20
22.5
30
0
40
5
210
0
220
-0
230
1
0
CIRCLE
5
482
100
AcDbEntity
8
0
100
AcDbCircle
10
52.5
20
7.5
30
0
40
5
210
0
220
-0
230
1
0
CIRCLE
5
483
100
AcDbEntity
8
0
100
AcDbCircle
10
37.5
20
7.5
30
0
40
5
210
0
220
-0
230
1
0
CIRCLE
5
484
100
AcDbEntity
8
0
100
AcDbCircle
10
22.5
20
7.5
30
0
40
5
210
0
220
-0
230
1
0
CIRCLE
5
485
100
AcDbEntity
8
0
100
AcDbCircle
10
67.5
20
7.5
30
0
40
5
210
0
220
-0
230
1
0
CIRCLE
5
486
100
AcDbEntity
8
0
100
AcDbCircle
10
82.5
20
7.5
30
0
40
5
210
0
220
-0
230
1
0
LWPOLYLINE
5
487
100
AcDbEntity
8
0
100
AcDbPolyline
90
4
70
1
43
0.0
10
0
20
75
10
90
20
75
10
90
20
0
10
0
20
0
0
SPLINE
5
488
100
AcDbEntity
8
0
100
AcDbSpline
70
0
71
3
72
9
73
5
74
0
42
0.000000001
43
0.0000000001
44
0.0000000001
40
0
40
0
40
0
40
0
40
0.02603039570470091
40
0.052739236891945616
40
0.052739236891945616
40
0.052739236891945616
40
0.052739236891945616
10
80.508185680955648
20
67.390859723091125
30
0
10
80.597043754033848
20
67.400413929196233
30
0
10
80.777075860306709
20
67.419771358288273
30
0
10
80.907624479611826
20
67.545478662172755
30
0
10
80.973738487809896
20
67.609140872955322
30
0
0
SPLINE
5
489
100
AcDbEntity
8
0
100
AcDbSpline
70
0
71
3
72
9
73
5
74
0
42
0.000000001
43
0.0000000001
44
0.0000000001
40
0
40
0
40
0
40
0
40
0.030455444067724966
40
0.067931320037708867
40
0.067931320037708867
40
0.067931320037708867
40
0.067931320037708867
10
80.973738487809896
20
67.609140872955322
30
0
10
81.028795633847579
20
67.696512985612827
30
0
10
81.151601415287843
20
67.891397779743841
30
0
10
81.158966185550753
20
68.122724249120893
30
0
10
81.163029130548239
20
68.250340819358826
30
0
0
SPLINE
5
490
100
AcDbEntity
8
0
100
AcDbSpline
70
0
71
3
72
9
73
5
74
0
42
0.000000001
43
0.0000000001
44
0.0000000001
40
0
40
0
40
0
40
0
40
0.04152689366873584
40
0.076212174217126949
40
0.076212174217126949
40
0.076212174217126949
40
0.076212174217126949
10
81.163029130548239
20
68.250340819358826
30
0
10
81.157808390612317
20
68.391552415471736
30
0
10
81.148227034859758
20
68.650710802089449
30
0
10
81.011905693336672
20
68.870126932928514
30
0
10
80.949863847345114
20
68.969986438751221
30
0
0
SPLINE
5
491
100
AcDbEntity
8
0
100
AcDbSpline
70
0
71
3
72
9
73
5
74
0
42
0.000000001
43
0.0000000001
44
0.0000000001
40
0
40
0
40
0
40
0
40
0.02993495023056442
40
0.057005686875629499
40
0.057005686875629499
40
0.057005686875629499
40
0.057005686875629499
10
80.949863847345114
20
68.969986438751221
30
0
10
80.878612686765223
20
69.044537403799282
30
0
10
80.742927766020145
20
69.186506204050261
30
0
10
80.549080287463553
20
69.213137790367099
30
0
10
80.457026418298483
20
69.225784540176392
30
0
0
SPLINE
5
492
100
AcDbEntity
8
0
100
AcDbSpline
70
0
71
3
72
9
73
5
74
0
42
0.000000001
43
0.0000000001
44
0.0000000001
40
0
40
0
40
0
40
0
40
0.024901874825881298
40
0.050209705535539648
40
0.050209705535539648
40
0.050209705535539648
40
0.050209705535539648
10
80.457026418298483
20
69.225784540176392
30
0
10
80.371883073279946
20
69.2167656092562
30
0
10
80.200208357557415
20
69.198580718804621
30
0
10
80.077299534900135
20
69.077207635648236
30
0
10
80.015348251909018
20
69.016030430793762
30
0
0
SPLINE
5
493
100
AcDbEntity
8
0
100
AcDbSpline
70
0
71
3
72
9
73
5
74
0
42
0.000000001
43
0.0000000001
44
0.0000000001
40
0
40
0
40
0
40
0
40
0.030644887746998705
40
0.071934674495117756
40
0.071934674495117756
40
0.071934674495117756
40
0.071934674495117756
10
80.015348251909018
20
69.016030430793762
30
0
10
79.964396632973333
20
68.925790634333495
30
0
10
79.844794689791257
20
68.713965078356026
30
0
10
79.84155783987967
20
68.469249945431869
30
0
10
79.839699920266867
20
68.32878589630127
30
0
0
SPLINE
5
494
100
AcDbEntity
8
0
100
AcDbSpline
70
0
71
3
72
9
73
5
74
0
42
0.000000001
43
0.0000000001
44
0.0000000001
40
0
40
0
40
0
40
0
40
0.042264096819191861
40
0.07471521182909005
40
0.07471521182909005
40
0.07471521182909005
40
0.07471521182909005
10
79.839699920266867
20
68.32878589630127
30
0
10
79.842529201226441
20
68.184970482513265
30
0
10
79.847530853743052
20
67.930731070952476
30
0
10
79.975231522787652
20
67.712466385082067
30
0
10
80.030695851892233
20
67.617667317390442
30
0
0
SPLINE
5
495
100
AcDbEntity
8
0
100
AcDbSpline
70
0
71
3
72
9
73
5
74
0
42
0.000000001
43
0.0000000001
44
0.0000000001
40
0
40
0
40
0
40
0
40
0.027405348103656656
40
0.054272424504929057
40
0.054272424504929057
40
0.054272424504929057
40
0.054272424504929057
10
80.030695851892233
20
67.617667317390442
30
0
10
80.097858049681321
20
67.551516980188552
30
0
10
80.230863304542765
20
67.420515572427334
30
0
10
80.416358132207478
20
67.400679428178805
30
0
10
80.508185680955648
20
67.390859723091125
30
0
0
SPLINE
5
496
100
AcDbEntity
8
0
100
AcDbSpline
70
0
71
3
72
9
73
5
74
0
42
0.000000001
43
0.0000000001
44
0.0000000001
40
0
40
0
40
0
40
0
40
0.029226557142010633
40
0.049852547155183766
40
0.049852547155183766
40
0.049852547155183766
40
0.049852547155183766
10
85.010232385247946
20
68.6749666929245
30
0
10
84.98410567439727
20
68.770410288673048
30
0
10
84.939540620827515
20
68.93321107066717
30
0
10
84.831524684116431
20
69.061755574677989
30
0
10
84.786834176629782
20
69.114939570426941
30
0
0
SPLINE
5
497
100
AcDbEntity
8
0
100
AcDbSpline
70
0
71
3
72
9
73
5
74
0
42
0.000000001
43
0.0000000001
44
0.0000000001
40
0
40
0
40
0
40
0
40
0.016672976879421191
40
0.033318948992124495
40
0.033318948992124495
40
0.033318948992124495
40
0.033318948992124495
10
84.786834176629782
20
69.114939570426941
30
0
10
84.740316962068846
20
69.14726952104462
30
0
10
84.64735787561294
20
69.211877058339212
30
0
10
84.534536891478851
20
69.221151615915531
30
0
10
84.478172119706869
20
69.225785136222839
30
0
0
SPLINE
5
498
100
AcDbEntity
8
0
100
AcDbSpline
70
0
71
3
72
9
73
5
74
0
42
0.000000001
43
0.0000000001
44
0.0000000001
40
0
40
0
40
0
40
0
40
0.016688055022629891
40
0.033472081528159184
40
0.033472081528159184
40
0.033472081528159184
40
0.033472081528159184
10
84.478172119706869
20
69.225785136222839
30
0
10
84.421689541590609
20
69.221113828558799
30
0
10
84.308399559201192
20
69.211744348966278
30
0
10
84.214758403885028
20
69.147269450961602
30
0
10
84.167803581804037
20
69.114939570426941
30
0
0
SPLINE
5
499
100
AcDbEntity
8
0
100
AcDbSpline
70
0
71
3
72
9
73
5
74
0
42
0.000000001
43
0.0000000001
44
0.0000000001
40
0
40
0
40
0
40
0
40
0.019649408361303876
40
0.045536650949410548
40
0.045536650949410548
40
0.045536650949410548
40
0.045536650949410548
10
84.167803581804037
20
69.114939570426941
30
0
10
84.123670431995237
20
69.065465832890553
30
0
10
84.021393773014552
20
68.950812593671742
30
0
10
83.979920710628733
20
68.802126457845119
30
0
10
83.956343587487936
20
68.717599511146545
30
0
0
SPLINE
5
500
100
AcDbEntity
8
0
100
AcDbSpline
70
0
71
3
72
9
73
5
74
0
42
0.000000001
43
0.0000000001
44
0.0000000001
40
0
40
0
40
0
40
0
40
0.050429214409547993
40
0.12575971317627108
40
0.12575971317627108
40
0.12575971317627108
40
0.12575971317627108
10
83.956343587487936
20
68.717599511146545
30
0
10
83.927764941150457
20
68.551679241517178
30
0
10
83.856495887915145
20
68.137909450275572
30
0
10
83.857083226236057
20
67.717638162534612
30
0
10
83.857435043901205
20
67.465894222259521
30
0
0
SPLINE
5
501
100
AcDbEntity
8
0
100
AcDbSpline
70
0
71
3
72
9
73
5
74
0
42
0.000000001
43
0.0000000001
44
0.0000000001
40
0
40
0
40
0
40
0
40
0.074257153528521774
40
0.12141172544244264
40
0.12141172544244264
40
0.12141172544244264
40
0.12141172544244264
10
83.857435043901205
20
67.465894222259521
30
0
10
83.856408255307926
20
67.217757766516158
30
0
10
83.85472943826673
20
66.812050386076336
30
0
10
83.920548626107987
20
66.412140869258906
30
0
10
83.946111854165792
20
66.256821751594543
30
0
0
SPLINE
5
502
100
AcDbEntity
8
0
100
AcDbSpline
70
0
71
3
72
9
73
5
74
0
42
0.000000001
43
0.0000000001
44
0.0000000001
40
0
40
0
40
0
40
0
40
0.029186449264872964
40
0.049709963403168606
40
0.049709963403168606
40
0.049709963403168606
40
0.049709963403168606
10
83.946111854165792
20
66.256821751594543
30
0
10
83.972165803293137
20
66.161461206828008
30
0
10
84.016540535069325
20
65.999044424045337
30
0
10
84.124808709048182
20
65.871297159395283
30
0
10
84.169508870691061
20
65.818554759025574
30
0
0
SPLINE
5
503
100
AcDbEntity
8
0
100
AcDbSpline
70
0
71
3
72
9
73
5
74
0
42
0.000000001
43
0.0000000001
44
0.0000000001
40
0
40
0
40
0
40
0
40
0.016609620036438826
40
0.033248619065717494
40
0.033248619065717494
40
0.033248619065717494
40
0.033248619065717494
10
84.169508870691061
20
65.818554759025574
30
0
10
84.216075390282228
20
65.786722309356378
30
0
10
84.309290796035427
20
65.72300110497855
30
0
10
84.421845193548933
20
65.713945626226604
30
0
10
84.478172119706869
20
65.709413886070251
30
0
0
SPLINE
5
504
100
AcDbEntity
8
0
100
AcDbSpline
70
0
71
3
72
9
73
5
74
0
42
0.000000001
43
0.0000000001
44
0.0000000001
40
0
40
0
40
0
40
0
40
0.016687996245512086
40
0.033472022751041386
40
0.033472022751041386
40
0.033472022751041386
40
0.033472022751041386
10
84.478172119706869
20
65.709413886070251
30
0
10
84.534654489165916
20
65.714085225989507
30
0
10
84.647944253122745
20
65.723454786825627
30
0
10
84.741585240992606
20
65.787929571425195
30
0
10
84.788540061563253
20
65.82025945186615
30
0
0
SPLINE
5
505
100
AcDbEntity
8
0
100
AcDbSpline
70
0
71
3
72
9
73
5
74
0
42
0.000000001
43
0.0000000001
44
0.0000000001
40
0
40
0
40
0
40
0
40
0.019649418578056257
40
0.045536605312359452
40
0.045536605312359452
40
0.045536605312359452
40
0.045536605312359452
10
84.788540061563253
20
65.82025945186615
30
0
10
84.832672962357307
20
65.869733424816829
30
0
10
84.93494888857694
20
65.984387035077106
30
0
10
84.976422214253788
20
66.133072846518687
30
0
10
84.999999459832907
20
66.217599511146545
30
0
0
SPLINE
5
506
100
AcDbEntity
8
0
100
AcDbSpline
70
0
71
3
72
9
73
5
74
0
42
0.000000001
43
0.0000000001
44
0.0000000001
40
0
40
0
40
0
40
0
40
0.05017624728915631
40
0.12542149978294248
40
0.12542149978294248
40
0.12542149978294248
40
0.12542149978294248
10
84.999999459832907
20
66.217599511146545
30
0
10
85.028573385873827
20
66.382666135041717
30
0
10
85.099997313575827
20
66.795269800153051
30
0
10
85.099316841325546
20
67.214426037334135
30
0
10
85.098908599466085
20
67.465894222259521
30
0
0
SPLINE
5
507
100
AcDbEntity
8
0
100
AcDbSpline
70
0
71
3
72
9
73
5
74
0
42
0.000000001
43
0.0000000001
44
0.0000000001
40
0
40
0
40
0
40
0
40
0.074257155307984726
40
0.12141171040845997
40
0.12141171040845997
40
0.12141171040845997
40
0.12141171040845997
10
85.098908599466085
20
67.465894222259521
30
0
10
85.099934942565127
20
67.714030649594065
30
0
10
85.101613030967584
20
68.119737923625507
30
0
10
85.035795113832421
20
68.51964756358251
30
0
10
85.010232385247946
20
68.6749666929245
30
0
0
SPLINE
5
508
100
AcDbEntity
8
0
100
AcDbSpline
70
0
71
3
72
9
73
5
74
0
42
0.000000001
43
0.0000000001
44
0.0000000001
40
0
40
0
40
0
40
0
40
0.029226516277436766
40
0.049852506290609902
40
0.049852506290609902
40
0.049852506290609902
40
0.049852506290609902
10
69.979536030441523
20
68.6749666929245
30
0
10
69.953409805377646
20
68.77041031842468
30
0
10
69.908845554647854
20
68.933211245345973
30
0
10
69.800829575566439
20
69.061755594961937
30
0
10
69.756139013916254
20
69.114939570426941
30
0
0
SPLINE
5
509
100
AcDbEntity
8
0
100
AcDbSpline
70
0
71
3
72
9
73
5
74
0
42
0.000000001
43
0.0000000001
44
0.0000000001
40
0
40
0
40
0
40
0
40
0.016673028546114649
40
0.033319000658817946
40
0.033319000658817946
40
0.033319000658817946
40
0.033319000658817946
10
69.756139013916254
20
69.114939570426941
30
0
10
69.709621596018138
20
69.147269521021386
30
0
10
69.61666224713278
20
69.211876958247103
30
0
10
69.50384111783751
20
69.221151587360893
30
0
10
69.447476360946894
20
69.225785136222839
30
0
0
SPLINE
5
510
100
AcDbEntity
8
0
100
AcDbSpline
70
0
71
3
72
9
73
5
74
0
42
0.000000001
43
0.0000000001
44
0.0000000001
40
0
40
0
40
0
40
0
40
0.016688055022629891
40
0.033472081528159184
40
0.033472081528159184
40
0.033472081528159184
40
0.033472081528159184
10
69.447476360946894
20
69.225785136222839
30
0
10
69.390993782830634
20
69.221113828558799
30
0
10
69.277703800441216
20
69.211744348966278
30
0
10
69.184062645125039
20
69.147269450961602
30
0
10
69.137107823044062
20
69.114939570426941
30
0
0
SPLINE
5
511
100
AcDbEntity
8
0
100
AcDbSpline
70
0
71
3
72
9
73
5
74
0
42
0.000000001
43
0.0000000001
44
0.0000000001
40
0
40
0
40
0
40
0
40
0.019649371633511468
40
0.045536635031901404
40
0.045536635031901404
40
0.045536635031901404
40
0.045536635031901404
10
69.137107823044062
20
69.114939570426941
30
0
10
69.092974939867403
20
69.065465794283966
30
0
10
68.990698743376001
20
68.950812291368379
30
0
10
68.949225233473555
20
68.802126410435946
30
0
10
68.925647828727961
20
68.717599511146545
30
0
0
SPLINE
5
512
100
AcDbEntity
8
0
100
AcDbSpline
70
0
71
3
72
9
73
5
74
0
42
0.000000001
43
0.0000000001
44
0.0000000001
40
0
40
0
40
0
40
0
40
0.050429205641717656
40
0.12575970636496703
40
0.12575970636496703
40
0.12575970636496703
40
0.12575970636496703
10
68.925647828727961
20
68.717599511146545
30
0
10
68.897069447815397
20
68.551679234743958
30
0
10
68.825801047962287
20
68.137909377081925
30
0
10
68.826387811653234
20
67.71763814773162
30
0
10
68.82673928514123
20
67.465894222259521
30
0
0
SPLINE
5
513
100
AcDbEntity
8
0
100
AcDbSpline
70
0
71
3
72
9
73
5
74
0
42
0.000000001
43
0.0000000001
44
0.0000000001
40
0
40
0
40
0
40
0
40
0.074257155307984726
40
0.12141171881514587
40
0.12141171881514587
40
0.12141171881514587
40
0.12141171881514587
10
68.82673928514123
20
67.465894222259521
30
0
10
68.825712848848241
20
67.217757781615148
30
0
10
68.824034607955909
20
66.812050457730265
30
0
10
68.88985312934895
20
66.412140875465454
30
0
10
68.915416095405817
20
66.256821751594543
30
0
0
SPLINE
5
514
100
AcDbEntity
8
0
100
AcDbSpline
70
0
71
3
72
9
73
5
74
0
42
0.000000001
43
0.0000000001
44
0.0000000001
40
0
40
0
40
0
40
0
40
0.029186449264872964
40
0.049709963403168606
40
0.049709963403168606
40
0.049709963403168606
40
0.049709963403168606
10
68.915416095405817
20
66.256821751594543
30
0
10
68.941470044533162
20
66.161461206828008
30
0
10
68.985844776309349
20
65.999044424045337
30
0
10
69.094112950288206
20
65.871297159395283
30
0
10
69.138813111931086
20
65.818554759025574
30
0
0
SPLINE
5
515
100
AcDbEntity
8
0
100
AcDbSpline
70
0
71
3
72
9
73
5
74
0
42
0.000000001
43
0.0000000001
44
0.0000000001
40
0
40
0
40
0
40
0
40
0.016609671900426448
40
0.03324861213196223
40
0.03324861213196223
40
0.03324861213196223
40
0.03324861213196223
10
69.138813111931086
20
65.818554759025574
30
0
10
69.18537983320725
20
65.786722309303713
30
0
10
69.278595332179776
20
65.723001317079579
30
0
10
69.391149657976555
20
65.713945686925442
30
0
10
69.447476360946894
20
65.709413886070251
30
0
0
SPLINE
5
516
100
AcDbEntity
8
0
100
AcDbSpline
70
0
71
3
72
9
73
5
74
0
42
0.000000001
43
0.0000000001
44
0.0000000001
40
0
40
0
40
0
40
0
40
0.016687996245512086
40
0.033471970971786627
40
0.033471970971786627
40
0.033471970971786627
40
0.033471970971786627
10
69.447476360946894
20
65.709413886070251
30
0
10
69.503958745006116
20
65.714085197737006
30
0
10
69.617248362994616
20
65.723454687411461
30
0
10
69.710889089476041
20
65.787929571343113
30
0
10
69.75784370675683
20
65.82025945186615
30
0
0
SPLINE
5
517
100
AcDbEntity
8
0
100
AcDbSpline
70
0
71
3
72
9
73
5
74
0
42
0.000000001
43
0.0000000001
44
0.0000000001
40
0
40
0
40
0
40
0
40
0.019649492033577739
40
0.045536678767880936
40
0.045536678767880936
40
0.045536678767880936
40
0.045536678767880936
10
69.75784370675683
20
65.82025945186615
30
0
10
69.801977080224148
20
65.869733370824392
30
0
10
69.904253884484021
20
65.984386612299545
30
0
10
69.94572713327932
20
66.13307278021631
30
0
10
69.969304297119379
20
66.217599511146545
30
0
0
SPLINE
5
518
100
AcDbEntity
8
0
100
AcDbSpline
70
0
71
3
72
9
73
5
74
0
42
0.000000001
43
0.0000000001
44
0.0000000001
40
0
40
0
40
0
40
0
40
0.05017624728915631
40
0.1254214958655038
40
0.1254214958655038
40
0.1254214958655038
40
0.1254214958655038
10
69.969304297119379
20
66.217599511146545
30
0
10
69.997878276226658
20
66.382666133289945
30
0
10
70.069302334343476
20
66.795269781135175
30
0
10
70.068621002321308
20
67.214426033476514
30
0
10
70.068212244659662
20
67.465894222259521
30
0
0
SPLINE
5
519
100
AcDbEntity
8
0
100
AcDbSpline
70
0
71
3
72
9
73
5
74
0
42
0.000000001
43
0.0000000001
44
0.0000000001
40
0
40
0
40
0
40
0
40
0.074257155307984726
40
0.12141171040845997
40
0.12141171040845997
40
0.12141171040845997
40
0.12141171040845997
10
70.068212244659662
20
67.465894222259521
30
0
10
70.069238587758704
20
67.714030649594065
30
0
10
70.070916676161161
20
68.119737923625507
30
0
10
70.005098759025998
20
68.51964756358251
30
0
10
69.979536030441523
20
68.6749666929245
30
0
0
SPLINE
5
520
100
AcDbEntity
8
0
100
AcDbSpline
70
0
71
3
72
9
73
5
74
0
42
0.000000001
43
0.0000000001
44
0.0000000001
40
0
40
0
40
0
40
0
40
0.025147749064843229
40
0.047925221643315238
40
0.047925221643315238
40
0.047925221643315238
40
0.047925221643315238
10
65.56616673246026
20
69.259890913963318
30
0
10
65.480282860558106
20
69.254524186302973
30
0
10
65.316610017080791
20
69.244296566647691
30
0
10
65.187538036519683
20
69.143897144092691
30
0
10
65.126193854957819
20
69.096180200576782
30
0
0
SPLINE
5
521
100
AcDbEntity
8
0
100
AcDbSpline
70
0
71
3
72
9
73
5
74
0
42
0.000000001
43
0.0000000001
44
0.0000000001
40
0
40
0
40
0
40
0
40
0.022634059868262016
40
0.047277115113872253
40
0.047277115113872253
40
0.047277115113872253
40
0.047277115113872253
10
65.126193854957819
20
69.096180200576782
30
0
10
65.078468455194255
20
69.035436670500175
30
0
10
64.978781557147215
20
68.908558024752608
30
0
10
64.968067705031658
20
68.747158234139263
30
0
10
64.962483141571283
20
68.663029074668884
30
0
0
SPLINE
5
522
100
AcDbEntity
8
0
100
AcDbSpline
70
0
71
3
72
9
73
5
74
0
42
0.000000001
43
0.0000000001
44
0.0000000001
40
0
40
0
40
0
40
0
40
0.02581427857658701
40
0.048523087532732281
40
0.048523087532732281
40
0.048523087532732281
40
0.048523087532732281
10
64.962483141571283
20
68.663029074668884
30
0
10
64.967328078410688
20
68.574778736187852
30
0
10
64.976435103952809
20
68.408894615653409
30
0
10
65.077288955330985
20
68.27765513115672
30
0
10
65.124488566070795
20
68.216235041618347
30
0
0
SPLINE
5
523
100
AcDbEntity
8
0
100
AcDbSpline
70
0
71
3
72
9
73
5
74
0
42
0.000000001
43
0.0000000001
44
0.0000000001
40
0
40
0
40
0
40
0
40
0.022388351234815147
40
0.046975296533888419
40
0.046975296533888419
40
0.046975296533888419
40
0.046975296533888419
10
65.124488566070795
20
68.216235041618347
30
0
10
65.184899546720061
20
68.169508904452968
30
0
10
65.311654022748172
20
68.071468002458644
30
0
10
65.472005948709793
20
68.061271287085731
30
0
10
65.555934403091669
20
68.055934309959412
30
0
0
SPLINE
5
524
100
AcDbEntity
8
0
100
AcDbSpline
70
0
71
3
72
9
73
5
74
0
42
0.000000001
43
0.0000000001
44
0.0000000001
40
0
40
0
40
0
40
0
40
0.024888391067175417
40
0.0475252381376111
40
0.0475252381376111
40
0.0475252381376111
40
0.0475252381376111
10
65.555934403091669
20
68.055934309959412
30
0
10
65.640894741639897
20
68.061309923218346
30
0
10
65.803129428119135
20
68.071574841491966
30
0
10
65.931399914934715
20
68.170717082954923
30
0
10
65.992496702820063
20
68.217939734458923
30
0
0
SPLINE
5
525
100
AcDbEntity
8
0
100
AcDbSpline
70
0
71
3
72
9
73
5
74
0
42
0.000000001
43
0.0000000001
44
0.0000000001
40
0
40
0
40
0
40
0
40
0.022885395062798429
40
0.04874848327118958
40
0.04874848327118958
40
0.04874848327118958
40
0.04874848327118958
10
65.992496702820063
20
68.217939734458923
30
0
10
66.040197719665045
20
68.279746053912916
30
0
10
66.141806287719277
20
68.411400513960004
30
0
10
66.151215849984069
20
68.578033797903572
30
0
10
66.156208012253046
20
68.666439652442932
30
0
0
SPLINE
5
526
100
AcDbEntity
8
0
100
AcDbSpline
70
0
71
3
72
9
73
5
74
0
42
0.000000001
43
0.0000000001
44
0.0000000001
40
0
40
0
40
0
40
0
40
0.024593917886861948
40
0.047051248833848355
40
0.047051248833848355
40
0.047051248833848355
40
0.047051248833848355
10
66.156208012253046
20
68.666439652442932
30
0
10
66.150771436848956
20
68.750414415549301
30
0
10
66.140370586389977
20
68.911068667257311
30
0
10
66.041427190599066
20
69.037527369416125
30
0
10
65.994201991707087
20
69.097885489463806
30
0
0
SPLINE
5
527
100
AcDbEntity
8
0
100
AcDbSpline
70
0
71
3
72
9
73
5
74
0
42
0.000000001
43
0.0000000001
44
0.0000000001
40
0
40
0
40
0
40
0
40
0.022385614340368391
40
0.046727297080093974
40
0.046727297080093974
40
0.046727297080093974
40
0.046727297080093974
10
65.994201991707087
20
69.097885489463806
30
0
10
65.934144341612665
20
69.145114364328677
30
0
10
65.80878116795904
20
69.243699001453848
30
0
10
65.649264078615516
20
69.254345056990928
30
0
10
65.56616673246026
20
69.259890913963318
30
0
0
SPLINE
5
528
100
AcDbEntity
8
0
100
AcDbSpline
70
0
71
3
72
9
73
5
74
0
42
0.000000001
43
0.0000000001
44
0.0000000001
40
0
40
0
40
0
40
0
40
0.031245207483381256
40
0.059542637076674787
40
0.059542637076674787
40
0.059542637076674787
40
0.059542637076674787
10
65.569577310234308
20
67.288540601730347
30
0
10
65.461547164466751
20
67.280605047826867
30
0
10
65.255678799975996
20
67.265482606846803
30
0
10
65.113577316959393
20
67.116966951942473
30
0
10
65.046044085174799
20
67.046385407447815
30
0
0
SPLINE
5
529
100
AcDbEntity
8
0
100
AcDbSpline
70
0
71
3
72
9
73
5
74
0
42
0.000000001
43
0.0000000001
44
0.0000000001
40
0
40
0
40
0
40
0
40
0.028352506197246583
40
0.055975343894177507
40
0.055975343894177507
40
0.055975343894177507
40
0.055975343894177507
10
65.046044085174799
20
67.046385407447815
30
0
10
64.995810619965312
20
66.964592254714603
30
0
10
64.896636477456184
20
66.803110944364875
30
0
10
64.881349957372265
20
66.614314157444468
30
0
10
64.873806331306696
20
66.521146297454834
30
0
0
SPLINE
5
530
100
AcDbEntity
8
0
100
AcDbSpline
70
0
71
3
72
9
73
5
74
0
42
0.000000001
43
0.0000000001
44
0.0000000001
40
0
40
0
40
0
40
0
40
0.035578422124329261
40
0.066153558924515021
40
0.066153558924515021
40
0.066153558924515021
40
0.066153558924515021
10
64.873806331306696
20
66.521146297454834
30
0
10
64.879390084332996
20
66.399857378590482
30
0
10
64.889772364175414
20
66.174336032732469
30
0
10
65.017641002959124
20
65.989328140135626
30
0
10
65.076739881187677
20
65.903820395469666
30
0
0
SPLINE
5
531
100
AcDbEntity
8
0
100
AcDbSpline
70
0
71
3
72
9
73
5
74
0
42
0.000000001
43
0.0000000001
44
0.0000000001
40
0
40
0
40
0
40
0
40
0.028225646324777826
40
0.056611328627695578
40
0.056611328627695578
40
0.056611328627695578
40
0.056611328627695578
10
65.076739881187677
20
65.903820395469666
30
0
10
65.148718819460939
20
65.839160629309688
30
0
10
65.293084807823902
20
65.709474483988032
30
0
10
65.486326321106603
20
65.691261499494772
30
0
10
65.583220217376947
20
65.682129263877869
30
0
0
SPLINE
5
532
100
AcDbEntity
8
0
100
AcDbSpline
70
0
71
3
72
9
73
5
74
0
42
0.000000001
43
0.0000000001
44
0.0000000001
40
0
40
0
40
0
40
0
40
0.027633282325838306
40
0.054827715044442789
40
0.054827715044442789
40
0.054827715044442789
40
0.054827715044442789
10
65.583220217376947
20
65.682129263877869
30
0
10
65.677601310157144
20
65.69072284339488
30
0
10
65.864864610966549
20
65.70777352609754
30
0
10
66.004896721652358
20
65.833121179432538
30
0
10
66.074352357536554
20
65.895293354988098
30
0
0
SPLINE
5
533
100
AcDbEntity
8
0
100
AcDbSpline
70
0
71
3
72
9
73
5
74
0
42
0.000000001
43
0.0000000001
44
0.0000000001
40
0
40
0
40
0
40
0
40
0.029851793063214595
40
0.065696159442194091
40
0.065696159442194091
40
0.065696159442194091
40
0.065696159442194091
10
66.074352357536554
20
65.895293354988098
30
0
10
66.130930728118912
20
65.979451303531505
30
0
10
66.255445247125749
20
66.164661417849516
30
0
10
66.264059085617632
20
66.388685291289391
30
0
10
66.268758866935968
20
66.51091456413269
30
0
0
SPLINE
5
534
100
AcDbEntity
8
0
100
AcDbSpline
70
0
71
3
72
9
73
5
74
0
42
0.000000001
43
0.0000000001
44
0.0000000001
40
0
40
0
40
0
40
0
40
0.032060081445791318
40
0.060933222685464444
40
0.060933222685464444
40
0.060933222685464444
40
0.060933222685464444
10
66.268758866935968
20
66.51091456413269
30
0
10
66.262383518363748
20
66.620161387366849
30
0
10
66.250266564297192
20
66.827795326758491
30
0
10
66.128595082783761
20
66.995777665989095
30
0
10
66.070941183716059
20
67.075375914573669
30
0
0
SPLINE
5
535
100
AcDbEntity
8
0
100
AcDbSpline
70
0
71
3
72
9
73
5
74
0
42
0.000000001
43
0.0000000001
44
0.0000000001
40
0
40
0
40
0
40
0
40
0.027540383085834976
40
0.055759599379418698
40
0.055759599379418698
40
0.055759599379418698
40
0.055759599379418698
10
66.070941183716059
20
67.075375914573669
30
0
10
65.999994439629305
20
67.1375462732682
30
0
10
65.85635221013591
20
67.263419405943125
30
0
10
65.66594164763346
20
67.280099181691355
30
0
10
65.569577310234308
20
67.288540601730347
30
0
0
SPLINE
5
536
100
AcDbEntity
8
0
100
AcDbSpline
70
0
71
3
72
9
73
5
74
0
42
0.000000001
43
0.0000000001
44
0.0000000001
40
0
40
0
40
0
40
0
40
0.029226516277436766
40
0.049852506290609902
40
0.049852506290609902
40
0.049852506290609902
40
0.049852506290609902
10
54.972714632749557
20
68.6749666929245
30
0
10
54.946588407685688
20
68.77041031842468
30
0
10
54.902024156955903
20
68.933211245345973
30
0
10
54.794008177874467
20
69.061755594961937
30
0
10
54.749317616224289
20
69.114939570426941
30
0
0
SPLINE
5
537
100
AcDbEntity
8
0
100
AcDbSpline
70
0
71
3
72
9
73
5
74
0
42
0.000000001
43
0.0000000001
44
0.0000000001
40
0
40
0
40
0
40
0
40
0.016673028546114649
40
0.033319000658817946
40
0.033319000658817946
40
0.033319000658817946
40
0.033319000658817946
10
54.749317616224289
20
69.114939570426941
30
0
10
54.702800198326173
20
69.147269521021386
30
0
10
54.609840849440808
20
69.211876958247103
30
0
10
54.497019720145545
20
69.221151587360893
30
0
10
54.440654963254929
20
69.225785136222839
30
0
0
SPLINE
5
538
100
AcDbEntity
8
0
100
AcDbSpline
70
0
71
3
72
9
73
5
74
0
42
0.000000001
43
0.0000000001
44
0.0000000001
40
0
40
0
40
0
40
0
40
0.016688055022629891
40
0.033472081528159184
40
0.033472081528159184
40
0.033472081528159184
40
0.033472081528159184
10
54.440654963254929
20
69.225785136222839
30
0
10
54.384172385138676
20
69.221113828558799
30
0
10
54.270882402749251
20
69.211744348966278
30
0
10
54.177241247433081
20
69.147269450961602
30
0
10
54.130286425352097
20
69.114939570426941
30
0
0
SPLINE
5
539
100
AcDbEntity
8
0
100
AcDbSpline
70
0
71
3
72
9
73
5
74
0
42
0.000000001
43
0.0000000001
44
0.0000000001
40
0
40
0
40
0
40
0
40
0.019649408361303876
40
0.045536650949410548
40
0.045536650949410548
40
0.045536650949410548
40
0.045536650949410548
10
54.130286425352097
20
69.114939570426941
30
0
10
54.086153275543296
20
69.065465832890553
30
0
10
53.983876616562618
20
68.950812593671742
30
0
10
53.942403554176792
20
68.802126457845119
30
0
10
53.918826431035995
20
68.717599511146545
30
0
0
SPLINE
5
540
100
AcDbEntity
8
0
100
AcDbSpline
70
0
71
3
72
9
73
5
74
0
42
0.000000001
43
0.0000000001
44
0.0000000001
40
0
40
0
40
0
40
0
40
0.050429205641717656
40
0.12575970636496703
40
0.12575970636496703
40
0.12575970636496703
40
0.12575970636496703
10
53.918826431035995
20
68.717599511146545
30
0
10
53.890248050123439
20
68.551679234743958
30
0
10
53.818979650270322
20
68.137909377081925
30
0
10
53.819566413961269
20
67.71763814773162
30
0
10
53.819917887449265
20
67.465894222259521
30
0
0
SPLINE
5
541
100
AcDbEntity
8
0
100
AcDbSpline
70
0
71
3
72
9
73
5
74
0
42
0.000000001
43
0.0000000001
44
0.0000000001
40
0
40
0
40
0
40
0
40
0.074257153528521774
40
0.12141172544244264
40
0.12141172544244264
40
0.12141172544244264
40
0.12141172544244264
10
53.819917887449265
20
67.465894222259521
30
0
10
53.818891098855993
20
67.217757766516158
30
0
10
53.817212281814804
20
66.812050386076336
30
0
10
53.883031469656054
20
66.412140869258906
30
0
10
53.908594697713852
20
66.256821751594543
30
0
0
SPLINE
5
542
100
AcDbEntity
8
0
100
AcDbSpline
70
0
71
3
72
9
73
5
74
0
42
0.000000001
43
0.0000000001
44
0.0000000001
40
0
40
0
40
0
40
0
40
0.029186449264872964
40
0.049709963403168606
40
0.049709963403168606
40
0.049709963403168606
40
0.049709963403168606
10
53.908594697713852
20
66.256821751594543
30
0
10
53.934648646841197
20
66.161461206828008
30
0
10
53.979023378617384
20
65.999044424045337
30
0
10
54.087291552596248
20
65.871297159395283
30
0
10
54.13199171423912
20
65.818554759025574
30
0
0
SPLINE
5
543
100
AcDbEntity
8
0
100
AcDbSpline
70
0
71
3
72
9
73
5
74
0
42
0.000000001
43
0.0000000001
44
0.0000000001
40
0
40
0
40
0
40
0
40
0.016609671900426448
40
0.03324861213196223
40
0.03324861213196223
40
0.03324861213196223
40
0.03324861213196223
10
54.13199171423912
20
65.818554759025574
30
0
10
54.178558435515285
20
65.786722309303713
30
0
10
54.271773934487811
20
65.723001317079579
30
0
10
54.38432826028459
20
65.713945686925442
30
0
10
54.440654963254929
20
65.709413886070251
30
0
0
SPLINE
5
544
100
AcDbEntity
8
0
100
AcDbSpline
70
0
71
3
72
9
73
5
74
0
42
0.000000001
43
0.0000000001
44
0.0000000001
40
0
40
0
40
0
40
0
40
0.016687996245512086
40
0.033471970971786627
40
0.033471970971786627
40
0.033471970971786627
40
0.033471970971786627
10
54.440654963254929
20
65.709413886070251
30
0
10
54.497137347314151
20
65.714085197737006
30
0
10
54.610426965302651
20
65.723454687411461
30
0
10
54.704067691784068
20
65.787929571343113
30
0
10
54.751022309064865
20
65.82025945186615
30
0
0
SPLINE
5
545
100
AcDbEntity
8
0
100
AcDbSpline
70
0
71
3
72
9
73
5
74
0
42
0.000000001
43
0.0000000001
44
0.0000000001
40
0
40
0
40
0
40
0
40
0.019649492033577739
40
0.045536678767880936
40
0.045536678767880936
40
0.045536678767880936
40
0.045536678767880936
10
54.751022309064865
20
65.82025945186615
30
0
10
54.795155682532183
20
65.869733370824392
30
0
10
54.897432486792056
20
65.984386612299545
30
0
10
54.938905735587362
20
66.13307278021631
30
0
10
54.962482899427414
20
66.217599511146545
30
0
0
SPLINE
5
546
100
AcDbEntity
8
0
100
AcDbSpline
70
0
71
3
72
9
73
5
74
0
42
0.000000001
43
0.0000000001
44
0.0000000001
40
0
40
0
40
0
40
0
40
0.05017624728915631
40
0.1254214958655038
40
0.1254214958655038
40
0.1254214958655038
40
0.1254214958655038
10
54.962482899427414
20
66.217599511146545
30
0
10
54.991056878534692
20
66.382666133289945
30
0
10
55.062480936651511
20
66.795269781135175
30
0
10
55.061799604629343
20
67.214426033476514
30
0
10
55.061390846967697
20
67.465894222259521
30
0
0
SPLINE
5
547
100
AcDbEntity
8
0
100
AcDbSpline
70
0
71
3
72
9
73
5
74
0
42
0.000000001
43
0.0000000001
44
0.0000000001
40
0
40
0
40
0
40
0
40
0.074257155307984726
40
0.12141171040845997
40
0.12141171040845997
40
0.12141171040845997
40
0.12141171040845997
10
55.061390846967697
20
67.465894222259521
30
0
10
55.062417190066739
20
67.714030649594065
30
0
10
55.064095278469196
20
68.119737923625507
30
0
10
54.998277361334033
20
68.51964756358251
30
0
10
54.972714632749557
20
68.6749666929245
30
0
0
SPLINE
5
548
100
AcDbEntity
8
0
100
AcDbSpline
70
0
71
3
72
9
73
5
74
0
42
0.000000001
43
0.0000000001
44
0.0000000001
40
0
40
0
40
0
40
0
40
0.029226516277436766
40
0.049852506290609902
40
0.049852506290609902
40
0.049852506290609902
40
0.049852506290609902
10
39.972714632749557
20
68.6749666929245
30
0
10
39.946588407685695
20
68.77041031842468
30
0
10
39.902024156955896
20
68.933211245345973
30
0
10
39.794008177874467
20
69.061755594961937
30
0
10
39.749317616224289
20
69.114939570426941
30
0
0
SPLINE
5
549
100
AcDbEntity
8
0
100
AcDbSpline
70
0
71
3
72
9
73
5
74
0
42
0.000000001
43
0.0000000001
44
0.0000000001
40
0
40
0
40
0
40
0
40
0.016673028546114649
40
0.033319000658817946
40
0.033319000658817946
40
0.033319000658817946
40
0.033319000658817946
10
39.749317616224289
20
69.114939570426941
30
0
10
39.702800198326173
20
69.147269521021386
30
0
10
39.609840849440808
20
69.211876958247103
30
0
10
39.497019720145545
20
69.221151587360893
30
0
10
39.440654963254929
20
69.225785136222839
30
0
0
SPLINE
5
550
100
AcDbEntity
8
0
100
AcDbSpline
70
0
71
3
72
9
73
5
74
0
42
0.000000001
43
0.0000000001
44
0.0000000001
40
0
40
0
40
0
40
0
40
0.016688055022629891
40
0.033472081528159184
40
0.033472081528159184
40
0.033472081528159184
40
0.033472081528159184
10
39.440654963254929
20
69.225785136222839
30
0
10
39.384172385138683
20
69.221113828558799
30
0
10
39.270882402749251
20
69.211744348966278
30
0
10
39.177241247433081
20
69.147269450961602
30
0
10
39.130286425352097
20
69.114939570426941
30
0
0
SPLINE
5
551
100
AcDbEntity
8
0
100
AcDbSpline
70
0
71
3
72
9
73
5
74
0
42
0.000000001
43
0.0000000001
44
0.0000000001
40
0
40
0
40
0
40
0
40
0.019649408361303876
40
0.045536650949410548
40
0.045536650949410548
40
0.045536650949410548
40
0.045536650949410548
10
39.130286425352097
20
69.114939570426941
30
0
10
39.086153275543303
20
69.065465832890553
30
0
10
38.983876616562618
20
68.950812593671742
30
0
10
38.942403554176792
20
68.802126457845119
30
0
10
38.918826431035995
20
68.717599511146545
30
0
0
SPLINE
5
552
100
AcDbEntity
8
0
100
AcDbSpline
70
0
71
3
72
9
73
5
74
0
42
0.000000001
43
0.0000000001
44
0.0000000001
40
0
40
0
40
0
40
0
40
0.050429205641717656
40
0.12575970636496703
40
0.12575970636496703
40
0.12575970636496703
40
0.12575970636496703
10
38.918826431035995
20
68.717599511146545
30
0
10
38.890248050123439
20
68.551679234743958
30
0
10
38.818979650270322
20
68.137909377081925
30
0
10
38.819566413961269
20
67.71763814773162
30
0
10
38.819917887449265
20
67.465894222259521
30
0
0
SPLINE
5
553
100
AcDbEntity
8
0
100
AcDbSpline
70
0
71
3
72
9
73
5
74
0
42
0.000000001
43
0.0000000001
44
0.0000000001
40
0
40
0
40
0
40
0
40
0.074257153528521774
40
0.12141172544244264
40
0.12141172544244264
40
0.12141172544244264
40
0.12141172544244264
10
38.819917887449265
20
67.465894222259521
30
0
10
38.818891098855993
20
67.217757766516158
30
0
10
38.817212281814804
20
66.812050386076336
30
0
10
38.883031469656054
20
66.412140869258906
30
0
10
38.908594697713852
20
66.256821751594543
30
0
0
SPLINE
5
554
100
AcDbEntity
8
0
100
AcDbSpline
70
0
71
3
72
9
73
5
74
0
42
0.000000001
43
0.0000000001
44
0.0000000001
40
0
40
0
40
0
40
0
40
0.029186449264872964
40
0.049709963403168606
40
0.049709963403168606
40
0.049709963403168606
40
0.049709963403168606
10
38.908594697713852
20
66.256821751594543
30
0
10
38.934648646841197
20
66.161461206828008
30
0
10
38.979023378617384
20
65.999044424045337
30
0
10
39.087291552596255
20
65.871297159395283
30
0
10
39.13199171423912
20
65.818554759025574
30
0
0
SPLINE
5
555
100
AcDbEntity
8
0
100
AcDbSpline
70
0
71
3
72
9
73
5
74
0
42
0.000000001
43
0.0000000001
44
0.0000000001
40
0
40
0
40
0
40
0
40
0.016609671900426448
40
0.03324861213196223
40
0.03324861213196223
40
0.03324861213196223
40
0.03324861213196223
10
39.13199171423912
20
65.818554759025574
30
0
10
39.178558435515278
20
65.786722309303713
30
0
10
39.271773934487811
20
65.723001317079579
30
0
10
39.384328260284583
20
65.713945686925442
30
0
10
39.440654963254929
20
65.709413886070251
30
0
0
SPLINE
5
556
100
AcDbEntity
8
0
100
AcDbSpline
70
0
71
3
72
9
73
5
74
0
42
0.000000001
43
0.0000000001
44
0.0000000001
40
0
40
0
40
0
40
0
40
0.016687996245512086
40
0.033471970971786627
40
0.033471970971786627
40
0.033471970971786627
40
0.033471970971786627
10
39.440654963254929
20
65.709413886070251
30
0
10
39.497137347314151
20
65.714085197737006
30
0
10
39.610426965302651
20
65.723454687411461
30
0
10
39.704067691784068
20
65.787929571343113
30
0
10
39.751022309064865
20
65.82025945186615
30
0
0
SPLINE
5
557
100
AcDbEntity
8
0
100
AcDbSpline
70
0
71
3
72
9
73
5
74
0
42
0.000000001
43
0.0000000001
44
0.0000000001
40
0
40
0
40
0
40
0
40
0.019649492033577739
40
0.045536678767880936
40
0.045536678767880936
40
0.045536678767880936
40
0.045536678767880936
10
39.751022309064865
20
65.82025945186615
30
0
10
39.795155682532183
20
65.869733370824392
30
0
10
39.897432486792063
20
65.984386612299545
30
0
10
39.938905735587362
20
66.13307278021631
30
0
10
39.962482899427414
20
66.217599511146545
30
0
0
SPLINE
5
558
100
AcDbEntity
8
0
100
AcDbSpline
70
0
71
3
72
9
73
5
74
0
42
0.000000001
43
0.0000000001
44
0.0000000001
40
0
40
0
40
0
40
0
40
0.05017624728915631
40
0.1254214958655038
40
0.1254214958655038
40
0.1254214958655038
40
0.1254214958655038
10
39.962482899427414
20
66.217599511146545
30
0
10
39.991056878534692
20
66.382666133289945
30
0
10
40.062480936651511
20
66.795269781135175
30
0
10
40.061799604629343
20
67.214426033476514
30
0
10
40.061390846967697
20
67.465894222259521
30
0
0
SPLINE
5
559
100
AcDbEntity
8
0
100
AcDbSpline
70
0
71
3
72
9
73
5
74
0
42
0.000000001
43
0.0000000001
44
0.0000000001
40
0
40
0
40
0
40
0
40
0.074257155307984726
40
0.12141171040845997
40
0.12141171040845997
40
0.12141171040845997
40
0.12141171040845997
10
40.061390846967697
20
67.465894222259521
30
0
10
40.062417190066739
20
67.714030649594065
30
0
10
40.064095278469196
20
68.119737923625507
30
0
10
39.998277361334033
20
68.51964756358251
30
0
10
39.972714632749557
20
68.6749666929245
30
0
0
SPLINE
5
560
100
AcDbEntity
8
0
100
AcDbSpline
70
0
71
3
72
9
73
5
74
0
42
0.000000001
43
0.0000000001
44
0.0000000001
40
0
40
0
40
0
40
0
40
0.026063110093864014
40
0.052795253217337107
40
0.052795253217337107
40
0.052795253217337107
40
0.052795253217337107
10
35.66848561167717
20
67.540928721427917
30
0
10
35.579558989303948
20
67.531456044766699
30
0
10
35.399423022067175
20
67.512267530380868
30
0
10
35.267848860887874
20
67.38751803475175
30
0
10
35.201228111982346
20
67.324352860450745
30
0
0
SPLINE
5
561
100
AcDbEntity
8
0
100
AcDbSpline
70
0
71
3
72
9
73
5
74
0
42
0.000000001
43
0.0000000001
44
0.0000000001
40
0
40
0
40
0
40
0
40
0.030402368942964209
40
0.067841506385147146
40
0.067841506385147146
40
0.067841506385147146
40
0.067841506385147146
10
35.201228111982346
20
67.324352860450745
30
0
10
35.145676250041717
20
67.237458632218917
30
0
10
35.021714791524388
20
67.043558105898683
30
0
10
35.014315543091705
20
66.812415687444243
30
0
10
35.010232180356979
20
66.68485701084137
30
0
0
SPLINE
5
562
100
AcDbEntity
8
0
100
AcDbSpline
70
0
71
3
72
9
73
5
74
0
42
0.000000001
43
0.0000000001
44
0.0000000001
40
0
40
0
40
0
40
0
40
0.04174369011371043
40
0.076450283358188043
40
0.076450283358188043
40
0.076450283358188043
40
0.076450283358188043
10
35.010232180356979
20
66.68485701084137
30
0
10
35.015387421992259
20
66.54284066024475
30
0
10
35.024828841347464
20
66.282748890326175
30
0
10
35.162570672108245
20
66.063184332606241
30
0
10
35.225102156400681
20
65.963507294654846
30
0
0
SPLINE
5
563
100
AcDbEntity
8
0
100
AcDbSpline
70
0
71
3
72
9
73
5
74
0
42
0.000000001
43
0.0000000001
44
0.0000000001
40
0
40
0
40
0
40
0
40
0.029886027964995225
40
0.056739628874678802
40
0.056739628874678802
40
0.056739628874678802
40
0.056739628874678802
10
35.225102156400681
20
65.963507294654846
30
0
10
35.296560276783815
20
65.889460458558403
30
0
10
35.432225920788767
20
65.748880050737824
30
0
10
35.624999470747298
20
65.722092049578862
30
0
10
35.716234892606735
20
65.709413886070251
30
0
0
SPLINE
5
564
100
AcDbEntity
8
0
100
AcDbSpline
70
0
71
3
72
9
73
5
74
0
42
0.000000001
43
0.0000000001
44
0.0000000001
40
0
40
0
40
0
40
0
40
0.024934555286497479
40
0.05026375616908383
40
0.05026375616908383
40
0.05026375616908383
40
0.05026375616908383
10
35.716234892606735
20
65.709413886070251
30
0
10
35.801444527533704
20
65.718351654582307
30
0
10
35.973212432114892
20
65.736368651958998
30
0
10
36.09715865493893
20
65.856782877826731
30
0
10
36.159618347883224
20
65.917462706565857
30
0
0
SPLINE
5
565
100
AcDbEntity
8
0
100
AcDbSpline
70
0
71
3
72
9
73
5
74
0
42
0.000000001
43
0.0000000001
44
0.0000000001
40
0
40
0
40
0
40
0
40
0.030508104821402565
40
0.071505743029872865
40
0.071505743029872865
40
0.071505743029872865
40
0.071505743029872865
10
36.159618347883224
20
65.917462706565857
30
0
10
36.211069023996068
20
66.006938368175142
30
0
10
36.331660547015133
20
66.216653907829794
30
0
10
36.33503604123257
20
66.460044175566509
30
0
10
36.336971372365952
20
66.599591374397278
30
0
0
SPLINE
5
566
100
AcDbEntity
8
0
100
AcDbSpline
70
0
71
3
72
9
73
5
74
0
42
0.000000001
43
0.0000000001
44
0.0000000001
40
0
40
0
40
0
40
0
40
0.042518285163731011
40
0.075045929157622676
40
0.075045929157622676
40
0.075045929157622676
40
0.075045929157622676
10
36.336971372365952
20
66.599591374397278
30
0
10
36.334227364631765
20
66.744271345856617
30
0
10
36.329384116386116
20
66.999635428553134
30
0
10
36.20143378364034
20
67.219027850261384
30
0
10
36.145975440740585
20
67.314120531082153
30
0
0
SPLINE
5
567
100
AcDbEntity
8
0
100
AcDbSpline
70
0
71
3
72
9
73
5
74
0
42
0.000000001
43
0.0000000001
44
0.0000000001
40
0
40
0
40
0
40
0
40
0.027405385100451769
40
0.05427246150172417
40
0.05427246150172417
40
0.05427246150172417
40
0.05427246150172417
10
36.145975440740585
20
67.314120531082153
30
0
10
36.07881327636813
20
67.380271116872535
30
0
10
35.945808176570566
20
67.511272929380027
30
0
10
35.76031318096522
20
67.531109039787097
30
0
10
35.66848561167717
20
67.540928721427917
30
0
0
SPLINE
5
568
100
AcDbEntity
8
0
100
AcDbSpline
70
0
71
3
72
9
73
5
74
0
42
0.000000001
43
0.0000000001
44
0.0000000001
40
0
40
0
40
0
40
0
40
0.029226516277436766
40
0.049852506290609902
40
0.049852506290609902
40
0.049852506290609902
40
0.049852506290609902
10
24.965893216431141
20
68.6749666929245
30
0
10
24.939766991367275
20
68.77041031842468
30
0
10
24.895202740637473
20
68.933211245345973
30
0
10
24.787186761556054
20
69.061755594961937
30
0
10
24.742496199905872
20
69.114939570426941
30
0
0
SPLINE
5
569
100
AcDbEntity
8
0
100
AcDbSpline
70
0
71
3
72
9
73
5
74
0
42
0.000000001
43
0.0000000001
44
0.0000000001
40
0
40
0
40
0
40
0
40
0.016673028546114649
40
0.033319000658817946
40
0.033319000658817946
40
0.033319000658817946
40
0.033319000658817946
10
24.742496199905872
20
69.114939570426941
30
0
10
24.695978782007757
20
69.147269521021386
30
0
10
24.603019433122391
20
69.211876958247103
30
0
10
24.490198303827132
20
69.221151587360893
30
0
10
24.433833546936512
20
69.225785136222839
30
0
0
SPLINE
5
570
100
AcDbEntity
8
0
100
AcDbSpline
70
0
71
3
72
9
73
5
74
0
42
0.000000001
43
0.0000000001
44
0.0000000001
40
0
40
0
40
0
40
0
40
0.016688055022629891
40
0.033472081528159184
40
0.033472081528159184
40
0.033472081528159184
40
0.033472081528159184
10
24.433833546936512
20
69.225785136222839
30
0
10
24.377350968820263
20
69.221113828558799
30
0
10
24.264060986430831
20
69.211744348966278
30
0
10
24.170419831114664
20
69.147269450961602
30
0
10
24.12346500903368
20
69.114939570426941
30
0
0
SPLINE
5
571
100
AcDbEntity
8
0
100
AcDbSpline
70
0
71
3
72
9
73
5
74
0
42
0.000000001
43
0.0000000001
44
0.0000000001
40
0
40
0
40
0
40
0
40
0.019649371633511468
40
0.045536635031901404
40
0.045536635031901404
40
0.045536635031901404
40
0.045536635031901404
10
24.12346500903368
20
69.114939570426941
30
0
10
24.079332125857015
20
69.065465794283966
30
0
10
23.977055929365619
20
68.950812291368379
30
0
10
23.935582419463181
20
68.802126410435946
30
0
10
23.912005014717579
20
68.717599511146545
30
0
0
SPLINE
5
572
100
AcDbEntity
8
0
100
AcDbSpline
70
0
71
3
72
9
73
5
74
0
42
0.000000001
43
0.0000000001
44
0.0000000001
40
0
40
0
40
0
40
0
40
0.050429205641717656
40
0.12575970636496703
40
0.12575970636496703
40
0.12575970636496703
40
0.12575970636496703
10
23.912005014717579
20
68.717599511146545
30
0
10
23.883426633805023
20
68.551679234743958
30
0
10
23.812158233951905
20
68.137909377081925
30
0
10
23.812744997642852
20
67.71763814773162
30
0
10
23.813096471130848
20
67.465894222259521
30
0
0
SPLINE
5
573
100
AcDbEntity
8
0
100
AcDbSpline
70
0
71
3
72
9
73
5
74
0
42
0.000000001
43
0.0000000001
44
0.0000000001
40
0
40
0
40
0
40
0
40
0.074257155307984726
40
0.12141171881514587
40
0.12141171881514587
40
0.12141171881514587
40
0.12141171881514587
10
23.813096471130848
20
67.465894222259521
30
0
10
23.812070034837856
20
67.217757781615148
30
0
10
23.810391793945527
20
66.812050457730265
30
0
10
23.876210315338575
20
66.412140875465454
30
0
10
23.901773281395435
20
66.256821751594543
30
0
0
SPLINE
5
574
100
AcDbEntity
8
0
100
AcDbSpline
70
0
71
3
72
9
73
5
74
0
42
0.000000001
43
0.0000000001
44
0.0000000001
40
0
40
0
40
0
40
0
40
0.029186449264872964
40
0.049709963403168606
40
0.049709963403168606
40
0.049709963403168606
40
0.049709963403168606
10
23.901773281395435
20
66.256821751594543
30
0
10
23.92782723052278
20
66.161461206828008
30
0
10
23.972201962298971
20
65.999044424045337
30
0
10
24.080470136277835
20
65.871297159395283
30
0
10
24.125170297920704
20
65.818554759025574
30
0
0
SPLINE
5
575
100
AcDbEntity
8
0
100
AcDbSpline
70
0
71
3
72
9
73
5
74
0
42
0.000000001
43
0.0000000001
44
0.0000000001
40
0
40
0
40
0
40
0
40
0.016609671900426448
40
0.03324861213196223
40
0.03324861213196223
40
0.03324861213196223
40
0.03324861213196223
10
24.125170297920704
20
65.818554759025574
30
0
10
24.171737019196865
20
65.786722309303713
30
0
10
24.264952518169398
20
65.723001317079579
30
0
10
24.377506843966167
20
65.713945686925442
30
0
10
24.433833546936512
20
65.709413886070251
30
0
0
SPLINE
5
576
100
AcDbEntity
8
0
100
AcDbSpline
70
0
71
3
72
9
73
5
74
0
42
0.000000001
43
0.0000000001
44
0.0000000001
40
0
40
0
40
0
40
0
40
0.016687996245512086
40
0.033471970971786627
40
0.033471970971786627
40
0.033471970971786627
40
0.033471970971786627
10
24.433833546936512
20
65.709413886070251
30
0
10
24.490315930995731
20
65.714085197737006
30
0
10
24.603605548984227
20
65.723454687411461
30
0
10
24.697246275465652
20
65.787929571343113
30
0
10
24.744200892746449
20
65.82025945186615
30
0
0
SPLINE
5
577
100
AcDbEntity
8
0
100
AcDbSpline
70
0
71
3
72
9
73
5
74
0
42
0.000000001
43
0.0000000001
44
0.0000000001
40
0
40
0
40
0
40
0
40
0.019649492033577739
40
0.045536678767880936
40
0.045536678767880936
40
0.045536678767880936
40
0.045536678767880936
10
24.744200892746449
20
65.82025945186615
30
0
10
24.788334266213766
20
65.869733370824392
30
0
10
24.890611070473643
20
65.984386612299545
30
0
10
24.932084319268945
20
66.13307278021631
30
0
10
24.955661483108997
20
66.217599511146545
30
0
0
SPLINE
5
578
100
AcDbEntity
8
0
100
AcDbSpline
70
0
71
3
72
9
73
5
74
0
42
0.000000001
43
0.0000000001
44
0.0000000001
40
0
40
0
40
0
40
0
40
0.05017624728915631
40
0.1254214958655038
40
0.1254214958655038
40
0.1254214958655038
40
0.1254214958655038
10
24.955661483108997
20
66.217599511146545
30
0
10
24.984235462216276
20
66.382666133289945
30
0
10
25.055659520333098
20
66.795269781135175
30
0
10
25.054978188310926
20
67.214426033476514
30
0
10
25.054569430649281
20
67.465894222259521
30
0
0
SPLINE
5
579
100
AcDbEntity
8
0
100
AcDbSpline
70
0
71
3
72
9
73
5
74
0
42
0.000000001
43
0.0000000001
44
0.0000000001
40
0
40
0
40
0
40
0
40
0.074257155307984726
40
0.12141171040845997
40
0.12141171040845997
40
0.12141171040845997
40
0.12141171040845997
10
25.054569430649281
20
67.465894222259521
30
0
10
25.055595773748326
20
67.714030649594065
30
0
10
25.057273862150776
20
68.119737923625507
30
0
10
24.991455945015613
20
68.51964756358251
30
0
10
24.965893216431141
20
68.6749666929245
30
0
0
LINE
5
580
100
AcDbEntity
8
0
100
AcDbLine
10
11.09720347449182
20
73.487040400505052
30
0
11
10.329809170216308
21
73.487040400505052
31
0
0
LINE
5
581
100
AcDbEntity
8
0
100
AcDbLine
10
10.329809170216308
20
73.487040400505052
30
0
11
10.329809170216308
21
72.414734959602342
31
0
0
LINE
5
582
100
AcDbEntity
8
0
100
AcDbLine
10
10.329809170216308
20
72.414734959602342
30
0
11
11.105388980358825
21
72.414734959602342
31
0
0
SPLINE
5
583
100
AcDbEntity
8
0
100
AcDbSpline
70
0
71
3
72
9
73
5
74
0
42
0.000000001
43
0.0000000001
44
0.0000000001
40
0
40
0
40
0
40
0
40
0.033089984671919731
40
0.05734229005114666
40
0.05734229005114666
40
0.05734229005114666
40
0.05734229005114666
10
11.105388980358825
20
72.414734959602342
30
0
10
11.218147144413944
20
72.416018492623294
30
0
10
11.413548000987028
20
72.418242752426011
30
0
10
11.580966062223311
20
72.516447335298068
30
0
10
11.651773732155547
20
72.557981908321366
30
0
0
SPLINE
5
584
100
AcDbEntity
8
0
100
AcDbSpline
70
0
71
3
72
9
73
5
74
0
42
0.000000001
43
0.0000000001
44
0.0000000001
40
0
40
0
40
0
40
0
40
0.021077377981889665
40
0.044501668676373146
40
0.044501668676373146
40
0.044501668676373146
40
0.044501668676373146
10
11.651773732155547
20
72.557981908321366
30
0
10
11.698890158845124
20
72.612672201438272
30
0
10
11.798369307131768
20
72.728142413444402
30
0
10
11.808241503657534
20
72.880777409235762
30
0
10
11.81343792006372
20
72.961119711399064
30
0
0
SPLINE
5
585
100
AcDbEntity
8
0
100
AcDbSpline
70
0
71
3
72
9
73
5
74
0
42
0.000000001
43
0.0000000001
44
0.0000000001
40
0
40
0
40
0
40
0
40
0.017632235798808776
40
0.034026655153270309
40
0.034026655153270309
40
0.034026655153270309
40
0.034026655153270309
10
11.81343792006372
20
72.961119711399064
30
0
10
11.810082544410561
20
73.020735758298343
30
0
10
11.803607346848409
20
73.135782692367826
30
0
10
11.746025002276872
20
73.235419266468909
30
0
10
11.718281190842376
20
73.283425271511064
30
0
0
SPLINE
5
586
100
AcDbEntity
8
0
100
AcDbSpline
70
0
71
3
72
9
73
5
74
0
42
0.000000001
43
0.0000000001
44
0.0000000001
40
0
40
0
40
0
40
0
40
0.015664085558122143
40
0.031169950671380446
40
0.031169950671380446
40
0.031169950671380446
40
0.031169950671380446
10
11.718281190842376
20
73.283425271511064
30
0
10
11.684179678565037
20
73.324273483202433
30
0
10
11.61632110797947
20
73.405557305274868
30
0
10
11.517005160926262
20
73.442206216043672
30
0
10
11.467599254101501
20
73.460437655448899
30
0
0
SPLINE
5
587
100
AcDbEntity
8
0
100
AcDbSpline
70
0
71
3
72
9
73
5
74
0
42
0.000000001
43
0.0000000001
44
0.0000000001
40
0
40
0
40
0
40
0
40
0.014412298289888889
40
0.037188064276654227
40
0.037188064276654227
40
0.037188064276654227
40
0.037188064276654227
10
11.467599254101501
20
73.460437655448899
30
0
10
11.420106506929063
20
73.468105249317077
30
0
10
11.297560935154252
20
73.487889947626911
30
0
10
11.173304260877607
20
73.487363079799508
30
0
10
11.09720347449182
20
73.487040400505052
30
0
0
SPLINE
5
588
100
AcDbEntity
8
0
100
AcDbSpline
70
0
71
3
72
9
73
5
74
0
42
0.000000001
43
0.0000000001
44
0.0000000001
40
0
40
0
40
0
40
0
40
0.024842590528485125
40
0.042351959900231641
40
0.042351959900231641
40
0.042351959900231641
40
0.042351959900231641
10
10.349249523133025
20
68.430423438549028
30
0
10
10.34890482187112
20
68.514740438454453
30
0
10
10.348317170836692
20
68.658485117368201
30
0
10
10.283825088159176
20
68.785971159970032
30
0
10
10.257162433117614
20
68.838677108287797
30
0
0
SPLINE
5
589
100
AcDbEntity
8
0
100
AcDbSpline
70
0
71
3
72
9
73
5
74
0
42
0.000000001
43
0.0000000001
44
0.0000000001
40
0
40
0
40
0
40
0
40
0.013589609592563473
40
0.026514124775591133
40
0.026514124775591133
40
0.026514124775591133
40
0.026514124775591133
10
10.257162433117614
20
68.838677108287797
30
0
10
10.22519107060077
20
68.872990186400301
30
0
10
10.162813068551236
20
68.939937012820337
30
0
10
10.072157725063352
20
68.950967519760113
30
0
10
10.027967076748595
20
68.956344425678239
30
0
0
SPLINE
5
590
100
AcDbEntity
8
0
100
AcDbSpline
70
0
71
3
72
9
73
5
74
0
42
0.000000001
43
0.0000000001
44
0.0000000001
40
0
40
0
40
0
40
0
40
0.012905429830309671
40
0.026486944616913213
40
0.026486944616913213
40
0.026486944616913213
40
0.026486944616913213
10
10.027967076748595
20
68.956344425678239
30
0
10
9.9838172886256977
20
68.950912996425899
30
0
10
9.8932048093641978
20
68.939765598184351
30
0
10
9.8314572630226884
20
68.872265710829694
30
0
10
9.7997954301535941
20
68.837654292583451
30
0
0
SPLINE
5
591
100
AcDbEntity
8
0
100
AcDbSpline
70
0
71
3
72
9
73
5
74
0
42
0.000000001
43
0.0000000001
44
0.0000000001
40
0
40
0
40
0
40
0
40
0.018164430152030134
40
0.045017574240510679
40
0.045017574240510679
40
0.045017574240510679
40
0.045017574240510679
10
9.7997954301535941
20
68.837654292583451
30
0
10
9.7734719411304347
20
68.782401632152329
30
0
10
9.7082334716903702
20
68.645466934937787
30
0
10
9.7085452055061587
20
68.492825580216049
30
0
10
9.7087311558425284
20
68.401774466037736
30
0
0
SPLINE
5
592
100
AcDbEntity
8
0
100
AcDbSpline
70
0
71
3
72
9
73
5
74
0
42
0.000000001
43
0.0000000001
44
0.0000000001
40
0
40
0
40
0
40
0
40
0.024689773120747802
40
0.042152226478474115
40
0.042152226478474115
40
0.042152226478474115
40
0.042152226478474115
10
9.7087311558425284
20
68.401774466037736
30
0
10
9.7091196881025787
20
68.317973507191979
30
0
10
9.709783019423595
20
68.174902245293211
30
0
10
9.7741522327627557
20
68.048097840416105
30
0
10
9.8008185438811637
20
67.995566427707658
30
0
0
SPLINE
5
593
100
AcDbEntity
8
0
100
AcDbSpline
70
0
71
3
72
9
73
5
74
0
42
0.000000001
43
0.0000000001
44
0.0000000001
40
0
40
0
40
0
40
0
40
0.013550737532691381
40
0.026325804270446597
40
0.026325804270446597
40
0.026325804270446597
40
0.026325804270446597
10
9.8008185438811637
20
67.995566427707658
30
0
10
9.8326045992201312
20
67.961255738383386
30
0
10
9.8943572137449447
20
67.894598370889156
30
0
10
9.9843139592429555
20
67.883355506918576
30
0
10
10.027967076748595
20
67.877899706363664
30
0
0
SPLINE
5
594
100
AcDbEntity
8
0
100
AcDbSpline
70
0
71
3
72
9
73
5
74
0
42
0.000000001
43
0.0000000001
44
0.0000000001
40
0
40
0
40
0
40
0
40
0.01305484757036492
40
0.026675072957178338
40
0.026675072957178338
40
0.026675072957178338
40
0.026675072957178338
10
10.027967076748595
20
67.877899706363664
30
0
10
10.072654593476773
20
67.883251274675629
30
0
10
10.163964948697256
20
67.894186176396062
30
0
10
10.226338015356527
20
67.96197634784366
30
0
10
10.258185546845183
20
67.996589839458451
30
0
0
SPLINE
5
595
100
AcDbEntity
8
0
100
AcDbSpline
70
0
71
3
72
9
73
5
74
0
42
0.000000001
43
0.0000000001
44
0.0000000001
40
0
40
0
40
0
40
0
40
0.018116985860018139
40
0.044817263123447304
40
0.044817263123447304
40
0.044817263123447304
40
0.044817263123447304
10
10.258185546845183
20
67.996589839458451
30
0
10
10.28451226834571
20
68.051668118345248
30
0
10
10.349638532382297
20
68.18791913362611
30
0
10
10.349394755404122
20
68.339887156904126
30
0
10
10.349249523133025
20
68.430423438549028
30
0
0
SPLINE
5
596
100
AcDbEntity
8
0
100
AcDbSpline
70
0
71
3
72
9
73
5
74
0
42
0.000000001
43
0.0000000001
44
0.0000000001
40
0
40
0
40
0
40
0
40
0.024842590528485125
40
0.042351971655725427
40
0.042351971655725427
40
0.042351971655725427
40
0.042351971655725427
10
12.291268687695251
20
66.85470730066298
30
0
10
12.290924019305134
20
66.93902431503443
30
0
10
12.290336424147853
20
67.082769058508745
30
0
10
12.225844075257511
20
67.210255030513963
30
0
10
12.199181299656615
20
67.26296097040175
30
0
0
SPLINE
5
597
100
AcDbEntity
8
0
100
AcDbSpline
70
0
71
3
72
9
73
5
74
0
42
0.000000001
43
0.0000000001
44
0.0000000001
40
0
40
0
40
0
40
0
40
0.013589609592563473
40
0.026514066735410916
40
0.026514066735410916
40
0.026514066735410916
40
0.026514066735410916
10
12.199181299656615
20
67.26296097040175
30
0
10
12.16720993978662
20
67.297274047366997
30
0
10
12.104832079448473
20
67.364220725000166
30
0
10
12.014176971245059
20
67.375251341059126
30
0
10
11.969986539334045
20
67.380628287792192
30
0
0
SPLINE
5
598
100
AcDbEntity
8
0
100
AcDbSpline
70
0
71
3
72
9
73
5
74
0
42
0.000000001
43
0.0000000001
44
0.0000000001
40
0
40
0
40
0
40
0
40
0.01305487659267527
40
0.026675140935389363
40
0.026675140935389363
40
0.026675140935389363
40
0.026675140935389363
10
11.969986539334045
20
67.380628287792192
30
0
10
11.925298894573174
20
67.375276760169825
30
0
10
11.833988248041624
20
67.364341938033959
30
0
10
11.77161526826827
20
67.296551299533377
30
0
10
11.739767771214233
20
67.261937558650956
30
0
0
SPLINE
5
599
100
AcDbEntity
8
0
100
AcDbSpline
70
0
71
3
72
9
73
5
74
0
42
0.000000001
43
0.0000000001
44
0.0000000001
40
0
40
0
40
0
40
0
40
0.018164363715521093
40
0.045017567194053885
40
0.045017567194053885
40
0.045017567194053885
40
0.045017567194053885
10
11.739767771214233
20
67.261937558650956
30
0
10
11.713444407950123
20
67.206685089679141
30
0
10
11.648206021785068
20
67.06975038755958
30
0
10
11.648517811065011
20
66.917109051047547
30
0
10
11.648703794926391
20
66.826057732105241
30
0
0
SPLINE
5
600
100
AcDbEntity
8
0
100
AcDbSpline
70
0
71
3
72
9
73
5
74
0
42
0.000000001
43
0.0000000001
44
0.0000000001
40
0
40
0
40
0
40
0
40
0.024562424514345885
40
0.042048299696449368
40
0.042048299696449368
40
0.042048299696449368
40
0.042048299696449368
10
11.648703794926391
20
66.826057732105241
30
0
10
11.649173865799193
20
66.742704292334793
30
0
10
11.649978577928755
20
66.600011928470167
30
0
10
11.714118471369289
20
66.473488669064068
30
0
10
11.740791182965026
20
66.420873701572404
30
0
0
SPLINE
5
601
100
AcDbEntity
8
0
100
AcDbSpline
70
0
71
3
72
9
73
5
74
0
42
0.000000001
43
0.0000000001
44
0.0000000001
40
0
40
0
40
0
40
0
40
0.013600921309653126
40
0.026381929259119447
40
0.026381929259119447
40
0.026381929259119447
40
0.026381929259119447
10
11.740791182965026
20
66.420873701572404
30
0
10
11.7725367555907
20
66.386265279880575
30
0
10
11.834114161432044
20
66.319134758935974
30
0
10
11.924265521002066
20
66.307715267338509
30
0
10
11.967940311878905
20
66.302182972431169
30
0
0
SPLINE
5
602
100
AcDbEntity
8
0
100
AcDbSpline
70
0
71
3
72
9
73
5
74
0
42
0.000000001
43
0.0000000001
44
0.0000000001
40
0
40
0
40
0
40
0
40
0.013204400975767321
40
0.026863328761719613
40
0.026863328761719613
40
0.026863328761719613
40
0.026863328761719613
10
11.967940311878905
20
66.302182972431169
30
0
10
12.013165400332454
20
66.307454920651509
30
0
10
12.105172332084608
20
66.318180290058123
30
0
10
12.168171934432852
20
66.386258603316051
30
0
10
12.200204711407409
20
66.420873701572404
30
0
0
SPLINE
5
603
100
AcDbEntity
8
0
100
AcDbSpline
70
0
71
3
72
9
73
5
74
0
42
0.000000001
43
0.0000000001
44
0.0000000001
40
0
40
0
40
0
40
0
40
0.018117041067053349
40
0.044817258942899979
40
0.044817258942899979
40
0.044817258942899979
40
0.044817258942899979
10
12.200204711407409
20
66.420873701572404
30
0
10
12.226531438604194
20
66.4759521797491
30
0
10
12.291657512201439
20
66.612203260126407
30
0
10
12.291413850800726
20
66.764171238624471
30
0
10
12.291268687695251
20
66.85470730066298
30
0
0
SPLINE
5
604
100
AcDbEntity
8
0
100
AcDbSpline
70
0
71
3
72
9
73
5
74
0
42
0.000000001
43
0.0000000001
44
0.0000000001
40
0
40
0
40
0
40
0
40
0.029226516277436766
40
0.049852435080814446
40
0.049852435080814446
40
0.049852435080814446
40
0.049852435080814446
10
9.8448149859905243
20
38.6749666929245
30
0
10
9.8186886651556868
20
38.770410244961838
30
0
10
9.7741243147228314
20
38.933210814029223
30
0
10
9.6661092531458124
20
39.061755544876952
30
0
10
9.6214191615581512
20
39.114939570426941
30
0
0
SPLINE
5
605
100
AcDbEntity
8
0
100
AcDbSpline
70
0
71
3
72
9
73
5
74
0
42
0.000000001
43
0.0000000001
44
0.0000000001
40
0
40
0
40
0
40
0
40
0.016673028546114649
40
0.033319059431722566
40
0.033319059431722566
40
0.033319059431722566
40
0.033319059431722566
10
9.6214191615581512
20
39.114939570426941
30
0
10
9.5749017421156157
20
39.147269521047868
30
0
10
9.4819422261686892
20
39.211877072290527
30
0
10
9.3691208782445941
20
39.221151619895622
30
0
10
9.3127559125423431
20
39.225785136222839
30
0
0
SPLINE
5
606
100
AcDbEntity
8
0
100
AcDbSpline
70
0
71
3
72
9
73
5
74
0
42
0.000000001
43
0.0000000001
44
0.0000000001
40
0
40
0
40
0
40
0
40
0.016688055022629891
40
0.033472081528159184
40
0.033472081528159184
40
0.033472081528159184
40
0.033472081528159184
10
9.3127559125423431
20
39.225785136222839
30
0
10
9.2562733344260941
20
39.221113828558806
30
0
10
9.1429833520366603
20
39.211744348966278
30
0
10
9.0493421967204952
20
39.147269450961602
30
0
10
9.0023873746395111
20
39.114939570426941
30
0
0
SPLINE
5
607
100
AcDbEntity
8
0
100
AcDbSpline
70
0
71
3
72
9
73
5
74
0
42
0.000000001
43
0.0000000001
44
0.0000000001
40
0
40
0
40
0
40
0
40
0.019649408361303876
40
0.045536650949410548
40
0.045536650949410548
40
0.045536650949410548
40
0.045536650949410548
10
9.0023873746395111
20
39.114939570426941
30
0
10
8.9582542248307142
20
39.06546583289056
30
0
10
8.8559775658500346
20
38.950812593671742
30
0
10
8.8145045034642049
20
38.802126457845112
30
0
10
8.79092738032341
20
38.717599511146545
30
0
0
SPLINE
5
608
100
AcDbEntity
8
0
100
AcDbSpline
70
0
71
3
72
9
73
5
74
0
42
0.000000001
43
0.0000000001
44
0.0000000001
40
0
40
0
40
0
40
0
40
0.050429214409547993
40
0.12575971317627108
40
0.12575971317627108
40
0.12575971317627108
40
0.12575971317627108
10
8.79092738032341
20
38.717599511146545
30
0
10
8.7623487339859238
20
38.551679241517192
30
0
10
8.6910796807506205
20
38.137909450275572
30
0
10
8.6916670190715326
20
37.717638162534612
30
0
10
8.6920188367366791
20
37.465894222259521
30
0
0
SPLINE
5
609
100
AcDbEntity
8
0
100
AcDbSpline
70
0
71
3
72
9
73
5
74
0
42
0.000000001
43
0.0000000001
44
0.0000000001
40
0
40
0
40
0
40
0
40
0.074257155307984726
40
0.12141171881514587
40
0.12141171881514587
40
0.12141171881514587
40
0.12141171881514587
10
8.6920188367366791
20
37.465894222259521
30
0
10
8.6909924004436885
20
37.217757781615148
30
0
10
8.6893141595513583
20
36.812050457730265
30
0
10
8.7551326809444099
20
36.412140875465447
30
0
10
8.7806956470012665
20
36.256821751594543
30
0
0
SPLINE
5
610
100
AcDbEntity
8
0
100
AcDbSpline
70
0
71
3
72
9
73
5
74
0
42
0.000000001
43
0.0000000001
44
0.0000000001
40
0
40
0
40
0
40
0
40
0.029186469725277234
40
0.049709948081013602
40
0.049709948081013602
40
0.049709948081013602
40
0.049709948081013602
10
8.7806956470012665
20
36.256821751594543
30
0
10
8.8067498867604836
20
36.161461258643534
30
0
10
8.8511250687510366
20
35.999044728032132
30
0
10
8.9593927637810573
20
35.871297194647298
30
0
10
9.004092663526535
20
35.818554759025574
30
0
0
SPLINE
5
611
100
AcDbEntity
8
0
100
AcDbSpline
70
0
71
3
72
9
73
5
74
0
42
0.000000001
43
0.0000000001
44
0.0000000001
40
0
40
0
40
0
40
0
40
0.016609620036438826
40
0.033248619065717494
40
0.033248619065717494
40
0.033248619065717494
40
0.033248619065717494
10
9.004092663526535
20
35.818554759025574
30
0
10
9.0506591831177037
20
35.786722309356371
30
0
10
9.1438745888709008
20
35.72300110497855
30
0
10
9.2564289863844031
20
35.713945626226604
30
0
10
9.3127559125423431
20
35.709413886070251
30
0
0
SPLINE
5
612
100
AcDbEntity
8
0
100
AcDbSpline
70
0
71
3
72
9
73
5
74
0
42
0.000000001
43
0.0000000001
44
0.0000000001
40
0
40
0
40
0
40
0
40
0.016687996245512086
40
0.033472022751041386
40
0.033472022751041386
40
0.033472022751041386
40
0.033472022751041386
10
9.3127559125423431
20
35.709413886070251
30
0
10
9.3692382820013975
20
35.714085225989507
30
0
10
9.4825280459582082
20
35.72345478682562
30
0
10
9.5761690338280765
20
35.787929571425202
30
0
10
9.6231238543987274
20
35.82025945186615
30
0
0
SPLINE
5
613
100
AcDbEntity
8
0
100
AcDbSpline
70
0
71
3
72
9
73
5
74
0
42
0.000000001
43
0.0000000001
44
0.0000000001
40
0
40
0
40
0
40
0
40
0.019649492033577739
40
0.045536678767880936
40
0.045536678767880936
40
0.045536678767880936
40
0.045536678767880936
10
9.6231238543987274
20
35.82025945186615
30
0
10
9.6672572278660454
20
35.869733370824392
30
0
10
9.7695340321259252
20
35.984386612299538
30
0
10
9.8110072809212241
20
36.133072780216303
30
0
10
9.8345844447612762
20
36.217599511146545
30
0
0
SPLINE
5
614
100
AcDbEntity
8
0
100
AcDbSpline
70
0
71
3
72
9
73
5
74
0
42
0.000000001
43
0.0000000001
44
0.0000000001
40
0
40
0
40
0
40
0
40
0.05017624728915631
40
0.1254214958655038
40
0.1254214958655038
40
0.1254214958655038
40
0.1254214958655038
10
9.8345844447612762
20
36.217599511146545
30
0
10
9.8631584238685548
20
36.382666133289938
30
0
10
9.934582481985375
20
36.795269781135183
30
0
10
9.9339011499632122
20
37.214426033476514
30
0
10
9.9334923923015594
20
37.465894222259521
30
0
0
SPLINE
5
615
100
AcDbEntity
8
0
100
AcDbSpline
70
0
71
3
72
9
73
5
74
0
42
0.000000001
43
0.0000000001
44
0.0000000001
40
0
40
0
40
0
40
0
40
0.074257155307984726
40
0.1214117272219056
40
0.1214117272219056
40
0.1214117272219056
40
0.1214117272219056
10
9.9334923923015594
20
37.465894222259521
30
0
10
9.934518921788424
20
37.714030676213838
30
0
10
9.9361973151705545
20
38.119738049952581
30
0
10
9.8703781895197729
20
38.519647574524726
30
0
10
9.8448149859905243
20
38.6749666929245
30
0
0
SPLINE
5
616
100
AcDbEntity
8
0
100
AcDbSpline
70
0
71
3
72
9
73
5
74
0
42
0.000000001
43
0.0000000001
44
0.0000000001
40
0
40
0
40
0
40
0
40
0.029226557142010633
40
0.049852475945388317
40
0.049852475945388317
40
0.049852475945388317
40
0.049852475945388317
10
10.034106113016605
20
8.6749666929244995
30
0
10
10.007979306394619
20
8.770410215210001
30
0
10
9.963414153122411
20
8.9332106393503388
30
0
10
9.8553991339157889
20
9.0617555245931474
30
0
10
9.8107090964913368
20
9.1149395704269409
30
0
0
SPLINE
5
617
100
AcDbEntity
8
0
100
AcDbSpline
70
0
71
3
72
9
73
5
74
0
42
0.000000001
43
0.0000000001
44
0.0000000001
40
0
40
0
40
0
40
0
40
0.016673028546114649
40
0.033319000658817946
40
0.033319000658817946
40
0.033319000658817946
40
0.033319000658817946
10
9.8107090964913368
20
9.1149395704269409
30
0
10
9.764191678593221
20
9.1472695210213821
30
0
10
9.6712323297078555
20
9.2118769582471032
30
0
10
9.5584112004125927
20
9.2211515873608931
30
0
10
9.5020464435219765
20
9.2257851362228394
30
0
0
SPLINE
5
618
100
AcDbEntity
8
0
100
AcDbSpline
70
0
71
3
72
9
73
5
74
0
42
0.000000001
43
0.0000000001
44
0.0000000001
40
0
40
0
40
0
40
0
40
0.016688055022629891
40
0.033472081528159184
40
0.033472081528159184
40
0.033472081528159184
40
0.033472081528159184
10
9.5020464435219765
20
9.2257851362228394
30
0
10
9.4455638654057275
20
9.2211138285588081
30
0
10
9.3322738830162919
20
9.2117443489662758
30
0
10
9.2386327277001286
20
9.1472694509615984
30
0
10
9.1916779056191444
20
9.1149395704269409
30
0
0
SPLINE
5
619
100
AcDbEntity
8
0
100
AcDbSpline
70
0
71
3
72
9
73
5
74
0
42
0.000000001
43
0.0000000001
44
0.0000000001
40
0
40
0
40
0
40
0
40
0.019649408361303876
40
0.045536650949410548
40
0.045536650949410548
40
0.045536650949410548
40
0.045536650949410548
10
9.1916779056191444
20
9.1149395704269409
30
0
10
9.1475447558103475
20
9.0654658328905597
30
0
10
9.0452680968296679
20
8.9508125936717402
30
0
10
9.0037950344438382
20
8.8021264578451124
30
0
10
8.9802179113030434
20
8.7175995111465454
30
0
0
SPLINE
5
620
100
AcDbEntity
8
0
100
AcDbSpline
70
0
71
3
72
9
73
5
74
0
42
0.000000001
43
0.0000000001
44
0.0000000001
40
0
40
0
40
0
40
0
40
0.050429214409547993
40
0.12575971317627108
40
0.12575971317627108
40
0.12575971317627108
40
0.12575971317627108
10
8.9802179113030434
20
8.7175995111465454
30
0
10
8.9516392649655572
20
8.5516792415171885
30
0
10
8.8803702117302539
20
8.1379094502755738
30
0
10
8.8809575500511659
20
7.7176381625346115
30
0
10
8.8813093677163124
20
7.4658942222595215
30
0
0
SPLINE
5
621
100
AcDbEntity
8
0
100
AcDbSpline
70
0
71
3
72
9
73
5
74
0
42
0.000000001
43
0.0000000001
44
0.0000000001
40
0
40
0
40
0
40
0
40
0.074257155307984726
40
0.12141171881514587
40
0.12141171881514587
40
0.12141171881514587
40
0.12141171881514587
10
8.8813093677163124
20
7.4658942222595215
30
0
10
8.8802829314233218
20
7.2177577816151466
30
0
10
8.8786046905309881
20
6.8120504577302672
30
0
10
8.9444232119240432
20
6.4121408754654476
30
0
10
8.9699861779808998
20
6.2568217515945435
30
0
0
SPLINE
5
622
100
AcDbEntity
8
0
100
AcDbSpline
70
0
71
3
72
9
73
5
74
0
42
0.000000001
43
0.0000000001
44
0.0000000001
40
0
40
0
40
0
40
0
40
0.029186449264872964
40
0.049709963403168606
40
0.049709963403168606
40
0.049709963403168606
40
0.049709963403168606
10
8.9699861779808998
20
6.2568217515945435
30
0
10
8.9960401271082429
20
6.1614612068280072
30
0
10
9.040414858884434
20
5.9990444240453256
30
0
10
9.1486830328632998
20
5.8712971593952856
30
0
10
9.1933831945061684
20
5.8185547590255737
30
0
0
SPLINE
5
623
100
AcDbEntity
8
0
100
AcDbSpline
70
0
71
3
72
9
73
5
74
0
42
0.000000001
43
0.0000000001
44
0.0000000001
40
0
40
0
40
0
40
0
40
0.016609620036438826
40
0.033248619065717494
40
0.033248619065717494
40
0.033248619065717494
40
0.033248619065717494
10
9.1933831945061684
20
5.8185547590255737
30
0
10
9.239949714097337
20
5.7867223093563736
30
0
10
9.3331651198505341
20
5.7230011049785512
30
0
10
9.4457195173640365
20
5.713945626226602
30
0
10
9.5020464435219765
20
5.7094138860702515
30
0
0
SPLINE
5
624
100
AcDbEntity
8
0
100
AcDbSpline
70
0
71
3
72
9
73
5
74
0
42
0.000000001
43
0.0000000001
44
0.0000000001
40
0
40
0
40
0
40
0
40
0.016688055022629891
40
0.033472029748904425
40
0.033472029748904425
40
0.033472029748904425
40
0.033472029748904425
10
9.5020464435219765
20
5.7094138860702515
30
0
10
9.5585290362384647
20
5.7140851654816345
30
0
10
9.6718188726596566
20
5.7234545739124743
30
0
10
9.7654597665872132
20
5.787929571249455
30
0
10
9.8124143853783607
20
5.8202594518661499
30
0
0
SPLINE
5
625
100
AcDbEntity
8
0
100
AcDbSpline
70
0
71
3
72
9
73
5
74
0
42
0.000000001
43
0.0000000001
44
0.0000000001
40
0
40
0
40
0
40
0
40
0.01964945530576092
40
0.045536642040064114
40
0.045536642040064114
40
0.045536642040064114
40
0.045536642040064114
10
9.8124143853783607
20
5.8202594518661499
30
0
10
9.85654752250902
20
5.8697333978206778
30
0
10
9.9588238877492667
20
5.9843868236884301
30
0
10
10.000297174985047
20
6.1330728133674484
30
0
10
10.023874379694462
20
6.2175995111465454
30
0
0
SPLINE
5
626
100
AcDbEntity
8
0
100
AcDbSpline
70
0
71
3
72
9
73
5
74
0
42
0.000000001
43
0.0000000001
44
0.0000000001
40
0
40
0
40
0
40
0
40
0.05017624728915631
40
0.12542149978294248
40
0.12542149978294248
40
0.12542149978294248
40
0.12542149978294248
10
10.023874379694462
20
6.2175995111465454
30
0
10
10.052448305735378
20
6.3826661350417124
30
0
10
10.123872233437387
20
6.7952698001530472
30
0
10
10.123191761187101
20
7.2144260373341336
30
0
10
10.122783519327641
20
7.4658942222595215
30
0
0
SPLINE
5
627
100
AcDbEntity
8
0
100
AcDbSpline
70
0
71
3
72
9
73
5
74
0
42
0.000000001
43
0.0000000001
44
0.0000000001
40
0
40
0
40
0
40
0
40
0.074257155307984726
40
0.1214117272219056
40
0.1214117272219056
40
0.1214117272219056
40
0.1214117272219056
10
10.122783519327641
20
7.4658942222595215
30
0
10
10.123810048814509
20
7.7140306762138389
30
0
10
10.125488442196637
20
8.1197380499525806
30
0
10
10.059669316545854
20
8.5196475745247309
30
0
10
10.034106113016605
20
8.6749666929244995
30
0
0
LINE
5
628
100
AcDbEntity
8
0
100
AcDbLine
10
75
20
75
30
0
11
75
21
0
31
0
0
LINE
5
629
100
AcDbEntity
8
0
100
AcDbLine
10
0
20
15
30
0
11
90
21
15
31
0
0
LINE
5
630
100
AcDbEntity
8
0
100
AcDbLine
10
60
20
75
30
0
11
60
21
0
31
0
0
LINE
5
631
100
AcDbEntity
8
0
100
AcDbLine
10
45
20
75
30
0
11
45
21
0
31
0
0
LINE
5
632
100
AcDbEntity
8
0
100
AcDbLine
10
30
20
75
30
0
11
30
21
0
31
0
0
LINE
5
633
100
AcDbEntity
8
0
100
AcDbLine
10
0
20
30
30
0
11
90
21
30
31
0
0
LINE
5
634
100
AcDbEntity
8
0
100
AcDbLine
10
0
20
45
30
0
11
90
21
45
31
0
0
LINE
5
635
100
AcDbEntity
8
0
100
AcDbLine
10
15
20
60
30
0
11
0
21
75
31
0
0
LINE
5
636
100
AcDbEntity
8
0
100
AcDbLine
10
15
20
75
30
0
11
15
21
0
31
0
0
LINE
5
637
100
AcDbEntity
8
0
100
AcDbLine
10
0
20
60
30
0
11
90
21
60
31
0
0
ENDSEC
0
SECTION
2
OBJECTS
0
DICTIONARY
5
C
100
AcDbDictionary
3
ACAD_GROUP
350
D
3
ACAD_MLINESTYLE
350
17
0
DICTIONARY
5
D
100
AcDbDictionary
0
DICTIONARY
5
1A
330
C
100
AcDbDictionary
0
DICTIONARY
5
17
100
AcDbDictionary
0
ENDSEC
0
EOF
