0
SECTION
2
HEADER
9
$INSUNITS
70
4
9
$ACADVER
1
AC1014
9
$HANDSEED
5
FFFF
0
ENDSEC
0
SECTION
2
TABLES
0
TABLE
2
VPORT
5
8
100
AcDbSymbolTable
0
ENDTAB
0
TABLE
2
LTYPE
5
5
100
AcDbSymbolTable
0
LTYPE
5
14
100
AcDbSymbolTableRecord
100
AcDbLinetypeTableRecord
2
BYBLOCK
70
0
0
LTYPE
5
15
100
AcDbSymbolTableRecord
100
AcDbLinetypeTableRecord
2
BYLAYER
70
0
0
ENDTAB
0
TABLE
2
LAYER
5
2
100
AcDbSymbolTable
70
2
0
LAYER
5
50
100
AcDbSymbolTableRecord
100
AcDbLayerTableRecord
2
0
70
0
6
CONTINUOUS
0
ENDTAB
0
TABLE
2
STYLE
5
3
100
AcDbSymbolTable
70
1
0
STYLE
5
11
100
AcDbSymbolTableRecord
100
AcDbTextStyleTableRecord
2
STANDARD
70
0
0
ENDTAB
0
TABLE
2
VIEW
5
6
100
AcDbSymbolTable
70
0
0
ENDTAB
0
TABLE
2
UCS
5
7
100
AcDbSymbolTable
70
0
0
ENDTAB
0
TABLE
2
APPID
5
9
100
AcDbSymbolTable
70
2
0
APPID
5
12
100
AcDbSymbolTableRecord
100
AcDbRegAppTableRecord
2
ACAD
70
0
0
ENDTAB
0
TABLE
2
DIMSTYLE
5
A
100
AcDbSymbolTable
70
1
0
ENDTAB
0
TABLE
2
BLOCK_RECORD
5
1
100
AcDbSymbolTable
70
1
0
BLOCK_RECORD
5
1F
100
AcDbSymbolTableRecord
100
AcDbBlockTableRecord
2
*MODEL_SPACE
0
BLOCK_RECORD
5
1B
100
AcDbSymbolTableRecord
100
AcDbBlockTableRecord
2
*PAPER_SPACE
0
ENDTAB
0
ENDSEC
0
SECTION
2
BLOCKS
0
BLOCK
5
20
100
AcDbEntity
100
AcDbBlockBegin
2
*MODEL_SPACE
0
ENDBLK
5
21
100
AcDbEntity
100
AcDbBlockEnd
0
BLOCK
5
1C
100
AcDbEntity
100
AcDbBlockBegin
2
*PAPER_SPACE
0
ENDBLK
5
1D
100
AcDbEntity
100
AcDbBlockEnd
0
ENDSEC
0
SECTION
2
ENTITIES
0
SPLINE
5
100
100
AcDbEntity
8
0
100
AcDbSpline
70
0
71
3
72
9
73
5
74
0
42
0.000000001
43
0.0000000001
44
0.0000000001
40
0
40
0
40
0
40
0
40
0.037606532552138139
40
0.071876454629309638
40
0.071876454629309638
40
0.071876454629309638
40
0.071876454629309638
10
48.935197498649366
20
9.6988400816917455
30
0
10
48.807265044106536
20
9.7064869829710538
30
0
10
48.562750842968342
20
9.7211023201360831
30
0
10
48.362520805337056
20
9.8612259807198424
30
0
10
48.267053272575147
20
9.9280354380607641
30
0
0
SPLINE
5
101
100
AcDbEntity
8
0
100
AcDbSpline
70
0
71
3
72
9
73
5
74
0
42
0.000000001
43
0.0000000001
44
0.0000000001
40
0
40
0
40
0
40
0
40
0.033526021383721925
40
0.068876896556536171
40
0.068876896556536171
40
0.068876896556536171
40
0.068876896556536171
10
48.267053272575147
20
9.9280354380607641
30
0
10
48.189873708777817
20
10.012251989494684
30
0
10
48.031313622834297
20
10.185269080758573
30
0
10
47.991688130836565
20
10.416918212621368
30
0
10
47.9713504575193
20
10.535811483860018
30
0
0
LINE
5
102
100
AcDbEntity
8
0
100
AcDbLine
10
47.9713504575193
20
10.535811483860016
30
0
11
48.358117248862989
21
10.568553507328035
31
0
0
SPLINE
5
103
100
AcDbEntity
8
0
100
AcDbSpline
70
0
71
3
72
9
73
5
74
0
42
0.000000001
43
0.0000000001
44
0.0000000001
40
0
40
0
40
0
40
0
40
0.025744663374239713
40
0.047618737172118369
40
0.047618737172118369
40
0.047618737172118369
40
0.047618737172118369
10
48.358117248862989
20
10.568553507328037
30
0
10
48.374746204686403
20
10.482612109162236
30
0
10
48.405504030698374
20
10.32365019958231
30
0
10
48.509752294292959
20
10.200499261517431
30
0
10
48.557639624923475
20
10.143928825855259
30
0
0
SPLINE
5
104
100
AcDbEntity
8
0
100
AcDbSpline
70
0
71
3
72
9
73
5
74
0
42
0.000000001
43
0.0000000001
44
0.0000000001
40
0
40
0
40
0
40
0
40
0.02029553338456527
40
0.041091147243099813
40
0.041091147243099813
40
0.041091147243099813
40
0.041091147243099813
10
48.557639624923475
20
10.143928825855259
30
0
10
48.612946719277303
20
10.102448608269583
30
0
10
48.724923670787696
20
10.018466103538517
30
0
10
48.864539845042543
20
10.007337174885363
30
0
10
48.935197498649366
20
10.001704990863804
30
0
0
SPLINE
5
105
100
AcDbEntity
8
0
100
AcDbSpline
70
0
71
3
72
9
73
5
74
0
42
0.000000001
43
0.0000000001
44
0.0000000001
40
0
40
0
40
0
40
0
40
0.025063220953493677
40
0.050460027879098202
40
0.050460027879098202
40
0.050460027879098202
40
0.050460027879098202
10
48.935197498649366
20
10.001704990863804
30
0
10
49.020663596255304
20
10.010279853127704
30
0
10
49.192733326475377
20
10.02754370719094
30
0
10
49.320896756792095
20
10.143758992477521
30
0
10
49.385402109473951
20
10.202250778675083
30
0
0
SPLINE
5
106
100
AcDbEntity
8
0
100
AcDbSpline
70
0
71
3
72
9
73
5
74
0
42
0.000000001
43
0.0000000001
44
0.0000000001
40
0
40
0
40
0
40
0
40
0.027111510234951085
40
0.057341462465239482
40
0.057341462465239482
40
0.057341462465239482
40
0.057341462465239482
10
49.385402109473951
20
10.202250778675083
30
0
10
49.439076701022692
20
10.277281807000429
30
0
10
49.552599686277183
20
10.43597414310274
30
0
10
49.563716298225522
20
10.631324124334283
30
0
10
49.569576885551221
20
10.73431104421616
30
0
0
SPLINE
5
107
100
AcDbEntity
8
0
100
AcDbSpline
70
0
71
3
72
9
73
5
74
0
42
0.000000001
43
0.0000000001
44
0.0000000001
40
0
40
0
40
0
40
0
40
0.028534185170115117
40
0.053835253534730149
40
0.053835253534730149
40
0.053835253534730149
40
0.053835253534730149
10
49.569576885551221
20
10.73431104421616
30
0
10
49.564143030253405
20
10.831718020408799
30
0
10
49.553891012335775
20
11.015495101412469
30
0
10
49.444143208116316
20
11.16249609420664
30
0
10
49.39256479963661
20
11.231582462787632
30
0
0
SPLINE
5
108
100
AcDbEntity
8
0
100
AcDbSpline
70
0
71
3
72
9
73
5
74
0
42
0.000000001
43
0.0000000001
44
0.0000000001
40
0
40
0
40
0
40
0
40
0.024582718467346446
40
0.050891996785966134
40
0.050891996785966134
40
0.050891996785966134
40
0.050891996785966134
10
49.39256479963661
20
11.231582462787632
30
0
10
49.327474959699259
20
11.284686343488502
30
0
10
49.192723714457969
20
11.394623840008297
30
0
10
49.018912684364665
20
11.407206133465287
30
0
10
48.929058816283948
20
11.413710713386539
30
0
0
SPLINE
5
109
100
AcDbEntity
8
0
100
AcDbSpline
70
0
71
3
72
9
73
5
74
0
42
0.000000001
43
0.0000000001
44
0.0000000001
40
0
40
0
40
0
40
0
40
0.017053979241886688
40
0.033413199863467462
40
0.033413199863467462
40
0.033413199863467462
40
0.033413199863467462
10
48.929058816283948
20
11.413710713386539
30
0
10
48.871682020786295
20
11.410631748980023
30
0
10
48.759265891489036
20
11.404599253476873
30
0
10
48.657567811092846
20
11.356451688314042
30
0
10
48.607776071876295
20
11.332878470420841
30
0
0
SPLINE
5
110
100
AcDbEntity
8
0
100
AcDbSpline
70
0
71
3
72
9
73
5
74
0
42
0.000000001
43
0.0000000001
44
0.0000000001
40
0
40
0
40
0
40
0
40
0.015805119631027716
40
0.031008405933941757
40
0.031008405933941757
40
0.031008405933941757
40
0.031008405933941757
10
48.607776071876295
20
11.332878470420841
30
0
10
48.562862303537777
20
11.304362609728305
30
0
10
48.47474501033301
20
11.248416726080954
30
0
10
48.412964487557517
20
11.16434437190312
30
0
10
48.382673766464002
20
11.123124063014986
30
0
0
LINE
5
111
100
AcDbEntity
8
0
100
AcDbLine
10
48.382673766463995
20
11.123124063014986
30
0
11
48.036834504455335
21
11.168144643306734
31
0
0
LINE
5
112
100
AcDbEntity
8
0
100
AcDbLine
10
48.036834504455335
20
11.168144643306734
30
0
11
48.32742145285011
21
12.709072232246401
31
0
0
LINE
5
113
100
AcDbEntity
8
0
100
AcDbLine
10
48.32742145285011
20
12.709072232246401
30
0
11
49.819235708564527
21
12.709072232246402
31
0
0
LINE
5
114
100
AcDbEntity
8
0
100
AcDbLine
10
49.819235708564527
20
12.709072232246402
30
0
11
49.819235708564527
21
12.357093989849094
31
0
0
LINE
5
115
100
AcDbEntity
8
0
100
AcDbLine
10
49.819235708564527
20
12.357093989849094
30
0
11
48.622100856155164
21
12.357093989849092
31
0
0
LINE
5
116
100
AcDbEntity
8
0
100
AcDbLine
10
48.622100856155164
20
12.357093989849092
30
0
11
48.460436370223768
21
11.550818383693699
31
0
0
SPLINE
5
117
100
AcDbEntity
8
0
100
AcDbSpline
70
0
71
3
72
9
73
5
74
0
42
0.000000001
43
0.0000000001
44
0.0000000001
40
0
40
0
40
0
40
0
40
0.031071088462654585
40
0.06045794910068969
40
0.06045794910068969
40
0.06045794910068969
40
0.06045794910068969
10
48.460436370223768
20
11.550818383693699
30
0
10
48.550130901928689
20
11.60571725981943
30
0
10
48.724658017029405
20
11.712539184081397
30
0
10
48.928300274556882
20
11.730402884528324
30
0
10
49.027284886688001
20
11.739085912704471
30
0
0
SPLINE
5
118
100
AcDbEntity
8
0
100
AcDbSpline
70
0
71
3
72
9
73
5
74
0
42
0.000000001
43
0.0000000001
44
0.0000000001
40
0
40
0
40
0
40
0
40
0.036854589211664956
40
0.073208357102173646
40
0.073208357102173646
40
0.073208357102173646
40
0.073208357102173646
10
49.027284886688001
20
11.739085912704471
30
0
10
49.152824898600826
20
11.728058934923462
30
0
10
49.402198944528777
20
11.706154826251582
30
0
10
49.594714545268943
20
11.546298080953026
30
0
10
49.690313842147596
20
11.466916501522068
30
0
0
SPLINE
5
119
100
AcDbEntity
8
0
100
AcDbSpline
70
0
71
3
72
9
73
5
74
0
42
0.000000001
43
0.0000000001
44
0.0000000001
40
0
40
0
40
0
40
0
40
0.037120835636813856
40
0.076584234128266759
40
0.076584234128266759
40
0.076584234128266759
40
0.076584234128266759
10
49.690313842147596
20
11.466916501522068
30
0
10
49.769078927810185
20
11.367650519705943
30
0
10
49.931579681309785
20
11.162854235841069
30
0
10
49.950623147436261
20
10.901650033341742
30
0
10
49.960436131805189
20
10.767053067684177
30
0
0
SPLINE
5
120
100
AcDbEntity
8
0
100
AcDbSpline
70
0
71
3
72
9
73
5
74
0
42
0.000000001
43
0.0000000001
44
0.0000000001
40
0
40
0
40
0
40
0
40
0.038421488152418713
40
0.075421637771681566
40
0.075421637771681566
40
0.075421637771681566
40
0.075421637771681566
10
49.960436131805189
20
10.767053067684177
30
0
10
49.951312500264031
20
10.636885172355706
30
0
10
49.933402750633043
20
10.381364724734826
30
0
10
49.792285028380348
20
10.167844685020061
30
0
10
49.723055865615613
20
10.06309658288956
30
0
0
SPLINE
5
121
100
AcDbEntity
8
0
100
AcDbSpline
70
0
71
3
72
9
73
5
74
0
42
0.000000001
43
0.0000000001
44
0.0000000001
40
0
40
0
40
0
40
0
40
0.043712166107557598
40
0.089293440276762559
40
0.089293440276762559
40
0.089293440276762559
40
0.089293440276762559
10
49.723055865615613
20
10.06309658288956
30
0
10
49.616415250487272
20
9.9568680573199071
30
0
10
49.398574126471388
20
9.7398687331431439
30
0
10
49.091796882033556
20
9.7127058253063367
30
0
10
48.935197498649366
20
9.6988400816917455
30
0
0
LWPOLYLINE
5
122
100
AcDbEntity
8
0
100
AcDbPolyline
90
4
70
1
43
0.0
10
36.188608583062887
20
10.700409114360809
10
36.188608583062887
20
11.07080489397049
10
35.05695777758956
20
11.070804893970491
10
35.05695777758956
20
10.700409114360811
0
LWPOLYLINE
5
123
100
AcDbEntity
8
0
100
AcDbPolyline
90
11
70
1
43
0.0
10
41.53785827383399
20
9.7999998927116341
10
41.53785827383399
20
10.518281161785122
10
41.943042900413275
20
10.518281161785122
10
41.943042900413275
20
10.855934321880337
10
41.537858273833983
20
10.855934321880337
10
41.537858273833983
20
12.800000011920925
10
41.237040188163512
20
12.800000011920922
10
39.868008520454168
20
10.855934321880337
10
39.868008520454168
20
10.518281161785124
10
41.169509317725897
20
10.518281161785122
10
41.169509317725897
20
9.7999998927116341
0
LWPOLYLINE
5
124
100
AcDbEntity
8
0
100
AcDbPolyline
90
4
70
1
43
0.0
10
28.182469453662637
20
10.75040906667709
10
28.182469453662637
20
11.12080484628677
10
27.05081864818931
20
11.12080484628677
10
27.05081864818931
20
10.750409066677086
0
SPLINE
5
125
100
AcDbEntity
8
0
100
AcDbSpline
70
0
71
3
72
9
73
5
74
0
42
0.000000001
43
0.0000000001
44
0.0000000001
40
0
40
0
40
0
40
0
40
0.036619982007364882
40
0.0709474985251594
40
0.0709474985251594
40
0.0709474985251594
40
0.0709474985251594
10
32.938267733901739
20
9.7967937588691729
30
0
10
32.813712825316983
20
9.8052683775674527
30
0
10
32.572400331189002
20
9.8216870911942493
30
0
10
32.376962754028881
20
9.9635088139413241
30
0
10
32.282401468604803
20
10.032128393650057
30
0
0
SPLINE
5
126
100
AcDbEntity
8
0
100
AcDbSpline
70
0
71
3
72
9
73
5
74
0
42
0.000000001
43
0.0000000001
44
0.0000000001
40
0
40
0
40
0
40
0
40
0.033903938247511298
40
0.069120140816442077
40
0.069120140816442077
40
0.069120140816442077
40
0.069120140816442077
10
32.282401468604803
20
10.032128393650057
30
0
10
32.20466116087367
20
10.117515924004559
30
0
10
32.04617157838738
20
10.291595940284219
30
0
10
32.005416724120224
20
10.523696924983778
30
0
10
31.98465242609382
20
10.641950666904449
30
0
0
LINE
5
127
100
AcDbEntity
8
0
100
AcDbLine
10
31.984652426093817
20
10.641950666904449
30
0
11
32.353001978248358
21
10.691063702106476
31
0
0
SPLINE
5
128
100
AcDbEntity
8
0
100
AcDbSpline
70
0
71
3
72
9
73
5
74
0
42
0.000000001
43
0.0000000001
44
0.0000000001
40
0
40
0
40
0
40
0
40
0.02826577440035527
40
0.050633119027524091
40
0.050633119027524091
40
0.050633119027524091
40
0.050633119027524091
10
32.353001978248358
20
10.691063702106478
30
0
10
32.374230424309658
20
10.597601479979634
30
0
10
32.412257418403897
20
10.430180494072886
30
0
10
32.52090149338602
20
10.29815775080835
30
0
10
32.568895366042852
20
10.239836275577547
30
0
0
SPLINE
5
129
100
AcDbEntity
8
0
100
AcDbSpline
70
0
71
3
72
9
73
5
74
0
42
0.000000001
43
0.0000000001
44
0.0000000001
40
0
40
0
40
0
40
0
40
0.019829658839765597
40
0.040355856658386716
40
0.040355856658386716
40
0.040355856658386716
40
0.040355856658386716
10
32.568895366042852
20
10.239836275577547
30
0
10
32.623095088687748
20
10.199551180046571
30
0
10
32.733398359947024
20
10.117565929878911
30
0
10
32.870553001369871
20
10.107052394560597
30
0
10
32.940313961356878
20
10.10170489549637
30
0
0
SPLINE
5
130
100
AcDbEntity
8
0
100
AcDbSpline
70
0
71
3
72
9
73
5
74
0
42
0.000000001
43
0.0000000001
44
0.0000000001
40
0
40
0
40
0
40
0
40
0.024387434101597136
40
0.048460007805247896
40
0.048460007805247896
40
0.048460007805247896
40
0.048460007805247896
10
32.940313961356878
20
10.10170489549637
30
0
10
33.023379513334156
20
10.109011403680972
30
0
10
33.188438177578881
20
10.123530087449826
30
0
10
33.315931131631686
20
10.229263835751382
30
0
10
33.379263427108526
20
10.281787216663364
30
0
0
SPLINE
5
131
100
AcDbEntity
8
0
100
AcDbSpline
70
0
71
3
72
9
73
5
74
0
42
0.000000001
43
0.0000000001
44
0.0000000001
40
0
40
0
40
0
40
0
40
0.024220831794508658
40
0.049081468346227689
40
0.049081468346227689
40
0.049081468346227689
40
0.049081468346227689
10
33.379263427108526
20
10.281787216663364
30
0
10
33.431486513285073
20
10.34595985752668
30
0
10
33.537312183223356
20
10.476000289991955
30
0
10
33.551258353347045
20
10.643206073633138
30
0
10
33.558322336524725
20
10.727898776531223
30
0
0
SPLINE
5
132
100
AcDbEntity
8
0
100
AcDbSpline
70
0
71
3
72
9
73
5
74
0
42
0.000000001
43
0.0000000001
44
0.0000000001
40
0
40
0
40
0
40
0
40
0.023517696411541614
40
0.045972021186162372
40
0.045972021186162372
40
0.045972021186162372
40
0.045972021186162372
10
33.558322336524725
20
10.727898776531223
30
0
10
33.552077510106528
20
10.808104374576317
30
0
10
33.539870222140166
20
10.96488900977419
30
0
10
33.440903946685509
20
11.086826358267103
30
0
10
33.39256539568305
20
11.146384775638582
30
0
0
SPLINE
5
133
100
AcDbEntity
8
0
100
AcDbSpline
70
0
71
3
72
9
73
5
74
0
42
0.000000001
43
0.0000000001
44
0.0000000001
40
0
40
0
40
0
40
0
40
0.022518775263661882
40
0.046208279604893612
40
0.046208279604893612
40
0.046208279604893612
40
0.046208279604893612
10
33.39256539568305
20
11.146384775638582
30
0
10
33.332529656483764
20
11.194423657535996
30
0
10
33.209336978785892
20
11.292998915765258
30
0
10
33.051782757994829
20
11.304977543919099
30
0
10
32.971009757369757
20
11.311118602752687
30
0
0
SPLINE
5
134
100
AcDbEntity
8
0
100
AcDbSpline
70
0
71
3
72
9
73
5
74
0
42
0.000000001
43
0.0000000001
44
0.0000000001
40
0
40
0
40
0
40
0
40
0.011760128377198739
40
0.026359985034883321
40
0.026359985034883321
40
0.026359985034883321
40
0.026359985034883321
10
32.971009757369757
20
11.311118602752687
30
0
10
32.931795695120108
20
11.308785589605412
30
0
10
32.843898517393548
20
11.30355620862624
30
0
10
32.758447484197617
20
11.282083656869961
30
0
10
32.711119201034307
20
11.270190775394441
30
0
0
LINE
5
135
100
AcDbEntity
8
0
100
AcDbLine
10
32.711119201034307
20
11.270190775394441
30
0
11
32.752046730369329
21
11.593519747257234
31
0
0
SPLINE
5
136
100
AcDbEntity
8
0
100
AcDbSpline
70
0
71
3
72
9
73
5
74
0
42
0.000000001
43
0.0000000001
44
0.0000000001
40
0
40
0
40
0
40
0
40
0.003339537679675127
40
0.0059506777538638452
40
0.0059506777538638452
40
0.0059506777538638452
40
0.0059506777538638452
10
32.752046730369329
20
11.593519747257234
30
0
10
32.763120585322966
20
11.592331972774337
30
0
10
32.782852940110629
20
11.59021549322838
30
0
10
32.802688367255605
20
11.589667466747898
30
0
10
32.811392094939947
20
11.589426994323732
30
0
0
SPLINE
5
137
100
AcDbEntity
8
0
100
AcDbSpline
70
0
71
3
72
9
73
5
74
0
42
0.000000001
43
0.0000000001
44
0.0000000001
40
0
40
0
40
0
40
0
40
0.022566457642133206
40
0.044587747561597404
40
0.044587747561597404
40
0.044587747561597404
40
0.044587747561597404
10
32.811392094939947
20
11.589426994323732
30
0
10
32.887481838391402
20
11.594287981543353
30
0
10
33.037823124863678
20
11.603892522694011
30
0
10
33.169807870646615
20
11.676399605552968
30
0
10
33.234993364661932
20
11.712209880352022
30
0
0
SPLINE
5
138
100
AcDbEntity
8
0
100
AcDbSpline
70
0
71
3
72
9
73
5
74
0
42
0.000000001
43
0.0000000001
44
0.0000000001
40
0
40
0
40
0
40
0
40
0.021044042118969205
40
0.043790723039501794
40
0.043790723039501794
40
0.043790723039501794
40
0.043790723039501794
10
33.234993364661932
20
11.712209880352022
30
0
10
33.28988181023611
20
11.760229720683979
30
0
10
33.404099635149166
20
11.860154607570719
30
0
10
33.416710170945606
20
12.011945044894151
30
0
10
33.423260595649481
20
12.090791165828707
30
0
0
SPLINE
5
139
100
AcDbEntity
8
0
100
AcDbSpline
70
0
71
3
72
9
73
5
74
0
42
0.000000001
43
0.0000000001
44
0.0000000001
40
0
40
0
40
0
40
0
40
0.01883431983350568
40
0.037054363166282758
40
0.037054363166282758
40
0.037054363166282758
40
0.037054363166282758
10
33.423260595649481
20
12.090791165828707
30
0
10
33.417936188294966
20
12.155041342610371
30
0
10
33.407461027763361
20
12.281446193171012
30
0
10
33.32613978482722
20
12.378617757385628
30
0
10
33.286153223365545
20
12.426398098468782
30
0
0
SPLINE
5
140
100
AcDbEntity
8
0
100
AcDbSpline
70
0
71
3
72
9
73
5
74
0
42
0.000000001
43
0.0000000001
44
0.0000000001
40
0
40
0
40
0
40
0
40
0.018606505910384066
40
0.038581720456218119
40
0.038581720456218119
40
0.038581720456218119
40
0.038581720456218119
10
33.286153223365545
20
12.426398098468782
30
0
10
33.235922527678717
20
12.465180767145114
30
0
10
33.13176612837168
20
12.545598986913138
30
0
10
33.000229788783798
20
12.554700906280235
30
0
10
32.932128455489874
20
12.559413313865663
30
0
0
SPLINE
5
141
100
AcDbEntity
8
0
100
AcDbSpline
70
0
71
3
72
9
73
5
74
0
42
0.000000001
43
0.0000000001
44
0.0000000001
40
0
40
0
40
0
40
0
40
0.019983762455993256
40
0.039018246966853784
40
0.039018246966853784
40
0.039018246966853784
40
0.039018246966853784
10
32.932128455489874
20
12.559413313865663
30
0
10
32.864102768877615
20
12.554354004957247
30
0
10
32.731282783343254
20
12.544475716776782
30
0
10
32.625577848407318
20
12.463738398113426
30
0
10
32.574011232703924
20
12.424351871013643
30
0
0
SPLINE
5
142
100
AcDbEntity
8
0
100
AcDbSpline
70
0
71
3
72
9
73
5
74
0
42
0.000000001
43
0.0000000001
44
0.0000000001
40
0
40
0
40
0
40
0
40
0.020578615496999905
40
0.045132255981148325
40
0.045132255981148325
40
0.045132255981148325
40
0.045132255981148325
10
32.574011232703924
20
12.424351871013643
30
0
10
32.530082881235273
20
12.370300424070937
30
0
10
32.433740850664663
20
12.251756796103088
30
0
10
32.405306053224592
20
12.101119941072307
30
0
10
32.389836456626654
20
12.019167840480804
30
0
0
LINE
5
143
100
AcDbEntity
8
0
100
AcDbLine
10
32.389836456626654
20
12.019167840480804
30
0
11
32.02148750051856
21
12.08465188741684
31
0
0
SPLINE
5
144
100
AcDbEntity
8
0
100
AcDbSpline
70
0
71
3
72
9
73
5
74
0
42
0.000000001
43
0.0000000001
44
0.0000000001
40
0
40
0
40
0
40
0
40
0.034677876977479892
40
0.066105684305359375
40
0.066105684305359375
40
0.066105684305359375
40
0.066105684305359375
10
32.02148750051856
20
12.08465188741684
30
0
10
32.049031669342043
20
12.199291748731424
30
0
10
32.101538520608656
20
12.41782722844933
30
0
10
32.255329786476992
20
12.581059362691274
30
0
10
32.328444864600897
20
12.658662796020508
30
0
0
SPLINE
5
145
100
AcDbEntity
8
0
100
AcDbSpline
70
0
71
3
72
9
73
5
74
0
42
0.000000001
43
0.0000000001
44
0.0000000001
40
0
40
0
40
0
40
0
40
0.030896662108402324
40
0.063981607794216105
40
0.063981607794216105
40
0.063981607794216105
40
0.063981607794216105
10
32.328444864600897
20
12.658662796020508
30
0
10
32.415020513023698
20
12.718031436863866
30
0
10
32.594303607180692
20
12.840973555348645
30
0
10
32.811586021828475
20
12.855016568553488
30
0
10
32.923942949622869
20
12.862278223037722
30
0
0
SPLINE
5
146
100
AcDbEntity
8
0
100
AcDbSpline
70
0
71
3
72
9
73
5
74
0
42
0.000000001
43
0.0000000001
44
0.0000000001
40
0
40
0
40
0
40
0
40
0.023731316462879182
40
0.046770161888139698
40
0.046770161888139698
40
0.046770161888139698
40
0.046770161888139698
10
32.923942949622869
20
12.862278223037722
30
0
10
33.003652276870397
20
12.858152873197156
30
0
10
33.160745042675984
20
12.850022549698652
30
0
10
33.305090320711471
20
12.787625880065121
30
0
10
33.376194383949041
20
12.75688946247101
30
0
0
SPLINE
5
147
100
AcDbEntity
8
0
100
AcDbSpline
70
0
71
3
72
9
73
5
74
0
42
0.000000001
43
0.0000000001
44
0.0000000001
40
0
40
0
40
0
40
0
40
0.022086756446144103
40
0.04316952452535433
40
0.04316952452535433
40
0.04316952452535433
40
0.04316952452535433
10
33.376194383949041
20
12.75688946247101
30
0
10
33.440589958840746
20
12.71929826725435
30
0
10
33.566453906151885
20
12.645824643918125
30
0
10
33.651047540428529
20
12.527270584392978
30
0
10
33.692360665649176
20
12.469372153282169
30
0
0
SPLINE
5
148
100
AcDbEntity
8
0
100
AcDbSpline
70
0
71
3
72
9
73
5
74
0
42
0.000000001
43
0.0000000001
44
0.0000000001
40
0
40
0
40
0
40
0
40
0.020492514375805147
40
0.040580945663019563
40
0.040580945663019563
40
0.040580945663019563
40
0.040580945663019563
10
33.692360665649176
20
12.469372153282169
30
0
10
33.724291698128994
20
12.408071188915228
30
0
10
33.787524128774876
20
12.286678027566392
30
0
10
33.79710108438892
20
12.150176713767129
30
0
10
33.801841881126165
20
12.082605659961704
30
0
0
SPLINE
5
149
100
AcDbEntity
8
0
100
AcDbSpline
70
0
71
3
72
9
73
5
74
0
42
0.000000001
43
0.0000000001
44
0.0000000001
40
0
40
0
40
0
40
0
40
0.018753320002962887
40
0.037315867803576
40
0.037315867803576
40
0.037315867803576
40
0.037315867803576
10
33.801841881126165
20
12.082605659961704
30
0
10
33.797582935922669
20
12.019390528441654
30
0
10
33.789108370556562
20
11.893603334994562
30
0
10
33.727916199561257
20
11.783400773296641
30
0
10
33.697476532310247
20
11.728581190109256
30
0
0
SPLINE
5
150
100
AcDbEntity
8
0
100
AcDbSpline
70
0
71
3
72
9
73
5
74
0
42
0.000000001
43
0.0000000001
44
0.0000000001
40
0
40
0
40
0
40
0
40
0.019306168729754217
40
0.040390943208656035
40
0.040390943208656035
40
0.040390943208656035
40
0.040390943208656035
10
33.697476532310247
20
11.728581190109256
30
0
10
33.657119248271165
20
11.677481235405857
30
0
10
33.572686713235555
20
11.570573676620828
30
0
10
33.451653687895522
20
11.507667652343457
30
0
10
33.388472344726324
20
11.474829614162447
30
0
0
SPLINE
5
151
100
AcDbEntity
8
0
100
AcDbSpline
70
0
71
3
72
9
73
5
74
0
42
0.000000001
43
0.0000000001
44
0.0000000001
40
0
40
0
40
0
40
0
40
0.025450795771766076
40
0.049337349636130914
40
0.049337349636130914
40
0.049337349636130914
40
0.049337349636130914
10
33.388472344726324
20
11.474829614162447
30
0
10
33.471363788622718
20
11.449943299443031
30
0
10
33.632052051026548
20
11.401700218107681
30
0
10
33.746454313290911
20
11.27930949130957
30
0
10
33.801841881126165
20
11.220054328441623
30
0
0
SPLINE
5
152
100
AcDbEntity
8
0
100
AcDbSpline
70
0
71
3
72
9
73
5
74
0
42
0.000000001
43
0.0000000001
44
0.0000000001
40
0
40
0
40
0
40
0
40
0.02441263763661769
40
0.051294782181482021
40
0.051294782181482021
40
0.051294782181482021
40
0.051294782181482021
10
33.801841881126165
20
11.220054328441623
30
0
10
33.844788737168905
20
11.14940770299598
30
0
10
33.93502682036511
20
11.000968058004261
30
0
10
33.94431428516117
20
10.827167984989355
30
0
10
33.949181582778692
20
10.736084282398227
30
0
0
SPLINE
5
153
100
AcDbEntity
8
0
100
AcDbSpline
70
0
71
3
72
9
73
5
74
0
42
0.000000001
43
0.0000000001
44
0.0000000001
40
0
40
0
40
0
40
0
40
0.036997644318999184
40
0.074152887917987437
40
0.074152887917987437
40
0.074152887917987437
40
0.074152887917987437
10
33.949181582778692
20
10.736084282398227
30
0
10
33.937142954393401
20
10.61000744106388
30
0
10
33.913014416542616
20
10.357316707461717
30
0
10
33.746248073520633
20
10.165898700417804
30
0
10
33.662687685340643
20
10.069986283779148
30
0
0
SPLINE
5
154
100
AcDbEntity
8
0
100
AcDbSpline
70
0
71
3
72
9
73
5
74
0
42
0.000000001
43
0.0000000001
44
0.0000000001
40
0
40
0
40
0
40
0
40
0.0383647770058482
40
0.07895039410555249
40
0.07895039410555249
40
0.07895039410555249
40
0.07895039410555249
10
33.662687685340643
20
10.069986283779148
30
0
10
33.558929641925104
20
9.9903228713953514
30
0
10
33.345407263884724
20
9.8263845327850348
30
0
10
33.076502303580241
20
9.8068406042317058
30
0
10
32.938267733901739
20
9.7967937588691729
30
0
0
LWPOLYLINE
5
155
100
AcDbEntity
8
0
100
AcDbPolyline
90
4
70
1
43
0.0
10
20.19781735166908
20
10.800409018993378
10
20.19781735166908
20
11.170804798603058
10
19.066166546195753
20
11.170804798603058
10
19.066166546195753
20
10.800409018993378
0
SPLINE
5
156
100
AcDbEntity
8
0
100
AcDbSpline
70
0
71
3
72
9
73
5
74
0
42
0.000000001
43
0.0000000001
44
0.0000000001
40
0
40
0
40
0
40
0
40
0.013148540160249942
40
0.025332287273306622
40
0.025332287273306622
40
0.025332287273306622
40
0.025332287273306622
10
24.618008997291334
20
10.453546941280365
30
0
10
24.588419884443535
20
10.421107978689284
30
0
10
24.531412802464303
20
10.358610309047624
30
0
10
24.484869249033011
20
10.287989942298523
30
0
10
24.462483789771802
20
10.254024565219879
30
0
0
LINE
5
157
100
AcDbEntity
8
0
100
AcDbLine
10
24.462483789771802
20
10.254024565219881
30
0
11
25.933833982795484
21
10.254024565219879
31
0
0
LINE
5
158
100
AcDbEntity
8
0
100
AcDbLine
10
25.933833982795484
20
10.254024565219879
30
0
11
25.933833982795484
21
9.8999997973442078
31
0
0
LINE
5
159
100
AcDbEntity
8
0
100
AcDbLine
10
25.933833982795484
20
9.8999997973442078
30
0
11
23.950887586921461
21
9.8999997973442095
31
0
0
SPLINE
5
160
100
AcDbEntity
8
0
100
AcDbSpline
70
0
71
3
72
9
73
5
74
0
42
0.000000001
43
0.0000000001
44
0.0000000001
40
0
40
0
40
0
40
0
40
0.013074684987553915
40
0.026069000270959437
40
0.026069000270959437
40
0.026069000270959437
40
0.026069000270959437
10
23.950887586921461
20
9.8999997973442095
30
0
10
23.951630604262931
20
9.9438484426075995
30
0
10
23.95311207164012
20
10.031276196801349
30
0
10
23.98030619916355
20
10.114376062654443
30
0
10
23.993861343711622
20
10.155797898769379
30
0
0
SPLINE
5
161
100
AcDbEntity
8
0
100
AcDbSpline
70
0
71
3
72
9
73
5
74
0
42
0.000000001
43
0.0000000001
44
0.0000000001
40
0
40
0
40
0
40
0
40
0.022388169394180653
40
0.046870654556453874
40
0.046870654556453874
40
0.046870654556453874
40
0.046870654556453874
10
23.993861343711622
20
10.155797898769379
30
0
10
24.024044760878354
20
10.224409896835397
30
0
10
24.087235122468307
20
10.368052246647888
30
0
10
24.185191432590365
20
10.490752053318037
30
0
10
24.236358072608716
20
10.554843246936798
30
0
0
SPLINE
5
162
100
AcDbEntity
8
0
100
AcDbSpline
70
0
71
3
72
9
73
5
74
0
42
0.000000001
43
0.0000000001
44
0.0000000001
40
0
40
0
40
0
40
0
40
0.029397758539843086
40
0.066291926186284975
40
0.066291926186284975
40
0.066291926186284975
40
0.066291926186284975
10
24.236358072608716
20
10.554843246936798
30
0
10
24.303008027073354
20
10.626816290175793
30
0
10
24.453303630586824
20
10.789115455376956
30
0
10
24.623538965997561
20
10.93047046802598
30
0
10
24.718281891196973
20
11.009140312671661
30
0
0
SPLINE
5
163
100
AcDbEntity
8
0
100
AcDbSpline
70
0
71
3
72
9
73
5
74
0
42
0.000000001
43
0.0000000001
44
0.0000000001
40
0
40
0
40
0
40
0
40
0.054506177090075832
40
0.091826097728357522
40
0.091826097728357522
40
0.091826097728357522
40
0.091826097728357522
10
24.718281891196973
20
11.009140312671661
30
0
10
24.859123862101512
20
11.124614476291551
30
0
10
25.096399144922437
20
11.319152827717984
30
0
10
25.297523254523409
20
11.550513368243182
30
0
10
25.379264023154981
20
11.644542813301086
30
0
0
SPLINE
5
164
100
AcDbEntity
8
0
100
AcDbSpline
70
0
71
3
72
9
73
5
74
0
42
0.000000001
43
0.0000000001
44
0.0000000001
40
0
40
0
40
0
40
0
40
0.026185225110087258
40
0.048122883148200013
40
0.048122883148200013
40
0.048122883148200013
40
0.048122883148200013
10
25.379264023154981
20
11.644542813301086
30
0
10
25.429278016983421
20
11.717897239266277
30
0
10
25.521193116840774
20
11.852707096897264
30
0
10
25.541776807140124
20
12.014039042568637
30
0
10
25.551160242408521
20
12.087585031986237
30
0
0
SPLINE
5
165
100
AcDbEntity
8
0
100
AcDbSpline
70
0
71
3
72
9
73
5
74
0
42
0.000000001
43
0.0000000001
44
0.0000000001
40
0
40
0
40
0
40
0
40
0.020558423235874212
40
0.041017611764713927
40
0.041017611764713927
40
0.041017611764713927
40
0.041017611764713927
10
25.551160242408521
20
12.087585031986237
30
0
10
25.544700811048628
20
12.157655303321969
30
0
10
25.531813127752049
20
12.297457619526934
30
0
10
25.440271635304271
20
12.403876825774002
30
0
10
25.394611623138196
20
12.456957697868347
30
0
0
SPLINE
5
166
100
AcDbEntity
8
0
100
AcDbSpline
70
0
71
3
72
9
73
5
74
0
42
0.000000001
43
0.0000000001
44
0.0000000001
40
0
40
0
40
0
40
0
40
0.021271386931208069
40
0.044371054781959983
40
0.044371054781959983
40
0.044371054781959983
40
0.044371054781959983
10
25.394611623138196
20
12.456957697868347
30
0
10
25.336859076826212
20
12.500806600078619
30
0
10
25.216390138693782
20
12.592273228389823
30
0
10
25.065113106270815
20
12.602199238303362
30
0
10
24.986357953399427
20
12.607366740703583
30
0
0
SPLINE
5
167
100
AcDbEntity
8
0
100
AcDbSpline
70
0
71
3
72
9
73
5
74
0
42
0.000000001
43
0.0000000001
44
0.0000000001
40
0
40
0
40
0
40
0
40
0.024272937801876102
40
0.046411073670229869
40
0.046411073670229869
40
0.046411073670229869
40
0.046411073670229869
10
24.986357953399427
20
12.607366740703583
30
0
10
24.903476579917282
20
12.602028207110683
30
0
10
24.745003239690938
20
12.591820663306407
30
0
10
24.62022786049716
20
12.494277149335606
30
0
10
24.560709860175855
20
12.447748780250549
30
0
0
SPLINE
5
168
100
AcDbEntity
8
0
100
AcDbSpline
70
0
71
3
72
9
73
5
74
0
42
0.000000001
43
0.0000000001
44
0.0000000001
40
0
40
0
40
0
40
0
40
0.022510745245625161
40
0.048020119478235132
40
0.048020119478235132
40
0.048020119478235132
40
0.048020119478235132
10
24.560709860175855
20
12.447748780250549
30
0
10
24.514098819356327
20
12.386795663382861
30
0
10
24.414667737677963
20
12.256769939106762
30
0
10
24.404465195531277
20
12.092822346735295
30
0
10
24.399045374244459
20
12.005729675292969
30
0
0
LINE
5
169
100
AcDbEntity
8
0
100
AcDbLine
10
24.399045374244452
20
12.005729675292969
30
0
11
24.020464088767774
21
12.044610977172852
31
0
0
SPLINE
5
170
100
AcDbEntity
8
0
100
AcDbSpline
70
0
71
3
72
9
73
5
74
0
42
0.000000001
43
0.0000000001
44
0.0000000001
40
0
40
0
40
0
40
0
40
0.038452557291399368
40
0.072250332077365712
40
0.072250332077365712
40
0.072250332077365712
40
0.072250332077365712
10
24.020464088767774
20
12.044610977172852
30
0
10
24.039357186623178
20
12.174625829223105
30
0
10
24.074856323486276
20
12.418916895859692
30
0
10
24.237169330481784
20
12.603772458037803
30
0
10
24.313097264617689
20
12.690245509147644
30
0
0
SPLINE
5
171
100
AcDbEntity
8
0
100
AcDbSpline
70
0
71
3
72
9
73
5
74
0
42
0.000000001
43
0.0000000001
44
0.0000000001
40
0
40
0
40
0
40
0
40
0.03407058744777975
40
0.072890374488281368
40
0.072890374488281368
40
0.072890374488281368
40
0.072890374488281368
10
24.313097264617689
20
12.690245509147644
30
0
10
24.409062756839862
20
12.754931364860539
30
0
10
24.614370654062007
20
12.893319828347835
30
0
10
24.862431687743985
20
12.905690063911432
30
0
10
24.994543459266431
20
12.912278175354004
30
0
0
SPLINE
5
172
100
AcDbEntity
8
0
100
AcDbSpline
70
0
71
3
72
9
73
5
74
0
42
0.000000001
43
0.0000000001
44
0.0000000001
40
0
40
0
40
0
40
0
40
0.039137115899254303
40
0.073820195173433217
40
0.073820195173433217
40
0.073820195173433217
40
0.073820195173433217
10
24.994543459266431
20
12.912278175354004
30
0
10
25.128054801128012
20
12.904941635508697
30
0
10
25.379883099857533
20
12.891103497699252
30
0
10
25.58273132388419
20
12.742615484451512
30
0
10
25.678035881370313
20
12.672851085662842
30
0
0
SPLINE
5
173
100
AcDbEntity
8
0
100
AcDbSpline
70
0
71
3
72
9
73
5
74
0
42
0.000000001
43
0.0000000001
44
0.0000000001
40
0
40
0
40
0
40
0
40
0.032787579117106946
40
0.065928000600795345
40
0.065928000600795345
40
0.065928000600795345
40
0.065928000600795345
10
25.678035881370313
20
12.672851085662842
30
0
10
25.751449430664092
20
12.587954506119033
30
0
10
25.899066566551436
20
12.417247735509992
30
0
10
25.919480123431523
20
12.192416689622362
30
0
10
25.929741527885206
20
12.079399526119232
30
0
0
SPLINE
5
174
100
AcDbEntity
8
0
100
AcDbSpline
70
0
71
3
72
9
73
5
74
0
42
0.000000001
43
0.0000000001
44
0.0000000001
40
0
40
0
40
0
40
0
40
0.017949432894848939
40
0.036346496178043364
40
0.036346496178043364
40
0.036346496178043364
40
0.036346496178043364
10
25.929741527885206
20
12.079399526119232
30
0
10
25.926523334194385
20
12.019279840070903
30
0
10
25.920006690166201
20
11.897541178354862
30
0
10
25.877557412762314
20
11.783233023020285
30
0
10
25.856071379035718
20
11.725375056266785
30
0
0
SPLINE
5
175
100
AcDbEntity
8
0
100
AcDbSpline
70
0
71
3
72
9
73
5
74
0
42
0.000000001
43
0.0000000001
44
0.0000000001
40
0
40
0
40
0
40
0
40
0.020365975694787521
40
0.044185247980836236
40
0.044185247980836236
40
0.044185247980836236
40
0.044185247980836236
10
25.856071379035718
20
11.725375056266785
30
0
10
25.825515802421748
20
11.664475628507276
30
0
10
25.759223582980916
20
11.532350541166945
30
0
10
25.663260149113576
20
11.419764584031991
30
0
10
25.611528422683485
20
11.359072029590607
30
0
0
SPLINE
5
176
100
AcDbEntity
8
0
100
AcDbSpline
70
0
71
3
72
9
73
5
74
0
42
0.000000001
43
0.0000000001
44
0.0000000001
40
0
40
0
40
0
40
0
40
0.032214146461221789
40
0.077578830169581725
40
0.077578830169581725
40
0.077578830169581725
40
0.077578830169581725
10
25.611528422683485
20
11.359072029590607
30
0
10
25.536721312855253
20
11.281957032832553
30
0
10
25.35656915281502
20
11.096246967714967
30
0
10
25.159117516579204
20
10.92893909284645
30
0
10
25.043656494468458
20
10.831104815006256
30
0
0
SPLINE
5
177
100
AcDbEntity
8
0
100
AcDbSpline
70
0
71
3
72
9
73
5
74
0
42
0.000000001
43
0.0000000001
44
0.0000000001
40
0
40
0
40
0
40
0
40
0.035863412752692288
40
0.056909989980633027
40
0.056909989980633027
40
0.056909989980633027
40
0.056909989980633027
10
25.043656494468458
20
10.831104815006256
30
0
10
24.951815955529955
20
10.754502340364628
30
0
10
24.806078454560708
20
10.632945418428363
30
0
10
24.668783659367541
20
10.501980627358005
30
0
10
24.618008997291334
20
10.453546941280365
30
0
0
LWPOLYLINE
5
178
100
AcDbEntity
8
0
100
AcDbPolyline
90
4
70
1
43
0.0
10
12.472032841295004
20
10.85040956735611
10
12.472032841295004
20
11.22080534696579
10
11.340382035821676
20
11.22080534696579
10
11.340382035821676
20
10.85040956735611
0
LINE
5
179
100
AcDbEntity
8
0
100
AcDbLine
10
17.422237779945135
20
12.962278723716736
30
0
11
17.659618642181158
21
12.962278723716736
31
0
0
LINE
5
180
100
AcDbEntity
8
0
100
AcDbLine
10
17.659618642181158
20
12.962278723716736
30
0
11
17.659618642181158
21
9.9500003457069397
31
0
0
LINE
5
181
100
AcDbEntity
8
0
100
AcDbLine
10
17.659618642181158
20
9.9500003457069397
30
0
11
17.291269090026617
21
9.9500003457069397
31
0
0
LINE
5
182
100
AcDbEntity
8
0
100
AcDbLine
10
17.291269090026617
20
9.9500003457069397
30
0
11
17.291269090026617
21
12.297203838825226
31
0
0
SPLINE
5
183
100
AcDbEntity
8
0
100
AcDbSpline
70
0
71
3
72
9
73
5
74
0
42
0.000000001
43
0.0000000001
44
0.0000000001
40
0
40
0
40
0
40
0
40
0.019932870358159251
40
0.043211702552024001
40
0.043211702552024001
40
0.043211702552024001
40
0.043211702552024001
10
17.291269090026617
20
12.297203838825226
30
0
10
17.241053346595805
20
12.253509691305206
30
0
10
17.132192568916945
20
12.158786830423988
30
0
10
17.008821921121935
20
12.083831561619437
30
0
10
16.942360188812017
20
12.043451964855194
30
0
0
SPLINE
5
184
100
AcDbEntity
8
0
100
AcDbSpline
70
0
71
3
72
9
73
5
74
0
42
0.000000001
43
0.0000000001
44
0.0000000001
40
0
40
0
40
0
40
0
40
0.023303707369198082
40
0.043238299146067624
40
0.043238299146067624
40
0.043238299146067624
40
0.043238299146067624
10
16.942360188812017
20
12.043451964855194
30
0
10
16.874862641376648
20
12.004801168521217
30
0
10
16.749625952578626
20
11.93308748504392
30
0
10
16.616121495997419
20
11.878366691203382
30
0
10
16.554570581763983
20
11.853138208389282
30
0
0
LINE
5
185
100
AcDbEntity
8
0
100
AcDbLine
10
16.554570581763986
20
11.853138208389282
30
0
11
16.554570581763983
21
12.209208905696869
31
0
0
SPLINE
5
186
100
AcDbEntity
8
0
100
AcDbSpline
70
0
71
3
72
9
73
5
74
0
42
0.000000001
43
0.0000000001
44
0.0000000001
40
0
40
0
40
0
40
0
40
0.03311383343372807
40
0.064649782573311443
40
0.064649782573311443
40
0.064649782573311443
40
0.064649782573311443
10
16.554570581763983
20
12.209208905696869
30
0
10
16.653340209514447
20
12.259318204450047
30
0
10
16.846173062034939
20
12.357149078540104
30
0
10
17.013294883786102
20
12.494290376584804
30
0
10
17.094816353172064
20
12.561187446117401
30
0
0
SPLINE
5
187
100
AcDbEntity
8
0
100
AcDbSpline
70
0
71
3
72
9
73
5
74
0
42
0.000000001
43
0.0000000001
44
0.0000000001
40
0
40
0
40
0
40
0
40
0.028364758067580861
40
0.052004259878339967
40
0.052004259878339967
40
0.052004259878339967
40
0.052004259878339967
10
17.094816353172064
20
12.561187446117401
30
0
10
17.16441942591225
20
12.626028905870207
30
0
10
17.292030466150553
20
12.744909952408376
30
0
10
17.381546572084904
20
12.894348608288764
30
0
10
17.422237779945135
20
12.962278723716736
30
0
0
SPLINE
5
188
100
AcDbEntity
8
0
100
AcDbSpline
70
0
71
3
72
9
73
5
74
0
42
0.000000001
43
0.0000000001
44
0.0000000001
40
0
40
0
40
0
40
0
40
0.039500828033575144
40
0.077045217122179155
40
0.077045217122179155
40
0.077045217122179155
40
0.077045217122179155
10
6.4999999478459358
20
9.9488404393196106
30
0
10
6.3642607732025924
20
9.9604329328005541
30
0
10
6.099505457858502
20
9.9830437544387092
30
0
10
5.910605484103221
20
10.169184466068977
30
0
10
5.8185539022088051
20
10.259891450405121
30
0
0
SPLINE
5
189
100
AcDbEntity
8
0
100
AcDbSpline
70
0
71
3
72
9
73
5
74
0
42
0.000000001
43
0.0000000001
44
0.0000000001
40
0
40
0
40
0
40
0
40
0.054013246969747533
40
0.12713943829293001
40
0.12713943829293001
40
0.12713943829293001
40
0.12713943829293001
10
5.8185539022088051
20
10.259891450405121
30
0
10
5.7324946532140846
20
10.420743547602317
30
0
10
5.5299235212984534
20
10.799366319481699
30
0
10
5.5247841248579599
20
11.231175145985734
30
0
10
5.5218281224370003
20
11.479536592960358
30
0
0
SPLINE
5
190
100
AcDbEntity
8
0
100
AcDbSpline
70
0
71
3
72
9
73
5
74
0
42
0.000000001
43
0.0000000001
44
0.0000000001
40
0
40
0
40
0
40
0
40
0.048091220225075143
40
0.086604645264928212
40
0.086604645264928212
40
0.086604645264928212
40
0.086604645264928212
10
5.5218281224370003
20
11.479536592960358
30
0
10
5.5239955041469919
20
11.640532001164763
30
0
10
5.5278986141797395
20
11.930459146942507
30
0
10
5.5994780018251351
20
12.211132227536881
30
0
10
5.6313096359372139
20
12.335948646068573
30
0
0
SPLINE
5
191
100
AcDbEntity
8
0
100
AcDbSpline
70
0
71
3
72
9
73
5
74
0
42
0.000000001
43
0.0000000001
44
0.0000000001
40
0
40
0
40
0
40
0
40
0.03178645843050712
40
0.060288046899063363
40
0.060288046899063363
40
0.060288046899063363
40
0.060288046899063363
10
5.6313096359372139
20
12.335948646068573
30
0
10
5.6700786610501179
20
12.436062882062405
30
0
10
5.7436102502753714
20
12.625945368280725
30
0
10
5.88828761626604
20
12.768768898470995
30
0
10
5.9566848352551469
20
12.836289703845978
30
0
0
SPLINE
5
192
100
AcDbEntity
8
0
100
AcDbSpline
70
0
71
3
72
9
73
5
74
0
42
0.000000001
43
0.0000000001
44
0.0000000001
40
0
40
0
40
0
40
0
40
0.027721535550157498
40
0.057996888968916471
40
0.057996888968916471
40
0.057996888968916471
40
0.057996888968916471
10
5.9566848352551469
20
12.836289703845978
30
0
10
6.0355138461775795
20
12.887592619885027
30
0
10
6.2004339093438432
20
12.994924680185761
30
0
10
6.3972556712467643
20
13.006326653706498
30
0
10
6.4999999478459358
20
13.01227867603302
30
0
0
SPLINE
5
193
100
AcDbEntity
8
0
100
AcDbSpline
70
0
71
3
72
9
73
5
74
0
42
0.000000001
43
0.0000000001
44
0.0000000001
40
0
40
0
40
0
40
0
40
0.022793635849419548
40
0.043795958960754472
40
0.043795958960754472
40
0.043795958960754472
40
0.043795958960754472
10
6.4999999478459358
20
13.01227867603302
30
0
10
6.5766623764057606
20
13.008933551027866
30
0
10
6.7239624647821108
20
13.002506188653026
30
0
10
6.8588949031540984
20
12.943413352006811
30
0
10
6.9236016646027565
20
12.915075421333313
30
0
0
SPLINE
5
194
100
AcDbEntity
8
0
100
AcDbSpline
70
0
71
3
72
9
73
5
74
0
42
0.000000001
43
0.0000000001
44
0.0000000001
40
0
40
0
40
0
40
0
40
0.02042857315798758
40
0.041461651328322344
40
0.041461651328322344
40
0.041461651328322344
40
0.041461651328322344
10
6.9236016646027565
20
12.915075421333313
30
0
10
6.9819468689717308
20
12.87865947599764
30
0
10
7.1003637795174512
20
12.804749995554626
30
0
10
7.1826680631064477
20
12.691945424951355
30
0
10
7.2244201973080635
20
12.634720802307129
30
0
0
SPLINE
5
195
100
AcDbEntity
8
0
100
AcDbSpline
70
0
71
3
72
9
73
5
74
0
42
0.000000001
43
0.0000000001
44
0.0000000001
40
0
40
0
40
0
40
0
40
0.022905471375880681
40
0.048499278308446074
40
0.048499278308446074
40
0.048499278308446074
40
0.048499278308446074
10
7.2244201973080635
20
12.634720802307129
30
0
10
7.2623980285652863
20
12.56815140824256
30
0
10
7.3428110171246397
20
12.427199601725201
30
0
10
7.3872106762843419
20
12.271024775788451
30
0
10
7.4106410518288612
20
12.188608944416046
30
0
0
SPLINE
5
196
100
AcDbEntity
8
0
100
AcDbSpline
70
0
71
3
72
9
73
5
74
0
42
0.000000001
43
0.0000000001
44
0.0000000001
40
0
40
0
40
0
40
0
40
0.031287515328949335
40
0.071355485739554192
40
0.071355485739554192
40
0.071355485739554192
40
0.071355485739554192
10
7.4106410518288612
20
12.188608944416046
30
0
10
7.4302616804022348
20
12.085974050362022
30
0
10
7.4750092248348547
20
11.851901045776827
30
0
10
7.4770346135571089
20
11.613439169607279
30
0
10
7.4781719222664833
20
11.479536592960358
30
0
0
SPLINE
5
197
100
AcDbEntity
8
0
100
AcDbSpline
70
0
71
3
72
9
73
5
74
0
42
0.000000001
43
0.0000000001
44
0.0000000001
40
0
40
0
40
0
40
0
40
0.047783359168958497
40
0.086180469970861637
40
0.086180469970861637
40
0.086180469970861637
40
0.086180469970861637
10
7.4781719222664833
20
11.479536592960358
30
0
10
7.4759824647046491
20
11.319584286916164
30
0
10
7.4720336322043446
20
11.031099652358138
30
0
10
7.4012504697153751
20
10.751701087794833
30
0
10
7.3697135224938393
20
10.627216994762421
30
0
0
SPLINE
5
198
100
AcDbEntity
8
0
100
AcDbSpline
70
0
71
3
72
9
73
5
74
0
42
0.000000001
43
0.0000000001
44
0.0000000001
40
0
40
0
40
0
40
0
40
0.031776813960555254
40
0.06031884607814976
40
0.06031884607814976
40
0.06031884607814976
40
0.06031884607814976
10
7.3697135224938393
20
10.627216994762421
30
0
10
7.3312054243430289
20
10.527037721896628
30
0
10
7.2581092338940962
20
10.336877117762008
30
0
10
7.1136959342228279
20
10.193633834317129
30
0
10
7.0453615859150887
20
10.12585312128067
30
0
0
SPLINE
5
199
100
AcDbEntity
8
0
100
AcDbSpline
70
0
71
3
72
9
73
5
74
0
42
0.000000001
43
0.0000000001
44
0.0000000001
40
0
40
0
40
0
40
0
40
0.027803121391590562
40
0.058234058304390102
40
0.058234058304390102
40
0.058234058304390102
40
0.058234058304390102
10
7.0453615859150887
20
10.12585312128067
30
0
10
6.9663824911830634
20
10.074253017900672
30
0
10
6.8009595826299298
20
9.9661758208686724
30
0
10
6.6032930641087484
20
9.9547901593978274
30
0
10
6.4999999478459358
20
9.9488404393196106
30
0
0
LWPOLYLINE
5
200
100
AcDbEntity
8
0
100
AcDbPolyline
90
4
70
1
43
0.0
10
44.171214308589704
20
10.650409162044522
10
44.171214308589704
20
11.020804941654204
10
43.039563503116376
20
11.020804941654202
10
43.039563503116376
20
10.650409162044518
0
LWPOLYLINE
5
201
100
AcDbEntity
8
0
100
AcDbPolyline
90
4
70
1
43
0.0
10
15.733969893306494
20
9.9500003457069397
10
15.733969893306494
20
10.369509160518646
10
15.314461078494787
20
10.369509160518646
10
15.314461078494787
20
9.9500003457069397
0
SPLINE
5
202
100
AcDbEntity
8
0
100
AcDbSpline
70
0
71
3
72
9
73
5
74
0
42
0.000000001
43
0.0000000001
44
0.0000000001
40
0
40
0
40
0
40
0
40
0.039500817076405355
40
0.077045214921525385
40
0.077045214921525385
40
0.077045214921525385
40
0.077045214921525385
10
13.755115952342749
20
9.8988404870033264
30
0
10
13.619376822699111
20
9.9104329947589083
30
0
10
13.354621529247179
20
9.9330438498655411
30
0
10
13.165721526719494
20
10.119184513429174
30
0
10
13.073669906705618
20
10.209891498088837
30
0
0
SPLINE
5
203
100
AcDbEntity
8
0
100
AcDbSpline
70
0
71
3
72
9
73
5
74
0
42
0.000000001
43
0.0000000001
44
0.0000000001
40
0
40
0
40
0
40
0
40
0.054013191124563827
40
0.12713944212281642
40
0.12713944212281642
40
0.12713944212281642
40
0.12713944212281642
10
13.073669906705618
20
10.209891498088837
30
0
10
12.987610680175781
20
10.37074339701849
30
0
10
12.785039385595322
20
10.749366105074172
30
0
10
12.779900079636203
20
11.181174974047332
30
0
10
12.776944126933813
20
11.429536640644073
30
0
0
SPLINE
5
204
100
AcDbEntity
8
0
100
AcDbSpline
70
0
71
3
72
9
73
5
74
0
42
0.000000001
43
0.0000000001
44
0.0000000001
40
0
40
0
40
0
40
0
40
0.048091279733107783
40
0.086604646538731081
40
0.086604646538731081
40
0.086604646538731081
40
0.086604646538731081
10
12.776944126933813
20
11.429536640644073
30
0
10
12.779111474048559
20
11.590532253180331
30
0
10
12.783014517008551
20
11.880459412435993
30
0
10
12.85459400866646
20
12.161132474171643
30
0
10
12.886425640434027
20
12.285948693752289
30
0
0
SPLINE
5
205
100
AcDbEntity
8
0
100
AcDbSpline
70
0
71
3
72
9
73
5
74
0
42
0.000000001
43
0.0000000001
44
0.0000000001
40
0
40
0
40
0
40
0
40
0.031786461620259089
40
0.060288045140582239
40
0.060288045140582239
40
0.060288045140582239
40
0.060288045140582239
10
12.886425640434027
20
12.285948693752289
30
0
10
12.925194698294948
20
12.386062924589968
30
0
10
12.998726340108371
20
12.575945376435751
30
0
10
13.143403654864116
20
12.718768940088234
30
0
10
13.211800839751959
20
12.786289751529694
30
0
0
SPLINE
5
206
100
AcDbEntity
8
0
100
AcDbSpline
70
0
71
3
72
9
73
5
74
0
42
0.000000001
43
0.0000000001
44
0.0000000001
40
0
40
0
40
0
40
0
40
0.027721542101993044
40
0.057996888149265249
40
0.057996888149265249
40
0.057996888149265249
40
0.057996888149265249
10
13.211800839751959
20
12.786289751529694
30
0
10
13.290629875787285
20
12.837592667858724
30
0
10
13.4555499501841
20
12.94492470188189
30
0
10
13.652371703690813
20
12.956326693373965
30
0
10
13.755115952342749
20
12.962278723716736
30
0
0
SPLINE
5
207
100
AcDbEntity
8
0
100
AcDbSpline
70
0
71
3
72
9
73
5
74
0
42
0.000000001
43
0.0000000001
44
0.0000000001
40
0
40
0
40
0
40
0
40
0.022793628441302279
40
0.043795944565317685
40
0.043795944565317685
40
0.043795944565317685
40
0.043795944565317685
10
13.755115952342749
20
12.962278723716736
30
0
10
13.831778356480148
20
12.958933598781845
30
0
10
13.979078397388145
20
12.952506236565695
30
0
10
14.114010783810503
20
12.893413399688132
30
0
10
14.178717520087957
20
12.865075469017029
30
0
0
SPLINE
5
208
100
AcDbEntity
8
0
100
AcDbSpline
70
0
71
3
72
9
73
5
74
0
42
0.000000001
43
0.0000000001
44
0.0000000001
40
0
40
0
40
0
40
0
40
0.020428585286091105
40
0.041461663456425865
40
0.041461663456425865
40
0.041461663456425865
40
0.041461663456425865
10
14.178717520087957
20
12.865075469017029
30
0
10
14.237062780873075
20
12.828659532284263
30
0
10
14.35547977025692
20
12.754750091560904
30
0
10
14.437784071075793
20
12.64194547779304
30
0
10
14.479536201804876
20
12.584720849990845
30
0
0
SPLINE
5
209
100
AcDbEntity
8
0
100
AcDbSpline
70
0
71
3
72
9
73
5
74
0
42
0.000000001
43
0.0000000001
44
0.0000000001
40
0
40
0
40
0
40
0
40
0.022905464486516813
40
0.048499280771866923
40
0.048499280771866923
40
0.048499280771866923
40
0.048499280771866923
10
14.479536201804876
20
12.584720849990845
30
0
10
14.517513953495877
20
12.518151444123614
30
0
10
14.597926801854852
20
12.377199563061703
30
0
10
14.642326697580943
20
12.22102481061928
30
0
10
14.665757205337286
20
12.138608992099762
30
0
0
SPLINE
5
210
100
AcDbEntity
8
0
100
AcDbSpline
70
0
71
3
72
9
73
5
74
0
42
0.000000001
43
0.0000000001
44
0.0000000001
40
0
40
0
40
0
40
0
40
0.031287485919705316
40
0.071355486106165683
40
0.071355486106165683
40
0.071355486106165683
40
0.071355486106165683
10
14.665757205337286
20
12.138608992099762
30
0
10
14.68537783294455
20
12.035974197457522
30
0
10
14.730125417464997
20
11.801901198370977
30
0
10
14.732150780596239
20
11.563439318300823
30
0
10
14.733288075774908
20
11.429536640644073
30
0
0
SPLINE
5
211
100
AcDbEntity
8
0
100
AcDbSpline
70
0
71
3
72
9
73
5
74
0
42
0.000000001
43
0.0000000001
44
0.0000000001
40
0
40
0
40
0
40
0
40
0.047783358323391874
40
0.086180472282084392
40
0.086180472282084392
40
0.086180472282084392
40
0.086180472282084392
10
14.733288075774908
20
11.429536640644073
30
0
10
14.731098697550433
20
11.269584330329794
30
0
10
14.727150007964568
20
10.981099675228712
30
0
10
14.656366692934464
20
10.701701132601137
30
0
10
14.624829676002264
20
10.577217042446136
30
0
0
SPLINE
5
212
100
AcDbEntity
8
0
100
AcDbSpline
70
0
71
3
72
9
73
5
74
0
42
0.000000001
43
0.0000000001
44
0.0000000001
40
0
40
0
40
0
40
0
40
0.031776813960555254
40
0.06031885594723857
40
0.06031885594723857
40
0.06031885594723857
40
0.06031885594723857
10
14.624829676002264
20
10.577217042446136
30
0
10
14.58632158494888
20
10.477037763062349
30
0
10
14.513225396012647
20
10.286877115442053
30
0
10
14.368811997797103
20
10.143633874320752
30
0
10
14.300477590411901
20
10.075853168964386
30
0
0
SPLINE
5
213
100
AcDbEntity
8
0
100
AcDbSpline
70
0
71
3
72
9
73
5
74
0
42
0.000000001
43
0.0000000001
44
0.0000000001
40
0
40
0
40
0
40
0
40
0.027803134484227564
40
0.058234056654266599
40
0.058234056654266599
40
0.058234056654266599
40
0.058234056654266599
10
14.300477590411901
20
10.075853168964386
30
0
10
14.221498445453511
20
10.024253064990214
30
0
10
14.056075514286468
20
9.9161759206703
30
0
10
13.858409012661259
20
9.9047902231866374
30
0
10
13.755115952342749
20
9.8988404870033264
30
0
0
LWPOLYLINE
5
214
100
AcDbEntity
8
0
100
AcDbPolyline
90
4
70
1
43
0.0
10
23.459754254668958
20
9.8999997973442095
10
23.459754254668958
20
10.319508612155914
10
23.040245588868864
20
10.319508612155914
10
23.040245588868864
20
9.8999997973442095
0
SPLINE
5
215
100
AcDbEntity
8
0
100
AcDbSpline
70
0
71
3
72
9
73
5
74
0
42
0.000000001
43
0.0000000001
44
0.0000000001
40
0
40
0
40
0
40
0
40
0.039500828810414404
40
0.077045189619218662
40
0.077045189619218662
40
0.077045189619218662
40
0.077045189619218662
10
21.480900462716825
20
9.8488399386405963
30
0
10
21.345161362860651
20
9.8604327137146743
30
0
10
21.08040629310365
20
9.8830440760757536
30
0
10
20.891506079416736
20
10.069184258982546
30
0
10
20.799454417079694
20
10.159890949726105
30
0
0
SPLINE
5
216
100
AcDbEntity
8
0
100
AcDbSpline
70
0
71
3
72
9
73
5
74
0
42
0.000000001
43
0.0000000001
44
0.0000000001
40
0
40
0
40
0
40
0
40
0.054013245434860489
40
0.12713943713594772
40
0.12713943713594772
40
0.12713943713594772
40
0.12713943713594772
10
20.799454417079694
20
10.159890949726105
30
0
10
20.713395185187771
20
10.320743048262917
30
0
10
20.510824089616662
20
10.699365830609322
30
0
10
20.505684659271701
20
11.131174647368189
30
0
10
20.502728637307889
20
11.379536092281342
30
0
0
SPLINE
5
217
100
AcDbEntity
8
0
100
AcDbSpline
70
0
71
3
72
9
73
5
74
0
42
0.000000001
43
0.0000000001
44
0.0000000001
40
0
40
0
40
0
40
0
40
0.048091249979091436
40
0.086604645901829092
40
0.086604645901829092
40
0.086604645901829092
40
0.086604645901829092
10
20.502728637307889
20
11.379536092281342
30
0
10
20.504896001720276
20
11.540531602651672
30
0
10
20.508799078216654
20
11.830458755168367
30
0
10
20.580378517868276
20
12.11113182633339
30
0
10
20.612210150808103
20
12.235948145389557
30
0
0
SPLINE
5
218
100
AcDbEntity
8
0
100
AcDbSpline
70
0
71
3
72
9
73
5
74
0
42
0.000000001
43
0.0000000001
44
0.0000000001
40
0
40
0
40
0
40
0
40
0.031786461620259089
40
0.060288045140582239
40
0.060288045140582239
40
0.060288045140582239
40
0.060288045140582239
10
20.612210150808103
20
12.235948145389557
30
0
10
20.650979208669021
20
12.336062376227236
30
0
10
20.724510850482446
20
12.525944828073021
30
0
10
20.869188165238192
20
12.668768391725504
30
0
10
20.937585350126035
20
12.736289203166962
30
0
0
SPLINE
5
219
100
AcDbEntity
8
0
100
AcDbSpline
70
0
71
3
72
9
73
5
74
0
42
0.000000001
43
0.0000000001
44
0.0000000001
40
0
40
0
40
0
40
0
40
0.027721542101993044
40
0.057996888149265249
40
0.057996888149265249
40
0.057996888149265249
40
0.057996888149265249
10
20.937585350126035
20
12.736289203166962
30
0
10
21.016414386161358
20
12.787592119495992
30
0
10
21.181334460558176
20
12.89492415351916
30
0
10
21.378156214064887
20
12.906326145011235
30
0
10
21.480900462716825
20
12.912278175354004
30
0
0
SPLINE
5
220
100
AcDbEntity
8
0
100
AcDbSpline
70
0
71
3
72
9
73
5
74
0
42
0.000000001
43
0.0000000001
44
0.0000000001
40
0
40
0
40
0
40
0
40
0.022793628441302279
40
0.043795944565317685
40
0.043795944565317685
40
0.043795944565317685
40
0.043795944565317685
10
21.480900462716825
20
12.912278175354004
30
0
10
21.557562866854223
20
12.908933050419114
30
0
10
21.704862907762216
20
12.902505688202963
30
0
10
21.839795294184576
20
12.8434128513254
30
0
10
21.904502030462034
20
12.815074920654297
30
0
0
SPLINE
5
221
100
AcDbEntity
8
0
100
AcDbSpline
70
0
71
3
72
9
73
5
74
0
42
0.000000001
43
0.0000000001
44
0.0000000001
40
0
40
0
40
0
40
0
40
0.020428602601262485
40
0.041461657864939119
40
0.041461657864939119
40
0.041461657864939119
40
0.041461657864939119
10
21.904502030462034
20
12.815074920654297
30
0
10
21.962847273334795
20
12.778658864401251
30
0
10
22.081264110024726
20
12.704749253713494
30
0
10
22.163568550463069
20
12.591944795774952
30
0
10
22.205320712178953
20
12.534720301628113
30
0
0
SPLINE
5
222
100
AcDbEntity
8
0
100
AcDbSpline
70
0
71
3
72
9
73
5
74
0
42
0.000000001
43
0.0000000001
44
0.0000000001
40
0
40
0
40
0
40
0
40
0.022905464486516813
40
0.048499280771866923
40
0.048499280771866923
40
0.048499280771866923
40
0.048499280771866923
10
22.205320712178953
20
12.534720301628113
30
0
10
22.243298463869952
20
12.468150895760882
30
0
10
22.323711312228927
20
12.327199014698973
30
0
10
22.368111207955018
20
12.171024262256548
30
0
10
22.391541715711362
20
12.08860844373703
30
0
0
SPLINE
5
223
100
AcDbEntity
8
0
100
AcDbSpline
70
0
71
3
72
9
73
5
74
0
42
0.000000001
43
0.0000000001
44
0.0000000001
40
0
40
0
40
0
40
0
40
0.031287515328949335
40
0.071355485739554192
40
0.071355485739554192
40
0.071355485739554192
40
0.071355485739554192
10
22.391541715711362
20
12.08860844373703
30
0
10
22.411162344284733
20
11.985973549683006
30
0
10
22.455909888717358
20
11.751900545097811
30
0
10
22.45793527743961
20
11.513438668928263
30
0
10
22.459072586148984
20
11.379536092281342
30
0
0
SPLINE
5
224
100
AcDbEntity
8
0
100
AcDbSpline
70
0
71
3
72
9
73
5
74
0
42
0.000000001
43
0.0000000001
44
0.0000000001
40
0
40
0
40
0
40
0
40
0.047783358323391874
40
0.086180472282084392
40
0.086180472282084392
40
0.086180472282084392
40
0.086180472282084392
10
22.459072586148984
20
11.379536092281342
30
0
10
22.456883207924506
20
11.219583781967062
30
0
10
22.452934518338637
20
10.931099126865981
30
0
10
22.382151203308535
20
10.651700584238409
30
0
10
22.35061418637634
20
10.527216494083405
30
0
0
SPLINE
5
225
100
AcDbEntity
8
0
100
AcDbSpline
70
0
71
3
72
9
73
5
74
0
42
0.000000001
43
0.0000000001
44
0.0000000001
40
0
40
0
40
0
40
0
40
0.031776820306010554
40
0.06031885242360506
40
0.06031885242360506
40
0.06031885242360506
40
0.06031885242360506
10
22.35061418637634
20
10.527216494083405
30
0
10
22.312106029784822
20
10.427037224981831
30
0
10
22.239009735310407
20
10.236876645960663
30
0
10
22.094596439892442
20
10.093633338073451
30
0
10
22.026262100785978
20
10.025852620601654
30
0
0
SPLINE
5
226
100
AcDbEntity
8
0
100
AcDbSpline
70
0
71
3
72
9
73
5
74
0
42
0.000000001
43
0.0000000001
44
0.0000000001
40
0
40
0
40
0
40
0
40
0.027803134484227564
40
0.058234056654266599
40
0.058234056654266599
40
0.058234056654266599
40
0.058234056654266599
10
22.026262100785978
20
10.025852620601654
30
0
10
21.947282955827589
20
9.9742525166274838
30
0
10
21.781860024660542
20
9.866175372307568
30
0
10
21.584193523035331
20
9.8547896748239072
30
0
10
21.480900462716825
20
9.8488399386405963
30
0
0
LWPOLYLINE
5
227
100
AcDbEntity
8
0
100
AcDbPolyline
90
4
70
1
43
0.0
10
31.444406654685739
20
9.8499998450279236
10
31.444406654685739
20
10.26950865983963
10
31.024897690862421
20
10.26950865983963
10
31.024897690862421
20
9.8499998450279218
0
SPLINE
5
228
100
AcDbEntity
8
0
100
AcDbSpline
70
0
71
3
72
9
73
5
74
0
42
0.000000001
43
0.0000000001
44
0.0000000001
40
0
40
0
40
0
40
0
40
0.039500817076405355
40
0.077045214921525385
40
0.077045214921525385
40
0.077045214921525385
40
0.077045214921525385
10
29.465552564710382
20
9.7988399863243085
30
0
10
29.329813435066747
20
9.8104324940798904
30
0
10
29.065058141614809
20
9.833043349186525
30
0
10
28.876158139087128
20
10.01918401275015
30
0
10
28.784106519073251
20
10.109890997409817
30
0
0
SPLINE
5
229
100
AcDbEntity
8
0
100
AcDbSpline
70
0
71
3
72
9
73
5
74
0
42
0.000000001
43
0.0000000001
44
0.0000000001
40
0
40
0
40
0
40
0
40
0.054013245434860489
40
0.12713943713594772
40
0.12713943713594772
40
0.12713943713594772
40
0.12713943713594772
10
28.784106519073251
20
10.109890997409817
30
0
10
28.698047287181332
20
10.270743095946628
30
0
10
28.495476191610223
20
10.649365878293032
30
0
10
28.490336761265258
20
11.081174695051901
30
0
10
28.487380739301447
20
11.329536139965054
30
0
0
SPLINE
5
230
100
AcDbEntity
8
0
100
AcDbSpline
70
0
71
3
72
9
73
5
74
0
42
0.000000001
43
0.0000000001
44
0.0000000001
40
0
40
0
40
0
40
0
40
0.048091249979091436
40
0.086604645901829092
40
0.086604645901829092
40
0.086604645901829092
40
0.086604645901829092
10
28.487380739301447
20
11.329536139965054
30
0
10
28.489548103713833
20
11.490531650335383
30
0
10
28.493451180210208
20
11.780458802852078
30
0
10
28.565030619861833
20
12.0611318740171
30
0
10
28.596862252801657
20
12.185948193073269
30
0
0
SPLINE
5
231
100
AcDbEntity
8
0
100
AcDbSpline
70
0
71
3
72
9
73
5
74
0
42
0.000000001
43
0.0000000001
44
0.0000000001
40
0
40
0
40
0
40
0
40
0.031786461620259089
40
0.060288045140582239
40
0.060288045140582239
40
0.060288045140582239
40
0.060288045140582239
10
28.596862252801657
20
12.185948193073269
30
0
10
28.635631310662578
20
12.286062423910948
30
0
10
28.709162952476003
20
12.475944875756733
30
0
10
28.85384026723175
20
12.618768439409216
30
0
10
28.922237452119589
20
12.686289250850674
30
0
0
SPLINE
5
232
100
AcDbEntity
8
0
100
AcDbSpline
70
0
71
3
72
9
73
5
74
0
42
0.000000001
43
0.0000000001
44
0.0000000001
40
0
40
0
40
0
40
0
40
0.027721542101993044
40
0.057996888149265249
40
0.057996888149265249
40
0.057996888149265249
40
0.057996888149265249
10
28.922237452119589
20
12.686289250850674
30
0
10
29.001066488154915
20
12.737592167179702
30
0
10
29.16598656255173
20
12.844924201202872
30
0
10
29.362808316058441
20
12.856326192694947
30
0
10
29.465552564710379
20
12.862278223037718
30
0
0
SPLINE
5
233
100
AcDbEntity
8
0
100
AcDbSpline
70
0
71
3
72
9
73
5
74
0
42
0.000000001
43
0.0000000001
44
0.0000000001
40
0
40
0
40
0
40
0
40
0.022793628441302279
40
0.043795944565317685
40
0.043795944565317685
40
0.043795944565317685
40
0.043795944565317685
10
29.465552564710379
20
12.862278223037718
30
0
10
29.542214968847777
20
12.858933098102824
30
0
10
29.689515009755777
20
12.852505735886677
30
0
10
29.824447396178133
20
12.793412899009112
30
0
10
29.889154132455587
20
12.765074968338011
30
0
0
SPLINE
5
234
100
AcDbEntity
8
0
100
AcDbSpline
70
0
71
3
72
9
73
5
74
0
42
0.000000001
43
0.0000000001
44
0.0000000001
40
0
40
0
40
0
40
0
40
0.020428602601262485
40
0.041461657864939119
40
0.041461657864939119
40
0.041461657864939119
40
0.041461657864939119
10
29.889154132455587
20
12.765074968338011
30
0
10
29.947499375328348
20
12.728658912084965
30
0
10
30.065916212018283
20
12.654749301397208
30
0
10
30.148220652456622
20
12.541944843458666
30
0
10
30.189972814172506
20
12.484720349311827
30
0
0
SPLINE
5
235
100
AcDbEntity
8
0
100
AcDbSpline
70
0
71
3
72
9
73
5
74
0
42
0.000000001
43
0.0000000001
44
0.0000000001
40
0
40
0
40
0
40
0
40
0.022905464486516813
40
0.048499280771866923
40
0.048499280771866923
40
0.048499280771866923
40
0.048499280771866923
10
30.189972814172506
20
12.484720349311827
30
0
10
30.227950565863509
20
12.418150943444594
30
0
10
30.30836341422248
20
12.277199062382687
30
0
10
30.352763309948575
20
12.121024309940262
30
0
10
30.37619381770492
20
12.038608491420744
30
0
0
SPLINE
5
236
100
AcDbEntity
8
0
100
AcDbSpline
70
0
71
3
72
9
73
5
74
0
42
0.000000001
43
0.0000000001
44
0.0000000001
40
0
40
0
40
0
40
0
40
0.031287515328949335
40
0.071355485739554192
40
0.071355485739554192
40
0.071355485739554192
40
0.071355485739554192
10
30.37619381770492
20
12.038608491420744
30
0
10
30.395814446278287
20
11.93597359736672
30
0
10
30.440561990710911
20
11.701900592781524
30
0
10
30.442587379433164
20
11.463438716611975
30
0
10
30.443724688142542
20
11.329536139965056
30
0
0
SPLINE
5
237
100
AcDbEntity
8
0
100
AcDbSpline
70
0
71
3
72
9
73
5
74
0
42
0.000000001
43
0.0000000001
44
0.0000000001
40
0
40
0
40
0
40
0
40
0.04778332856908963
40
0.08618047165366588
40
0.08618047165366588
40
0.08618047165366588
40
0.08618047165366588
10
30.443724688142542
20
11.329536139965056
30
0
10
30.4415352927826
20
11.169583931771445
30
0
10
30.437586569861729
20
10.88109928331839
30
0
10
30.366803306454173
20
10.601700731397173
30
0
10
30.335266288369898
20
10.47721654176712
30
0
0
SPLINE
5
238
100
AcDbEntity
8
0
100
AcDbSpline
70
0
71
3
72
9
73
5
74
0
42
0.000000001
43
0.0000000001
44
0.0000000001
40
0
40
0
40
0
40
0
40
0.031776813960555254
40
0.06031885594723857
40
0.06031885594723857
40
0.06031885594723857
40
0.06031885594723857
10
30.335266288369898
20
10.47721654176712
30
0
10
30.29675819731651
20
10.377037262383331
30
0
10
30.22366200838028
20
10.186876614763033
30
0
10
30.079248610164733
20
10.043633373641734
30
0
10
30.010914202779535
20
9.9758526682853681
30
0
0
SPLINE
5
239
100
AcDbEntity
8
0
100
AcDbSpline
70
0
71
3
72
9
73
5
74
0
42
0.000000001
43
0.0000000001
44
0.0000000001
40
0
40
0
40
0
40
0
40
0.027803106023092806
40
0.058234036860940579
40
0.058234036860940579
40
0.058234036860940579
40
0.058234036860940579
10
30.010914202779535
20
9.9758526682853681
30
0
10
29.931935027504693
20
9.9242528545697422
30
0
10
29.7665119197274
20
9.8161762443004541
30
0
10
29.568845596391611
20
9.8047900078621417
30
0
10
29.465552564710382
20
9.7988399863243085
30
0
0
LWPOLYLINE
5
240
100
AcDbEntity
8
0
100
AcDbPolyline
90
4
70
1
43
0.0
10
39.450545635074377
20
9.7999998927116359
10
39.450545635074377
20
10.219508707523344
10
39.031036820262671
20
10.219508707523344
10
39.031036820262671
20
9.7999998927116359
0
SPLINE
5
241
100
AcDbEntity
8
0
100
AcDbSpline
70
0
71
3
72
9
73
5
74
0
42
0.000000001
43
0.0000000001
44
0.0000000001
40
0
40
0
40
0
40
0
40
0.039500828810414404
40
0.077045189619218662
40
0.077045189619218662
40
0.077045189619218662
40
0.077045189619218662
10
37.471691694110632
20
9.7488400340080243
30
0
10
37.335952594254465
20
9.7604328090821042
30
0
10
37.071197524497457
20
9.7830441714431835
30
0
10
36.882297310810543
20
9.9691843543499754
30
0
10
36.790245648473501
20
10.059891045093536
30
0
0
SPLINE
5
242
100
AcDbEntity
8
0
100
AcDbSpline
70
0
71
3
72
9
73
5
74
0
42
0.000000001
43
0.0000000001
44
0.0000000001
40
0
40
0
40
0
40
0
40
0.054013245434860489
40
0.12713943713594772
40
0.12713943713594772
40
0.12713943713594772
40
0.12713943713594772
10
36.790245648473501
20
10.059891045093536
30
0
10
36.704186416581578
20
10.220743143630347
30
0
10
36.501615321010476
20
10.599365925976752
30
0
10
36.496475890665508
20
11.031174742735622
30
0
10
36.493519868701696
20
11.279536187648773
30
0
0
SPLINE
5
243
100
AcDbEntity
8
0
100
AcDbSpline
70
0
71
3
72
9
73
5
74
0
42
0.000000001
43
0.0000000001
44
0.0000000001
40
0
40
0
40
0
40
0
40
0.048091249979091436
40
0.086604645901829092
40
0.086604645901829092
40
0.086604645901829092
40
0.086604645901829092
10
36.493519868701696
20
11.279536187648773
30
0
10
36.495687233114083
20
11.440531698019104
30
0
10
36.499590309610461
20
11.730458850535799
30
0
10
36.571169749262083
20
12.011131921700821
30
0
10
36.60300138220191
20
12.135948240756989
30
0
0
SPLINE
5
244
100
AcDbEntity
8
0
100
AcDbSpline
70
0
71
3
72
9
73
5
74
0
42
0.000000001
43
0.0000000001
44
0.0000000001
40
0
40
0
40
0
40
0
40
0.031786461620259089
40
0.060288045140582239
40
0.060288045140582239
40
0.060288045140582239
40
0.060288045140582239
10
36.60300138220191
20
12.135948240756989
30
0
10
36.641770440062828
20
12.236062471594668
30
0
10
36.715302081876253
20
12.425944923440451
30
0
10
36.859979396631999
20
12.568768487092933
30
0
10
36.928376581519842
20
12.636289298534393
30
0
0
SPLINE
5
245
100
AcDbEntity
8
0
100
AcDbSpline
70
0
71
3
72
9
73
5
74
0
42
0.000000001
43
0.0000000001
44
0.0000000001
40
0
40
0
40
0
40
0
40
0.027721542101993044
40
0.057996888149265249
40
0.057996888149265249
40
0.057996888149265249
40
0.057996888149265249
10
36.928376581519842
20
12.636289298534393
30
0
10
37.007205617555165
20
12.687592214863423
30
0
10
37.172125691951983
20
12.79492424888659
30
0
10
37.368947445458694
20
12.806326240378665
30
0
10
37.471691694110632
20
12.812278270721436
30
0
0
SPLINE
5
246
100
AcDbEntity
8
0
100
AcDbSpline
70
0
71
3
72
9
73
5
74
0
42
0.000000001
43
0.0000000001
44
0.0000000001
40
0
40
0
40
0
40
0
40
0.022793628441302279
40
0.043795944565317685
40
0.043795944565317685
40
0.043795944565317685
40
0.043795944565317685
10
37.471691694110632
20
12.812278270721436
30
0
10
37.548354098248026
20
12.808933145786543
30
0
10
37.695654139156019
20
12.802505783570393
30
0
10
37.830586525578383
20
12.743412946692828
30
0
10
37.895293261855841
20
12.715075016021729
30
0
0
SPLINE
5
247
100
AcDbEntity
8
0
100
AcDbSpline
70
0
71
3
72
9
73
5
74
0
42
0.000000001
43
0.0000000001
44
0.0000000001
40
0
40
0
40
0
40
0
40
0.020428602601262485
40
0.041461657864939119
40
0.041461657864939119
40
0.041461657864939119
40
0.041461657864939119
10
37.895293261855841
20
12.715075016021729
30
0
10
37.953638504728595
20
12.678658959768681
30
0
10
38.072055341418533
20
12.604749349080926
30
0
10
38.154359781856868
20
12.491944891142381
30
0
10
38.19611194357276
20
12.434720396995543
30
0
0
SPLINE
5
248
100
AcDbEntity
8
0
100
AcDbSpline
70
0
71
3
72
9
73
5
74
0
42
0.000000001
43
0.0000000001
44
0.0000000001
40
0
40
0
40
0
40
0
40
0.022905464486516813
40
0.048499280771866923
40
0.048499280771866923
40
0.048499280771866923
40
0.048499280771866923
10
38.19611194357276
20
12.434720396995543
30
0
10
38.234089695263755
20
12.36815099112831
30
0
10
38.31450254362273
20
12.227199110066403
30
0
10
38.358902439348824
20
12.07102435762398
30
0
10
38.382332947105169
20
11.98860853910446
30
0
0
SPLINE
5
249
100
AcDbEntity
8
0
100
AcDbSpline
70
0
71
3
72
9
73
5
74
0
42
0.000000001
43
0.0000000001
44
0.0000000001
40
0
40
0
40
0
40
0
40
0.031287515328949335
40
0.071355485739554192
40
0.071355485739554192
40
0.071355485739554192
40
0.071355485739554192
10
38.382332947105169
20
11.98860853910446
30
0
10
38.40195357567854
20
11.885973645050436
30
0
10
38.446701120111165
20
11.651900640465239
30
0
10
38.448726508833417
20
11.413438764295691
30
0
10
38.449863817542791
20
11.279536187648771
30
0
0
SPLINE
5
250
100
AcDbEntity
8
0
100
AcDbSpline
70
0
71
3
72
9
73
5
74
0
42
0.000000001
43
0.0000000001
44
0.0000000001
40
0
40
0
40
0
40
0
40
0.047783358323391874
40
0.086180472282084392
40
0.086180472282084392
40
0.086180472282084392
40
0.086180472282084392
10
38.449863817542791
20
11.279536187648771
30
0
10
38.447674439318313
20
11.119583877334492
30
0
10
38.443725749732451
20
10.831099222233412
30
0
10
38.372942434702345
20
10.551700679605835
30
0
10
38.341405417770147
20
10.427216589450836
30
0
0
SPLINE
5
251
100
AcDbEntity
8
0
100
AcDbSpline
70
0
71
3
72
9
73
5
74
0
42
0.000000001
43
0.0000000001
44
0.0000000001
40
0
40
0
40
0
40
0
40
0.031776813960555254
40
0.06031885594723857
40
0.06031885594723857
40
0.06031885594723857
40
0.06031885594723857
10
38.341405417770147
20
10.427216589450836
30
0
10
38.30289732671676
20
10.327037310067047
30
0
10
38.229801137780527
20
10.136876662446749
30
0
10
38.085387739564986
20
9.9936334213254501
30
0
10
38.017053332179785
20
9.9258527159690839
30
0
0
SPLINE
5
252
100
AcDbEntity
8
0
100
AcDbSpline
70
0
71
3
72
9
73
5
74
0
42
0.000000001
43
0.0000000001
44
0.0000000001
40
0
40
0
40
0
40
0
40
0.027803134484227564
40
0.058234056654266599
40
0.058234056654266599
40
0.058234056654266599
40
0.058234056654266599
10
38.017053332179785
20
9.9258527159690839
30
0
10
37.938074187221396
20
9.8742526119949137
30
0
10
37.772651256054353
20
9.7661754676749997
30
0
10
37.574984754429146
20
9.7547897701913371
30
0
10
37.471691694110632
20
9.7488400340080243
30
0
0
LWPOLYLINE
5
253
100
AcDbEntity
8
0
100
AcDbPolyline
90
4
70
1
43
0.0
10
47.433151509612806
20
9.749999940395357
10
47.433151509612806
20
10.169508755207062
10
47.013642545789487
20
10.169508755207062
10
47.013642545789487
20
9.7499999403953552
0
SPLINE
5
254
100
AcDbEntity
8
0
100
AcDbSpline
70
0
71
3
72
9
73
5
74
0
42
0.000000001
43
0.0000000001
44
0.0000000001
40
0
40
0
40
0
40
0
40
0.039500817076405355
40
0.077045214921525385
40
0.077045214921525385
40
0.077045214921525385
40
0.077045214921525385
10
45.454297419637449
20
9.6988400816917402
30
0
10
45.318558289993817
20
9.710432589447322
30
0
10
45.053802996541883
20
9.7330434445539549
30
0
10
44.864902994014187
20
9.9191841081175838
30
0
10
44.772851374000318
20
10.00989109277725
30
0
0
SPLINE
5
255
100
AcDbEntity
8
0
100
AcDbSpline
70
0
71
3
72
9
73
5
74
0
42
0.000000001
43
0.0000000001
44
0.0000000001
40
0
40
0
40
0
40
0
40
0.054013245434860489
40
0.12713943713594772
40
0.12713943713594772
40
0.12713943713594772
40
0.12713943713594772
10
44.772851374000318
20
10.00989109277725
30
0
10
44.686792142108402
20
10.17074319131406
30
0
10
44.484221046537293
20
10.549365973660464
30
0
10
44.479081616192325
20
10.981174790419335
30
0
10
44.476125594228513
20
11.229536235332487
30
0
0
SPLINE
5
256
100
AcDbEntity
8
0
100
AcDbSpline
70
0
71
3
72
9
73
5
74
0
42
0.000000001
43
0.0000000001
44
0.0000000001
40
0
40
0
40
0
40
0
40
0.048091249979091436
40
0.086604645901829092
40
0.086604645901829092
40
0.086604645901829092
40
0.086604645901829092
10
44.476125594228513
20
11.229536235332487
30
0
10
44.4782929586409
20
11.390531745702814
30
0
10
44.482196035137278
20
11.680458898219513
30
0
10
44.5537754747889
20
11.961131969384533
30
0
10
44.585607107728727
20
12.085948288440703
30
0
0
SPLINE
5
257
100
AcDbEntity
8
0
100
AcDbSpline
70
0
71
3
72
9
73
5
74
0
42
0.000000001
43
0.0000000001
44
0.0000000001
40
0
40
0
40
0
40
0
40
0.031786461620259089
40
0.060288045140582239
40
0.060288045140582239
40
0.060288045140582239
40
0.060288045140582239
10
44.585607107728727
20
12.085948288440703
30
0
10
44.624376165589652
20
12.186062519278382
30
0
10
44.697907807403077
20
12.375944971124166
30
0
10
44.842585122158816
20
12.518768534776648
30
0
10
44.910982307046659
20
12.586289346218107
30
0
0
SPLINE
5
258
100
AcDbEntity
8
0
100
AcDbSpline
70
0
71
3
72
9
73
5
74
0
42
0.000000001
43
0.0000000001
44
0.0000000001
40
0
40
0
40
0
40
0
40
0.027721542101993044
40
0.057996888149265249
40
0.057996888149265249
40
0.057996888149265249
40
0.057996888149265249
10
44.910982307046659
20
12.586289346218107
30
0
10
44.989811343081989
20
12.637592262547134
30
0
10
45.1547314174788
20
12.744924296570304
30
0
10
45.351553170985511
20
12.756326288062381
30
0
10
45.454297419637449
20
12.762278318405151
30
0
0
SPLINE
5
259
100
AcDbEntity
8
0
100
AcDbSpline
70
0
71
3
72
9
73
5
74
0
42
0.000000001
43
0.0000000001
44
0.0000000001
40
0
40
0
40
0
40
0
40
0.022793628441302279
40
0.043795944565317685
40
0.043795944565317685
40
0.043795944565317685
40
0.043795944565317685
10
45.454297419637449
20
12.762278318405151
30
0
10
45.53095982377485
20
12.758933193470259
30
0
10
45.67825986468285
20
12.752505831254108
30
0
10
45.8131922511052
20
12.693412994376548
30
0
10
45.877898987382657
20
12.665075063705444
30
0
0
SPLINE
5
260
100
AcDbEntity
8
0
100
AcDbSpline
70
0
71
3
72
9
73
5
74
0
42
0.000000001
43
0.0000000001
44
0.0000000001
40
0
40
0
40
0
40
0
40
0.020428602601262485
40
0.041461657864939119
40
0.041461657864939119
40
0.041461657864939119
40
0.041461657864939119
10
45.877898987382657
20
12.665075063705444
30
0
10
45.936244230255419
20
12.628659007452399
30
0
10
46.054661066945357
20
12.554749396764642
30
0
10
46.136965507383692
20
12.441944938826099
30
0
10
46.178717669099576
20
12.38472044467926
30
0
0
SPLINE
5
261
100
AcDbEntity
8
0
100
AcDbSpline
70
0
71
3
72
9
73
5
74
0
42
0.000000001
43
0.0000000001
44
0.0000000001
40
0
40
0
40
0
40
0
40
0.022905464486516813
40
0.048499280771866923
40
0.048499280771866923
40
0.048499280771866923
40
0.048499280771866923
10
46.178717669099576
20
12.38472044467926
30
0
10
46.216695420790579
20
12.318151038812029
30
0
10
46.297108269149554
20
12.17719915775012
30
0
10
46.341508164875648
20
12.021024405307696
30
0
10
46.364938672631986
20
11.938608586788177
30
0
0
SPLINE
5
262
100
AcDbEntity
8
0
100
AcDbSpline
70
0
71
3
72
9
73
5
74
0
42
0.000000001
43
0.0000000001
44
0.0000000001
40
0
40
0
40
0
40
0
40
0.031287515328949335
40
0.071355485739554192
40
0.071355485739554192
40
0.071355485739554192
40
0.071355485739554192
10
46.364938672631986
20
11.938608586788177
30
0
10
46.384559301205357
20
11.835973692734154
30
0
10
46.429306845637981
20
11.601900688148959
30
0
10
46.431332234360234
20
11.36343881197941
30
0
10
46.432469543069608
20
11.229536235332489
30
0
0
SPLINE
5
263
100
AcDbEntity
8
0
100
AcDbSpline
70
0
71
3
72
9
73
5
74
0
42
0.000000001
43
0.0000000001
44
0.0000000001
40
0
40
0
40
0
40
0
40
0.047783298814787448
40
0.086180471025248478
40
0.086180471025248478
40
0.086180471025248478
40
0.086180471025248478
10
46.432469543069608
20
11.229536235332489
30
0
10
46.430280130574239
20
11.069584129259539
30
0
10
46.42633137431838
20
10.781099487454494
30
0
10
46.355548162533317
20
10.501700926239659
30
0
10
46.324011143296964
20
10.377216637134552
30
0
0
SPLINE
5
264
100
AcDbEntity
8
0
100
AcDbSpline
70
0
71
3
72
9
73
5
74
0
42
0.000000001
43
0.0000000001
44
0.0000000001
40
0
40
0
40
0
40
0
40
0.031776813960555254
40
0.06031885594723857
40
0.06031885594723857
40
0.06031885594723857
40
0.06031885594723857
10
46.324011143296964
20
10.377216637134552
30
0
10
46.285503052243584
20
10.277037357750764
30
0
10
46.212406863307351
20
10.086876710130468
30
0
10
46.067993465091803
20
9.9436334690091659
30
0
10
45.999659057706602
20
9.8758527636528015
30
0
0
SPLINE
5
265
100
AcDbEntity
8
0
100
AcDbSpline
70
0
71
3
72
9
73
5
74
0
42
0.000000001
43
0.0000000001
44
0.0000000001
40
0
40
0
40
0
40
0
40
0.027803106023092806
40
0.058234036860940579
40
0.058234036860940579
40
0.058234036860940579
40
0.058234036860940579
10
45.999659057706602
20
9.8758527636528015
30
0
10
45.920679882431763
20
9.8242529499371738
30
0
10
45.75525677465447
20
9.7161763396678875
30
0
10
45.557590451318681
20
9.7047901032295751
30
0
10
45.454297419637449
20
9.6988400816917402
30
0
0
LWPOLYLINE
5
266
100
AcDbEntity
8
0
100
AcDbPolyline
90
4
70
1
43
0.0
10
37
20
7.5999999999999996
10
37
20
3
10
40.000000000000007
20
3.0000000000000004
10
40.000000000000007
20
7.599999999999997
0
LWPOLYLINE
5
267
100
AcDbEntity
8
0
100
AcDbPolyline
90
4
70
1
43
0.0
10
29.000000000000004
20
3
10
32
20
3.0000000000000004
10
32
20
7.7000000000000046
10
29.000000000000004
20
7.7000000000000002
0
LWPOLYLINE
5
268
100
AcDbEntity
8
0
100
AcDbPolyline
90
4
70
1
43
0.0
10
8
20
8
10
5
20
8
10
5
20
3.0000000000000004
10
8
20
3.0000000000000004
0
LWPOLYLINE
5
269
100
AcDbEntity
8
0
100
AcDbPolyline
90
4
70
1
43
0.0
10
13
20
3.0000000000000004
10
16.000000000000004
20
3.0000000000000004
10
16.000000000000004
20
7.9000000000000012
10
13
20
7.9000000000000012
0
LWPOLYLINE
5
270
100
AcDbEntity
8
0
100
AcDbPolyline
90
4
70
1
43
0.0
10
45.000000000000007
20
7.5
10
45.000000000000007
20
3
10
48.000000000000007
20
3.0000000000000004
10
48.000000000000007
20
7.5000000000000044
0
LWPOLYLINE
5
271
100
AcDbEntity
8
0
100
AcDbPolyline
90
4
70
1
43
0.0
10
21.000000000000007
20
3.0000000000000004
10
24.000000000000004
20
3.0000000000000004
10
24.000000000000004
20
7.8000000000000007
10
21.000000000000007
20
7.8000000000000007
0
LWPOLYLINE
5
272
100
AcDbEntity
8
0
100
AcDbPolyline
90
8
70
1
43
0.0
10
53.000000000000007
20
10
10
56.000000000000007
20
10
10
56.000000000000007
20
5.0000000000000009
10
53.000000000000007
20
5.0000000000000009
10
53.000000000000007
20
0
10
0
20
0
10
0
20
15
10
53.000000000000007
20
15
0
LINE
5
273
100
AcDbEntity
8
0
100
AcDbLine
10
45.92701246961952
20
-22.537721991539005
30
0
11
46.164393033832319
21
-22.537721991539005
31
0
0
LINE
5
274
100
AcDbEntity
8
0
100
AcDbLine
10
46.164393033832319
20
-22.537721991539005
30
0
11
46.164393033832319
21
-25.550000369548798
31
0
0
LINE
5
275
100
AcDbEntity
8
0
100
AcDbLine
10
46.164393033832319
20
-25.550000369548798
30
0
11
45.796043779701002
21
-25.550000369548798
31
0
0
LINE
5
276
100
AcDbEntity
8
0
100
AcDbLine
10
45.796043779701002
20
-25.550000369548798
30
0
11
45.796043779701002
21
-23.202796876430515
31
0
0
SPLINE
5
277
100
AcDbEntity
8
0
100
AcDbSpline
70
0
71
3
72
9
73
5
74
0
42
0.000000001
43
0.0000000001
44
0.0000000001
40
0
40
0
40
0
40
0
40
0.019932864611809025
40
0.043211678065545711
40
0.043211678065545711
40
0.043211678065545711
40
0.043211678065545711
10
45.796043779701002
20
-23.202796876430515
30
0
10
45.74582805904511
20
-23.246491020024855
30
0
10
45.636967361043546
20
-23.341213846026989
30
0
10
45.513596830052954
20
-23.416169146305759
30
0
10
45.447135176509626
20
-23.456548750400547
30
0
0
SPLINE
5
278
100
AcDbEntity
8
0
100
AcDbSpline
70
0
71
3
72
9
73
5
74
0
42
0.000000001
43
0.0000000001
44
0.0000000001
40
0
40
0
40
0
40
0
40
0.023303707369198082
40
0.043238326489026618
40
0.043238326489026618
40
0.043238326489026618
40
0.043238326489026618
10
45.447135176509626
20
-23.456548750400547
30
0
10
45.379637633519955
20
-23.495199557115434
30
0
10
45.254400873773648
20
-23.566913305203929
30
0
10
45.120896289873031
20
-23.621634034951523
30
0
10
45.059345271438367
20
-23.646862506866459
30
0
0
LINE
5
279
100
AcDbEntity
8
0
100
AcDbLine
10
45.059345271438374
20
-23.646862506866462
30
0
11
45.059345271438367
21
-23.290791809558872
31
0
0
SPLINE
5
280
100
AcDbEntity
8
0
100
AcDbSpline
70
0
71
3
72
9
73
5
74
0
42
0.000000001
43
0.0000000001
44
0.0000000001
40
0
40
0
40
0
40
0
40
0.033113852576320026
40
0.064649762590854171
40
0.064649762590854171
40
0.064649762590854171
40
0.064649762590854171
10
45.059345271438367
20
-23.290791809558872
30
0
10
45.158114816860994
20
-23.240682242055204
30
0
10
45.350947337573054
20
-23.14285093006346
30
0
10
45.51806938856727
20
-23.005710065097848
30
0
10
45.599590893834836
20
-22.93881326913834
30
0
0
SPLINE
5
281
100
AcDbEntity
8
0
100
AcDbSpline
70
0
71
3
72
9
73
5
74
0
42
0.000000001
43
0.0000000001
44
0.0000000001
40
0
40
0
40
0
40
0
40
0.028364758067580861
40
0.052004268069444526
40
0.052004268069444526
40
0.052004268069444526
40
0.052004268069444526
10
45.599590893834836
20
-22.93881326913834
30
0
10
45.669193954637677
20
-22.873971801444647
30
0
10
45.796804993089722
20
-22.755090721622807
30
0
10
45.886321205615737
20
-22.605652102910021
30
0
10
45.92701246961952
20
-22.537721991539005
30
0
0
LWPOLYLINE
5
282
100
AcDbEntity
8
0
100
AcDbPolyline
90
4
70
1
43
0.0
10
38.219645347446203
20
-24.599591195583344
10
38.219645347446203
20
-24.229195415973663
10
37.087994486093521
20
-24.229195415973663
10
37.087994486093521
20
-24.599591195583344
0
LWPOLYLINE
5
283
100
AcDbEntity
8
0
100
AcDbPolyline
90
4
70
1
43
0.0
10
28.179399814456705
20
-24.549591243267063
10
28.179399814456705
20
-24.179195463657386
10
27.047749008983377
20
-24.179195463657386
10
27.047749008983377
20
-24.549591243267063
0
SPLINE
5
284
100
AcDbEntity
8
0
100
AcDbSpline
70
0
71
3
72
9
73
5
74
0
42
0.000000001
43
0.0000000001
44
0.0000000001
40
0
40
0
40
0
40
0
40
0.03234587819982402
40
0.061783043120251735
40
0.061783043120251735
40
0.061783043120251735
40
0.061783043120251735
10
32.877898957580328
20
-25.501160323619843
30
0
10
32.767892801527616
20
-25.494664585243633
30
0
10
32.557772827634473
20
-25.482257239809513
30
0
10
32.385124840470098
20
-25.362696394274195
30
0
10
32.30286493524909
20
-25.305730402469635
30
0
0
SPLINE
5
285
100
AcDbEntity
8
0
100
AcDbSpline
70
0
71
3
72
9
73
5
74
0
42
0.000000001
43
0.0000000001
44
0.0000000001
40
0
40
0
40
0
40
0
40
0.029519689636592586
40
0.062207189666607023
40
0.062207189666607023
40
0.062207189666607023
40
0.062207189666607023
10
32.30286493524909
20
-25.305730402469635
30
0
10
32.235622593257162
20
-25.231232670499484
30
0
10
32.093922013968772
20
-25.074242722452919
30
0
10
32.055157530908019
20
-24.865803272131537
30
0
10
32.034788277000189
20
-24.756276309490204
30
0
0
LINE
5
286
100
AcDbEntity
8
0
100
AcDbLine
10
32.034788277000189
20
-24.756276309490204
30
0
11
32.38881304487586
21
-24.723533689975739
31
0
0
SPLINE
5
287
100
AcDbEntity
8
0
100
AcDbSpline
70
0
71
3
72
9
73
5
74
0
42
0.000000001
43
0.0000000001
44
0.0000000001
40
0
40
0
40
0
40
0
40
0.022511676456229455
40
0.040645098162474927
40
0.040645098162474927
40
0.040645098162474927
40
0.040645098162474927
10
32.38881304487586
20
-24.723533689975739
30
0
10
32.404491281491389
20
-24.7983833708087
30
0
10
32.432798523179571
20
-24.933525355049674
30
0
10
32.521248260150706
20
-25.038783879852858
30
0
10
32.5607092641294
20
-25.085743963718414
30
0
0
SPLINE
5
288
100
AcDbEntity
8
0
100
AcDbSpline
70
0
71
3
72
9
73
5
74
0
42
0.000000001
43
0.0000000001
44
0.0000000001
40
0
40
0
40
0
40
0
40
0.016759315200784327
40
0.035036544165764724
40
0.035036544165764724
40
0.035036544165764724
40
0.035036544165764724
10
32.5607092641294
20
-25.085743963718414
30
0
10
32.6073105401913
20
-25.118554741674007
30
0
10
32.704733832692369
20
-25.187148013963583
30
0
10
32.823913155610555
20
-25.194473820532185
30
0
10
32.886084463447332
20
-25.198295414447784
30
0
0
SPLINE
5
289
100
AcDbEntity
8
0
100
AcDbSpline
70
0
71
3
72
9
73
5
74
0
42
0.000000001
43
0.0000000001
44
0.0000000001
40
0
40
0
40
0
40
0
40
0.016054366295288367
40
0.031071807061181234
40
0.031071807061181234
40
0.031071807061181234
40
0.031071807061181234
10
32.886084463447332
20
-25.198295414447784
30
0
10
32.940188652242128
20
-25.195510218605158
30
0
10
33.044902527864053
20
-25.190119718210578
30
0
10
33.138565079319939
20
-25.14320658626627
30
0
10
33.183833505958319
20
-25.120532810688019
30
0
0
SPLINE
5
290
100
AcDbEntity
8
0
100
AcDbSpline
70
0
71
3
72
9
73
5
74
0
42
0.000000001
43
0.0000000001
44
0.0000000001
40
0
40
0
40
0
40
0
40
0.01476223418979781
40
0.029723133489986751
40
0.029723133489986751
40
0.029723133489986751
40
0.029723133489986751
10
33.183833505958319
20
-25.120532810688019
30
0
10
33.224637900814152
20
-25.092294686684376
30
0
10
33.30679582214804
20
-25.035438419639995
30
0
10
33.364528392236821
20
-24.953877409008626
30
0
10
33.393587615340948
20
-24.912824332714081
30
0
0
SPLINE
5
291
100
AcDbEntity
8
0
100
AcDbSpline
70
0
71
3
72
9
73
5
74
0
42
0.000000001
43
0.0000000001
44
0.0000000001
40
0
40
0
40
0
40
0
40
0.017022490989569577
40
0.037790825463332553
40
0.037790825463332553
40
0.037790825463332553
40
0.037790825463332553
10
33.393587615340948
20
-24.912824332714081
30
0
10
33.420492755922972
20
-24.862654506650244
30
0
10
33.480223583357372
20
-24.751274853609701
30
0
10
33.512795405711024
20
-24.62904336451226
30
0
10
33.530695583671331
20
-24.56186980009079
30
0
0
SPLINE
5
292
100
AcDbEntity
8
0
100
AcDbSpline
70
0
71
3
72
9
73
5
74
0
42
0.000000001
43
0.0000000001
44
0.0000000001
40
0
40
0
40
0
40
0
40
0.022687270467919244
40
0.045444143693675609
40
0.045444143693675609
40
0.045444143693675609
40
0.045444143693675609
10
33.530695583671331
20
-24.56186980009079
30
0
10
33.546810831024182
20
-24.487800532593944
30
0
10
33.579090766038725
20
-24.339434758924895
30
0
10
33.583659854180922
20
-24.187665465636137
30
0
10
33.585947897285223
20
-24.111664593219754
30
0
0
SPLINE
5
293
100
AcDbEntity
8
0
100
AcDbSpline
70
0
71
3
72
9
73
5
74
0
42
0.000000001
43
0.0000000001
44
0.0000000001
40
0
40
0
40
0
40
0
40
0.0030699757895204156
40
0.0073701212037098809
40
0.0073701212037098809
40
0.0073701212037098809
40
0.0073701212037098809
10
33.585947897285223
20
-24.111664593219754
30
0
10
33.585817994909178
20
-24.101431698292618
30
0
10
33.58550613699181
20
-24.076865486358557
30
0
10
33.584492868157731
20
-24.052317641205285
30
0
10
33.583901669830084
20
-24.037995040416714
30
0
0
SPLINE
5
294
100
AcDbEntity
8
0
100
AcDbSpline
70
0
71
3
72
9
73
5
74
0
42
0.000000001
43
0.0000000001
44
0.0000000001
40
0
40
0
40
0
40
0
40
0.020611194919629462
40
0.041868795651654842
40
0.041868795651654842
40
0.041868795651654842
40
0.041868795651654842
10
33.583901669830084
20
-24.037995040416714
30
0
10
33.543219884603189
20
-24.094158804819067
30
0
10
33.460580456901326
20
-24.208247734837872
30
0
10
33.342175879814278
20
-24.284666324117623
30
0
10
33.282059576362371
20
-24.323465526103973
30
0
0
SPLINE
5
295
100
AcDbEntity
8
0
100
AcDbSpline
70
0
71
3
72
9
73
5
74
0
42
0.000000001
43
0.0000000001
44
0.0000000001
40
0
40
0
40
0
40
0
40
0.021552141852179872
40
0.043238187209394457
40
0.043238187209394457
40
0.043238187209394457
40
0.043238187209394457
10
33.282059576362371
20
-24.323465526103973
30
0
10
33.216844541911108
20
-24.355397633901458
30
0
10
33.086009291855177
20
-24.419460243752859
30
0
10
32.940597623619794
20
-24.428442367480855
30
0
10
32.867666628211737
20
-24.432947337627411
30
0
0
SPLINE
5
296
100
AcDbEntity
8
0
100
AcDbSpline
70
0
71
3
72
9
73
5
74
0
42
0.000000001
43
0.0000000001
44
0.0000000001
40
0
40
0
40
0
40
0
40
0.035036218294317571
40
0.070125002530730243
40
0.070125002530730243
40
0.070125002530730243
40
0.070125002530730243
10
32.867666628211737
20
-24.432947337627411
30
0
10
32.748262110371662
20
-24.42165843333186
30
0
10
32.509273928331638
20
-24.399063687641991
30
0
10
32.328056784618838
20
-24.241610206385865
30
0
10
32.237380292266607
20
-24.16282445192337
30
0
0
SPLINE
5
297
100
AcDbEntity
8
0
100
AcDbSpline
70
0
71
3
72
9
73
5
74
0
42
0.000000001
43
0.0000000001
44
0.0000000001
40
0
40
0
40
0
40
0
40
0.036800343748030109
40
0.077222174511364206
40
0.077222174511364206
40
0.077222174511364206
40
0.077222174511364206
10
32.237380292266607
20
-24.16282445192337
30
0
10
32.162220908691069
20
-24.062445837052962
30
0
10
32.004505777702732
20
-23.851810442780415
30
0
10
31.988115453740559
20
-23.588507821300496
30
0
10
31.979535963386301
20
-23.450682461261749
30
0
0
SPLINE
5
298
100
AcDbEntity
8
0
100
AcDbSpline
70
0
71
3
72
9
73
5
74
0
42
0.000000001
43
0.0000000001
44
0.0000000001
40
0
40
0
40
0
40
0
40
0.041729364644335375
40
0.079800871861236869
40
0.079800871861236869
40
0.079800871861236869
40
0.079800871861236869
10
31.979535963386301
20
-23.450682461261749
30
0
10
31.988544503303036
20
-23.308349047264556
30
0
10
32.005771924465087
20
-23.036158693331053
30
0
10
32.170193141905834
20
-22.819428439369169
30
0
10
32.248635437339544
20
-22.716030478477478
30
0
0
SPLINE
5
299
100
AcDbEntity
8
0
100
AcDbSpline
70
0
71
3
72
9
73
5
74
0
42
0.000000001
43
0.0000000001
44
0.0000000001
40
0
40
0
40
0
40
0
40
0.036803649145920971
40
0.074566502183745775
40
0.074566502183745775
40
0.074566502183745775
40
0.074566502183745775
10
32.248635437339544
20
-22.716030478477478
30
0
10
32.344853888074546
20
-22.634860986635296
30
0
10
32.539798505886807
20
-22.470406503692423
30
0
10
32.79412201029772
20
-22.448709925528686
30
0
10
32.922919537872076
20
-22.437722086906433
30
0
0
SPLINE
5
300
100
AcDbEntity
8
0
100
AcDbSpline
70
0
71
3
72
9
73
5
74
0
42
0.000000001
43
0.0000000001
44
0.0000000001
40
0
40
0
40
0
40
0
40
0.028285541858038658
40
0.056393674624193181
40
0.056393674624193181
40
0.056393674624193181
40
0.056393674624193181
10
32.922919537872076
20
-22.437722086906433
30
0
10
33.018246897458319
20
-22.444204480173951
30
0
10
33.208303716106897
20
-22.457128608640335
30
0
10
33.374975247301514
20
-22.549335241875848
30
0
10
33.458048846572638
20
-22.595293521881104
30
0
0
SPLINE
5
301
100
AcDbEntity
8
0
100
AcDbSpline
70
0
71
3
72
9
73
5
74
0
42
0.000000001
43
0.0000000001
44
0.0000000001
40
0
40
0
40
0
40
0
40
0.028639859530273593
40
0.058747177388507224
40
0.058747177388507224
40
0.058747177388507224
40
0.058747177388507224
10
33.458048846572638
20
-22.595293521881104
30
0
10
33.534513422437229
20
-22.654563971388409
30
0
10
33.691360490681596
20
-22.776141788745431
30
0
10
33.780642365685189
20
-22.953553407954296
30
0
10
33.826398398727179
20
-23.044475018978115
30
0
0
SPLINE
5
302
100
AcDbEntity
8
0
100
AcDbSpline
70
0
71
3
72
9
73
5
74
0
42
0.000000001
43
0.0000000001
44
0.0000000001
40
0
40
0
40
0
40
0
40
0.036911108219329247
40
0.085742113828295857
40
0.085742113828295857
40
0.085742113828295857
40
0.085742113828295857
10
33.826398398727179
20
-23.044475018978115
30
0
10
33.862927413966524
20
-23.162595639866545
30
0
10
33.947781950548745
20
-23.436982192053044
30
0
10
33.950629128911743
20
-23.724732236991866
30
0
10
33.952250625938177
20
-23.888608813285824
30
0
0
SPLINE
5
303
100
AcDbEntity
8
0
100
AcDbSpline
70
0
71
3
72
9
73
5
74
0
42
0.000000001
43
0.0000000001
44
0.0000000001
40
0
40
0
40
0
40
0
40
0.051739866153552319
40
0.092752787527562691
40
0.092752787527562691
40
0.092752787527562691
40
0.092752787527562691
10
33.952250625938177
20
-23.888608813285824
30
0
10
33.949927575838039
20
-24.061943533845085
30
0
10
33.945763100968414
20
-24.372676430978384
30
0
10
33.863705150932475
20
-24.672008785901429
30
0
10
33.827421214431524
20
-24.804365932941433
30
0
0
SPLINE
5
304
100
AcDbEntity
8
0
100
AcDbSpline
70
0
71
3
72
9
73
5
74
0
42
0.000000001
43
0.0000000001
44
0.0000000001
40
0
40
0
40
0
40
0
40
0.033784533565088912
40
0.064534078578464854
40
0.064534078578464854
40
0.064534078578464854
40
0.064534078578464854
10
33.827421214431524
20
-24.804365932941433
30
0
10
33.782838200828898
20
-24.909597134295542
30
0
10
33.697677229239524
20
-25.110606232260714
30
0
10
33.533994870276743
20
-25.254541686306457
30
0
10
33.456002619117498
20
-25.323124825954437
30
0
0
SPLINE
5
305
100
AcDbEntity
8
0
100
AcDbSpline
70
0
71
3
72
9
73
5
74
0
42
0.000000001
43
0.0000000001
44
0.0000000001
40
0
40
0
40
0
40
0
40
0.029926079568763402
40
0.061272019451576204
40
0.061272019451576204
40
0.061272019451576204
40
0.061272019451576204
10
33.456002619117498
20
-25.323124825954437
30
0
10
33.369041658240945
20
-25.375043912830364
30
0
10
33.190993822936868
20
-25.481345417966061
30
0
10
32.98386385788276
20
-25.494454098975389
30
0
10
32.877898957580328
20
-25.501160323619843
30
0
0
LWPOLYLINE
5
306
100
AcDbEntity
8
0
100
AcDbPolyline
90
4
70
1
43
0.0
10
20.179399814456708
20
-24.499590694904327
10
20.179399814456708
20
-24.129194915294647
10
19.047749008983381
20
-24.129194915294647
10
19.047749008983381
20
-24.499590694904327
0
SPLINE
5
307
100
AcDbEntity
8
0
100
AcDbSpline
70
0
71
3
72
9
73
5
74
0
42
0.000000001
43
0.0000000001
44
0.0000000001
40
0
40
0
40
0
40
0
40
0.027139030660855823
40
0.051905939657419846
40
0.051905939657419846
40
0.051905939657419846
40
0.051905939657419846
10
23.975443508476026
20
-24.532332718372345
30
0
10
23.980414088095472
20
-24.440418818538141
30
0
10
23.989920787469281
20
-24.264624870770007
30
0
10
24.080558740328371
20
-24.11406365073049
30
0
10
24.123806621879346
20
-24.042223393917084
30
0
0
SPLINE
5
308
100
AcDbEntity
8
0
100
AcDbSpline
70
0
71
3
72
9
73
5
74
0
42
0.000000001
43
0.0000000001
44
0.0000000001
40
0
40
0
40
0
40
0
40
0.024474005612639824
40
0.050847396852418049
40
0.050847396852418049
40
0.050847396852418049
40
0.050847396852418049
10
24.123806621879346
20
-24.042223393917084
30
0
10
24.180103121340526
20
-23.981242189542872
30
0
10
24.29706519509384
20
-23.854547134044793
30
0
10
24.461234290431992
20
-23.800932575301484
30
0
10
24.546385075896985
20
-23.773123919963837
30
0
0
SPLINE
5
309
100
AcDbEntity
8
0
100
AcDbSpline
70
0
71
3
72
9
73
5
74
0
42
0.000000001
43
0.0000000001
44
0.0000000001
40
0
40
0
40
0
40
0
40
0.022399551129134779
40
0.042043597136890237
40
0.042043597136890237
40
0.042043597136890237
40
0.042043597136890237
10
24.546385075896985
20
-23.773123919963837
30
0
10
24.476354073668709
20
-23.744082017294549
30
0
10
24.344907009046569
20
-23.689570833169604
30
0
10
24.250701001377458
20
-23.583333936315785
30
0
10
24.206685092300184
20
-23.533696830272675
30
0
0
SPLINE
5
310
100
AcDbEntity
8
0
100
AcDbSpline
70
0
71
3
72
9
73
5
74
0
42
0.000000001
43
0.0000000001
44
0.0000000001
40
0
40
0
40
0
40
0
40
0.018991171383405253
40
0.039336496794295128
40
0.039336496794295128
40
0.039336496794295128
40
0.039336496794295128
10
24.206685092300184
20
-23.533696830272675
30
0
10
24.174465125845003
20
-23.478129530489479
30
0
10
24.107727767648974
20
-23.363032738108398
30
0
10
24.100116900319478
20
-23.23004021191916
30
0
10
24.096180465072401
20
-23.161254823207855
30
0
0
SPLINE
5
311
100
AcDbEntity
8
0
100
AcDbSpline
70
0
71
3
72
9
73
5
74
0
42
0.000000001
43
0.0000000001
44
0.0000000001
40
0
40
0
40
0
40
0
40
0.030701984823082396
40
0.061235069147790672
40
0.061235069147790672
40
0.061235069147790672
40
0.061235069147790672
10
24.096180465072401
20
-23.161254823207855
30
0
10
24.105877342248267
20
-23.056566077440831
30
0
10
24.12521775127405
20
-22.847764508976116
30
0
10
24.262875483595053
20
-22.689627655959189
30
0
10
24.331514503806837
20
-22.610777318477631
30
0
0
SPLINE
5
312
100
AcDbEntity
8
0
100
AcDbSpline
70
0
71
3
72
9
73
5
74
0
42
0.000000001
43
0.0000000001
44
0.0000000001
40
0
40
0
40
0
40
0
40
0.032121735031111584
40
0.067758586573604784
40
0.067758586573604784
40
0.067758586573604784
40
0.067758586573604784
10
24.331514503806837
20
-22.610777318477631
30
0
10
24.419518617475081
20
-22.545766976082824
30
0
10
24.605157230988564
20
-22.408632138594381
30
0
10
24.836196127048545
20
-22.394928703223769
30
0
10
24.957708384841688
20
-22.387721538543701
30
0
0
SPLINE
5
313
100
AcDbEntity
8
0
100
AcDbSpline
70
0
71
3
72
9
73
5
74
0
42
0.000000001
43
0.0000000001
44
0.0000000001
40
0
40
0
40
0
40
0
40
0.035909524715541638
40
0.06853715619375067
40
0.06853715619375067
40
0.06853715619375067
40
0.06853715619375067
10
24.957708384841688
20
-22.387721538543701
30
0
10
25.080147962427269
20
-22.395270406778582
30
0
10
25.313836949395352
20
-22.409678226581235
30
0
10
25.500959732390477
20
-22.549385011669685
30
0
10
25.590040948241956
20
-22.615893483161926
30
0
0
SPLINE
5
314
100
AcDbEntity
8
0
100
AcDbSpline
70
0
71
3
72
9
73
5
74
0
42
0.000000001
43
0.0000000001
44
0.0000000001
40
0
40
0
40
0
40
0
40
0.031023617965045418
40
0.061870848684264339
40
0.061870848684264339
40
0.061870848684264339
40
0.061870848684264339
10
25.590040948241956
20
-22.615893483161926
30
0
10
25.659873686774315
20
-22.695929722328131
30
0
10
25.799142124253514
20
-22.855547148261152
30
0
10
25.819378630753157
20
-23.06637396744366
30
0
10
25.829468037933118
20
-23.171486854553223
30
0
0
SPLINE
5
315
100
AcDbEntity
8
0
100
AcDbSpline
70
0
71
3
72
9
73
5
74
0
42
0.000000001
43
0.0000000001
44
0.0000000001
40
0
40
0
40
0
40
0
40
0.019708369824307972
40
0.038412971170236551
40
0.038412971170236551
40
0.038412971170236551
40
0.038412971170236551
10
25.829468037933118
20
-23.171486854553223
30
0
10
25.82540239566697
20
-23.23809220448203
30
0
10
25.817478178669301
20
-23.367910622210488
30
0
10
25.751912845785029
20
-23.480094190848327
30
0
10
25.719986822456129
20
-23.534720242023468
30
0
0
SPLINE
5
316
100
AcDbEntity
8
0
100
AcDbSpline
70
0
71
3
72
9
73
5
74
0
42
0.000000001
43
0.0000000001
44
0.0000000001
40
0
40
0
40
0
40
0
40
0.019426291616613679
40
0.041382211876355615
40
0.041382211876355615
40
0.041382211876355615
40
0.041382211876355615
10
25.719986822456129
20
-23.534720242023468
30
0
10
25.676716610119623
20
-23.584014844888532
30
0
10
25.584541678836665
20
-23.689023033810095
30
0
10
25.455770376408729
20
-23.743970670761641
30
0
10
25.387448932975538
20
-23.773123919963837
30
0
0
SPLINE
5
317
100
AcDbEntity
8
0
100
AcDbSpline
70
0
71
3
72
9
73
5
74
0
42
0.000000001
43
0.0000000001
44
0.0000000001
40
0
40
0
40
0
40
0
40
0.027022775349438838
40
0.051786674617034616
40
0.051786674617034616
40
0.051786674617034616
40
0.051786674617034616
10
25.387448932975538
20
-23.773123919963837
30
0
10
25.472870282795039
20
-23.806169430272128
30
0
10
25.636572478119039
20
-23.869498124966128
30
0
10
25.752530924420938
20
-24.000883380549901
30
0
10
25.807981159538038
20
-24.063710570335388
30
0
0
SPLINE
5
318
100
AcDbEntity
8
0
100
AcDbSpline
70
0
71
3
72
9
73
5
74
0
42
0.000000001
43
0.0000000001
44
0.0000000001
40
0
40
0
40
0
40
0
40
0.024515706749986106
40
0.050652531743262105
40
0.050652531743262105
40
0.050652531743262105
40
0.050652531743262105
10
25.807981159538038
20
-24.063710570335388
30
0
10
25.850048067971571
20
-24.135198281791812
30
0
10
25.936963588560094
20
-24.282900879588702
30
0
10
25.947047763896691
20
-24.454183047832995
30
0
10
25.952251221984632
20
-24.542565047740936
30
0
0
SPLINE
5
319
100
AcDbEntity
8
0
100
AcDbSpline
70
0
71
3
72
9
73
5
74
0
42
0.000000001
43
0.0000000001
44
0.0000000001
40
0
40
0
40
0
40
0
40
0.036050362810134594
40
0.071729760271666942
40
0.071729760271666942
40
0.071729760271666942
40
0.071729760271666942
10
25.952251221984632
20
-24.542565047740936
30
0
10
25.941147268140696
20
-24.665460621294436
30
0
10
25.919053622329486
20
-24.909987148693578
30
0
10
25.759464163319102
20
-25.096465450263018
30
0
10
25.680082108825452
20
-25.189222395420074
30
0
0
SPLINE
5
320
100
AcDbEntity
8
0
100
AcDbSpline
70
0
71
3
72
9
73
5
74
0
42
0.000000001
43
0.0000000001
44
0.0000000001
40
0
40
0
40
0
40
0
40
0.037136118311920492
40
0.077776351026289298
40
0.077776351026289298
40
0.077776351026289298
40
0.077776351026289298
10
25.680082108825452
20
-25.189222395420074
30
0
10
25.579121989431183
20
-25.265578545219391
30
0
10
25.367675288951883
20
-25.425495708880014
30
0
10
25.102439757436038
20
-25.442351941109095
30
0
10
24.963847067207105
20
-25.451159775257111
30
0
0
SPLINE
5
321
100
AcDbEntity
8
0
100
AcDbSpline
70
0
71
3
72
9
73
5
74
0
42
0.000000001
43
0.0000000001
44
0.0000000001
40
0
40
0
40
0
40
0
40
0.040644311554991999
40
0.07782106775012948
40
0.07782106775012948
40
0.07782106775012948
40
0.07782106775012948
10
24.963847067207105
20
-25.451159775257111
30
0
10
24.825227143693137
20
-25.442292444601282
30
0
10
24.559813607417524
20
-25.425314296532598
30
0
10
24.348541661282379
20
-25.264854157428474
30
0
10
24.247612621635206
20
-25.188198983669281
30
0
0
SPLINE
5
322
100
AcDbEntity
8
0
100
AcDbSpline
70
0
71
3
72
9
73
5
74
0
42
0.000000001
43
0.0000000001
44
0.0000000001
40
0
40
0
40
0
40
0
40
0.035910500969586506
40
0.072589125259343662
40
0.072589125259343662
40
0.072589125259343662
40
0.072589125259343662
10
24.247612621635206
20
-25.188198983669281
30
0
10
24.168232476702237
20
-25.094451617460159
30
0
10
24.007774250610549
20
-24.904951634871487
30
0
10
23.986296181370403
20
-24.657412161281407
30
0
10
23.975443508476026
20
-24.532332718372345
30
0
0
LWPOLYLINE
5
323
100
AcDbEntity
8
0
100
AcDbPolyline
90
4
70
1
43
0.0
10
12.182469453662634
20
-24.449590742588043
10
12.182469453662634
20
-24.079194962978363
10
11.050818648189306
20
-24.079194962978363
10
11.050818648189306
20
-24.449590742588043
0
SPLINE
5
324
100
AcDbEntity
8
0
100
AcDbSpline
70
0
71
3
72
9
73
5
74
0
42
0.000000001
43
0.0000000001
44
0.0000000001
40
0
40
0
40
0
40
0
40
0.049984363758763764
40
0.094797322522654118
40
0.094797322522654118
40
0.094797322522654118
40
0.094797322522654118
10
16.947476651519537
20
-23.527694344520569
30
0
10
17.028841869096791
20
-23.381882648442168
30
0
10
17.183154221856199
20
-23.105345000640341
30
0
10
17.382317865918516
20
-22.859243820983881
30
0
10
17.476467277854681
20
-22.742905914783478
30
0
0
LINE
5
325
100
AcDbEntity
8
0
100
AcDbLine
10
17.476467277854681
20
-22.742905914783478
30
0
11
16.007162716239691
21
-22.742905914783478
31
0
0
LINE
5
326
100
AcDbEntity
8
0
100
AcDbLine
10
16.007162716239691
20
-22.742905914783478
30
0
11
16.007162716239691
21
-22.388881146907806
31
0
0
LINE
5
327
100
AcDbEntity
8
0
100
AcDbLine
10
16.007162716239691
20
-22.388881146907806
30
0
11
17.94918217882514
21
-22.388881146907806
31
0
0
LINE
5
328
100
AcDbEntity
8
0
100
AcDbLine
10
17.94918217882514
20
-22.388881146907806
30
0
11
17.94918217882514
21
-22.675375044345856
31
0
0
SPLINE
5
329
100
AcDbEntity
8
0
100
AcDbSpline
70
0
71
3
72
9
73
5
74
0
42
0.000000001
43
0.0000000001
44
0.0000000001
40
0
40
0
40
0
40
0
40
0.04554193781218481
40
0.099134051290380748
40
0.099134051290380748
40
0.099134051290380748
40
0.099134051290380748
10
17.94918217882514
20
-22.675375044345856
30
0
10
17.850663586471438
20
-22.791283557568917
30
0
10
17.636211860070922
20
-23.04358903789857
30
0
10
17.47075606364875
20
-23.330589982482941
30
0
10
17.381310250610113
20
-23.485743403434753
30
0
0
SPLINE
5
330
100
AcDbEntity
8
0
100
AcDbSpline
70
0
71
3
72
9
73
5
74
0
42
0.000000001
43
0.0000000001
44
0.0000000001
40
0
40
0
40
0
40
0
40
0.057007085970451961
40
0.11286970597654561
40
0.11286970597654561
40
0.11286970597654561
40
0.11286970597654561
10
17.381310250610113
20
-23.485743403434753
30
0
10
17.293112568676278
20
-23.654502043291199
30
0
10
17.118487848639813
20
-23.988631349101908
30
0
10
17.003409154572232
20
-24.347628571408038
30
0
10
16.946453239768744
20
-24.52530711889267
30
0
0
SPLINE
5
331
100
AcDbEntity
8
0
100
AcDbSpline
70
0
71
3
72
9
73
5
74
0
42
0.000000001
43
0.0000000001
44
0.0000000001
40
0
40
0
40
0
40
0
40
0.040470101635455585
40
0.08379243579773285
40
0.08379243579773285
40
0.08379243579773285
40
0.08379243579773285
10
16.946453239768744
20
-24.52530711889267
30
0
10
16.912788432947924
20
-24.656184656576382
30
0
10
16.84308620710263
20
-24.927163656641955
30
0
10
16.818146918365958
20
-25.205891959956137
30
0
10
16.805252816528082
20
-25.349999964237213
30
0
0
LINE
5
332
100
AcDbEntity
8
0
100
AcDbLine
10
16.805252816528082
20
-25.349999964237213
30
0
11
16.426671531051397
21
-25.349999964237213
31
0
0
SPLINE
5
333
100
AcDbEntity
8
0
100
AcDbSpline
70
0
71
3
72
9
73
5
74
0
42
0.000000001
43
0.0000000001
44
0.0000000001
40
0
40
0
40
0
40
0
40
0.039268898147023619
40
0.086813398006942905
40
0.086813398006942905
40
0.086813398006942905
40
0.086813398006942905
10
16.426671531051397
20
-25.349999964237213
30
0
10
16.435837479671743
20
-25.219171527101118
30
0
10
16.45610102622479
20
-24.929943621057028
30
0
10
16.526998042750552
20
-24.648659999722113
30
0
10
16.56582572683692
20
-24.494611322879791
30
0
0
SPLINE
5
334
100
AcDbEntity
8
0
100
AcDbSpline
70
0
71
3
72
9
73
5
74
0
42
0.000000001
43
0.0000000001
44
0.0000000001
40
0
40
0
40
0
40
0
40
0.051835026069053866
40
0.10412625635995607
40
0.10412625635995607
40
0.10412625635995607
40
0.10412625635995607
10
16.56582572683692
20
-24.494611322879791
30
0
10
16.615161734739086
20
-24.328645181257606
30
0
10
16.714267960705946
20
-23.99525221668954
30
0
10
16.869513697259869
20
-23.684001525331404
30
0
10
16.947476651519537
20
-23.527694344520569
30
0
0
LWPOLYLINE
5
335
100
AcDbEntity
8
0
100
AcDbPolyline
90
4
70
1
43
0.0
10
4.1834927164018163
20
-24.399590790271759
10
4.1834927164018154
20
-24.029195010662079
10
3.0518419109284878
20
-24.029195010662079
10
3.0518419109284882
20
-24.399590790271759
0
SPLINE
5
336
100
AcDbEntity
8
0
100
AcDbSpline
70
0
71
3
72
9
73
5
74
0
42
0.000000001
43
0.0000000001
44
0.0000000001
40
0
40
0
40
0
40
0
40
0.03258507707469304
40
0.062380924103048394
40
0.062380924103048394
40
0.062380924103048394
40
0.062380924103048394
10
9.0436564944684505
20
-22.287721633911133
30
0
10
9.1544704293550065
20
-22.294409297233724
30
0
10
9.3666128050158868
20
-22.307212170683957
30
0
10
9.5406693802227736
20
-22.428356897125163
30
0
10
9.6238063834607601
20
-22.486220896244049
30
0
0
SPLINE
5
337
100
AcDbEntity
8
0
100
AcDbSpline
70
0
71
3
72
9
73
5
74
0
42
0.000000001
43
0.0000000001
44
0.0000000001
40
0
40
0
40
0
40
0
40
0.029760941147164134
40
0.062248398644732562
40
0.062248398644732562
40
0.062248398644732562
40
0.062248398644732562
10
9.6238063834607601
20
-22.486220896244049
30
0
10
9.691908951817366
20
-22.561060357120883
30
0
10
9.8343532314800779
20
-22.717595614926807
30
0
10
9.8741711181470908
20
-22.925925004197715
30
0
10
9.8949520848691463
20
-23.034652173519135
30
0
0
LINE
5
338
100
AcDbEntity
8
0
100
AcDbLine
10
9.8949520848691446
20
-23.034652173519135
30
0
11
9.5286493562161922
21
-23.06330144405365
31
0
0
SPLINE
5
339
100
AcDbEntity
8
0
100
AcDbSpline
70
0
71
3
72
9
73
5
74
0
42
0.000000001
43
0.0000000001
44
0.0000000001
40
0
40
0
40
0
40
0
40
0.019642360281923447
40
0.034718041597562109
40
0.034718041597562109
40
0.034718041597562109
40
0.034718041597562109
10
9.5286493562161922
20
-23.06330144405365
30
0
10
9.5130767800717297
20
-22.998944052855393
30
0
10
9.4855521171185604
20
-22.885191807572134
30
0
10
9.4185776226860245
20
-22.789646916203793
30
0
10
9.3894951604306698
20
-22.748158276081085
30
0
0
SPLINE
5
340
100
AcDbEntity
8
0
100
AcDbSpline
70
0
71
3
72
9
73
5
74
0
42
0.000000001
43
0.0000000001
44
0.0000000001
40
0
40
0
40
0
40
0
40
0.020440596298075445
40
0.04097881217180354
40
0.04097881217180354
40
0.04097881217180354
40
0.04097881217180354
10
9.3894951604306698
20
-22.748158276081085
30
0
10
9.3367143242693533
20
-22.702199965489939
30
0
10
9.2309005828410289
20
-22.610063858011252
30
0
10
9.091175281528372
20
-22.597089284053332
30
0
10
9.0211462043225765
20
-22.590586543083191
30
0
0
SPLINE
5
341
100
AcDbEntity
8
0
100
AcDbSpline
70
0
71
3
72
9
73
5
74
0
42
0.000000001
43
0.0000000001
44
0.0000000001
40
0
40
0
40
0
40
0
40
0.016706019492887421
40
0.032859594233966269
40
0.032859594233966269
40
0.032859594233966269
40
0.032859594233966269
10
9.0211462043225765
20
-22.590586543083191
30
0
10
8.9646602778752147
20
-22.594396976183031
30
0
10
8.8535563357434413
20
-22.601891836677467
30
0
10
8.7587488128155542
20
-22.660165792618713
30
0
10
8.7121420167386532
20
-22.688812911510468
30
0
0
SPLINE
5
342
100
AcDbEntity
8
0
100
AcDbSpline
70
0
71
3
72
9
73
5
74
0
42
0.000000001
43
0.0000000001
44
0.0000000001
40
0
40
0
40
0
40
0
40
0.022030798628508142
40
0.046533250382588084
40
0.046533250382588084
40
0.046533250382588084
40
0.046533250382588084
10
8.7121420167386532
20
-22.688812911510468
30
0
10
8.6564491481547972
20
-22.737929568924478
30
0
10
8.5388151829936927
20
-22.841673321293232
30
0
10
8.4727263007884446
20
-22.984173888286286
30
0
10
8.4379266761243343
20
-23.059208691120148
30
0
0
SPLINE
5
343
100
AcDbEntity
8
0
100
AcDbSpline
70
0
71
3
72
9
73
5
74
0
42
0.000000001
43
0.0000000001
44
0.0000000001
40
0
40
0
40
0
40
0
40
0.030487422007955508
40
0.070439996408917224
40
0.070439996408917224
40
0.070439996408917224
40
0.070439996408917224
10
8.4379266761243343
20
-23.059208691120148
30
0
10
8.4085675659798014
20
-23.156961720158726
30
0
10
8.340734490011279
20
-23.38281627134517
30
0
10
8.3361570122260193
20
-23.618982808907688
30
0
10
8.3335607312619686
20
-23.752933144569397
30
0
0
SPLINE
5
344
100
AcDbEntity
8
0
100
AcDbSpline
70
0
71
3
72
9
73
5
74
0
42
0.000000001
43
0.0000000001
44
0.0000000001
40
0
40
0
40
0
40
0
40
0.02302444962740453
40
0.044696935106494737
40
0.044696935106494737
40
0.044696935106494737
40
0.044696935106494737
10
8.3335607312619686
20
-23.752933144569397
30
0
10
8.3793462772706224
20
-23.690285307344187
30
0
10
8.468228904733234
20
-23.568668228094467
30
0
10
8.5966618409169886
20
-23.490174306715105
30
0
10
8.6589359305799007
20
-23.452114462852478
30
0
0
SPLINE
5
345
100
AcDbEntity
8
0
100
AcDbSpline
70
0
71
3
72
9
73
5
74
0
42
0.000000001
43
0.0000000001
44
0.0000000001
40
0
40
0
40
0
40
0
40
0.02102911220682625
40
0.041792145266801112
40
0.041792145266801112
40
0.041792145266801112
40
0.041792145266801112
10
8.6589359305799007
20
-23.452114462852478
30
0
10
8.7235970202826181
20
-23.423465401910661
30
0
10
8.8521010497151291
20
-23.36652977358446
30
0
10
8.9923805460590422
20
-23.358084063637314
30
0
10
9.0620737336575985
20
-23.353888094425201
30
0
0
SPLINE
5
346
100
AcDbEntity
8
0
100
AcDbSpline
70
0
71
3
72
9
73
5
74
0
42
0.000000001
43
0.0000000001
44
0.0000000001
40
0
40
0
40
0
40
0
40
0.034765178815225131
40
0.069877478538960036
40
0.069877478538960036
40
0.069877478538960036
40
0.069877478538960036
10
9.0620737336575985
20
-23.353888094425201
30
0
10
9.1805071564453407
20
-23.365408706277048
30
0
10
9.4185565277180032
20
-23.388564960174428
30
0
10
9.5987478228847927
20
-23.545950441765527
30
0
10
9.689291026443243
20
-23.625034093856812
30
0
0
SPLINE
5
347
100
AcDbEntity
8
0
100
AcDbSpline
70
0
71
3
72
9
73
5
74
0
42
0.000000001
43
0.0000000001
44
0.0000000001
40
0
40
0
40
0
40
0
40
0.036645286528248819
40
0.076187688462884706
40
0.076187688462884706
40
0.076187688462884706
40
0.076187688462884706
10
9.689291026443243
20
-23.625034093856812
30
0
10
9.764764067048052
20
-23.724566511627785
30
0
10
9.9216769213250462
20
-23.931500214581561
30
0
10
9.9391105084495308
20
-24.19115594024737
30
0
10
9.9481587670743465
20
-24.325920641422272
30
0
0
SPLINE
5
348
100
AcDbEntity
8
0
100
AcDbSpline
70
0
71
3
72
9
73
5
74
0
42
0.000000001
43
0.0000000001
44
0.0000000001
40
0
40
0
40
0
40
0
40
0.027412019292673985
40
0.054260145392601405
40
0.054260145392601405
40
0.054260145392601405
40
0.054260145392601405
10
9.9481587670743465
20
-24.325920641422272
30
0
10
9.9432996376057368
20
-24.417962328927256
30
0
10
9.9336813359172211
20
-24.600152312557366
30
0
10
9.8619107549030112
20
-24.767844219936137
30
0
10
9.8263983987271786
20
-24.850818812847137
30
0
0
SPLINE
5
349
100
AcDbEntity
8
0
100
AcDbSpline
70
0
71
3
72
9
73
5
74
0
42
0.000000001
43
0.0000000001
44
0.0000000001
40
0
40
0
40
0
40
0
40
0.025831711834928189
40
0.050503596498902119
40
0.050503596498902119
40
0.050503596498902119
40
0.050503596498902119
10
9.8263983987271786
20
-24.850818812847137
30
0
10
9.7828662646454507
20
-24.926396934365712
30
0
10
9.6977565611752024
20
-25.074159768579356
30
0
10
9.559402998062815
20
-25.173639721940035
30
0
10
9.4918148778378963
20
-25.222237408161163
30
0
0
SPLINE
5
350
100
AcDbEntity
8
0
100
AcDbSpline
70
0
71
3
72
9
73
5
74
0
42
0.000000001
43
0.0000000001
44
0.0000000001
40
0
40
0
40
0
40
0
40
0.024687224352239079
40
0.050469317700789516
40
0.050469317700789516
40
0.050469317700789516
40
0.050469317700789516
10
9.4918148778378963
20
-25.222237408161163
30
0
10
9.4175486763961889
20
-25.259834844290143
30
0
10
9.2657225957678762
20
-25.33669714851904
30
0
10
9.095715328901413
20
-25.346269741428678
30
0
10
9.0088676474988461
20
-25.351159870624542
30
0
0
SPLINE
5
351
100
AcDbEntity
8
0
100
AcDbSpline
70
0
71
3
72
9
73
5
74
0
42
0.000000001
43
0.0000000001
44
0.0000000001
40
0
40
0
40
0
40
0
40
0.042646359767382722
40
0.084532119171086995
40
0.084532119171086995
40
0.084532119171086995
40
0.084532119171086995
10
9.0088676474988461
20
-25.351159870624542
30
0
10
8.8629107660538118
20
-25.337562978839362
30
0
10
8.5736001528279608
20
-25.310611696642926
30
0
10
8.3624630333360415
20
-25.111261130680713
30
0
10
8.2578443549573421
20
-25.012482702732086
30
0
0
SPLINE
5
352
100
AcDbEntity
8
0
100
AcDbSpline
70
0
71
3
72
9
73
5
74
0
42
0.000000001
43
0.0000000001
44
0.0000000001
40
0
40
0
40
0
40
0
40
0.049857082704490803
40
0.11703986520330539
40
0.11703986520330539
40
0.11703986520330539
40
0.11703986520330539
10
8.2578443549573421
20
-25.012482702732086
30
0
10
8.1735522956208317
20
-24.866364779633869
30
0
10
7.975676071676312
20
-24.523351889678683
30
0
10
7.9703279253913797
20
-24.12489869500132
30
0
10
7.9672580026090145
20
-23.896180093288422
30
0
0
SPLINE
5
353
100
AcDbEntity
8
0
100
AcDbSpline
70
0
71
3
72
9
73
5
74
0
42
0.000000001
43
0.0000000001
44
0.0000000001
40
0
40
0
40
0
40
0
40
0.075530614628662715
40
0.13226605719469822
40
0.13226605719469822
40
0.13226605719469822
40
0.13226605719469822
10
7.9672580026090145
20
-23.896180093288422
30
0
10
7.9711451174880494
20
-23.639441066983711
30
0
10
7.9779520706876283
20
-23.189850408887267
30
0
10
8.1953062231290357
20
-22.799118554968508
30
0
10
8.2885401509702206
20
-22.631514370441437
30
0
0
SPLINE
5
354
100
AcDbEntity
8
0
100
AcDbSpline
70
0
71
3
72
9
73
5
74
0
42
0.000000001
43
0.0000000001
44
0.0000000001
40
0
40
0
40
0
40
0
40
0.041796705109325837
40
0.08527072009592937
40
0.08527072009592937
40
0.08527072009592937
40
0.08527072009592937
10
8.2885401509702206
20
-22.631514370441437
30
0
10
8.3915947631734653
20
-22.531252323502212
30
0
10
8.6018395891422106
20
-22.326704694246811
30
0
10
8.894465502299532
20
-22.300885280161758
30
0
10
9.0436564944684505
20
-22.287721633911133
30
0
0
LWPOLYLINE
5
355
100
AcDbEntity
8
0
100
AcDbPolyline
90
4
70
1
43
0.0
10
44.472032841295011
20
-24.649591147899631
10
44.472032841295011
20
-24.279195368289955
10
43.340382035821683
20
-24.279195368289955
10
43.340382035821683
20
-24.649591147899631
0
LWPOLYLINE
5
356
100
AcDbEntity
8
0
100
AcDbPolyline
90
4
70
1
43
0.0
10
7.4454297684133053
20
-25.300000011920929
10
7.4454297684133053
20
-24.880491197109222
10
7.0259209536015987
20
-24.880491197109222
10
7.0259209536015987
20
-25.300000011920929
0
SPLINE
5
357
100
AcDbEntity
8
0
100
AcDbSpline
70
0
71
3
72
9
73
5
74
0
42
0.000000001
43
0.0000000001
44
0.0000000001
40
0
40
0
40
0
40
0
40
0.039500828810414404
40
0.077045189619218662
40
0.077045189619218662
40
0.077045189619218662
40
0.077045189619218662
10
5.4665758274495602
20
-25.351159870624542
30
0
10
5.3308367275933897
20
-25.339567095550464
30
0
10
5.0660816578363876
20
-25.316955733189385
30
0
10
4.877181444149473
20
-25.130815550282595
30
0
10
4.7851297818124294
20
-25.040108859539032
30
0
0
SPLINE
5
358
100
AcDbEntity
8
0
100
AcDbSpline
70
0
71
3
72
9
73
5
74
0
42
0.000000001
43
0.0000000001
44
0.0000000001
40
0
40
0
40
0
40
0
40
0.054013245434860489
40
0.12713943713594772
40
0.12713943713594772
40
0.12713943713594772
40
0.12713943713594772
10
4.7851297818124294
20
-25.040108859539032
30
0
10
4.699070549920509
20
-24.879256761002221
30
0
10
4.4964994543494026
20
-24.500633978655813
30
0
10
4.491360024004436
20
-24.06882516189695
30
0
10
4.4884040020406255
20
-23.820463716983795
30
0
0
SPLINE
5
359
100
AcDbEntity
8
0
100
AcDbSpline
70
0
71
3
72
9
73
5
74
0
42
0.000000001
43
0.0000000001
44
0.0000000001
40
0
40
0
40
0
40
0
40
0.048091249979091436
40
0.086604645901829092
40
0.086604645901829092
40
0.086604645901829092
40
0.086604645901829092
10
4.4884040020406255
20
-23.820463716983795
30
0
10
4.490571366453012
20
-23.659468206613465
30
0
10
4.4944744429493921
20
-23.369541054096771
30
0
10
4.5660538826010129
20
-23.088867982931749
30
0
10
4.5978855155408391
20
-22.96405166387558
30
0
0
SPLINE
5
360
100
AcDbEntity
8
0
100
AcDbSpline
70
0
71
3
72
9
73
5
74
0
42
0.000000001
43
0.0000000001
44
0.0000000001
40
0
40
0
40
0
40
0
40
0.031786461620259089
40
0.060288045140582239
40
0.060288045140582239
40
0.060288045140582239
40
0.060288045140582239
10
4.5978855155408391
20
-22.96405166387558
30
0
10
4.6366545734017599
20
-22.863937433037901
30
0
10
4.7101862152151828
20
-22.674054981192118
30
0
10
4.8548635299709284
20
-22.531231417539633
30
0
10
4.9232607148587713
20
-22.463710606098175
30
0
0
SPLINE
5
361
100
AcDbEntity
8
0
100
AcDbSpline
70
0
71
3
72
9
73
5
74
0
42
0.000000001
43
0.0000000001
44
0.0000000001
40
0
40
0
40
0
40
0
40
0.027721542101993044
40
0.057996888149265249
40
0.057996888149265249
40
0.057996888149265249
40
0.057996888149265249
10
4.9232607148587713
20
-22.463710606098175
30
0
10
5.0020897508940969
20
-22.412407689769147
30
0
10
5.1670098252909114
20
-22.305075655745977
30
0
10
5.3638315787976243
20
-22.293673664253902
30
0
10
5.4665758274495611
20
-22.287721633911133
30
0
0
SPLINE
5
362
100
AcDbEntity
8
0
100
AcDbSpline
70
0
71
3
72
9
73
5
74
0
42
0.000000001
43
0.0000000001
44
0.0000000001
40
0
40
0
40
0
40
0
40
0.022793628441302279
40
0.043795944565317685
40
0.043795944565317685
40
0.043795944565317685
40
0.043795944565317685
10
5.4665758274495611
20
-22.287721633911133
30
0
10
5.5432382315869599
20
-22.291066758846021
30
0
10
5.6905382724949565
20
-22.297494121062176
30
0
10
5.825470658917312
20
-22.356586957939733
30
0
10
5.8901773951947698
20
-22.38492488861084
30
0
0
SPLINE
5
363
100
AcDbEntity
8
0
100
AcDbSpline
70
0
71
3
72
9
73
5
74
0
42
0.000000001
43
0.0000000001
44
0.0000000001
40
0
40
0
40
0
40
0
40
0.020428602601262485
40
0.041461657864939119
40
0.041461657864939119
40
0.041461657864939119
40
0.041461657864939119
10
5.8901773951947698
20
-22.38492488861084
30
0
10
5.9485226380675318
20
-22.421340944863886
30
0
10
6.066939474757465
20
-22.495250555551642
30
0
10
6.1492439151958047
20
-22.608055013490187
30
0
10
6.1909960769116879
20
-22.665279507637024
30
0
0
SPLINE
5
364
100
AcDbEntity
8
0
100
AcDbSpline
70
0
71
3
72
9
73
5
74
0
42
0.000000001
43
0.0000000001
44
0.0000000001
40
0
40
0
40
0
40
0
40
0.022905464486516813
40
0.048499280771866923
40
0.048499280771866923
40
0.048499280771866923
40
0.048499280771866923
10
6.1909960769116879
20
-22.665279507637024
30
0
10
6.2289738286026894
20
-22.731848913504255
30
0
10
6.3093866769616636
20
-22.872800794566164
30
0
10
6.3537865726877554
20
-23.028975547008589
30
0
10
6.3772170804440975
20
-23.111391365528107
30
0
0
SPLINE
5
365
100
AcDbEntity
8
0
100
AcDbSpline
70
0
71
3
72
9
73
5
74
0
42
0.000000001
43
0.0000000001
44
0.0000000001
40
0
40
0
40
0
40
0
40
0.031287515328949335
40
0.071355485739554192
40
0.071355485739554192
40
0.071355485739554192
40
0.071355485739554192
10
6.3772170804440975
20
-23.111391365528107
30
0
10
6.3968377090174711
20
-23.214026259582134
30
0
10
6.4415852534500919
20
-23.448099264167329
30
0
10
6.443610642172346
20
-23.686561140336874
30
0
10
6.4447479508817196
20
-23.820463716983795
30
0
0
SPLINE
5
366
100
AcDbEntity
8
0
100
AcDbSpline
70
0
71
3
72
9
73
5
74
0
42
0.000000001
43
0.0000000001
44
0.0000000001
40
0
40
0
40
0
40
0
40
0.047783358323391874
40
0.086180472282084392
40
0.086180472282084392
40
0.086180472282084392
40
0.086180472282084392
10
6.4447479508817196
20
-23.820463716983795
30
0
10
6.4425585726572452
20
-23.980416027298077
30
0
10
6.4386098830713774
20
-24.268900682399156
30
0
10
6.3678265680412736
20
-24.548299225026732
30
0
10
6.3362895511090755
20
-24.672783315181732
30
0
0
SPLINE
5
367
100
AcDbEntity
8
0
100
AcDbSpline
70
0
71
3
72
9
73
5
74
0
42
0.000000001
43
0.0000000001
44
0.0000000001
40
0
40
0
40
0
40
0
40
0.031776813960555254
40
0.06031885594723857
40
0.06031885594723857
40
0.06031885594723857
40
0.06031885594723857
10
6.3362895511090755
20
-24.672783315181732
30
0
10
6.2977814600556918
20
-24.77296259456552
30
0
10
6.2246852711194585
20
-24.963123242185816
30
0
10
6.0802718729039125
20
-25.106366483307117
30
0
10
6.011937465518713
20
-25.174147188663483
30
0
0
SPLINE
5
368
100
AcDbEntity
8
0
100
AcDbSpline
70
0
71
3
72
9
73
5
74
0
42
0.000000001
43
0.0000000001
44
0.0000000001
40
0
40
0
40
0
40
0
40
0.027803134484227564
40
0.058234056654266599
40
0.058234056654266599
40
0.058234056654266599
40
0.058234056654266599
10
6.011937465518713
20
-25.174147188663483
30
0
10
5.9329583205603234
20
-25.225747292637656
30
0
10
5.7675353893932799
20
-25.33382443695757
30
0
10
5.5698688877680702
20
-25.345210134441231
30
0
10
5.4665758274495602
20
-25.351159870624542
30
0
0
LWPOLYLINE
5
369
100
AcDbEntity
8
0
100
AcDbPolyline
90
4
70
1
43
0.0
10
15.444406654685736
20
-25.349999964237213
10
15.444406654685736
20
-24.930491149425507
10
15.024897690862417
20
-24.930491149425507
10
15.024897690862417
20
-25.349999964237213
0
SPLINE
5
370
100
AcDbEntity
8
0
100
AcDbSpline
70
0
71
3
72
9
73
5
74
0
42
0.000000001
43
0.0000000001
44
0.0000000001
40
0
40
0
40
0
40
0
40
0.039500817076405355
40
0.077045214921525385
40
0.077045214921525385
40
0.077045214921525385
40
0.077045214921525385
10
13.465552564710379
20
-25.401159822940826
30
0
10
13.329813435066741
20
-25.389567315185246
30
0
10
13.065058141614809
20
-25.366956460078612
30
0
10
12.876158139087124
20
-25.180815796514977
30
0
10
12.784106519073248
20
-25.090108811855316
30
0
0
SPLINE
5
371
100
AcDbEntity
8
0
100
AcDbSpline
70
0
71
3
72
9
73
5
74
0
42
0.000000001
43
0.0000000001
44
0.0000000001
40
0
40
0
40
0
40
0
40
0.054013245434860489
40
0.12713943713594772
40
0.12713943713594772
40
0.12713943713594772
40
0.12713943713594772
10
12.784106519073248
20
-25.090108811855316
30
0
10
12.698047287181328
20
-24.929256713318505
30
0
10
12.495476191610223
20
-24.550633930972097
30
0
10
12.490336761265254
20
-24.118825114213234
30
0
10
12.487380739301443
20
-23.870463669300079
30
0
0
SPLINE
5
372
100
AcDbEntity
8
0
100
AcDbSpline
70
0
71
3
72
9
73
5
74
0
42
0.000000001
43
0.0000000001
44
0.0000000001
40
0
40
0
40
0
40
0
40
0.048091249979091436
40
0.086604645901829092
40
0.086604645901829092
40
0.086604645901829092
40
0.086604645901829092
10
12.487380739301443
20
-23.870463669300079
30
0
10
12.48954810371383
20
-23.709468158929749
30
0
10
12.493451180210212
20
-23.419541006413056
30
0
10
12.565030619861833
20
-23.138867935248033
30
0
10
12.596862252801657
20
-23.014051616191864
30
0
0
SPLINE
5
373
100
AcDbEntity
8
0
100
AcDbSpline
70
0
71
3
72
9
73
5
74
0
42
0.000000001
43
0.0000000001
44
0.0000000001
40
0
40
0
40
0
40
0
40
0.031786461620259089
40
0.060288045140582239
40
0.060288045140582239
40
0.060288045140582239
40
0.060288045140582239
10
12.596862252801657
20
-23.014051616191864
30
0
10
12.635631310662578
20
-22.913937385354185
30
0
10
12.709162952476001
20
-22.724054933508402
30
0
10
12.853840267231746
20
-22.581231369855917
30
0
10
12.922237452119589
20
-22.513710558414459
30
0
0
SPLINE
5
374
100
AcDbEntity
8
0
100
AcDbSpline
70
0
71
3
72
9
73
5
74
0
42
0.000000001
43
0.0000000001
44
0.0000000001
40
0
40
0
40
0
40
0
40
0.027721542101993044
40
0.057996888149265249
40
0.057996888149265249
40
0.057996888149265249
40
0.057996888149265249
10
12.922237452119589
20
-22.513710558414459
30
0
10
13.001066488154915
20
-22.462407642085431
30
0
10
13.16598656255173
20
-22.355075608062261
30
0
10
13.362808316058443
20
-22.343673616570186
30
0
10
13.465552564710379
20
-22.337721586227417
30
0
0
SPLINE
5
375
100
AcDbEntity
8
0
100
AcDbSpline
70
0
71
3
72
9
73
5
74
0
42
0.000000001
43
0.0000000001
44
0.0000000001
40
0
40
0
40
0
40
0
40
0.022793628441302279
40
0.043795944565317685
40
0.043795944565317685
40
0.043795944565317685
40
0.043795944565317685
10
13.465552564710379
20
-22.337721586227417
30
0
10
13.542214968847777
20
-22.341066711162306
30
0
10
13.689515009755775
20
-22.34749407337846
30
0
10
13.82444739617813
20
-22.406586910256017
30
0
10
13.889154132455587
20
-22.434924840927124
30
0
0
SPLINE
5
376
100
AcDbEntity
8
0
100
AcDbSpline
70
0
71
3
72
9
73
5
74
0
42
0.000000001
43
0.0000000001
44
0.0000000001
40
0
40
0
40
0
40
0
40
0.020428602601262485
40
0.041461657864939119
40
0.041461657864939119
40
0.041461657864939119
40
0.041461657864939119
10
13.889154132455587
20
-22.434924840927124
30
0
10
13.947499375328348
20
-22.47134089718017
30
0
10
14.065916212018283
20
-22.545250507867927
30
0
10
14.148220652456622
20
-22.658054965806468
30
0
10
14.189972814172506
20
-22.715279459953308
30
0
0
SPLINE
5
377
100
AcDbEntity
8
0
100
AcDbSpline
70
0
71
3
72
9
73
5
74
0
42
0.000000001
43
0.0000000001
44
0.0000000001
40
0
40
0
40
0
40
0
40
0.022905464486516813
40
0.048499280771866923
40
0.048499280771866923
40
0.048499280771866923
40
0.048499280771866923
10
14.189972814172506
20
-22.715279459953308
30
0
10
14.227950565863507
20
-22.781848865820539
30
0
10
14.308363414222482
20
-22.922800746882448
30
0
10
14.352763309948573
20
-23.078975499324873
30
0
10
14.376193817704916
20
-23.161391317844391
30
0
0
SPLINE
5
378
100
AcDbEntity
8
0
100
AcDbSpline
70
0
71
3
72
9
73
5
74
0
42
0.000000001
43
0.0000000001
44
0.0000000001
40
0
40
0
40
0
40
0
40
0.031287515328949335
40
0.071355485739554192
40
0.071355485739554192
40
0.071355485739554192
40
0.071355485739554192
10
14.376193817704916
20
-23.161391317844391
30
0
10
14.39581444627829
20
-23.264026211898418
30
0
10
14.44056199071091
20
-23.49809921648361
30
0
10
14.442587379433164
20
-23.736561092653158
30
0
10
14.443724688142538
20
-23.870463669300079
30
0
0
SPLINE
5
379
100
AcDbEntity
8
0
100
AcDbSpline
70
0
71
3
72
9
73
5
74
0
42
0.000000001
43
0.0000000001
44
0.0000000001
40
0
40
0
40
0
40
0
40
0.047783298814787448
40
0.086180471025248478
40
0.086180471025248478
40
0.086180471025248478
40
0.086180471025248478
10
14.443724688142538
20
-23.870463669300079
30
0
10
14.441535275647164
20
-24.030415775373029
30
0
10
14.437586519391317
20
-24.318900417178074
30
0
10
14.366803307606244
20
-24.598298978392911
30
0
10
14.335266288369894
20
-24.722783267498016
30
0
0
SPLINE
5
380
100
AcDbEntity
8
0
100
AcDbSpline
70
0
71
3
72
9
73
5
74
0
42
0.000000001
43
0.0000000001
44
0.0000000001
40
0
40
0
40
0
40
0
40
0.031776813960555254
40
0.06031885594723857
40
0.06031885594723857
40
0.06031885594723857
40
0.06031885594723857
10
14.335266288369894
20
-24.722783267498016
30
0
10
14.29675819731651
20
-24.822962546881804
30
0
10
14.223662008380277
20
-25.013123194502104
30
0
10
14.079248610164733
20
-25.156366435623401
30
0
10
14.010914202779531
20
-25.224147140979767
30
0
0
SPLINE
5
381
100
AcDbEntity
8
0
100
AcDbSpline
70
0
71
3
72
9
73
5
74
0
42
0.000000001
43
0.0000000001
44
0.0000000001
40
0
40
0
40
0
40
0
40
0.027803106023092806
40
0.058234036860940579
40
0.058234036860940579
40
0.058234036860940579
40
0.058234036860940579
10
14.010914202779531
20
-25.224147140979767
30
0
10
13.931935027504693
20
-25.275746954695393
30
0
10
13.766511919727398
20
-25.383823564964683
30
0
10
13.568845596391608
20
-25.395209801402991
30
0
10
13.465552564710379
20
-25.401159822940826
30
0
0
LWPOLYLINE
5
382
100
AcDbEntity
8
0
100
AcDbPolyline
90
4
70
1
43
0.0
10
23.44133701547981
20
-25.399999916553497
10
23.44133701547981
20
-24.980491101741791
10
23.021828051656492
20
-24.980491101741791
10
23.021828051656492
20
-25.399999916553497
0
SPLINE
5
383
100
AcDbEntity
8
0
100
AcDbSpline
70
0
71
3
72
9
73
5
74
0
42
0.000000001
43
0.0000000001
44
0.0000000001
40
0
40
0
40
0
40
0
40
0.039500828810414404
40
0.077045189619218662
40
0.077045189619218662
40
0.077045189619218662
40
0.077045189619218662
10
21.462482925504453
20
-25.451159775257111
30
0
10
21.326743825648279
20
-25.439567000183033
30
0
10
21.061988755891278
20
-25.416955637821953
30
0
10
20.873088542204364
20
-25.230815454915163
30
0
10
20.781036879867322
20
-25.1401087641716
30
0
0
SPLINE
5
384
100
AcDbEntity
8
0
100
AcDbSpline
70
0
71
3
72
9
73
5
74
0
42
0.000000001
43
0.0000000001
44
0.0000000001
40
0
40
0
40
0
40
0
40
0.054013245434860489
40
0.12713943713594772
40
0.12713943713594772
40
0.12713943713594772
40
0.12713943713594772
10
20.781036879867322
20
-25.1401087641716
30
0
10
20.694977647975399
20
-24.979256665634789
30
0
10
20.49240655240429
20
-24.600633883288381
30
0
10
20.487267122059329
20
-24.168825066529514
30
0
10
20.484311100095518
20
-23.920463621616364
30
0
0
SPLINE
5
385
100
AcDbEntity
8
0
100
AcDbSpline
70
0
71
3
72
9
73
5
74
0
42
0.000000001
43
0.0000000001
44
0.0000000001
40
0
40
0
40
0
40
0
40
0.048091249979091436
40
0.086604645901829092
40
0.086604645901829092
40
0.086604645901829092
40
0.086604645901829092
10
20.484311100095518
20
-23.920463621616364
30
0
10
20.486478464507904
20
-23.759468111246033
30
0
10
20.490381541004282
20
-23.46954095872934
30
0
10
20.561960980655904
20
-23.188867887564317
30
0
10
20.593792613595731
20
-23.064051568508148
30
0
0
SPLINE
5
386
100
AcDbEntity
8
0
100
AcDbSpline
70
0
71
3
72
9
73
5
74
0
42
0.000000001
43
0.0000000001
44
0.0000000001
40
0
40
0
40
0
40
0
40
0.031786461620259089
40
0.060288045140582239
40
0.060288045140582239
40
0.060288045140582239
40
0.060288045140582239
10
20.593792613595731
20
-23.064051568508148
30
0
10
20.632561671456649
20
-22.963937337670469
30
0
10
20.706093313270074
20
-22.774054885824686
30
0
10
20.85077062802582
20
-22.631231322172201
30
0
10
20.919167812913663
20
-22.563710510730743
30
0
0
SPLINE
5
387
100
AcDbEntity
8
0
100
AcDbSpline
70
0
71
3
72
9
73
5
74
0
42
0.000000001
43
0.0000000001
44
0.0000000001
40
0
40
0
40
0
40
0
40
0.027721542101993044
40
0.057996888149265249
40
0.057996888149265249
40
0.057996888149265249
40
0.057996888149265249
10
20.919167812913663
20
-22.563710510730743
30
0
10
20.997996848948986
20
-22.512407594401715
30
0
10
21.162916923345804
20
-22.405075560378545
30
0
10
21.359738676852515
20
-22.39367356888647
30
0
10
21.462482925504453
20
-22.387721538543701
30
0
0
SPLINE
5
388
100
AcDbEntity
8
0
100
AcDbSpline
70
0
71
3
72
9
73
5
74
0
42
0.000000001
43
0.0000000001
44
0.0000000001
40
0
40
0
40
0
40
0
40
0.022793628441302279
40
0.043795944565317685
40
0.043795944565317685
40
0.043795944565317685
40
0.043795944565317685
10
21.462482925504453
20
-22.387721538543701
30
0
10
21.539145329641851
20
-22.39106666347859
30
0
10
21.686445370549844
20
-22.397494025694744
30
0
10
21.821377756972204
20
-22.456586862572301
30
0
10
21.886084493249662
20
-22.484924793243408
30
0
0
SPLINE
5
389
100
AcDbEntity
8
0
100
AcDbSpline
70
0
71
3
72
9
73
5
74
0
42
0.000000001
43
0.0000000001
44
0.0000000001
40
0
40
0
40
0
40
0
40
0.020428602601262485
40
0.041461657864939119
40
0.041461657864939119
40
0.041461657864939119
40
0.041461657864939119
10
21.886084493249662
20
-22.484924793243408
30
0
10
21.944429736122423
20
-22.521340849496454
30
0
10
22.062846572812354
20
-22.595250460184211
30
0
10
22.145151013250697
20
-22.708054918122755
30
0
10
22.186903174966581
20
-22.765279412269592
30
0
0
SPLINE
5
390
100
AcDbEntity
8
0
100
AcDbSpline
70
0
71
3
72
9
73
5
74
0
42
0.000000001
43
0.0000000001
44
0.0000000001
40
0
40
0
40
0
40
0
40
0.022905464486516813
40
0.048499280771866923
40
0.048499280771866923
40
0.048499280771866923
40
0.048499280771866923
10
22.186903174966581
20
-22.765279412269592
30
0
10
22.22488092665758
20
-22.831848818136823
30
0
10
22.305293775016555
20
-22.972800699198732
30
0
10
22.349693670742646
20
-23.128975451641157
30
0
10
22.37312417849899
20
-23.211391270160675
30
0
0
SPLINE
5
391
100
AcDbEntity
8
0
100
AcDbSpline
70
0
71
3
72
9
73
5
74
0
42
0.000000001
43
0.0000000001
44
0.0000000001
40
0
40
0
40
0
40
0
40
0.031287515328949335
40
0.071355485739554192
40
0.071355485739554192
40
0.071355485739554192
40
0.071355485739554192
10
22.37312417849899
20
-23.211391270160675
30
0
10
22.392744807072361
20
-23.314026164214702
30
0
10
22.437492351504986
20
-23.548099168799894
30
0
10
22.439517740227238
20
-23.786561044969442
30
0
10
22.440655048936613
20
-23.920463621616364
30
0
0
SPLINE
5
392
100
AcDbEntity
8
0
100
AcDbSpline
70
0
71
3
72
9
73
5
74
0
42
0.000000001
43
0.0000000001
44
0.0000000001
40
0
40
0
40
0
40
0
40
0.047783358323391874
40
0.086180472282084392
40
0.086180472282084392
40
0.086180472282084392
40
0.086180472282084392
10
22.440655048936613
20
-23.920463621616364
30
0
10
22.438465670712134
20
-24.080415931930645
30
0
10
22.434516981126265
20
-24.368900587031721
30
0
10
22.363733666096163
20
-24.6482991296593
30
0
10
22.332196649163969
20
-24.772783219814301
30
0
0
SPLINE
5
393
100
AcDbEntity
8
0
100
AcDbSpline
70
0
71
3
72
9
73
5
74
0
42
0.000000001
43
0.0000000001
44
0.0000000001
40
0
40
0
40
0
40
0
40
0.031776813960555254
40
0.06031885594723857
40
0.06031885594723857
40
0.06031885594723857
40
0.06031885594723857
10
22.332196649163969
20
-24.772783219814301
30
0
10
22.293688558110581
20
-24.872962499198088
30
0
10
22.220592369174348
20
-25.063123146818384
30
0
10
22.0761789709588
20
-25.206366387939685
30
0
10
22.007844563573606
20
-25.274147093296051
30
0
0
SPLINE
5
394
100
AcDbEntity
8
0
100
AcDbSpline
70
0
71
3
72
9
73
5
74
0
42
0.000000001
43
0.0000000001
44
0.0000000001
40
0
40
0
40
0
40
0
40
0.027803134484227564
40
0.058234056654266599
40
0.058234056654266599
40
0.058234056654266599
40
0.058234056654266599
10
22.007844563573606
20
-25.274147093296051
30
0
10
21.928865418615217
20
-25.325747197270225
30
0
10
21.76344248744817
20
-25.433824341590139
30
0
10
21.56577598582296
20
-25.4452100390738
30
0
10
21.462482925504453
20
-25.451159775257111
30
0
0
LWPOLYLINE
5
395
100
AcDbEntity
8
0
100
AcDbPolyline
90
4
70
1
43
0.0
10
31.441337015479807
20
-25.450000464916229
10
31.441337015479807
20
-25.030491650104523
10
31.021828051656488
20
-25.030491650104523
10
31.021828051656488
20
-25.450000464916229
0
SPLINE
5
396
100
AcDbEntity
8
0
100
AcDbSpline
70
0
71
3
72
9
73
5
74
0
42
0.000000001
43
0.0000000001
44
0.0000000001
40
0
40
0
40
0
40
0
40
0.039500817076405355
40
0.077045214921525385
40
0.077045214921525385
40
0.077045214921525385
40
0.077045214921525385
10
29.46248292550445
20
-25.501160323619846
30
0
10
29.326743795860814
20
-25.489567815864262
30
0
10
29.061988502408877
20
-25.466956960757628
30
0
10
28.873088499881195
20
-25.280816297194001
30
0
10
28.781036879867319
20
-25.190109312534336
30
0
0
SPLINE
5
397
100
AcDbEntity
8
0
100
AcDbSpline
70
0
71
3
72
9
73
5
74
0
42
0.000000001
43
0.0000000001
44
0.0000000001
40
0
40
0
40
0
40
0
40
0.054013245434860489
40
0.12713943713594772
40
0.12713943713594772
40
0.12713943713594772
40
0.12713943713594772
10
28.781036879867319
20
-25.190109312534336
30
0
10
28.694977647975399
20
-25.029257213997525
30
0
10
28.49240655240429
20
-24.650634431651124
30
0
10
28.487267122059325
20
-24.218825614892253
30
0
10
28.484311100095514
20
-23.970464169979099
30
0
0
SPLINE
5
398
100
AcDbEntity
8
0
100
AcDbSpline
70
0
71
3
72
9
73
5
74
0
42
0.000000001
43
0.0000000001
44
0.0000000001
40
0
40
0
40
0
40
0
40
0.048091220225075143
40
0.086604645264928212
40
0.086604645264928212
40
0.086604645264928212
40
0.086604645264928212
10
28.484311100095514
20
-23.970464169979099
30
0
10
28.486478481805506
20
-23.809468761774696
30
0
10
28.490381591838251
20
-23.51954161599695
30
0
10
28.561960979483647
20
-23.238868535402581
30
0
10
28.593792613595724
20
-23.114052116870884
30
0
0
SPLINE
5
399
100
AcDbEntity
8
0
100
AcDbSpline
70
0
71
3
72
9
73
5
74
0
42
0.000000001
43
0.0000000001
44
0.0000000001
40
0
40
0
40
0
40
0
40
0.031786488553253778
40
0.060288049793136476
40
0.060288049793136476
40
0.060288049793136476
40
0.060288049793136476
10
28.593792613595724
20
-23.114052116870884
30
0
10
28.632561636159593
20
-23.013937761956495
30
0
10
28.706093154397156
20
-22.824055221015417
30
0
10
28.850770616916069
20
-22.681231762728959
30
0
10
28.919167812913656
20
-22.613711059093479
30
0
0
SPLINE
5
400
100
AcDbEntity
8
0
100
AcDbSpline
70
0
71
3
72
9
73
5
74
0
42
0.000000001
43
0.0000000001
44
0.0000000001
40
0
40
0
40
0
40
0
40
0.027721542101993044
40
0.057996888149265249
40
0.057996888149265249
40
0.057996888149265249
40
0.057996888149265249
10
28.919167812913656
20
-22.613711059093479
30
0
10
28.997996848948983
20
-22.562408142764451
30
0
10
29.162916923345797
20
-22.455076108741281
30
0
10
29.359738676852508
20
-22.443674117249209
30
0
10
29.462482925504446
20
-22.437722086906437
30
0
0
SPLINE
5
401
100
AcDbEntity
8
0
100
AcDbSpline
70
0
71
3
72
9
73
5
74
0
42
0.000000001
43
0.0000000001
44
0.0000000001
40
0
40
0
40
0
40
0
40
0.022793628441302279
40
0.043795944565317685
40
0.043795944565317685
40
0.043795944565317685
40
0.043795944565317685
10
29.462482925504446
20
-22.437722086906437
30
0
10
29.539145329641844
20
-22.441067211841329
30
0
10
29.686445370549844
20
-22.447494574057476
30
0
10
29.821377756972201
20
-22.50658741093504
30
0
10
29.886084493249655
20
-22.534925341606144
30
0
0
SPLINE
5
402
100
AcDbEntity
8
0
100
AcDbSpline
70
0
71
3
72
9
73
5
74
0
42
0.000000001
43
0.0000000001
44
0.0000000001
40
0
40
0
40
0
40
0
40
0.020428585286091105
40
0.041461663456425865
40
0.041461663456425865
40
0.041461663456425865
40
0.041461663456425865
10
29.886084493249655
20
-22.534925341606144
30
0
10
29.944429754034772
20
-22.571341278338906
30
0
10
30.062846743418618
20
-22.645250719062268
30
0
10
30.14515104423749
20
-22.758055332830128
30
0
10
30.186903174966574
20
-22.815279960632324
30
0
0
SPLINE
5
403
100
AcDbEntity
8
0
100
AcDbSpline
70
0
71
3
72
9
73
5
74
0
42
0.000000001
43
0.0000000001
44
0.0000000001
40
0
40
0
40
0
40
0
40
0.022905464486516813
40
0.048499280771866923
40
0.048499280771866923
40
0.048499280771866923
40
0.048499280771866923
10
30.186903174966574
20
-22.815279960632324
30
0
10
30.224880926657576
20
-22.881849366499559
30
0
10
30.305293775016548
20
-23.022801247561468
30
0
10
30.349693670742642
20
-23.178976000003889
30
0
10
30.373124178498987
20
-23.261391818523407
30
0
0
SPLINE
5
404
100
AcDbEntity
8
0
100
AcDbSpline
70
0
71
3
72
9
73
5
74
0
42
0.000000001
43
0.0000000001
44
0.0000000001
40
0
40
0
40
0
40
0
40
0.031287515328949335
40
0.071355485739554192
40
0.071355485739554192
40
0.071355485739554192
40
0.071355485739554192
10
30.373124178498987
20
-23.261391818523407
30
0
10
30.392744807072354
20
-23.364026712577434
30
0
10
30.437492351504979
20
-23.598099717162629
30
0
10
30.439517740227231
20
-23.836561593332178
30
0
10
30.440655048936609
20
-23.970464169979095
30
0
0
SPLINE
5
405
100
AcDbEntity
8
0
100
AcDbSpline
70
0
71
3
72
9
73
5
74
0
42
0.000000001
43
0.0000000001
44
0.0000000001
40
0
40
0
40
0
40
0
40
0.047783358323391874
40
0.086180472282084392
40
0.086180472282084392
40
0.086180472282084392
40
0.086180472282084392
10
30.440655048936609
20
-23.970464169979095
30
0
10
30.438465670712134
20
-24.130416480293377
30
0
10
30.434516981126265
20
-24.418901135394457
30
0
10
30.363733666096163
20
-24.698299678022032
30
0
10
30.332196649163965
20
-24.822783768177032
30
0
0
SPLINE
5
406
100
AcDbEntity
8
0
100
AcDbSpline
70
0
71
3
72
9
73
5
74
0
42
0.000000001
43
0.0000000001
44
0.0000000001
40
0
40
0
40
0
40
0
40
0.031776813960555254
40
0.06031885594723857
40
0.06031885594723857
40
0.06031885594723857
40
0.06031885594723857
10
30.332196649163965
20
-24.822783768177032
30
0
10
30.293688558110578
20
-24.92296304756082
30
0
10
30.220592369174348
20
-25.113123695181123
30
0
10
30.0761789709588
20
-25.25636693630242
30
0
10
30.007844563573602
20
-25.324147641658783
30
0
0
SPLINE
5
407
100
AcDbEntity
8
0
100
AcDbSpline
70
0
71
3
72
9
73
5
74
0
42
0.000000001
43
0.0000000001
44
0.0000000001
40
0
40
0
40
0
40
0
40
0.027803134484227564
40
0.058234056654266599
40
0.058234056654266599
40
0.058234056654266599
40
0.058234056654266599
10
30.007844563573602
20
-25.324147641658783
30
0
10
29.928865418615214
20
-25.375747745632957
30
0
10
29.763442487448167
20
-25.483824889952871
30
0
10
29.56577598582296
20
-25.495210587436535
30
0
10
29.46248292550445
20
-25.501160323619846
30
0
0
LINE
5
408
100
AcDbEntity
8
0
100
AcDbLine
10
39.6746248267591
20
-22.487722039222717
30
0
11
39.912005688995123
21
-22.487722039222717
31
0
0
LINE
5
409
100
AcDbEntity
8
0
100
AcDbLine
10
39.912005688995123
20
-22.487722039222717
30
0
11
39.912005688995123
21
-25.500000417232513
31
0
0
LINE
5
410
100
AcDbEntity
8
0
100
AcDbLine
10
39.912005688995123
20
-25.500000417232513
30
0
11
39.543656136840582
21
-25.500000417232513
31
0
0
LINE
5
411
100
AcDbEntity
8
0
100
AcDbLine
10
39.543656136840582
20
-25.500000417232513
30
0
11
39.543656136840582
21
-23.152796924114227
31
0
0
SPLINE
5
412
100
AcDbEntity
8
0
100
AcDbSpline
70
0
71
3
72
9
73
5
74
0
42
0.000000001
43
0.0000000001
44
0.0000000001
40
0
40
0
40
0
40
0
40
0.019932870358159251
40
0.043211665071774243
40
0.043211665071774243
40
0.043211665071774243
40
0.043211665071774243
10
39.543656136840582
20
-23.152796924114227
30
0
10
39.493440385560575
20
-23.1964910594027
30
0
10
39.384579685287633
20
-23.291213811608493
30
0
10
39.2612092507337
20
-23.366169178479691
30
0
10
39.194747682660818
20
-23.406548798084259
30
0
0
SPLINE
5
413
100
AcDbEntity
8
0
100
AcDbSpline
70
0
71
3
72
9
73
5
74
0
42
0.000000001
43
0.0000000001
44
0.0000000001
40
0
40
0
40
0
40
0
40
0.023303707369198082
40
0.043238326489026618
40
0.043238326489026618
40
0.043238326489026618
40
0.043238326489026618
10
39.194747682660818
20
-23.406548798084259
30
0
10
39.127250139671148
20
-23.445199604799146
30
0
10
39.002013379924833
20
-23.516913352887642
30
0
10
38.868508796024216
20
-23.571634082635235
30
0
10
38.80695777758956
20
-23.596862554550171
30
0
0
LINE
5
414
100
AcDbEntity
8
0
100
AcDbLine
10
38.80695777758956
20
-23.596862554550174
30
0
11
38.80695777758956
21
-23.240791857242584
31
0
0
SPLINE
5
415
100
AcDbEntity
8
0
100
AcDbSpline
70
0
71
3
72
9
73
5
74
0
42
0.000000001
43
0.0000000001
44
0.0000000001
40
0
40
0
40
0
40
0
40
0.033113820403425538
40
0.064649769543008911
40
0.064649769543008911
40
0.064649769543008911
40
0.064649769543008911
10
38.80695777758956
20
-23.240791857242584
30
0
10
38.905727351359452
20
-23.190682551080535
30
0
10
39.098560135504897
20
-23.092851643747316
30
0
10
39.265681928295905
20
-22.955710382088824
30
0
10
39.347203399986029
20
-22.888813316822052
30
0
0
SPLINE
5
416
100
AcDbEntity
8
0
100
AcDbSpline
70
0
71
3
72
9
73
5
74
0
42
0.000000001
43
0.0000000001
44
0.0000000001
40
0
40
0
40
0
40
0
40
0.028364758067580861
40
0.052004259878339967
40
0.052004259878339967
40
0.052004259878339967
40
0.052004259878339967
10
39.347203399986029
20
-22.888813316822052
30
0
10
39.416806472726208
20
-22.823971857069246
30
0
10
39.544417512964515
20
-22.705090810531079
30
0
10
39.633933618898865
20
-22.555652154650687
30
0
10
39.6746248267591
20
-22.487722039222717
30
0
0
LINE
5
417
100
AcDbEntity
8
0
100
AcDbLine
10
49.422237779945142
20
-22.537721991539001
30
0
11
49.659618642181165
21
-22.537721991539001
31
0
0
LINE
5
418
100
AcDbEntity
8
0
100
AcDbLine
10
49.659618642181165
20
-22.537721991539001
30
0
11
49.659618642181165
21
-25.550000369548794
31
0
0
LINE
5
419
100
AcDbEntity
8
0
100
AcDbLine
10
49.659618642181165
20
-25.550000369548794
30
0
11
49.291269090026624
21
-25.550000369548798
31
0
0
LINE
5
420
100
AcDbEntity
8
0
100
AcDbLine
10
49.291269090026624
20
-25.550000369548798
30
0
11
49.291269090026624
21
-23.202796876430511
31
0
0
SPLINE
5
421
100
AcDbEntity
8
0
100
AcDbSpline
70
0
71
3
72
9
73
5
74
0
42
0.000000001
43
0.0000000001
44
0.0000000001
40
0
40
0
40
0
40
0
40
0.019932870358159251
40
0.043211702552024001
40
0.043211702552024001
40
0.043211702552024001
40
0.043211702552024001
10
49.291269090026624
20
-23.202796876430511
30
0
10
49.241053346595805
20
-23.246491023950529
30
0
10
49.132192568916949
20
-23.341213884831745
30
0
10
49.00882192112195
20
-23.4161691536363
30
0
10
48.942360188812025
20
-23.456548750400543
30
0
0
SPLINE
5
422
100
AcDbEntity
8
0
100
AcDbSpline
70
0
71
3
72
9
73
5
74
0
42
0.000000001
43
0.0000000001
44
0.0000000001
40
0
40
0
40
0
40
0
40
0.023303707369198082
40
0.043238299146067624
40
0.043238299146067624
40
0.043238299146067624
40
0.043238299146067624
10
48.942360188812025
20
-23.456548750400543
30
0
10
48.874862641376652
20
-23.495199546734518
30
0
10
48.749625952578633
20
-23.566913230211814
30
0
10
48.616121495997426
20
-23.621634024052355
30
0
10
48.55457058176399
20
-23.646862506866455
30
0
0
LINE
5
423
100
AcDbEntity
8
0
100
AcDbLine
10
48.55457058176399
20
-23.646862506866459
30
0
11
48.55457058176399
21
-23.290791809558868
31
0
0
SPLINE
5
424
100
AcDbEntity
8
0
100
AcDbSpline
70
0
71
3
72
9
73
5
74
0
42
0.000000001
43
0.0000000001
44
0.0000000001
40
0
40
0
40
0
40
0
40
0.033113862349038535
40
0.064649775324844394
40
0.064649775324844394
40
0.064649775324844394
40
0.064649775324844394
10
48.55457058176399
20
-23.290791809558868
30
0
10
48.653340166339795
20
-23.240682245843843
30
0
10
48.846172744564825
20
-23.142850950851575
30
0
10
49.013294836389669
20
-23.005710067279253
30
0
10
49.094816353172071
20
-22.938813269138336
30
0
0
SPLINE
5
425
100
AcDbEntity
8
0
100
AcDbSpline
70
0
71
3
72
9
73
5
74
0
42
0.000000001
43
0.0000000001
44
0.0000000001
40
0
40
0
40
0
40
0
40
0.028364758067580861
40
0.052004259878339967
40
0.052004259878339967
40
0.052004259878339967
40
0.052004259878339967
10
49.094816353172071
20
-22.938813269138336
30
0
10
49.164419425912264
20
-22.873971809385523
30
0
10
49.292030466150564
20
-22.75509076284736
30
0
10
49.381546572084915
20
-22.605652106966971
30
0
10
49.422237779945142
20
-22.537721991539001
30
0
0
LWPOLYLINE
5
426
100
AcDbEntity
8
0
100
AcDbPolyline
90
4
70
1
43
0.0
10
47.733969893306501
20
-25.550000369548798
10
47.733969893306501
20
-25.130491554737091
10
47.314461078494794
20
-25.130491554737091
10
47.314461078494794
20
-25.550000369548798
0
LWPOLYLINE
5
427
100
AcDbEntity
8
0
100
AcDbPolyline
90
4
70
1
43
0.0
10
21.000000000000007
20
-32
10
24.000000000000004
20
-32
10
24.000000000000004
20
-27.800000000000004
10
21.000000000000007
20
-27.800000000000004
0
LWPOLYLINE
5
428
100
AcDbEntity
8
0
100
AcDbPolyline
90
4
70
1
43
0.0
10
29.000000000000004
20
-27.899999999999999
10
29.000000000000004
20
-32
10
32
20
-32
10
32
20
-27.899999999999995
0
LWPOLYLINE
5
429
100
AcDbEntity
8
0
100
AcDbPolyline
90
4
70
1
43
0.0
10
40.000000000000007
20
-32
10
40.000000000000007
20
-28.000000000000004
10
37
20
-28.000000000000004
10
37
20
-32
0
LWPOLYLINE
5
430
100
AcDbEntity
8
0
100
AcDbPolyline
90
4
70
1
43
0.0
10
16.000000000000004
20
-27.699999999999999
10
13
20
-27.699999999999999
10
13
20
-32
10
16.000000000000004
20
-32
0
LWPOLYLINE
5
431
100
AcDbEntity
8
0
100
AcDbPolyline
90
4
70
1
43
0.0
10
8
20
-27.600000000000001
10
5
20
-27.600000000000001
10
5
20
-32
10
8
20
-32
0
LWPOLYLINE
5
432
100
AcDbEntity
8
0
100
AcDbPolyline
90
4
70
1
43
0.0
10
48.000000000000007
20
-32
10
48.000000000000007
20
-28.099999999999994
10
45.000000000000007
20
-28.100000000000001
10
45.000000000000007
20
-32
0
LWPOLYLINE
5
433
100
AcDbEntity
8
0
100
AcDbPolyline
90
8
70
1
43
0.0
10
53.000000000000007
20
-20
10
53.000000000000007
20
-25
10
56.000000000000007
20
-25
10
56.000000000000007
20
-30
10
53.000000000000007
20
-30
10
53.000000000000007
20
-35
10
2.4651903288156613e-32
20
-35
10
0
20
-20
0
SPLINE
5
434
100
AcDbEntity
8
0
100
AcDbSpline
70
0
71
3
72
9
73
5
74
0
42
0.000000001
43
0.0000000001
44
0.0000000001
40
0
40
0
40
0
40
0
40
0.023440990907740263
40
0.047379170848576402
40
0.047379170848576402
40
0.047379170848576402
40
0.047379170848576402
10
6.4959071949124336
20
12.707367539405823
30
0
10
6.4153281500022521
20
12.698044724280477
30
0
10
6.2524609593343872
20
12.679201354887439
30
0
10
6.1450115154745166
20
12.555165633158769
30
0
10
6.0907230153679848
20
12.492496967315674
30
0
0
SPLINE
5
435
100
AcDbEntity
8
0
100
AcDbSpline
70
0
71
3
72
9
73
5
74
0
42
0.000000001
43
0.0000000001
44
0.0000000001
40
0
40
0
40
0
40
0
40
0.04156258001662036
40
0.10400536004724006
40
0.10400536004724006
40
0.10400536004724006
40
0.10400536004724006
10
6.0907230153679848
20
12.492496967315674
30
0
10
6.0357471778655913
20
12.363984141979319
30
0
10
5.898176753434563
20
12.042396245740665
30
0
10
5.899571737691204
20
11.690692581067111
30
0
10
5.9004092589020729
20
11.479536592960358
30
0
0
SPLINE
5
436
100
AcDbEntity
8
0
100
AcDbSpline
70
0
71
3
72
9
73
5
74
0
42
0.000000001
43
0.0000000001
44
0.0000000001
40
0
40
0
40
0
40
0
40
0.061671145910650781
40
0.10069837573427648
40
0.10069837573427648
40
0.10069837573427648
40
0.10069837573427648
10
5.9004092589020729
20
11.479536592960358
30
0
10
5.898313447081744
20
11.271049338436443
30
0
10
5.8948913467942345
20
10.930625505185908
30
0
10
6.0234887909379804
20
10.617575664708987
30
0
10
6.0733287408947945
20
10.496248304843903
30
0
0
SPLINE
5
437
100
AcDbEntity
8
0
100
AcDbSpline
70
0
71
3
72
9
73
5
74
0
42
0.000000001
43
0.0000000001
44
0.0000000001
40
0
40
0
40
0
40
0
40
0.026633888271810766
40
0.050775188963703081
40
0.050775188963703081
40
0.050775188963703081
40
0.050775188963703081
10
6.0733287408947945
20
10.496248304843903
30
0
10
6.1320631481872914
20
10.424974998486174
30
0
10
6.244035181655045
20
10.289098645719019
30
0
10
6.417517140448636
20
10.263755069939869
30
0
10
6.4999999478459358
20
10.251705348491669
30
0
0
SPLINE
5
438
100
AcDbEntity
8
0
100
AcDbSpline
70
0
71
3
72
9
73
5
74
0
42
0.000000001
43
0.0000000001
44
0.0000000001
40
0
40
0
40
0
40
0
40
0.024147788856820326
40
0.050834612096418791
40
0.050834612096418791
40
0.050834612096418791
40
0.050834612096418791
10
6.4999999478459358
20
10.251705348491669
30
0
10
6.5825023439258343
20
10.263835628246994
30
0
10
6.7561819021915692
20
10.289371633619542
30
0
10
6.8679801752781122
20
10.425701927647843
30
0
10
6.9266713038086891
20
10.497271716594696
30
0
0
SPLINE
5
439
100
AcDbEntity
8
0
100
AcDbSpline
70
0
71
3
72
9
73
5
74
0
42
0.000000001
43
0.0000000001
44
0.0000000001
40
0
40
0
40
0
40
0
40
0.039051348022754388
40
0.10059489766245364
40
0.10059489766245364
40
0.10059489766245364
40
0.10059489766245364
10
6.9266713038086891
20
10.497271716594696
30
0
10
6.9765173765982507
20
10.61868328962143
30
0
10
7.1049191052202545
20
10.931435227314976
30
0
10
7.1016132776662726
20
11.271491529217258
30
0
10
7.0995907858014107
20
11.479536592960358
30
0
0
SPLINE
5
440
100
AcDbEntity
8
0
100
AcDbSpline
70
0
71
3
72
9
73
5
74
0
42
0.000000001
43
0.0000000001
44
0.0000000001
40
0
40
0
40
0
40
0
40
0.061798743485201445
40
0.1008018007466398
40
0.1008018007466398
40
0.1008018007466398
40
0.1008018007466398
10
7.0995907858014107
20
11.479536592960358
30
0
10
7.1017601075701986
20
11.688466095096249
30
0
10
7.105298553958594
20
12.029257328973681
30
0
10
6.9765051147743105
20
12.342604749702129
30
0
10
6.9266713038086891
20
12.463847696781158
30
0
0
SPLINE
5
441
100
AcDbEntity
8
0
100
AcDbSpline
70
0
71
3
72
9
73
5
74
0
42
0.000000001
43
0.0000000001
44
0.0000000001
40
0
40
0
40
0
40
0
40
0.026655571055287638
40
0.051087547106797276
40
0.051087547106797276
40
0.051087547106797276
40
0.051087547106797276
10
6.9266713038086891
20
12.463847696781158
30
0
10
6.8675195047889339
20
12.534834161965049
30
0
10
6.7541503215661969
20
12.670885435318196
30
0
10
6.579453669016166
20
12.695564897438539
30
0
10
6.4959071949124336
20
12.707367539405823
30
0
0
SPLINE
5
442
100
AcDbEntity
8
0
100
AcDbSpline
70
0
71
3
72
9
73
5
74
0
42
0.000000001
43
0.0000000001
44
0.0000000001
40
0
40
0
40
0
40
0
40
0.023440976403119356
40
0.047379156343955495
40
0.047379156343955495
40
0.047379156343955495
40
0.047379156343955495
10
13.751023199409246
20
12.657367587089539
30
0
10
13.670444209026423
20
12.6480447612291
30
0
10
13.507577077652241
20
12.629201364247123
30
0
10
13.400127668212246
20
12.505165680724385
30
0
10
13.34583916887641
20
12.44249701499939
30
0
0
SPLINE
5
443
100
AcDbEntity
8
0
100
AcDbSpline
70
0
71
3
72
9
73
5
74
0
42
0.000000001
43
0.0000000001
44
0.0000000001
40
0
40
0
40
0
40
0
40
0.041562583854668982
40
0.10400536416913825
40
0.10400536416913825
40
0.10400536416913825
40
0.10400536416913825
10
13.34583916887641
20
12.44249701499939
30
0
10
13.290863288124362
20
12.313984192170903
30
0
10
13.153292762717923
20
11.992396319159511
30
0
10
13.154687744002045
20
11.640692633776059
30
0
10
13.155525263398886
20
11.429536640644073
30
0
0
SPLINE
5
444
100
AcDbEntity
8
0
100
AcDbSpline
70
0
71
3
72
9
73
5
74
0
42
0.000000001
43
0.0000000001
44
0.0000000001
40
0
40
0
40
0
40
0
40
0.061671145649517499
40
0.10069837671107727
40
0.10069837671107727
40
0.10069837671107727
40
0.10069837671107727
10
13.155525263398886
20
11.429536640644073
30
0
10
13.1534294303318
20
11.221049384033188
30
0
10
13.150007295304304
20
10.880625542631336
30
0
10
13.278604779006029
20
10.567575711458375
30
0
10
13.328444745391607
20
10.446248352527618
30
0
0
SPLINE
5
445
100
AcDbEntity
8
0
100
AcDbSpline
70
0
71
3
72
9
73
5
74
0
42
0.000000001
43
0.0000000001
44
0.0000000001
40
0
40
0
40
0
40
0
40
0.026633893674373244
40
0.050775187158551699
40
0.050775187158551699
40
0.050775187158551699
40
0.050775187158551699
10
13.328444745391607
20
10.446248352527618
30
0
10
13.387179178579752
20
10.374975046709721
30
0
10
13.49915123472147
20
10.239098727364254
30
0
10
13.67263317529989
20
10.213755126419475
30
0
10
13.755115952342749
20
10.201705396175385
30
0
0
SPLINE
5
446
100
AcDbEntity
8
0
100
AcDbSpline
70
0
71
3
72
9
73
5
74
0
42
0.000000001
43
0.0000000001
44
0.0000000001
40
0
40
0
40
0
40
0
40
0.024147796062597721
40
0.050834603126651168
40
0.050834603126651168
40
0.050834603126651168
40
0.050834603126651168
10
13.755115952342749
20
10.201705396175385
30
0
10
13.837618384864815
20
10.213835660039102
30
0
10
14.011297937374303
20
10.239371619831669
30
0
10
14.123096109161082
20
10.375701974335346
30
0
10
14.18178715929389
20
10.447271764278412
30
0
0
SPLINE
5
447
100
AcDbEntity
8
0
100
AcDbSpline
70
0
71
3
72
9
73
5
74
0
42
0.000000001
43
0.0000000001
44
0.0000000001
40
0
40
0
40
0
40
0
40
0.039051324860573201
40
0.10059490422898087
40
0.10059490422898087
40
0.10059490422898087
40
0.10059490422898087
10
14.18178715929389
20
10.447271764278412
30
0
10
14.231633288949009
20
10.568683234473536
30
0
10
14.360035248594286
20
10.881435113191715
30
0
10
14.356729335401514
20
11.221491461558328
30
0
10
14.354706790298223
20
11.429536640644073
30
0
0
SPLINE
5
448
100
AcDbEntity
8
0
100
AcDbSpline
70
0
71
3
72
9
73
5
74
0
42
0.000000001
43
0.0000000001
44
0.0000000001
40
0
40
0
40
0
40
0
40
0.061798713755885623
40
0.10080180407867723
40
0.10080180407867723
40
0.10080180407867723
40
0.10080180407867723
10
14.354706790298223
20
11.429536640644073
30
0
10
14.356876099769313
20
11.638466042098756
30
0
10
14.360414527917747
20
11.979257286960296
30
0
10
14.231621032581273
20
12.29260470115053
30
0
10
14.18178715929389
20
12.413847744464874
30
0
0
SPLINE
5
449
100
AcDbEntity
8
0
100
AcDbSpline
70
0
71
3
72
9
73
5
74
0
42
0.000000001
43
0.0000000001
44
0.0000000001
40
0
40
0
40
0
40
0
40
0.026655549348203439
40
0.051087539830845519
40
0.051087539830845519
40
0.051087539830845519
40
0.051087539830845519
10
14.18178715929389
20
12.413847744464874
30
0
10
14.12263546438866
20
12.484834210973229
30
0
10
14.009266404533339
20
12.62088557828227
30
0
10
13.834569740331945
20
12.645564970094082
30
0
10
13.751023199409246
20
12.657367587089539
30
0
0
SPLINE
5
450
100
AcDbEntity
8
0
100
AcDbSpline
70
0
71
3
72
9
73
5
74
0
42
0.000000001
43
0.0000000001
44
0.0000000001
40
0
40
0
40
0
40
0
40
0.023440983232656892
40
0.047379143110424037
40
0.047379143110424037
40
0.047379143110424037
40
0.047379143110424037
10
21.476807709783323
20
12.607367038726807
30
0
10
21.396228732963721
20
12.598044084481607
30
0
10
21.233361721945666
20
12.579200438760303
30
0
10
21.125912203383198
20
12.455164982512112
30
0
10
21.071623679250486
20
12.392496466636658
30
0
0
SPLINE
5
451
100
AcDbEntity
8
0
100
AcDbSpline
70
0
71
3
72
9
73
5
74
0
42
0.000000001
43
0.0000000001
44
0.0000000001
40
0
40
0
40
0
40
0
40
0.04156261184444144
40
0.10400536244322636
40
0.10400536244322636
40
0.10400536244322636
40
0.10400536244322636
10
21.071623679250486
20
12.392496466636658
30
0
10
21.016647795818201
20
12.263983544235185
30
0
10
20.879077358632692
20
11.942395643960072
30
0
10
20.880472286706933
20
11.590691977231193
30
0
10
20.881309773772962
20
11.379536092281342
30
0
0
SPLINE
5
452
100
AcDbEntity
8
0
100
AcDbSpline
70
0
71
3
72
9
73
5
74
0
42
0.000000001
43
0.0000000001
44
0.0000000001
40
0
40
0
40
0
40
0
40
0.061671145649517499
40
0.10069832049366059
40
0.10069832049366059
40
0.10069832049366059
40
0.10069832049366059
10
20.881309773772962
20
11.379536092281342
30
0
10
20.879213901358828
20
11.171048823143355
30
0
10
20.875791703994903
20
10.830625151337131
30
0
10
21.004389292666016
20
10.517575559391787
30
0
10
21.054229255765684
20
10.396248400211334
30
0
0
SPLINE
5
453
100
AcDbEntity
8
0
100
AcDbSpline
70
0
71
3
72
9
73
5
74
0
42
0.000000001
43
0.0000000001
44
0.0000000001
40
0
40
0
40
0
40
0
40
0.026633934719526561
40
0.050775228203705017
40
0.050775228203705017
40
0.050775228203705017
40
0.050775228203705017
10
21.054229255765684
20
10.396248400211334
30
0
10
21.112963650106504
20
10.324974845261538
30
0
10
21.224935550145567
20
10.189098150526981
30
0
10
21.398417668043315
20
10.163754562279248
30
0
10
21.480900462716825
20
10.151704847812653
30
0
0
SPLINE
5
454
100
AcDbEntity
8
0
100
AcDbSpline
70
0
71
3
72
9
73
5
74
0
42
0.000000001
43
0.0000000001
44
0.0000000001
40
0
40
0
40
0
40
0
40
0.024147796062597721
40
0.050834603126651168
40
0.050834603126651168
40
0.050834603126651168
40
0.050834603126651168
10
21.480900462716825
20
10.151704847812653
30
0
10
21.563402895238887
20
10.163835111676372
30
0
10
21.737082447748378
20
10.189371071468942
30
0
10
21.848880619535155
20
10.325701425972614
30
0
10
21.907571669667966
20
10.39727121591568
30
0
0
SPLINE
5
455
100
AcDbEntity
8
0
100
AcDbSpline
70
0
71
3
72
9
73
5
74
0
42
0.000000001
43
0.0000000001
44
0.0000000001
40
0
40
0
40
0
40
0
40
0.039051352971434361
40
0.1005949026111336
40
0.1005949026111336
40
0.1005949026111336
40
0.1005949026111336
10
21.907571669667966
20
10.39727121591568
30
0
10
21.957417802057254
20
10.518682785642152
30
0
10
22.08581967425129
20
10.831434690587244
30
0
10
22.082513813033216
20
11.171491021204897
30
0
10
22.0804913006723
20
11.379536092281342
30
0
0
SPLINE
5
456
100
AcDbEntity
8
0
100
AcDbSpline
70
0
71
3
72
9
73
5
74
0
42
0.000000001
43
0.0000000001
44
0.0000000001
40
0
40
0
40
0
40
0
40
0.061798743485201445
40
0.10080180570144687
40
0.10080180570144687
40
0.10080180570144687
40
0.10080180570144687
10
22.0804913006723
20
11.379536092281342
30
0
10
22.082660643083489
20
11.58846560181351
30
0
10
22.08619912331627
20
11.92925686450647
30
0
10
21.957405540204405
20
12.242604252317211
30
0
10
21.907571669667966
20
12.363847196102142
30
0
0
SPLINE
5
457
100
AcDbEntity
8
0
100
AcDbSpline
70
0
71
3
72
9
73
5
74
0
42
0.000000001
43
0.0000000001
44
0.0000000001
40
0
40
0
40
0
40
0
40
0.026655549348203439
40
0.051087539830845519
40
0.051087539830845519
40
0.051087539830845519
40
0.051087539830845519
10
21.907571669667966
20
12.363847196102142
30
0
10
21.848419974762734
20
12.434833662610497
30
0
10
21.735050914907411
20
12.570885029919538
30
0
10
21.56035425070602
20
12.595564421731352
30
0
10
21.476807709783323
20
12.607367038726807
30
0
0
SPLINE
5
458
100
AcDbEntity
8
0
100
AcDbSpline
70
0
71
3
72
9
73
5
74
0
42
0.000000001
43
0.0000000001
44
0.0000000001
40
0
40
0
40
0
40
0
40
0.023440983232656892
40
0.047379143110424037
40
0.047379143110424037
40
0.047379143110424037
40
0.047379143110424037
10
29.461459811776876
20
12.557367086410521
30
0
10
29.380880834957281
20
12.54804413216532
30
0
10
29.218013823939224
20
12.529200486444015
30
0
10
29.110564305376752
20
12.405165030195825
30
0
10
29.05627578124404
20
12.34249651432037
30
0
0
SPLINE
5
459
100
AcDbEntity
8
0
100
AcDbSpline
70
0
71
3
72
9
73
5
74
0
42
0.000000001
43
0.0000000001
44
0.0000000001
40
0
40
0
40
0
40
0
40
0.04156261184444144
40
0.10400536244322636
40
0.10400536244322636
40
0.10400536244322636
40
0.10400536244322636
10
29.05627578124404
20
12.34249651432037
30
0
10
29.001299897811755
20
12.213983591918895
30
0
10
28.863729460626249
20
11.892395691643785
30
0
10
28.865124388700494
20
11.540692024914904
30
0
10
28.865961875766519
20
11.329536139965054
30
0
0
SPLINE
5
460
100
AcDbEntity
8
0
100
AcDbSpline
70
0
71
3
72
9
73
5
74
0
42
0.000000001
43
0.0000000001
44
0.0000000001
40
0
40
0
40
0
40
0
40
0.061671145649517499
40
0.10069832049366059
40
0.10069832049366059
40
0.10069832049366059
40
0.10069832049366059
10
28.865961875766519
20
11.329536139965054
30
0
10
28.863866003352388
20
11.121048870827066
30
0
10
28.860443805988464
20
10.780625199020843
30
0
10
28.989041394659573
20
10.467575607075499
30
0
10
29.038881357759241
20
10.346248447895046
30
0
0
SPLINE
5
461
100
AcDbEntity
8
0
100
AcDbSpline
70
0
71
3
72
9
73
5
74
0
42
0.000000001
43
0.0000000001
44
0.0000000001
40
0
40
0
40
0
40
0
40
0.026633934719526561
40
0.050775228203705017
40
0.050775228203705017
40
0.050775228203705017
40
0.050775228203705017
10
29.038881357759241
20
10.346248447895046
30
0
10
29.097615752100062
20
10.274974892945249
30
0
10
29.209587652139124
20
10.139098198210693
30
0
10
29.383069770036876
20
10.11375460996296
30
0
10
29.465552564710382
20
10.101704895496367
30
0
0
SPLINE
5
462
100
AcDbEntity
8
0
100
AcDbSpline
70
0
71
3
72
9
73
5
74
0
42
0.000000001
43
0.0000000001
44
0.0000000001
40
0
40
0
40
0
40
0
40
0.024147796062597721
40
0.050834603126651168
40
0.050834603126651168
40
0.050834603126651168
40
0.050834603126651168
10
29.465552564710382
20
10.101704895496367
30
0
10
29.548054997232445
20
10.113835159360086
30
0
10
29.721734549741935
20
10.139371119152653
30
0
10
29.833532721528716
20
10.275701473656326
30
0
10
29.892223771661524
20
10.347271263599394
30
0
0
SPLINE
5
463
100
AcDbEntity
8
0
100
AcDbSpline
70
0
71
3
72
9
73
5
74
0
42
0.000000001
43
0.0000000001
44
0.0000000001
40
0
40
0
40
0
40
0
40
0.039051352971434361
40
0.1005949026111336
40
0.1005949026111336
40
0.1005949026111336
40
0.1005949026111336
10
29.892223771661524
20
10.347271263599394
30
0
10
29.942069904050811
20
10.468682833325866
30
0
10
30.070471776244844
20
10.781434738270958
30
0
10
30.067165915026774
20
11.121491068888609
30
0
10
30.065143402665857
20
11.329536139965056
30
0
0
SPLINE
5
464
100
AcDbEntity
8
0
100
AcDbSpline
70
0
71
3
72
9
73
5
74
0
42
0.000000001
43
0.0000000001
44
0.0000000001
40
0
40
0
40
0
40
0
40
0.061798743485201445
40
0.10080180570144687
40
0.10080180570144687
40
0.10080180570144687
40
0.10080180570144687
10
30.065143402665857
20
11.329536139965056
30
0
10
30.067312745077047
20
11.538465649497223
30
0
10
30.070851225309823
20
11.879256912190183
30
0
10
29.942057642197959
20
12.192604300000923
30
0
10
29.89222377166152
20
12.313847243785856
30
0
0
SPLINE
5
465
100
AcDbEntity
8
0
100
AcDbSpline
70
0
71
3
72
9
73
5
74
0
42
0.000000001
43
0.0000000001
44
0.0000000001
40
0
40
0
40
0
40
0
40
0.026655549348203439
40
0.051087539830845519
40
0.051087539830845519
40
0.051087539830845519
40
0.051087539830845519
10
29.89222377166152
20
12.313847243785856
30
0
10
29.833072076756292
20
12.384833710294211
30
0
10
29.719703016900965
20
12.520885077603252
30
0
10
29.545006352699573
20
12.545564469415062
30
0
10
29.461459811776876
20
12.557367086410521
30
0
0
SPLINE
5
466
100
AcDbEntity
8
0
100
AcDbSpline
70
0
71
3
72
9
73
5
74
0
42
0.000000001
43
0.0000000001
44
0.0000000001
40
0
40
0
40
0
40
0
40
0.023440983232656892
40
0.047379143110424037
40
0.047379143110424037
40
0.047379143110424037
40
0.047379143110424037
10
37.46759894117713
20
12.507367134094238
30
0
10
37.387019964357528
20
12.498044179849037
30
0
10
37.22415295333947
20
12.479200534127733
30
0
10
37.116703434777001
20
12.355165077879544
30
0
10
37.062414910644293
20
12.292496562004089
30
0
0
SPLINE
5
467
100
AcDbEntity
8
0
100
AcDbSpline
70
0
71
3
72
9
73
5
74
0
42
0.000000001
43
0.0000000001
44
0.0000000001
40
0
40
0
40
0
40
0
40
0.04156261184444144
40
0.10400536244322636
40
0.10400536244322636
40
0.10400536244322636
40
0.10400536244322636
10
37.062414910644293
20
12.292496562004089
30
0
10
37.007439027212008
20
12.163983639602616
30
0
10
36.869868590026499
20
11.842395739327504
30
0
10
36.871263518100747
20
11.490692072598625
30
0
10
36.872101005166769
20
11.279536187648773
30
0
0
SPLINE
5
468
100
AcDbEntity
8
0
100
AcDbSpline
70
0
71
3
72
9
73
5
74
0
42
0.000000001
43
0.0000000001
44
0.0000000001
40
0
40
0
40
0
40
0
40
0.061671145649517499
40
0.10069832049366059
40
0.10069832049366059
40
0.10069832049366059
40
0.10069832049366059
10
36.872101005166769
20
11.279536187648773
30
0
10
36.870005132752638
20
11.071048918510787
30
0
10
36.866582935388706
20
10.730625246704562
30
0
10
36.995180524059819
20
10.417575654759217
30
0
10
37.045020487159491
20
10.296248495578766
30
0
0
SPLINE
5
469
100
AcDbEntity
8
0
100
AcDbSpline
70
0
71
3
72
9
73
5
74
0
42
0.000000001
43
0.0000000001
44
0.0000000001
40
0
40
0
40
0
40
0
40
0.026633934719526561
40
0.050775228203705017
40
0.050775228203705017
40
0.050775228203705017
40
0.050775228203705017
10
37.045020487159491
20
10.296248495578766
30
0
10
37.103754881500315
20
10.224974940628968
30
0
10
37.215726781539374
20
10.089098245894412
30
0
10
37.389208899437129
20
10.063754657646676
30
0
10
37.471691694110632
20
10.051704943180084
30
0
0
SPLINE
5
470
100
AcDbEntity
8
0
100
AcDbSpline
70
0
71
3
72
9
73
5
74
0
42
0.000000001
43
0.0000000001
44
0.0000000001
40
0
40
0
40
0
40
0
40
0.024147796062597721
40
0.050834603126651168
40
0.050834603126651168
40
0.050834603126651168
40
0.050834603126651168
10
37.471691694110632
20
10.051704943180084
30
0
10
37.554194126632694
20
10.063835207043802
30
0
10
37.727873679142185
20
10.089371166836369
30
0
10
37.839671850928966
20
10.225701521340046
30
0
10
37.898362901061773
20
10.297271311283112
30
0
0
SPLINE
5
471
100
AcDbEntity
8
0
100
AcDbSpline
70
0
71
3
72
9
73
5
74
0
42
0.000000001
43
0.0000000001
44
0.0000000001
40
0
40
0
40
0
40
0
40
0.039051352971434361
40
0.1005949026111336
40
0.1005949026111336
40
0.1005949026111336
40
0.1005949026111336
10
37.898362901061773
20
10.297271311283112
30
0
10
37.948209033451064
20
10.418682881009582
30
0
10
38.076610905645097
20
10.731434785954676
30
0
10
38.073305044427023
20
11.071491116572327
30
0
10
38.071282532066107
20
11.279536187648773
30
0
0
SPLINE
5
472
100
AcDbEntity
8
0
100
AcDbSpline
70
0
71
3
72
9
73
5
74
0
42
0.000000001
43
0.0000000001
44
0.0000000001
40
0
40
0
40
0
40
0
40
0.061798743485201445
40
0.10080180570144687
40
0.10080180570144687
40
0.10080180570144687
40
0.10080180570144687
10
38.071282532066107
20
11.279536187648773
30
0
10
38.073451874477293
20
11.488465697180938
30
0
10
38.076990354710077
20
11.829256959873902
30
0
10
37.948196771598212
20
12.142604347684641
30
0
10
37.898362901061773
20
12.263847291469574
30
0
0
SPLINE
5
473
100
AcDbEntity
8
0
100
AcDbSpline
70
0
71
3
72
9
73
5
74
0
42
0.000000001
43
0.0000000001
44
0.0000000001
40
0
40
0
40
0
40
0
40
0.026655549348203439
40
0.051087539830845519
40
0.051087539830845519
40
0.051087539830845519
40
0.051087539830845519
10
37.898362901061773
20
12.263847291469574
30
0
10
37.839211206156541
20
12.334833757977929
30
0
10
37.725842146301218
20
12.470885125286969
30
0
10
37.551145482099827
20
12.495564517098781
30
0
10
37.46759894117713
20
12.507367134094238
30
0
0
LWPOLYLINE
5
474
100
AcDbEntity
8
0
100
AcDbPolyline
90
3
70
1
43
0.0
10
40.230218794196844
20
10.855934321880337
10
41.169509317725897
20
12.208594977855679
10
41.169509317725897
20
10.855934321880337
0
SPLINE
5
475
100
AcDbEntity
8
0
100
AcDbSpline
70
0
71
3
72
9
73
5
74
0
42
0.000000001
43
0.0000000001
44
0.0000000001
40
0
40
0
40
0
40
0
40
0.023440983232656892
40
0.047379143110424037
40
0.047379143110424037
40
0.047379143110424037
40
0.047379143110424037
10
45.450204666703947
20
12.457367181777954
30
0
10
45.369625689884352
20
12.448044227532753
30
0
10
45.206758678866294
20
12.429200581811449
30
0
10
45.099309160303832
20
12.305165125563258
30
0
10
45.04502063617111
20
12.242496609687803
30
0
0
SPLINE
5
476
100
AcDbEntity
8
0
100
AcDbSpline
70
0
71
3
72
9
73
5
74
0
42
0.000000001
43
0.0000000001
44
0.0000000001
40
0
40
0
40
0
40
0
40
0.04156261184444144
40
0.10400536244322636
40
0.10400536244322636
40
0.10400536244322636
40
0.10400536244322636
10
45.04502063617111
20
12.242496609687803
30
0
10
44.990044752738825
20
12.113983687286328
30
0
10
44.852474315553323
20
11.792395787011216
30
0
10
44.853869243627564
20
11.440692120282339
30
0
10
44.854706730693586
20
11.229536235332487
30
0
0
SPLINE
5
477
100
AcDbEntity
8
0
100
AcDbSpline
70
0
71
3
72
9
73
5
74
0
42
0.000000001
43
0.0000000001
44
0.0000000001
40
0
40
0
40
0
40
0
40
0.061671145649517499
40
0.10069832049366059
40
0.10069832049366059
40
0.10069832049366059
40
0.10069832049366059
10
44.854706730693586
20
11.229536235332487
30
0
10
44.852610858279462
20
11.021048966194499
30
0
10
44.849188660915537
20
10.680625294388275
30
0
10
44.977786249586636
20
10.367575702442933
30
0
10
45.027626212686307
20
10.24624854326248
30
0
0
SPLINE
5
478
100
AcDbEntity
8
0
100
AcDbSpline
70
0
71
3
72
9
73
5
74
0
42
0.000000001
43
0.0000000001
44
0.0000000001
40
0
40
0
40
0
40
0
40
0.026633934719526561
40
0.050775228203705017
40
0.050775228203705017
40
0.050775228203705017
40
0.050775228203705017
10
45.027626212686307
20
10.24624854326248
30
0
10
45.086360607027132
20
10.174974988312684
30
0
10
45.198332507066191
20
10.039098293578125
30
0
10
45.371814624963946
20
10.013754705330392
30
0
10
45.454297419637449
20
10.0017049908638
30
0
0
SPLINE
5
479
100
AcDbEntity
8
0
100
AcDbSpline
70
0
71
3
72
9
73
5
74
0
42
0.000000001
43
0.0000000001
44
0.0000000001
40
0
40
0
40
0
40
0
40
0.024147796062597721
40
0.050834603126651168
40
0.050834603126651168
40
0.050834603126651168
40
0.050834603126651168
10
45.454297419637449
20
10.0017049908638
30
0
10
45.536799852159511
20
10.013835254727518
30
0
10
45.710479404669009
20
10.039371214520084
30
0
10
45.822277576455789
20
10.175701569023762
30
0
10
45.88096862658859
20
10.247271358966827
30
0
0
SPLINE
5
480
100
AcDbEntity
8
0
100
AcDbSpline
70
0
71
3
72
9
73
5
74
0
42
0.000000001
43
0.0000000001
44
0.0000000001
40
0
40
0
40
0
40
0
40
0.039051352971434361
40
0.1005949026111336
40
0.1005949026111336
40
0.1005949026111336
40
0.1005949026111336
10
45.88096862658859
20
10.247271358966827
30
0
10
45.930814758977888
20
10.368682928693298
30
0
10
46.059216631171921
20
10.681434833638392
30
0
10
46.055910769953847
20
11.021491164256043
30
0
10
46.053888257592924
20
11.229536235332489
30
0
0
SPLINE
5
481
100
AcDbEntity
8
0
100
AcDbSpline
70
0
71
3
72
9
73
5
74
0
42
0.000000001
43
0.0000000001
44
0.0000000001
40
0
40
0
40
0
40
0
40
0.061798743485201445
40
0.10080180570144687
40
0.10080180570144687
40
0.10080180570144687
40
0.10080180570144687
10
46.053888257592924
20
11.229536235332489
30
0
10
46.056057600004117
20
11.438465744864656
30
0
10
46.059596080236894
20
11.779257007557618
30
0
10
45.930802497125029
20
12.092604395368356
30
0
10
45.88096862658859
20
12.21384733915329
30
0
0
SPLINE
5
482
100
AcDbEntity
8
0
100
AcDbSpline
70
0
71
3
72
9
73
5
74
0
42
0.000000001
43
0.0000000001
44
0.0000000001
40
0
40
0
40
0
40
0
40
0.026655549348203439
40
0.051087539830845519
40
0.051087539830845519
40
0.051087539830845519
40
0.051087539830845519
10
45.88096862658859
20
12.21384733915329
30
0
10
45.821816931683365
20
12.284833805661645
30
0
10
45.708447871828042
20
12.420885172970683
30
0
10
45.533751207626651
20
12.445564564782497
30
0
10
45.450204666703947
20
12.457367181777954
30
0
0
SPLINE
5
483
100
AcDbEntity
8
0
100
AcDbSpline
70
0
71
3
72
9
73
5
74
0
42
0.000000001
43
0.0000000001
44
0.0000000001
40
0
40
0
40
0
40
0
40
0.023440983232656892
40
0.047379143110424037
40
0.047379143110424037
40
0.047379143110424037
40
0.047379143110424037
10
5.4624830745160589
20
-22.59263277053833
30
0
10
5.3819040976964612
20
-22.601955724783529
30
0
10
5.2190370866784042
20
-22.620799370504834
30
0
10
5.1115875681159348
20
-22.744834826753024
30
0
10
5.0572990439832219
20
-22.807503342628479
30
0
0
SPLINE
5
484
100
AcDbEntity
8
0
100
AcDbSpline
70
0
71
3
72
9
73
5
74
0
42
0.000000001
43
0.0000000001
44
0.0000000001
40
0
40
0
40
0
40
0
40
0.04156261184444144
40
0.10400536244322636
40
0.10400536244322636
40
0.10400536244322636
40
0.10400536244322636
10
5.0572990439832219
20
-22.807503342628479
30
0
10
5.0023231605509366
20
-22.936016265029949
30
0
10
4.86475272336543
20
-23.257604165305064
30
0
10
4.8661476514396744
20
-23.609307832033942
30
0
10
4.8669851385056981
20
-23.820463716983795
30
0
0
SPLINE
5
485
100
AcDbEntity
8
0
100
AcDbSpline
70
0
71
3
72
9
73
5
74
0
42
0.000000001
43
0.0000000001
44
0.0000000001
40
0
40
0
40
0
40
0
40
0.061671145649517499
40
0.10069832049366059
40
0.10069832049366059
40
0.10069832049366059
40
0.10069832049366059
10
4.8669851385056981
20
-23.820463716983795
30
0
10
4.8648892660915664
20
-24.028950986121778
30
0
10
4.8614670687276416
20
-24.369374657928006
30
0
10
4.9900646573987508
20
-24.68242424987335
30
0
10
5.0399046204984188
20
-24.803751409053802
30
0
0
SPLINE
5
486
100
AcDbEntity
8
0
100
AcDbSpline
70
0
71
3
72
9
73
5
74
0
42
0.000000001
43
0.0000000001
44
0.0000000001
40
0
40
0
40
0
40
0
40
0.026633934719526561
40
0.050775228203705017
40
0.050775228203705017
40
0.050775228203705017
40
0.050775228203705017
10
5.0399046204984188
20
-24.803751409053802
30
0
10
5.0986390148392413
20
-24.8750249640036
30
0
10
5.2106109148783011
20
-25.010901658738156
30
0
10
5.3840930327760557
20
-25.036245246985889
30
0
10
5.4665758274495602
20
-25.048294961452484
30
0
0
SPLINE
5
487
100
AcDbEntity
8
0
100
AcDbSpline
70
0
71
3
72
9
73
5
74
0
42
0.000000001
43
0.0000000001
44
0.0000000001
40
0
40
0
40
0
40
0
40
0.024147796062597721
40
0.050834603126651168
40
0.050834603126651168
40
0.050834603126651168
40
0.050834603126651168
10
5.4665758274495602
20
-25.048294961452484
30
0
10
5.5490782599716235
20
-25.036164697588767
30
0
10
5.7227578124811149
20
-25.010628737796196
30
0
10
5.8345559842678938
20
-24.874298383292523
30
0
10
5.8932470344007015
20
-24.802728593349457
30
0
0
SPLINE
5
488
100
AcDbEntity
8
0
100
AcDbSpline
70
0
71
3
72
9
73
5
74
0
42
0.000000001
43
0.0000000001
44
0.0000000001
40
0
40
0
40
0
40
0
40
0.039051352971434361
40
0.1005949026111336
40
0.1005949026111336
40
0.1005949026111336
40
0.1005949026111336
10
5.8932470344007015
20
-24.802728593349457
30
0
10
5.9430931667899909
20
-24.681317023622988
30
0
10
6.0714950389840263
20
-24.368565118677893
30
0
10
6.0681891777659533
20
-24.028508788060243
30
0
10
6.066166665405035
20
-23.820463716983795
30
0
0
SPLINE
5
489
100
AcDbEntity
8
0
100
AcDbSpline
70
0
71
3
72
9
73
5
74
0
42
0.000000001
43
0.0000000001
44
0.0000000001
40
0
40
0
40
0
40
0
40
0.061798743485201445
40
0.10080180570144687
40
0.10080180570144687
40
0.10080180570144687
40
0.10080180570144687
10
6.066166665405035
20
-23.820463716983795
30
0
10
6.0683360078162263
20
-23.611534207451626
30
0
10
6.0718744880490032
20
-23.270742944758666
30
0
10
5.9430809049371414
20
-22.957395556947926
30
0
10
5.8932470344007015
20
-22.836152613162994
30
0
0
SPLINE
5
490
100
AcDbEntity
8
0
100
AcDbSpline
70
0
71
3
72
9
73
5
74
0
42
0.000000001
43
0.0000000001
44
0.0000000001
40
0
40
0
40
0
40
0
40
0.026655549348203439
40
0.051087539830845519
40
0.051087539830845519
40
0.051087539830845519
40
0.051087539830845519
10
5.8932470344007015
20
-22.836152613162994
30
0
10
5.8340953394954722
20
-22.765166146654639
30
0
10
5.7207262796401501
20
-22.629114779345599
30
0
10
5.5460296154387576
20
-22.604435387533787
30
0
10
5.4624830745160589
20
-22.59263277053833
30
0
0
SPLINE
5
491
100
AcDbEntity
8
0
100
AcDbSpline
70
0
71
3
72
9
73
5
74
0
42
0.000000001
43
0.0000000001
44
0.0000000001
40
0
40
0
40
0
40
0
40
0.023440983232656892
40
0.047379143110424037
40
0.047379143110424037
40
0.047379143110424037
40
0.047379143110424037
10
13.461459811776876
20
-22.642632722854614
30
0
10
13.380880834957281
20
-22.651955677099814
30
0
10
13.218013823939224
20
-22.670799322821118
30
0
10
13.110564305376753
20
-22.794834779069308
30
0
10
13.05627578124404
20
-22.857503294944763
30
0
0
SPLINE
5
492
100
AcDbEntity
8
0
100
AcDbSpline
70
0
71
3
72
9
73
5
74
0
42
0.000000001
43
0.0000000001
44
0.0000000001
40
0
40
0
40
0
40
0
40
0.04156261184444144
40
0.10400536244322636
40
0.10400536244322636
40
0.10400536244322636
40
0.10400536244322636
10
13.05627578124404
20
-22.857503294944763
30
0
10
13.001299897811755
20
-22.986016217346233
30
0
10
12.863729460626248
20
-23.307604117621349
30
0
10
12.865124388700494
20
-23.659307784350226
30
0
10
12.865961875766516
20
-23.870463669300079
30
0
0
SPLINE
5
493
100
AcDbEntity
8
0
100
AcDbSpline
70
0
71
3
72
9
73
5
74
0
42
0.000000001
43
0.0000000001
44
0.0000000001
40
0
40
0
40
0
40
0
40
0.061671145649517499
40
0.10069832049366059
40
0.10069832049366059
40
0.10069832049366059
40
0.10069832049366059
10
12.865961875766516
20
-23.870463669300079
30
0
10
12.863866003352385
20
-24.078950938438069
30
0
10
12.86044380598846
20
-24.41937461024429
30
0
10
12.989041394659571
20
-24.732424202189634
30
0
10
13.038881357759237
20
-24.853751361370087
30
0
0
SPLINE
5
494
100
AcDbEntity
8
0
100
AcDbSpline
70
0
71
3
72
9
73
5
74
0
42
0.000000001
43
0.0000000001
44
0.0000000001
40
0
40
0
40
0
40
0
40
0.026633934719526561
40
0.050775228203705017
40
0.050775228203705017
40
0.050775228203705017
40
0.050775228203705017
10
13.038881357759237
20
-24.853751361370087
30
0
10
13.09761575210006
20
-24.925024916319884
30
0
10
13.209587652139119
20
-25.06090161105444
30
0
10
13.383069770036876
20
-25.086245199302173
30
0
10
13.465552564710379
20
-25.098294913768768
30
0
0
SPLINE
5
495
100
AcDbEntity
8
0
100
AcDbSpline
70
0
71
3
72
9
73
5
74
0
42
0.000000001
43
0.0000000001
44
0.0000000001
40
0
40
0
40
0
40
0
40
0.024147796062597721
40
0.050834603126651168
40
0.050834603126651168
40
0.050834603126651168
40
0.050834603126651168
10
13.465552564710379
20
-25.098294913768768
30
0
10
13.548054997232445
20
-25.086164649905051
30
0
10
13.721734549741935
20
-25.060628690112484
30
0
10
13.833532721528712
20
-24.924298335608807
30
0
10
13.89222377166152
20
-24.852728545665741
30
0
0
SPLINE
5
496
100
AcDbEntity
8
0
100
AcDbSpline
70
0
71
3
72
9
73
5
74
0
42
0.000000001
43
0.0000000001
44
0.0000000001
40
0
40
0
40
0
40
0
40
0.039051352971434361
40
0.1005949026111336
40
0.1005949026111336
40
0.1005949026111336
40
0.1005949026111336
10
13.89222377166152
20
-24.852728545665741
30
0
10
13.942069904050811
20
-24.731316975939272
30
0
10
14.070471776244844
20
-24.41856507099418
30
0
10
14.067165915026772
20
-24.078508740376527
30
0
10
14.065143402665854
20
-23.870463669300079
30
0
0
SPLINE
5
497
100
AcDbEntity
8
0
100
AcDbSpline
70
0
71
3
72
9
73
5
74
0
42
0.000000001
43
0.0000000001
44
0.0000000001
40
0
40
0
40
0
40
0
40
0.061798743485201445
40
0.10080180570144687
40
0.10080180570144687
40
0.10080180570144687
40
0.10080180570144687
10
14.065143402665854
20
-23.870463669300079
30
0
10
14.067312745077045
20
-23.661534159767911
30
0
10
14.070851225309822
20
-23.32074289707495
30
0
10
13.942057642197959
20
-23.00739550926421
30
0
10
13.89222377166152
20
-22.886152565479279
30
0
0
SPLINE
5
498
100
AcDbEntity
8
0
100
AcDbSpline
70
0
71
3
72
9
73
5
74
0
42
0.000000001
43
0.0000000001
44
0.0000000001
40
0
40
0
40
0
40
0
40
0.026655549348203439
40
0.051087539830845519
40
0.051087539830845519
40
0.051087539830845519
40
0.051087539830845519
10
13.89222377166152
20
-22.886152565479279
30
0
10
13.83307207675629
20
-22.815166098970924
30
0
10
13.719703016900969
20
-22.679114731661883
30
0
10
13.545006352699575
20
-22.654435339850071
30
0
10
13.461459811776876
20
-22.642632722854614
30
0
0
SPLINE
5
499
100
AcDbEntity
8
0
100
AcDbSpline
70
0
71
3
72
9
73
5
74
0
42
0.000000001
43
0.0000000001
44
0.0000000001
40
0
40
0
40
0
40
0
40
0.023440983232656892
40
0.047379143110424037
40
0.047379143110424037
40
0.047379143110424037
40
0.047379143110424037
10
21.458390172570951
20
-22.692632675170898
30
0
10
21.377811195751349
20
-22.701955629416098
30
0
10
21.214944184733294
20
-22.720799275137402
30
0
10
21.107494666170826
20
-22.844834731385593
30
0
10
21.053206142038114
20
-22.907503247261047
30
0
0
SPLINE
5
500
100
AcDbEntity
8
0
100
AcDbSpline
70
0
71
3
72
9
73
5
74
0
42
0.000000001
43
0.0000000001
44
0.0000000001
40
0
40
0
40
0
40
0
40
0.04156261184444144
40
0.10400536244322636
40
0.10400536244322636
40
0.10400536244322636
40
0.10400536244322636
10
21.053206142038114
20
-22.907503247261047
30
0
10
20.99823025860583
20
-23.036016169662517
30
0
10
20.86065982142032
20
-23.357604069937636
30
0
10
20.862054749494561
20
-23.70930773666651
30
0
10
20.86289223656059
20
-23.920463621616364
30
0
0
SPLINE
5
501
100
AcDbEntity
8
0
100
AcDbSpline
70
0
71
3
72
9
73
5
74
0
42
0.000000001
43
0.0000000001
44
0.0000000001
40
0
40
0
40
0
40
0
40
0.061671145649517499
40
0.10069832049366059
40
0.10069832049366059
40
0.10069832049366059
40
0.10069832049366059
10
20.86289223656059
20
-23.920463621616364
30
0
10
20.860796364146456
20
-24.128950890754354
30
0
10
20.857374166782531
20
-24.469374562560574
30
0
10
20.985971755453644
20
-24.782424154505918
30
0
10
21.035811718553312
20
-24.903751313686371
30
0
0
SPLINE
5
502
100
AcDbEntity
8
0
100
AcDbSpline
70
0
71
3
72
9
73
5
74
0
42
0.000000001
43
0.0000000001
44
0.0000000001
40
0
40
0
40
0
40
0
40
0.026633934719526561
40
0.050775228203705017
40
0.050775228203705017
40
0.050775228203705017
40
0.050775228203705017
10
21.035811718553312
20
-24.903751313686371
30
0
10
21.094546112894133
20
-24.975024868636169
30
0
10
21.206518012933195
20
-25.110901563370724
30
0
10
21.380000130830943
20
-25.136245151618457
30
0
10
21.462482925504453
20
-25.148294866085052
30
0
0
SPLINE
5
503
100
AcDbEntity
8
0
100
AcDbSpline
70
0
71
3
72
9
73
5
74
0
42
0.000000001
43
0.0000000001
44
0.0000000001
40
0
40
0
40
0
40
0
40
0.024147796062597721
40
0.050834603126651168
40
0.050834603126651168
40
0.050834603126651168
40
0.050834603126651168
10
21.462482925504453
20
-25.148294866085052
30
0
10
21.544985358026516
20
-25.136164602221335
30
0
10
21.718664910536006
20
-25.110628642428768
30
0
10
21.830463082322783
20
-24.974298287925091
30
0
10
21.889154132455594
20
-24.902728497982025
30
0
0
SPLINE
5
504
100
AcDbEntity
8
0
100
AcDbSpline
70
0
71
3
72
9
73
5
74
0
42
0.000000001
43
0.0000000001
44
0.0000000001
40
0
40
0
40
0
40
0
40
0.039051352971434361
40
0.1005949026111336
40
0.1005949026111336
40
0.1005949026111336
40
0.1005949026111336
10
21.889154132455594
20
-24.902728497982025
30
0
10
21.939000264844882
20
-24.781316928255556
30
0
10
22.067402137038918
20
-24.468565023310461
30
0
10
22.064096275820845
20
-24.128508692692812
30
0
10
22.062073763459928
20
-23.920463621616364
30
0
0
SPLINE
5
505
100
AcDbEntity
8
0
100
AcDbSpline
70
0
71
3
72
9
73
5
74
0
42
0.000000001
43
0.0000000001
44
0.0000000001
40
0
40
0
40
0
40
0
40
0.061798743485201445
40
0.10080180570144687
40
0.10080180570144687
40
0.10080180570144687
40
0.10080180570144687
10
22.062073763459928
20
-23.920463621616364
30
0
10
22.064243105871117
20
-23.711534112084195
30
0
10
22.067781586103898
20
-23.370742849391235
30
0
10
21.938988002992033
20
-23.057395461580494
30
0
10
21.889154132455594
20
-22.936152517795563
30
0
0
SPLINE
5
506
100
AcDbEntity
8
0
100
AcDbSpline
70
0
71
3
72
9
73
5
74
0
42
0.000000001
43
0.0000000001
44
0.0000000001
40
0
40
0
40
0
40
0
40
0.026655549348203439
40
0.051087539830845519
40
0.051087539830845519
40
0.051087539830845519
40
0.051087539830845519
10
21.889154132455594
20
-22.936152517795563
30
0
10
21.830002437550363
20
-22.865166051287208
30
0
10
21.71663337769504
20
-22.729114683978167
30
0
10
21.541936713493648
20
-22.704435292166355
30
0
10
21.458390172570951
20
-22.692632675170898
30
0
0
SPLINE
5
507
100
AcDbEntity
8
0
100
AcDbSpline
70
0
71
3
72
9
73
5
74
0
42
0.000000001
43
0.0000000001
44
0.0000000001
40
0
40
0
40
0
40
0
40
0.023440976403119356
40
0.047379156343955495
40
0.047379156343955495
40
0.047379156343955495
40
0.047379156343955495
10
29.458390172570944
20
-22.742633223533634
30
0
10
29.377811182188122
20
-22.751956049394071
30
0
10
29.214944050813941
20
-22.770799446376053
30
0
10
29.107494641373943
20
-22.894835129898787
30
0
10
29.053206142038107
20
-22.957503795623783
30
0
0
SPLINE
5
508
100
AcDbEntity
8
0
100
AcDbSpline
70
0
71
3
72
9
73
5
74
0
42
0.000000001
43
0.0000000001
44
0.0000000001
40
0
40
0
40
0
40
0
40
0.041562583854668982
40
0.10400536416913825
40
0.10400536416913825
40
0.10400536416913825
40
0.10400536416913825
10
29.053206142038107
20
-22.957503795623783
30
0
10
28.998230261286061
20
-23.08601661845227
30
0
10
28.860659735879622
20
-23.407604491463662
30
0
10
28.862054717163744
20
-23.759308176847114
30
0
10
28.862892236560587
20
-23.970464169979099
30
0
0
SPLINE
5
509
100
AcDbEntity
8
0
100
AcDbSpline
70
0
71
3
72
9
73
5
74
0
42
0.000000001
43
0.0000000001
44
0.0000000001
40
0
40
0
40
0
40
0
40
0.061671145649517499
40
0.10069837671107727
40
0.10069837671107727
40
0.10069837671107727
40
0.10069837671107727
10
28.862892236560587
20
-23.970464169979099
30
0
10
28.860796403493502
20
-24.178951426589986
30
0
10
28.857374268466003
20
-24.51937526799184
30
0
10
28.985971752167728
20
-24.832425099164798
30
0
10
29.035811718553308
20
-24.953752458095554
30
0
0
SPLINE
5
510
100
AcDbEntity
8
0
100
AcDbSpline
70
0
71
3
72
9
73
5
74
0
42
0.000000001
43
0.0000000001
44
0.0000000001
40
0
40
0
40
0
40
0
40
0.026633893674373244
40
0.050775187158551699
40
0.050775187158551699
40
0.050775187158551699
40
0.050775187158551699
10
29.035811718553308
20
-24.953752458095554
30
0
10
29.094546151741451
20
-25.025025763913451
30
0
10
29.206518207883168
20
-25.160902083258918
30
0
10
29.380000148461587
20
-25.186245684203694
30
0
10
29.46248292550445
20
-25.198295414447788
30
0
0
SPLINE
5
511
100
AcDbEntity
8
0
100
AcDbSpline
70
0
71
3
72
9
73
5
74
0
42
0.000000001
43
0.0000000001
44
0.0000000001
40
0
40
0
40
0
40
0
40
0.024147796062597721
40
0.050834603126651168
40
0.050834603126651168
40
0.050834603126651168
40
0.050834603126651168
10
29.46248292550445
20
-25.198295414447788
30
0
10
29.544985358026512
20
-25.186165150584074
30
0
10
29.718664910536003
20
-25.160629190791504
30
0
10
29.830463082322783
20
-25.024298836287826
30
0
10
29.889154132455591
20
-24.952729046344761
30
0
0
SPLINE
5
512
100
AcDbEntity
8
0
100
AcDbSpline
70
0
71
3
72
9
73
5
74
0
42
0.000000001
43
0.0000000001
44
0.0000000001
40
0
40
0
40
0
40
0
40
0.039051352971434361
40
0.1005949026111336
40
0.1005949026111336
40
0.1005949026111336
40
0.1005949026111336
10
29.889154132455591
20
-24.952729046344761
30
0
10
29.939000264844879
20
-24.831317476618288
30
0
10
30.067402137038911
20
-24.518565571673197
30
0
10
30.064096275820841
20
-24.178509241055544
30
0
10
30.062073763459924
20
-23.970464169979099
30
0
0
SPLINE
5
513
100
AcDbEntity
8
0
100
AcDbSpline
70
0
71
3
72
9
73
5
74
0
42
0.000000001
43
0.0000000001
44
0.0000000001
40
0
40
0
40
0
40
0
40
0.061798743485201445
40
0.10080180570144687
40
0.10080180570144687
40
0.10080180570144687
40
0.10080180570144687
10
30.062073763459924
20
-23.970464169979099
30
0
10
30.064243105871114
20
-23.76153466044693
30
0
10
30.067781586103891
20
-23.42074339775397
30
0
10
29.938988002992026
20
-23.10739600994323
30
0
10
29.889154132455587
20
-22.986153066158298
30
0
0
SPLINE
5
514
100
AcDbEntity
8
0
100
AcDbSpline
70
0
71
3
72
9
73
5
74
0
42
0.000000001
43
0.0000000001
44
0.0000000001
40
0
40
0
40
0
40
0
40
0.026655528928093402
40
0.051087526836925995
40
0.051087526836925995
40
0.051087526836925995
40
0.051087526836925995
10
29.889154132455587
20
-22.986153066158298
30
0
10
29.830002410681903
20
-22.915166752173356
30
0
10
29.71663324131687
20
-22.779115607566801
30
0
10
29.541936700926517
20
-22.754435966379386
30
0
10
29.458390172570944
20
-22.742633223533634
30
0
0
SPLINE
5
515
100
AcDbEntity
8
0
100
AcDbSpline
70
0
71
3
72
9
73
5
74
0
42
0.000000001
43
0.0000000001
44
0.0000000001
40
0
40
0
40
0
40
0
40
0.023729271065849124
40
0.046792501989127572
40
0.046792501989127572
40
0.046792501989127572
40
0.046792501989127572
10
32.957707788795233
20
-24.107572138309479
30
0
10
33.038775842934342
20
-24.100545410774536
30
0
10
33.198636509283183
20
-24.086689183954778
30
0
10
33.318942990438941
20
-23.980735837203291
30
0
10
33.378240015357733
20
-23.92851322889328
30
0
0
SPLINE
5
516
100
AcDbEntity
8
0
100
AcDbSpline
70
0
71
3
72
9
73
5
74
0
42
0.000000001
43
0.0000000001
44
0.0000000001
40
0
40
0
40
0
40
0
40
0.024675100707832905
40
0.053239205583929423
40
0.053239205583929423
40
0.053239205583929423
40
0.053239205583929423
10
33.378240015357733
20
-23.92851322889328
30
0
10
33.426219203700505
20
-23.859678367591659
30
0
10
33.529739505488784
20
-23.711159689772661
30
0
10
33.538352866610303
20
-23.529649677297556
30
0
10
33.542974140495062
20
-23.432265222072601
30
0
0
SPLINE
5
517
100
AcDbEntity
8
0
100
AcDbSpline
70
0
71
3
72
9
73
5
74
0
42
0.000000001
43
0.0000000001
44
0.0000000001
40
0
40
0
40
0
40
0
40
0.028756195478864596
40
0.054049982479769859
40
0.054049982479769859
40
0.054049982479769859
40
0.054049982479769859
10
33.542974140495062
20
-23.432265222072601
30
0
10
33.537927301287183
20
-23.334300488058748
30
0
10
33.528441290838956
20
-23.150166527744851
30
0
10
33.423334037991204
20
-22.999405983540925
30
0
10
33.374146964401007
20
-22.928854525089264
30
0
0
SPLINE
5
518
100
AcDbEntity
8
0
100
AcDbSpline
70
0
71
3
72
9
73
5
74
0
42
0.000000001
43
0.0000000001
44
0.0000000001
40
0
40
0
40
0
40
0
40
0.023257183136490781
40
0.04576807087341668
40
0.04576807087341668
40
0.04576807087341668
40
0.04576807087341668
10
33.374146964401007
20
-22.928854525089264
30
0
10
33.315679900475118
20
-22.87454421100751
30
0
10
33.200621911301774
20
-22.767666336354189
30
0
10
33.044652571758064
20
-22.750886389719504
30
0
10
32.967939522117376
20
-22.74263322353363
30
0
0
SPLINE
5
519
100
AcDbEntity
8
0
100
AcDbSpline
70
0
71
3
72
9
73
5
74
0
42
0.000000001
43
0.0000000001
44
0.0000000001
40
0
40
0
40
0
40
0
40
0.0235114278439679
40
0.0483754903316959
40
0.0483754903316959
40
0.0483754903316959
40
0.0483754903316959
10
32.967939522117376
20
-22.74263322353363
30
0
10
32.88792892216275
20
-22.751885748261724
30
0
10
32.723304636890717
20
-22.770923104201923
30
0
10
32.602391965950872
20
-22.884699931746439
30
0
10
32.540245201438665
20
-22.94317901134491
30
0
0
SPLINE
5
520
100
AcDbEntity
8
0
100
AcDbSpline
70
0
71
3
72
9
73
5
74
0
42
0.000000001
43
0.0000000001
44
0.0000000001
40
0
40
0
40
0
40
0
40
0.026769198992995107
40
0.0560813472762767
40
0.0560813472762767
40
0.0560813472762767
40
0.0560813472762767
10
32.540245201438665
20
-22.94317901134491
30
0
10
32.487154400689541
20
-23.017195803195637
30
0
10
32.37592942026459
20
-23.17226063756528
30
0
10
32.36423145002022
20
-23.363175283774233
30
0
10
32.358117248862982
20
-23.46296101808548
30
0
0
SPLINE
5
521
100
AcDbEntity
8
0
100
AcDbSpline
70
0
71
3
72
9
73
5
74
0
42
0.000000001
43
0.0000000001
44
0.0000000001
40
0
40
0
40
0
40
0
40
0.026320922171029163
40
0.050656358094136836
40
0.050656358094136836
40
0.050656358094136836
40
0.050656358094136836
10
32.358117248862982
20
-23.46296101808548
30
0
10
32.364123584883416
20
-23.552702970823127
30
0
10
32.37568317638663
20
-23.725417302958071
30
0
10
32.480623362681655
20
-23.862606979328106
30
0
10
32.531036879867315
20
-23.92851322889328
30
0
0
SPLINE
5
522
100
AcDbEntity
8
0
100
AcDbSpline
70
0
71
3
72
9
73
5
74
0
42
0.000000001
43
0.0000000001
44
0.0000000001
40
0
40
0
40
0
40
0
40
0.023522959509005095
40
0.04730248996134824
40
0.04730248996134824
40
0.04730248996134824
40
0.04730248996134824
10
32.531036879867315
20
-23.92851322889328
30
0
10
32.592271634650764
20
-23.980738233273048
30
0
10
32.715409047369633
20
-24.085757873529605
30
0
10
32.876650015440433
20
-24.100274470479981
30
0
10
32.957707788795233
20
-24.107572138309479
30
0
0
SPLINE
5
523
100
AcDbEntity
8
0
100
AcDbSpline
70
0
71
3
72
9
73
5
74
0
42
0.000000001
43
0.0000000001
44
0.0000000001
40
0
40
0
40
0
40
0
40
0.019580493664556567
40
0.038269740214206767
40
0.038269740214206767
40
0.038269740214206767
40
0.038269740214206767
10
24.961800839751966
20
-22.690586447715759
30
0
10
24.895095159282512
20
-22.695670913699814
30
0
10
24.764720046881813
20
-22.705608415566264
30
0
10
24.662022202569727
20
-22.786260825041232
30
0
10
24.611869122833021
20
-22.82564789056778
30
0
0
SPLINE
5
524
100
AcDbEntity
8
0
100
AcDbSpline
70
0
71
3
72
9
73
5
74
0
42
0.000000001
43
0.0000000001
44
0.0000000001
40
0
40
0
40
0
40
0
40
0.018139339180338554
40
0.035978459054312725
40
0.035978459054312725
40
0.035978459054312725
40
0.035978459054312725
10
24.611869122833021
20
-22.82564789056778
30
0
10
24.571283446471636
20
-22.872619166878174
30
0
10
24.490783816322907
20
-22.965784310583853
30
0
10
24.478704291269977
20
-23.088253123460749
30
0
10
24.472714927047498
20
-23.148976564407349
30
0
0
SPLINE
5
525
100
AcDbEntity
8
0
100
AcDbSpline
70
0
71
3
72
9
73
5
74
0
42
0.000000001
43
0.0000000001
44
0.0000000001
40
0
40
0
40
0
40
0
40
0.019639765704428862
40
0.038199166909266918
40
0.038199166909266918
40
0.038199166909266918
40
0.038199166909266918
10
24.472714927047498
20
-23.148976564407349
30
0
10
24.477753176479709
20
-23.215998766793334
30
0
10
24.48755252612003
20
-23.346356345091305
30
0
10
24.569841886097343
20
-23.447648412201261
30
0
10
24.609822895377881
20
-23.496862053871155
30
0
0
SPLINE
5
526
100
AcDbEntity
8
0
100
AcDbSpline
70
0
71
3
72
9
73
5
74
0
42
0.000000001
43
0.0000000001
44
0.0000000001
40
0
40
0
40
0
40
0
40
0.018732228453231071
40
0.03886731724794381
40
0.03886731724794381
40
0.03886731724794381
40
0.03886731724794381
10
24.609822895377881
20
-23.496862053871155
30
0
10
24.660170031144794
20
-23.536240786540592
30
0
10
24.764634809762221
20
-23.617947333057803
30
0
10
24.897212463333172
20
-23.627154008234719
30
0
10
24.965893890708692
20
-23.631923496723175
30
0
0
SPLINE
5
527
100
AcDbEntity
8
0
100
AcDbSpline
70
0
71
3
72
9
73
5
74
0
42
0.000000001
43
0.0000000001
44
0.0000000001
40
0
40
0
40
0
40
0
40
0.019651688875666481
40
0.038148882643416142
40
0.038148882643416142
40
0.038148882643416142
40
0.038148882643416142
10
24.965893890708692
20
-23.631923496723175
30
0
10
25.032902332737358
20
-23.627046201846589
30
0
10
25.162982612719556
20
-23.617578142839481
30
0
10
25.265227072138075
20
-23.536969677876126
30
0
10
25.314802195876844
20
-23.497885167598724
30
0
0
SPLINE
5
528
100
AcDbEntity
8
0
100
AcDbSpline
70
0
71
3
72
9
73
5
74
0
42
0.000000001
43
0.0000000001
44
0.0000000001
40
0
40
0
40
0
40
0
40
0.01807118292784313
40
0.036322530403251542
40
0.036322530403251542
40
0.036322530403251542
40
0.036322530403251542
10
25.314802195876844
20
-23.497885167598724
30
0
10
25.354493247249955
20
-23.450531207607511
30
0
10
25.43427105847535
20
-23.355351182129208
30
0
10
25.445329903352398
20
-23.23161519570407
30
0
10
25.450886752456434
20
-23.16944032907486
30
0
0
SPLINE
5
529
100
AcDbEntity
8
0
100
AcDbSpline
70
0
71
3
72
9
73
5
74
0
42
0.000000001
43
0.0000000001
44
0.0000000001
40
0
40
0
40
0
40
0
40
0.018974109457901366
40
0.037640842198077909
40
0.037640842198077909
40
0.037640842198077909
40
0.037640842198077909
10
25.450886752456434
20
-23.16944032907486
30
0
10
25.44523903186084
20
-23.104786995753479
30
0
10
25.43403508259571
20
-22.976527699973115
30
0
10
25.35159378178712
20
-22.877718626809376
30
0
10
25.310709740966566
20
-22.828717529773712
30
0
0
SPLINE
5
530
100
AcDbEntity
8
0
100
AcDbSpline
70
0
71
3
72
9
73
5
74
0
42
0.000000001
43
0.0000000001
44
0.0000000001
40
0
40
0
40
0
40
0
40
0.018836406633958063
40
0.038304388512662838
40
0.038304388512662838
40
0.038304388512662838
40
0.038304388512662838
10
25.310709740966566
20
-22.828717529773712
30
0
10
25.26057079668692
20
-22.788432413011009
30
0
10
25.158611774532446
20
-22.70651143977322
30
0
10
25.028121672459388
20
-22.695952809779371
30
0
10
24.961800839751966
20
-22.690586447715759
30
0
0
SPLINE
5
531
100
AcDbEntity
8
0
100
AcDbSpline
70
0
71
3
72
9
73
5
74
0
42
0.000000001
43
0.0000000001
44
0.0000000001
40
0
40
0
40
0
40
0
40
0.024149047454203442
40
0.04736957028910814
40
0.04736957028910814
40
0.04736957028910814
40
0.04736957028910814
10
24.955661561340101
20
-23.932742178440094
30
0
10
24.873324039603538
20
-23.939326253317187
30
0
10
24.711814852513349
20
-23.952241247097827
30
0
10
24.58638379738386
20
-24.054507545632461
30
0
10
24.524897601455457
20
-24.104638397693634
30
0
0
SPLINE
5
532
100
AcDbEntity
8
0
100
AcDbSpline
70
0
71
3
72
9
73
5
74
0
42
0.000000001
43
0.0000000001
44
0.0000000001
40
0
40
0
40
0
40
0
40
0.023199264472516509
40
0.047217945098730785
40
0.047217945098730785
40
0.047217945098730785
40
0.047217945098730785
10
24.524897601455457
20
-24.104638397693634
30
0
10
24.475063988090163
20
-24.166240680810397
30
0
10
24.373636599185598
20
-24.291621087831903
30
0
10
24.360637258841361
20
-24.452528866582952
30
0
10
24.354024793952711
20
-24.534378945827484
30
0
0
SPLINE
5
533
100
AcDbEntity
8
0
100
AcDbSpline
70
0
71
3
72
9
73
5
74
0
42
0.000000001
43
0.0000000001
44
0.0000000001
40
0
40
0
40
0
40
0
40
0.015613445494805729
40
0.031615820234541167
40
0.031615820234541167
40
0.031615820234541167
40
0.031615820234541167
10
24.354024793952711
20
-24.534378945827484
30
0
10
24.357287351379231
20
-24.586771154467876
30
0
10
24.363893736186235
20
-24.692860656020635
30
0
10
24.406933264199967
20
-24.790082007442798
30
0
10
24.428717758506544
20
-24.839290678501129
30
0
0
SPLINE
5
534
100
AcDbEntity
8
0
100
AcDbSpline
70
0
71
3
72
9
73
5
74
0
42
0.000000001
43
0.0000000001
44
0.0000000001
40
0
40
0
40
0
40
0
40
0.016033616878807045
40
0.032215509063794549
40
0.032215509063794549
40
0.032215509063794549
40
0.032215509063794549
10
24.428717758506544
20
-24.839290678501129
30
0
10
24.456754402910175
20
-24.885693866899786
30
0
10
24.51308696834009
20
-24.978929370014619
30
0
10
24.604722019233307
20
-25.037861125527311
30
0
10
24.650750424712903
20
-25.067462623119354
30
0
0
SPLINE
5
535
100
AcDbEntity
8
0
100
AcDbSpline
70
0
71
3
72
9
73
5
74
0
42
0.000000001
43
0.0000000001
44
0.0000000001
40
0
40
0
40
0
40
0
40
0.016454224725863567
40
0.033000365858007072
40
0.033000365858007072
40
0.033000365858007072
40
0.033000365858007072
10
24.650750424712903
20
-25.067462623119354
30
0
10
24.700879862734059
20
-25.091038493135915
30
0
10
24.80141877128283
20
-25.138321932430657
30
0
10
24.912330028282916
20
-25.144964387757291
30
0
10
24.967940118163831
20
-25.148294866085052
30
0
0
SPLINE
5
536
100
AcDbEntity
8
0
100
AcDbSpline
70
0
71
3
72
9
73
5
74
0
42
0.000000001
43
0.0000000001
44
0.0000000001
40
0
40
0
40
0
40
0
40
0.024467437377788868
40
0.047752780879538957
40
0.047752780879538957
40
0.047752780879538957
40
0.047752780879538957
10
24.967940118163831
20
-25.148294866085052
30
0
10
25.05134757949271
20
-25.141945296835424
30
0
10
25.214132842332383
20
-25.129552924705251
30
0
10
25.341643059055912
20
-25.027976064623143
30
0
10
25.403819944709547
20
-24.978444874286652
30
0
0
SPLINE
5
537
100
AcDbEntity
8
0
100
AcDbSpline
70
0
71
3
72
9
73
5
74
0
42
0.000000001
43
0.0000000001
44
0.0000000001
40
0
40
0
40
0
40
0
40
0.023199226971791873
40
0.047474208416829672
40
0.047474208416829672
40
0.047474208416829672
40
0.047474208416829672
10
25.403819944709547
20
-24.978444874286652
30
0
10
25.45394914974198
20
-24.917042054810349
30
0
10
25.556532064697443
20
-24.791389150394892
30
0
10
25.569225586792669
20
-24.629457827218346
30
0
10
25.575716163963087
20
-24.546657502651215
30
0
0
SPLINE
5
538
100
AcDbEntity
8
0
100
AcDbSpline
70
0
71
3
72
9
73
5
74
0
42
0.000000001
43
0.0000000001
44
0.0000000001
40
0
40
0
40
0
40
0
40
0.024700459762509466
40
0.048453379131543378
40
0.048453379131543378
40
0.048453379131543378
40
0.048453379131543378
10
25.575716163963087
20
-24.546657502651215
30
0
10
25.568934929870224
20
-24.46241037972473
30
0
10
25.555632598268289
20
-24.297147958411646
30
0
10
25.450327143693549
20
-24.169339272896909
30
0
10
25.398704078048475
20
-24.106684625148773
30
0
0
SPLINE
5
539
100
AcDbEntity
8
0
100
AcDbSpline
70
0
71
3
72
9
73
5
74
0
42
0.000000001
43
0.0000000001
44
0.0000000001
40
0
40
0
40
0
40
0
40
0.023817252895918191
40
0.048579658631314054
40
0.048579658631314054
40
0.048579658631314054
40
0.048579658631314054
10
25.398704078048475
20
-24.106684625148773
30
0
10
25.33515848701278
20
-24.055956867175389
30
0
10
25.20554559112049
20
-23.952488294361878
30
0
10
25.040029649225914
20
-23.939409039243312
30
0
10
24.955661561340101
20
-23.932742178440094
30
0
0
SPLINE
5
540
100
AcDbEntity
8
0
100
AcDbSpline
70
0
71
3
72
9
73
5
74
0
42
0.000000001
43
0.0000000001
44
0.0000000001
40
0
40
0
40
0
40
0
40
0.023503251174728859
40
0.047005245991747248
40
0.047005245991747248
40
0.047005245991747248
40
0.047005245991747248
10
8.9884041808545589
20
-23.679263293743134
30
0
10
8.9083400232517409
20
-23.686723234284916
30
0
10
8.7482159878464181
20
-23.701642716600087
30
0
10
8.6259391165995218
20
-23.806096439571576
30
0
10
8.5648023150861263
20
-23.858321905136108
30
0
0
SPLINE
5
541
100
AcDbEntity
8
0
100
AcDbSpline
70
0
71
3
72
9
73
5
74
0
42
0.000000001
43
0.0000000001
44
0.0000000001
40
0
40
0
40
0
40
0
40
0.02446289147484999
40
0.051090879469823658
40
0.051090879469823658
40
0.051090879469823658
40
0.051090879469823658
10
8.5648023150861263
20
-23.858321905136108
30
0
10
8.5140941467427247
20
-23.924556533395439
30
0
10
8.4081898663909236
20
-24.062887908188362
30
0
10
8.3967974610638656
20
-24.237146079014408
30
0
10
8.3908598683774471
20
-24.327967464923859
30
0
0
SPLINE
5
542
100
AcDbEntity
8
0
100
AcDbSpline
70
0
71
3
72
9
73
5
74
0
42
0.000000001
43
0.0000000001
44
0.0000000001
40
0
40
0
40
0
40
0
40
0.018731428114422691
40
0.037538845205716972
40
0.037538845205716972
40
0.037538845205716972
40
0.037538845205716972
10
8.3908598683774471
20
-24.327967464923859
30
0
10
8.3942552157987009
20
-24.390781700252127
30
0
10
8.4010596847632364
20
-24.516664993415873
30
0
10
8.4481162173493924
20
-24.633625388519619
30
0
10
8.4716921113431454
20
-24.692223966121674
30
0
0
SPLINE
5
543
100
AcDbEntity
8
0
100
AcDbSpline
70
0
71
3
72
9
73
5
74
0
42
0.000000001
43
0.0000000001
44
0.0000000001
40
0
40
0
40
0
40
0
40
0.01813172896068688
40
0.035214622993438423
40
0.035214622993438423
40
0.035214622993438423
40
0.035214622993438423
10
8.4716921113431454
20
-24.692223966121674
30
0
10
8.5005613704005611
20
-24.746265324580001
30
0
10
8.556629938158828
20
-24.851222004016886
30
0
10
8.6516986454892724
20
-24.922602932362228
30
0
10
8.6978172324597836
20
-24.957230389118195
30
0
0
SPLINE
5
544
100
AcDbEntity
8
0
100
AcDbSpline
70
0
71
3
72
9
73
5
74
0
42
0.000000001
43
0.0000000001
44
0.0000000001
40
0
40
0
40
0
40
0
40
0.016379352512143994
40
0.032148278231176844
40
0.032148278231176844
40
0.032148278231176844
40
0.032148278231176844
10
8.6978172324597836
20
-24.957230389118195
30
0
10
8.7463209309679684
20
-24.983788175868533
30
0
10
8.841520688939239
20
-25.03591399201548
30
0
10
8.9496774278350308
20
-25.044220546184334
30
0
10
9.0027289651334286
20
-25.048294961452484
30
0
0
SPLINE
5
545
100
AcDbEntity
8
0
100
AcDbSpline
70
0
71
3
72
9
73
5
74
0
42
0.000000001
43
0.0000000001
44
0.0000000001
40
0
40
0
40
0
40
0
40
0.022196408048162686
40
0.045403727198421971
40
0.045403727198421971
40
0.045403727198421971
40
0.045403727198421971
10
9.0027289651334286
20
-25.048294961452484
30
0
10
9.0783558859120586
20
-25.039774737748871
30
0
10
9.2330540727735926
20
-25.02234624608171
30
0
10
9.3460593026425212
20
-24.914930705039041
30
0
10
9.4038199447095394
20
-24.860027134418488
30
0
0
SPLINE
5
546
100
AcDbEntity
8
0
100
AcDbSpline
70
0
71
3
72
9
73
5
74
0
42
0.000000001
43
0.0000000001
44
0.0000000001
40
0
40
0
40
0
40
0
40
0.025522037141375457
40
0.054780697946640658
40
0.054780697946640658
40
0.054780697946640658
40
0.054780697946640658
10
9.4038199447095394
20
-24.860027134418488
30
0
10
9.4527018023148397
20
-24.788388481376515
30
0
10
9.5576221996057562
20
-24.634622722324533
30
0
10
9.5667490238843662
20
-24.448069822860887
30
0
10
9.5716237090528011
20
-24.348430931568146
30
0
0
SPLINE
5
547
100
AcDbEntity
8
0
100
AcDbSpline
70
0
71
3
72
9
73
5
74
0
42
0.000000001
43
0.0000000001
44
0.0000000001
40
0
40
0
40
0
40
0
40
0.0281123695232556
40
0.052693430698968841
40
0.052693430698968841
40
0.052693430698968841
40
0.052693430698968841
10
9.5716237090528011
20
-24.348430931568146
30
0
10
9.5667679500884475
20
-24.252587232572584
30
0
10
9.5576663836670388
20
-24.072939148949555
30
0
10
9.4541539084525734
20
-23.926591776235316
30
0
10
9.4058661721646786
20
-23.858321905136108
30
0
0
SPLINE
5
548
100
AcDbEntity
8
0
100
AcDbSpline
70
0
71
3
72
9
73
5
74
0
42
0.000000001
43
0.0000000001
44
0.0000000001
40
0
40
0
40
0
40
0
40
0.023042405855606227
40
0.046495366650853923
40
0.046495366650853923
40
0.046495366650853923
40
0.046495366650853923
10
9.4058661721646786
20
-23.858321905136108
30
0
10
9.3466681174804158
20
-23.806097593016258
30
0
10
9.2272172548053089
20
-23.700718469181822
30
0
10
9.0684757689146913
20
-23.686456995248093
30
0
10
8.9884041808545589
20
-23.679263293743134
30
0
0
ENDSEC
0
SECTION
2
OBJECTS
0
DICTIONARY
5
C
100
AcDbDictionary
3
ACAD_GROUP
350
D
3
ACAD_MLINESTYLE
350
17
0
DICTIONARY
5
D
100
AcDbDictionary
0
DICTIONARY
5
1A
330
C
100
AcDbDictionary
0
DICTIONARY
5
17
100
AcDbDictionary
0
ENDSEC
0
EOF
