  0
SECTION
  2
HEADER
  9
$ACADVER
  1
AC1014
  9
$HANDSEED
  5
FFFF
  9
$MEASUREMENT
 70
     1
  0
ENDSEC
  0
SECTION
  2
TABLES
  0
TABLE
  2
VPORT
  5
8
330
0
100
AcDbSymbolTable
 70
     4
  0
VPORT
  5
2E
330
8
100
AcDbSymbolTableRecord
100
AcDbViewportTableRecord
  2
*ACTIVE
 70
     0
 10
0.0
 20
0.0
 11
1.0
 21
1.0
 12
210.0
 22
148.5
 13
0.0
 23
0.0
 14
10.0
 24
10.0
 15
10.0
 25
10.0
 16
0.0
 26
0.0
 36
1.0
 17
0.0
 27
0.0
 37
0.0
 40
341.0
 41
1.24
 42
50.0
 43
0.0
 44
0.0
 50
0.0
 51
0.0
 71
     0
 72
   100
 73
     1
 74
     3
 75
     0
 76
     0
 77
     0
 78
     0
  0
ENDTAB
  0
TABLE
  2
LTYPE
  5
5
330
0
100
AcDbSymbolTable
 70
     1
  0
LTYPE
  5
14
330
5
100
AcDbSymbolTableRecord
100
AcDbLinetypeTableRecord
  2
BYBLOCK
 70
     0
  3

 72
    65
 73
     0
 40
0.0
  0
LTYPE
  5
15
330
5
100
AcDbSymbolTableRecord
100
AcDbLinetypeTableRecord
  2
BYLAYER
 70
     0
  3

 72
    65
 73
     0
 40
0.0
  0
LTYPE
  5
16
330
5
100
AcDbSymbolTableRecord
100
AcDbLinetypeTableRecord
  2
CONTINUOUS
 70
     0
  3
Solid line
 72
    65
 73
     0
 40
0.0
  0
ENDTAB
  0
TABLE
  2
LAYER
  5
2
100
AcDbSymbolTable
 70
1
  0
LAYER
  5
50
100
AcDbSymbolTableRecord
100
AcDbLayerTableRecord
  2
0
 70
0
  6
CONTINUOUS
  0
ENDTAB
  0
TABLE
  2
STYLE
  5
3
330
0
100
AcDbSymbolTable
 70
     1
  0
STYLE
  5
11
330
3
100
AcDbSymbolTableRecord
100
AcDbTextStyleTableRecord
  2
STANDARD
 70
     0
 40
0.0
 41
1.0
 50
0.0
 71
     0
 42
2.5
  3
txt
  4

  0
ENDTAB
  0
TABLE
  2
VIEW
  5
6
330
0
100
AcDbSymbolTable
 70
     0
  0
ENDTAB
  0
TABLE
  2
UCS
  5
7
330
0
100
AcDbSymbolTable
 70
     0
  0
ENDTAB
  0
TABLE
  2
APPID
  5
9
330
0
100
AcDbSymbolTable
 70
     2
  0
APPID
  5
12
330
9
100
AcDbSymbolTableRecord
100
AcDbRegAppTableRecord
  2
ACAD
 70
     0
  0
ENDTAB
  0
TABLE
  2
DIMSTYLE
  5
A
330
0
100
AcDbSymbolTable
 70
     1
  0
DIMSTYLE
105
27
330
A
100
AcDbSymbolTableRecord
100
AcDbDimStyleTableRecord
  2
ISO-25
 70
     0
  3

  4

  5

  6

  7

 40
1.0
 41
2.5
 42
0.625
 43
3.75
 44
1.25
 45
0.0
 46
0.0
 47
0.0
 48
0.0
140
2.5
141
2.5
142
0.0
143
0.03937007874016
144
1.0
145
0.0
146
1.0
147
0.625
 71
     0
 72
     0
 73
     0
 74
     0
 75
     0
 76
     0
 77
     1
 78
     8
170
     0
171
     3
172
     1
173
     0
174
     0
175
     0
176
     0
177
     0
178
     0
270
     2
271
     2
272
     2
273
     2
274
     3
340
11
275
     0
280
     0
281
     0
282
     0
283
     0
284
     8
285
     0
286
     0
287
     3
288
     0
  0
ENDTAB
  0
TABLE
  2
BLOCK_RECORD
  5
1
330
0
100
AcDbSymbolTable
 70
     1
  0
BLOCK_RECORD
  5
1F
330
1
100
AcDbSymbolTableRecord
100
AcDbBlockTableRecord
  2
*MODEL_SPACE
  0
BLOCK_RECORD
  5
1B
330
1
100
AcDbSymbolTableRecord
100
AcDbBlockTableRecord
  2
*PAPER_SPACE
  0
ENDTAB
  0
ENDSEC
  0
SECTION
  2
BLOCKS
  0
BLOCK
  5
20
330
1F
100
AcDbEntity
  8
0
100
AcDbBlockBegin
  2
*MODEL_SPACE
 70
     0
 10
0.0
 20
0.0
 30
0.0
  3
*MODEL_SPACE
  1

  0
ENDBLK
  5
21
330
1F
100
AcDbEntity
  8
0
100
AcDbBlockEnd
  0
BLOCK
  5
1C
330
1B
100
AcDbEntity
 67
     1
  8
0
100
AcDbBlockBegin
  2
*PAPER_SPACE
  1

  0
ENDBLK
  5
1D
330
1B
100
AcDbEntity
 67
     1
  8
0
100
AcDbBlockEnd
  0
ENDSEC
  0
SECTION
  2
ENTITIES
  0
SPLINE
  5
100
100
AcDbEntity
  8
0
 62
7
100
AcDbSpline
 70
8
 71
3
 72
8
 73
4
 74
0
 40
0
 40
0
 40
0
 40
0
 40
1
 40
1
 40
1
 40
1
 10
52.569068
 20
72.952695
 30
0.0
 10
47.987577
 20
73.574137
 30
0.0
 10
43.845051
 20
75.631971
 30
0.0
 10
40.574383
 20
78.911151
 30
0.0
  0
SPLINE
  5
101
100
AcDbEntity
  8
0
 62
7
100
AcDbSpline
 70
8
 71
3
 72
8
 73
4
 74
0
 40
0
 40
0
 40
0
 40
0
 40
1
 40
1
 40
1
 40
1
 10
40.574383
 20
78.911151
 30
0.0
 10
36.722894
 20
82.772665
 30
0.0
 10
34.647997
 20
87.617956
 30
0.0
 10
34.496013
 20
93.105332
 30
0.0
  0
SPLINE
  5
102
100
AcDbEntity
  8
0
 62
7
100
AcDbSpline
 70
8
 71
3
 72
8
 73
4
 74
0
 40
0
 40
0
 40
0
 40
0
 40
1
 40
1
 40
1
 40
1
 10
34.496013
 20
93.105332
 30
0.0
 10
34.423398
 20
95.727081
 30
0.0
 10
34.734450
 20
97.911796
 30
0.0
 10
35.521778
 20
100.309921
 30
0.0
  0
SPLINE
  5
103
100
AcDbEntity
  8
0
 62
7
100
AcDbSpline
 70
8
 71
3
 72
8
 73
4
 74
0
 40
0
 40
0
 40
0
 40
0
 40
1
 40
1
 40
1
 40
1
 10
35.521778
 20
100.309921
 30
0.0
 10
35.844369
 20
101.292496
 30
0.0
 10
36.674862
 20
103.253072
 30
0.0
 10
36.837292
 20
103.415505
 30
0.0
  0
SPLINE
  5
104
100
AcDbEntity
  8
0
 62
7
100
AcDbSpline
 70
8
 71
3
 72
8
 73
4
 74
0
 40
0
 40
0
 40
0
 40
0
 40
1
 40
1
 40
1
 40
1
 10
36.837292
 20
103.415505
 30
0.0
 10
36.886301
 20
103.464511
 30
0.0
 10
37.247856
 20
103.310582
 30
0.0
 10
37.758187
 20
103.023437
 30
0.0
  0
SPLINE
  5
105
100
AcDbEntity
  8
0
 62
7
100
AcDbSpline
 70
8
 71
3
 72
8
 73
4
 74
0
 40
0
 40
0
 40
0
 40
0
 40
1
 40
1
 40
1
 40
1
 10
43.300187
 20
85.541025
 30
0.0
 10
42.165564
 20
87.160253
 30
0.0
 10
41.513792
 20
89.023127
 30
0.0
 10
41.437510
 20
90.864883
 30
0.0
  0
SPLINE
  5
106
100
AcDbEntity
  8
0
 62
7
100
AcDbSpline
 70
8
 71
3
 72
8
 73
4
 74
0
 40
0
 40
0
 40
0
 40
0
 40
1
 40
1
 40
1
 40
1
 10
41.437510
 20
90.864883
 30
0.0
 10
41.328009
 20
93.508610
 30
0.0
 10
42.370737
 20
95.264809
 30
0.0
 10
44.357123
 20
95.782196
 30
0.0
  0
SPLINE
  5
107
100
AcDbEntity
  8
0
 62
7
100
AcDbSpline
 70
8
 71
3
 72
8
 73
4
 74
0
 40
0
 40
0
 40
0
 40
0
 40
1
 40
1
 40
1
 40
1
 10
44.357123
 20
95.782196
 30
0.0
 10
47.754154
 20
96.667010
 30
0.0
 10
52.075538
 20
92.631697
 30
0.0
 10
52.799369
 20
87.898825
 30
0.0
  0
SPLINE
  5
108
100
AcDbEntity
  8
0
 62
7
100
AcDbSpline
 70
8
 71
3
 72
8
 73
4
 74
0
 40
0
 40
0
 40
0
 40
0
 40
1
 40
1
 40
1
 40
1
 10
52.799369
 20
87.898825
 30
0.0
 10
53.180451
 20
85.407061
 30
0.0
 10
52.385934
 20
83.233771
 30
0.0
 10
50.783845
 20
82.385625
 30
0.0
  0
LWPOLYLINE
  5
109
100
AcDbEntity
  8
0
 62
7
100
AcDbPolyline
 90
9
 70
0
 10
37.758187
 20
103.023437
 30
0.0
 10
38.598398
 20
102.550688
 30
0.0
 10
38.620756
 20
93.337520
 30
0.0
 10
38.643113
 20
84.124355
 30
0.0
 10
41.191077
 20
82.643782
 30
0.0
 10
43.739041
 20
81.163208
 30
0.0
 10
43.762747
 20
83.005139
 30
0.0
 10
43.786454
 20
84.847070
 30
0.0
 10
43.300187
 20
85.541025
 30
0.0
  0
SPLINE
  5
10a
100
AcDbEntity
  8
0
 62
7
100
AcDbSpline
 70
8
 71
3
 72
8
 73
4
 74
0
 40
0
 40
0
 40
0
 40
0
 40
1
 40
1
 40
1
 40
1
 10
54.084617
 20
72.818509
 30
0.0
 10
53.758433
 20
72.823483
 30
0.0
 10
53.076414
 20
72.883858
 30
0.0
 10
52.569017
 20
72.952681
 30
0.0
  0
LWPOLYLINE
  5
10b
100
AcDbEntity
  8
0
 62
7
100
AcDbPolyline
 90
9
 70
0
 10
50.783845
 20
82.385625
 30
0.0
 10
50.370232
 20
82.166661
 30
0.0
 10
50.393330
 20
79.720559
 30
0.0
 10
50.416428
 20
77.274460
 30
0.0
 10
52.547052
 20
76.035170
 30
0.0
 10
54.677678
 20
74.795880
 30
0.0
 10
54.677678
 20
73.802682
 30
0.0
 10
54.677678
 20
72.809486
 30
0.0
 10
54.084617
 20
72.818509
 30
0.0
  0
LWPOLYLINE
  5
10c
100
AcDbEntity
  8
0
 62
7
100
AcDbPolyline
 90
1
 70
1
 10
52.569017
 20
72.952681
 30
0.0
  0
SPLINE
  5
10d
100
AcDbEntity
  8
0
 62
7
100
AcDbSpline
 70
8
 71
3
 72
8
 73
4
 74
0
 40
0
 40
0
 40
0
 40
0
 40
1
 40
1
 40
1
 40
1
 10
68.345950
 20
87.071017
 30
0.0
 10
67.212480
 20
84.804784
 30
0.0
 10
65.368355
 20
83.014955
 30
0.0
 10
63.442895
 20
82.312327
 30
0.0
  0
SPLINE
  5
10e
100
AcDbEntity
  8
0
 62
7
100
AcDbSpline
 70
8
 71
3
 72
8
 73
4
 74
0
 40
0
 40
0
 40
0
 40
0
 40
1
 40
1
 40
1
 40
1
 10
63.442895
 20
82.312327
 30
0.0
 10
62.885590
 20
82.108958
 30
0.0
 10
62.671444
 20
82.079452
 30
0.0
 10
61.750525
 20
82.079150
 30
0.0
  0
SPLINE
  5
10f
100
AcDbEntity
  8
0
 62
7
100
AcDbSpline
 70
8
 71
3
 72
8
 73
4
 74
0
 40
0
 40
0
 40
0
 40
0
 40
1
 40
1
 40
1
 40
1
 10
61.750525
 20
82.079150
 30
0.0
 10
60.785050
 20
82.078886
 30
0.0
 10
60.652980
 20
82.099047
 30
0.0
 10
60.183448
 20
82.319013
 30
0.0
  0
SPLINE
  5
110
100
AcDbEntity
  8
0
 62
7
100
AcDbSpline
 70
8
 71
3
 72
8
 73
4
 74
0
 40
0
 40
0
 40
0
 40
0
 40
1
 40
1
 40
1
 40
1
 10
60.183448
 20
82.319013
 30
0.0
 10
59.135547
 20
82.809932
 30
0.0
 10
58.555329
 20
83.493576
 30
0.0
 10
58.142285
 20
84.724012
 30
0.0
  0
SPLINE
  5
111
100
AcDbEntity
  8
0
 62
7
100
AcDbSpline
 70
8
 71
3
 72
8
 73
4
 74
0
 40
0
 40
0
 40
0
 40
0
 40
1
 40
1
 40
1
 40
1
 10
58.142285
 20
84.724012
 30
0.0
 10
57.263662
 20
87.341382
 30
0.0
 10
58.356225
 20
91.004123
 30
0.0
 10
60.764531
 20
93.514934
 30
0.0
  0
SPLINE
  5
112
100
AcDbEntity
  8
0
 62
7
100
AcDbSpline
 70
8
 71
3
 72
8
 73
4
 74
0
 40
0
 40
0
 40
0
 40
0
 40
1
 40
1
 40
1
 40
1
 10
60.764531
 20
93.514934
 30
0.0
 10
61.787966
 20
94.581924
 30
0.0
 10
62.861044
 20
95.286359
 30
0.0
 10
63.990974
 20
95.632958
 30
0.0
  0
SPLINE
  5
113
100
AcDbEntity
  8
0
 62
7
100
AcDbSpline
 70
8
 71
3
 72
8
 73
4
 74
0
 40
0
 40
0
 40
0
 40
0
 40
1
 40
1
 40
1
 40
1
 10
63.990974
 20
95.632958
 30
0.0
 10
65.253775
 20
96.020319
 30
0.0
 10
66.319498
 20
95.959520
 30
0.0
 10
67.293180
 20
95.444575
 30
0.0
  0
LWPOLYLINE
  5
114
100
AcDbEntity
  8
0
 62
7
100
AcDbPolyline
 90
9
 70
0
 10
56.190422
 20
73.815469
 30
0.0
 10
56.215293
 20
74.848246
 30
0.0
 10
64.144731
 20
79.426909
 30
0.0
 10
72.074170
 20
84.005571
 30
0.0
 10
72.074170
 20
86.966777
 30
0.0
 10
72.074170
 20
89.927983
 30
0.0
 10
70.455716
 20
88.990659
 30
0.0
 10
68.837260
 20
88.053336
 30
0.0
 10
68.345950
 20
87.071017
 30
0.0
  0
SPLINE
  5
115
100
AcDbEntity
  8
0
 62
7
100
AcDbSpline
 70
8
 71
3
 72
8
 73
4
 74
0
 40
0
 40
0
 40
0
 40
0
 40
1
 40
1
 40
1
 40
1
 10
72.908848
 20
103.002577
 30
0.0
 10
73.343759
 20
103.256591
 30
0.0
 10
73.751310
 20
103.466331
 30
0.0
 10
73.814517
 20
103.468665
 30
0.0
  0
SPLINE
  5
116
100
AcDbEntity
  8
0
 62
7
100
AcDbSpline
 70
8
 71
3
 72
8
 73
4
 74
0
 40
0
 40
0
 40
0
 40
0
 40
1
 40
1
 40
1
 40
1
 10
73.814517
 20
103.468665
 30
0.0
 10
74.056491
 20
103.477608
 30
0.0
 10
75.151229
 20
100.813378
 30
0.0
 10
75.596890
 20
99.130967
 30
0.0
  0
SPLINE
  5
117
100
AcDbEntity
  8
0
 62
7
100
AcDbSpline
 70
8
 71
3
 72
8
 73
4
 74
0
 40
0
 40
0
 40
0
 40
0
 40
1
 40
1
 40
1
 40
1
 10
75.596890
 20
99.130967
 30
0.0
 10
76.203310
 20
96.841683
 30
0.0
 10
76.440247
 20
93.950531
 30
0.0
 10
76.209938
 20
91.650473
 30
0.0
  0
SPLINE
  5
118
100
AcDbEntity
  8
0
 62
7
100
AcDbSpline
 70
8
 71
3
 72
8
 73
4
 74
0
 40
0
 40
0
 40
0
 40
0
 40
1
 40
1
 40
1
 40
1
 10
76.209938
 20
91.650473
 30
0.0
 10
75.810586
 20
87.662242
 30
0.0
 10
74.221237
 20
83.742906
 30
0.0
 10
71.722790
 20
80.585167
 30
0.0
  0
SPLINE
  5
119
100
AcDbEntity
  8
0
 62
7
100
AcDbSpline
 70
8
 71
3
 72
8
 73
4
 74
0
 40
0
 40
0
 40
0
 40
0
 40
1
 40
1
 40
1
 40
1
 10
71.722790
 20
80.585167
 30
0.0
 10
70.988629
 20
79.657279
 30
0.0
 10
69.316738
 20
78.000799
 30
0.0
 10
68.384015
 20
77.277172
 30
0.0
  0
SPLINE
  5
11a
100
AcDbEntity
  8
0
 62
7
100
AcDbSpline
 70
8
 71
3
 72
8
 73
4
 74
0
 40
0
 40
0
 40
0
 40
0
 40
1
 40
1
 40
1
 40
1
 10
68.384015
 20
77.277172
 30
0.0
 10
65.042079
 20
74.684422
 30
0.0
 10
60.987091
 20
73.098665
 30
0.0
 10
57.037089
 20
72.839805
 30
0.0
  0
LWPOLYLINE
  5
11b
100
AcDbEntity
  8
0
 62
7
100
AcDbPolyline
 90
7
 70
0
 10
67.293180
 20
95.444575
 30
0.0
 10
67.827768
 20
95.161849
 30
0.0
 10
69.929005
 20
96.374979
 30
0.0
 10
72.030238
 20
97.588110
 30
0.0
 10
72.074170
 20
100.064422
 30
0.0
 10
72.118101
 20
102.540731
 30
0.0
 10
72.908848
 20
103.002577
 30
0.0
  0
SPLINE
  5
11c
100
AcDbEntity
  8
0
 62
7
100
AcDbSpline
 70
8
 71
3
 72
8
 73
4
 74
0
 40
0
 40
0
 40
0
 40
0
 40
1
 40
1
 40
1
 40
1
 10
193.366030
 20
79.805215
 30
0.0
 10
189.998694
 20
80.299060
 30
0.0
 10
187.340491
 20
81.737221
 30
0.0
 10
185.452152
 20
84.086830
 30
0.0
  0
SPLINE
  5
11d
100
AcDbEntity
  8
0
 62
7
100
AcDbSpline
 70
8
 71
3
 72
8
 73
4
 74
0
 40
0
 40
0
 40
0
 40
0
 40
1
 40
1
 40
1
 40
1
 10
185.452152
 20
84.086830
 30
0.0
 10
183.218704
 20
86.865852
 30
0.0
 10
182.164180
 20
90.470569
 30
0.0
 10
182.163881
 20
95.327282
 30
0.0
  0
SPLINE
  5
11e
100
AcDbEntity
  8
0
 62
7
100
AcDbSpline
 70
8
 71
3
 72
8
 73
4
 74
0
 40
0
 40
0
 40
0
 40
0
 40
1
 40
1
 40
1
 40
1
 10
182.163881
 20
95.327282
 30
0.0
 10
182.163881
 20
97.219923
 30
0.0
 10
182.253948
 20
98.296722
 30
0.0
 10
182.525691
 20
99.647317
 30
0.0
  0
SPLINE
  5
11f
100
AcDbEntity
  8
0
 62
7
100
AcDbSpline
 70
8
 71
3
 72
8
 73
4
 74
0
 40
0
 40
0
 40
0
 40
0
 40
1
 40
1
 40
1
 40
1
 10
182.525691
 20
99.647317
 30
0.0
 10
183.572264
 20
104.848948
 30
0.0
 10
186.945987
 20
108.810216
 30
0.0
 10
191.431915
 20
110.104581
 30
0.0
  0
SPLINE
  5
120
100
AcDbEntity
  8
0
 62
7
100
AcDbSpline
 70
8
 71
3
 72
8
 73
4
 74
0
 40
0
 40
0
 40
0
 40
0
 40
1
 40
1
 40
1
 40
1
 10
191.431915
 20
110.104581
 30
0.0
 10
192.644948
 20
110.454588
 30
0.0
 10
193.591770
 20
110.596071
 30
0.0
 10
195.079316
 20
110.649599
 30
0.0
  0
SPLINE
  5
121
100
AcDbEntity
  8
0
 62
7
100
AcDbSpline
 70
8
 71
3
 72
8
 73
4
 74
0
 40
0
 40
0
 40
0
 40
0
 40
1
 40
1
 40
1
 40
1
 10
195.079316
 20
110.649599
 30
0.0
 10
199.139207
 20
110.795694
 30
0.0
 10
202.217912
 20
109.774180
 30
0.0
 10
204.452519
 20
107.539576
 30
0.0
  0
SPLINE
  5
122
100
AcDbEntity
  8
0
 62
7
100
AcDbSpline
 70
8
 71
3
 72
8
 73
4
 74
0
 40
0
 40
0
 40
0
 40
0
 40
1
 40
1
 40
1
 40
1
 10
204.452519
 20
107.539576
 30
0.0
 10
206.204886
 20
105.787214
 30
0.0
 10
207.314665
 20
103.641803
 30
0.0
 10
207.590951
 20
101.472418
 30
0.0
  0
LWPOLYLINE
  5
123
100
AcDbEntity
  8
0
 62
7
100
AcDbPolyline
 90
3
 70
0
 10
57.037089
 20
72.839805
 30
0.0
 10
56.165554
 20
72.782692
 30
0.0
 10
56.190422
 20
73.815469
 30
0.0
  0
SPLINE
  5
124
100
AcDbEntity
  8
0
 62
7
100
AcDbSpline
 70
8
 71
3
 72
8
 73
4
 74
0
 40
0
 40
0
 40
0
 40
0
 40
1
 40
1
 40
1
 40
1
 10
203.429680
 20
101.803562
 30
0.0
 10
203.093524
 20
102.825084
 30
0.0
 10
202.942254
 20
103.154779
 30
0.0
 10
202.485781
 20
103.860822
 30
0.0
  0
SPLINE
  5
125
100
AcDbEntity
  8
0
 62
7
100
AcDbSpline
 70
8
 71
3
 72
8
 73
4
 74
0
 40
0
 40
0
 40
0
 40
0
 40
1
 40
1
 40
1
 40
1
 10
202.485781
 20
103.860822
 30
0.0
 10
201.185941
 20
105.871288
 30
0.0
 10
199.482927
 20
106.826312
 30
0.0
 10
196.731924
 20
107.087490
 30
0.0
  0
SPLINE
  5
126
100
AcDbEntity
  8
0
 62
7
100
AcDbSpline
 70
8
 71
3
 72
8
 73
4
 74
0
 40
0
 40
0
 40
0
 40
0
 40
1
 40
1
 40
1
 40
1
 10
196.731924
 20
107.087490
 30
0.0
 10
194.514547
 20
107.298006
 30
0.0
 10
192.237932
 20
106.767228
 30
0.0
 10
190.638636
 20
105.666887
 30
0.0
  0
SPLINE
  5
127
100
AcDbEntity
  8
0
 62
7
100
AcDbSpline
 70
8
 71
3
 72
8
 73
4
 74
0
 40
0
 40
0
 40
0
 40
0
 40
1
 40
1
 40
1
 40
1
 10
190.638636
 20
105.666887
 30
0.0
 10
190.060821
 20
105.269340
 30
0.0
 10
189.067107
 20
104.315535
 30
0.0
 10
188.604808
 20
103.714754
 30
0.0
  0
SPLINE
  5
128
100
AcDbEntity
  8
0
 62
7
100
AcDbSpline
 70
8
 71
3
 72
8
 73
4
 74
0
 40
0
 40
0
 40
0
 40
0
 40
1
 40
1
 40
1
 40
1
 10
188.604808
 20
103.714754
 30
0.0
 10
187.010593
 20
101.642950
 30
0.0
 10
186.183638
 20
98.201022
 30
0.0
 10
186.319671
 20
94.203602
 30
0.0
  0
SPLINE
  5
129
100
AcDbEntity
  8
0
 62
7
100
AcDbSpline
 70
8
 71
3
 72
8
 73
4
 74
0
 40
0
 40
0
 40
0
 40
0
 40
1
 40
1
 40
1
 40
1
 10
186.319671
 20
94.203602
 30
0.0
 10
186.403604
 20
91.737016
 30
0.0
 10
186.840230
 20
89.807889
 30
0.0
 10
187.704727
 20
88.083980
 30
0.0
  0
SPLINE
  5
12a
100
AcDbEntity
  8
0
 62
7
100
AcDbSpline
 70
8
 71
3
 72
8
 73
4
 74
0
 40
0
 40
0
 40
0
 40
0
 40
1
 40
1
 40
1
 40
1
 10
187.704727
 20
88.083980
 30
0.0
 10
189.015277
 20
85.470608
 30
0.0
 10
190.910919
 20
83.999369
 30
0.0
 10
193.640824
 20
83.476867
 30
0.0
  0
SPLINE
  5
12b
100
AcDbEntity
  8
0
 62
7
100
AcDbSpline
 70
8
 71
3
 72
8
 73
4
 74
0
 40
0
 40
0
 40
0
 40
0
 40
1
 40
1
 40
1
 40
1
 10
193.640824
 20
83.476867
 30
0.0
 10
194.681105
 20
83.277758
 30
0.0
 10
196.549817
 20
83.279967
 30
0.0
 10
197.495488
 20
83.481418
 30
0.0
  0
SPLINE
  5
12c
100
AcDbEntity
  8
0
 62
7
100
AcDbSpline
 70
8
 71
3
 72
8
 73
4
 74
0
 40
0
 40
0
 40
0
 40
0
 40
1
 40
1
 40
1
 40
1
 10
197.495488
 20
83.481418
 30
0.0
 10
200.323939
 20
84.083956
 30
0.0
 10
202.358498
 20
86.095298
 30
0.0
 10
203.408883
 20
89.327326
 30
0.0
  0
SPLINE
  5
12d
100
AcDbEntity
  8
0
 62
7
100
AcDbSpline
 70
8
 71
3
 72
8
 73
4
 74
0
 40
0
 40
0
 40
0
 40
0
 40
1
 40
1
 40
1
 40
1
 10
203.408883
 20
89.327326
 30
0.0
 10
203.656544
 20
90.089408
 30
0.0
 10
203.744862
 20
90.407919
 30
0.0
 10
203.902194
 20
91.106506
 30
0.0
  0
LWPOLYLINE
  5
12e
100
AcDbEntity
  8
0
 62
7
100
AcDbPolyline
 90
5
 70
0
 10
207.590951
 20
101.472418
 30
0.0
 10
207.649905
 20
101.009490
 30
0.0
 10
205.662670
 20
101.033117
 30
0.0
 10
203.675443
 20
101.056744
 30
0.0
 10
203.429680
 20
101.803562
 30
0.0
  0
SPLINE
  5
12f
100
AcDbEntity
  8
0
 62
7
100
AcDbSpline
 70
8
 71
3
 72
8
 73
4
 74
0
 40
0
 40
0
 40
0
 40
0
 40
1
 40
1
 40
1
 40
1
 10
207.869314
 20
90.930786
 30
0.0
 10
207.561564
 20
88.702541
 30
0.0
 10
206.874639
 20
86.802330
 30
0.0
 10
205.771380
 20
85.127370
 30
0.0
  0
SPLINE
  5
130
100
AcDbEntity
  8
0
 62
7
100
AcDbSpline
 70
8
 71
3
 72
8
 73
4
 74
0
 40
0
 40
0
 40
0
 40
0
 40
1
 40
1
 40
1
 40
1
 10
205.771380
 20
85.127370
 30
0.0
 10
203.954454
 20
82.368924
 30
0.0
 10
201.528011
 20
80.720457
 30
0.0
 10
198.223135
 20
79.999271
 30
0.0
  0
SPLINE
  5
131
100
AcDbEntity
  8
0
 62
7
100
AcDbSpline
 70
8
 71
3
 72
8
 73
4
 74
0
 40
0
 40
0
 40
0
 40
0
 40
1
 40
1
 40
1
 40
1
 10
198.223135
 20
79.999271
 30
0.0
 10
197.578676
 20
79.858640
 30
0.0
 10
197.011420
 20
79.815571
 30
0.0
 10
195.518619
 20
79.793939
 30
0.0
  0
SPLINE
  5
132
100
AcDbEntity
  8
0
 62
7
100
AcDbSpline
 70
8
 71
3
 72
8
 73
4
 74
0
 40
0
 40
0
 40
0
 40
0
 40
1
 40
1
 40
1
 40
1
 10
195.518619
 20
79.793939
 30
0.0
 10
194.479667
 20
79.778884
 30
0.0
 10
193.511001
 20
79.783964
 30
0.0
 10
193.366030
 20
79.805210
 30
0.0
  0
LWPOLYLINE
  5
133
100
AcDbEntity
  8
0
 62
7
100
AcDbPolyline
 90
5
 70
0
 10
203.902194
 20
91.106506
 30
0.0
 10
203.956608
 20
91.348123
 30
0.0
 10
205.941779
 20
91.348123
 30
0.0
 10
207.926948
 20
91.348123
 30
0.0
 10
207.869314
 20
90.930786
 30
0.0
  0
LWPOLYLINE
  5
134
100
AcDbEntity
  8
0
 62
7
100
AcDbPolyline
 90
1
 70
1
 10
193.366030
 20
79.805210
 30
0.0
  0
SPLINE
  5
135
100
AcDbEntity
  8
0
 62
7
100
AcDbSpline
 70
8
 71
3
 72
8
 73
4
 74
0
 40
0
 40
0
 40
0
 40
0
 40
1
 40
1
 40
1
 40
1
 10
98.453617
 20
80.694993
 30
0.0
 10
98.493043
 20
80.840368
 30
0.0
 10
108.716755
 20
109.493574
 30
0.0
 10
108.846329
 20
109.821842
 30
0.0
  0
SPLINE
  5
136
100
AcDbEntity
  8
0
 62
7
100
AcDbSpline
 70
8
 71
3
 72
8
 73
4
 74
0
 40
0
 40
0
 40
0
 40
0
 40
1
 40
1
 40
1
 40
1
 10
108.846329
 20
109.821842
 30
0.0
 10
108.903447
 20
109.966543
 30
0.0
 10
109.135929
 20
109.975097
 30
0.0
 10
112.428856
 20
109.953634
 30
0.0
  0
LWPOLYLINE
  5
137
100
AcDbEntity
  8
0
 62
7
100
AcDbPolyline
 90
20
 70
1
 10
81.914582
 20
95.257924
 30
0.0
 10
81.914582
 20
109.974610
 30
0.0
 10
92.413950
 20
109.974610
 30
0.0
 10
102.913318
 20
109.974610
 30
0.0
 10
102.913318
 20
107.338786
 30
0.0
 10
102.913318
 20
104.702962
 30
0.0
 10
95.489077
 20
104.702962
 30
0.0
 10
88.064840
 20
104.702962
 30
0.0
 10
88.064840
 20
101.364251
 30
0.0
 10
88.064840
 20
98.025540
 30
0.0
 10
94.566539
 20
98.025540
 30
0.0
 10
101.068240
 20
98.025540
 30
0.0
 10
101.068240
 20
95.433645
 30
0.0
 10
101.068240
 20
92.841752
 30
0.0
 10
94.566539
 20
92.841752
 30
0.0
 10
88.064840
 20
92.841752
 30
0.0
 10
88.064840
 20
86.691494
 30
0.0
 10
88.064840
 20
80.541238
 30
0.0
 10
84.989710
 20
80.541238
 30
0.0
 10
81.914582
 20
80.541238
 30
0.0
  0
SPLINE
  5
138
100
AcDbEntity
  8
0
 62
7
100
AcDbSpline
 70
8
 71
3
 72
8
 73
4
 74
0
 40
0
 40
0
 40
0
 40
0
 40
1
 40
1
 40
1
 40
1
 10
119.229651
 20
100.661354
 30
0.0
 10
121.033294
 20
95.563230
 30
0.0
 10
123.372745
 20
88.950604
 30
0.0
 10
124.428446
 20
85.966631
 30
0.0
  0
LWPOLYLINE
  5
139
100
AcDbEntity
  8
0
 62
7
100
AcDbPolyline
 90
3
 70
0
 10
112.428856
 20
109.953634
 30
0.0
 10
115.950299
 20
109.930668
 30
0.0
 10
119.229651
 20
100.661354
 30
0.0
  0
SPLINE
  5
13a
100
AcDbEntity
  8
0
 62
7
100
AcDbSpline
 70
8
 71
3
 72
8
 73
4
 74
0
 40
0
 40
0
 40
0
 40
0
 40
1
 40
1
 40
1
 40
1
 10
119.095242
 20
82.013139
 30
0.0
 10
118.838004
 20
82.822402
 30
0.0
 10
118.407625
 20
84.166543
 30
0.0
 10
118.138832
 20
85.000124
 30
0.0
  0
LWPOLYLINE
  5
13b
100
AcDbEntity
  8
0
 62
7
100
AcDbPolyline
 90
5
 70
0
 10
124.428446
 20
85.966631
 30
0.0
 10
126.347889
 20
80.541228
 30
0.0
 10
122.955415
 20
80.541490
 30
0.0
 10
119.562944
 20
80.541754
 30
0.0
 10
119.095242
 20
82.013139
 30
0.0
  0
SPLINE
  5
13c
100
AcDbEntity
  8
0
 62
7
100
AcDbSpline
 70
8
 71
3
 72
8
 73
4
 74
0
 40
0
 40
0
 40
0
 40
0
 40
1
 40
1
 40
1
 40
1
 10
101.666178
 20
80.541188
 30
0.0
 10
98.609573
 20
80.541188
 30
0.0
 10
98.414454
 20
80.550528
 30
0.0
 10
98.453617
 20
80.694943
 30
0.0
  0
LWPOLYLINE
  5
13d
100
AcDbEntity
  8
0
 62
7
100
AcDbPolyline
 90
7
 70
0
 10
118.138832
 20
85.000124
 30
0.0
 10
117.650133
 20
86.515723
 30
0.0
 10
112.279589
 20
86.515723
 30
0.0
 10
106.909047
 20
86.515723
 30
0.0
 10
105.914740
 20
83.528456
 30
0.0
 10
104.920434
 20
80.541188
 30
0.0
 10
101.666178
 20
80.541188
 30
0.0
  0
SPLINE
  5
13e
100
AcDbEntity
  8
0
 62
7
100
AcDbSpline
 70
8
 71
3
 72
8
 73
4
 74
0
 40
0
 40
0
 40
0
 40
0
 40
1
 40
1
 40
1
 40
1
 10
115.528918
 20
93.127298
 30
0.0
 10
115.277233
 20
93.912555
 30
0.0
 10
114.460890
 20
96.463739
 30
0.0
 10
113.714829
 20
98.796597
 30
0.0
  0
LWPOLYLINE
  5
13f
100
AcDbEntity
  8
0
 62
7
100
AcDbPolyline
 90
1
 70
1
 10
98.453617
 20
80.694943
 30
0.0
  0
SPLINE
  5
140
100
AcDbEntity
  8
0
 62
7
100
AcDbSpline
 70
8
 71
3
 72
8
 73
4
 74
0
 40
0
 40
0
 40
0
 40
0
 40
1
 40
1
 40
1
 40
1
 10
110.534678
 20
97.522615
 30
0.0
 10
109.531655
 20
94.489066
 30
0.0
 10
108.688820
 20
91.937882
 30
0.0
 10
108.661713
 20
91.853316
 30
0.0
  0
SPLINE
  5
141
100
AcDbEntity
  8
0
 62
7
100
AcDbSpline
 70
8
 71
3
 72
8
 73
4
 74
0
 40
0
 40
0
 40
0
 40
0
 40
1
 40
1
 40
1
 40
1
 10
108.661713
 20
91.853316
 30
0.0
 10
108.615308
 20
91.708542
 30
0.0
 10
108.827800
 20
91.699562
 30
0.0
 10
112.299480
 20
91.699562
 30
0.0
  0
LWPOLYLINE
  5
142
100
AcDbEntity
  8
0
 62
7
100
AcDbPolyline
 90
3
 70
0
 10
113.714829
 20
98.796597
 30
0.0
 10
112.358355
 20
103.038156
 30
0.0
 10
110.534678
 20
97.522615
 30
0.0
  0
LWPOLYLINE
  5
143
100
AcDbEntity
  8
0
 62
7
100
AcDbPolyline
 90
3
 70
0
 10
112.299480
 20
91.699562
 30
0.0
 10
115.986523
 20
91.699562
 30
0.0
 10
115.528918
 20
93.127298
 30
0.0
  0
SPLINE
  5
144
100
AcDbEntity
  8
0
 62
7
100
AcDbSpline
 70
8
 71
3
 72
8
 73
4
 74
0
 40
0
 40
0
 40
0
 40
0
 40
1
 40
1
 40
1
 40
1
 10
136.032348
 20
109.974610
 30
0.0
 10
142.237651
 20
109.974610
 30
0.0
 10
143.763010
 20
109.951115
 30
0.0
 10
144.588709
 20
109.842887
 30
0.0
  0
SPLINE
  5
145
100
AcDbEntity
  8
0
 62
7
100
AcDbSpline
 70
8
 71
3
 72
8
 73
4
 74
0
 40
0
 40
0
 40
0
 40
0
 40
1
 40
1
 40
1
 40
1
 10
144.588709
 20
109.842887
 30
0.0
 10
148.021746
 20
109.392855
 30
0.0
 10
150.269808
 20
107.810197
 30
0.0
 10
151.233113
 20
105.165155
 30
0.0
  0
SPLINE
  5
146
100
AcDbEntity
  8
0
 62
7
100
AcDbSpline
 70
8
 71
3
 72
8
 73
4
 74
0
 40
0
 40
0
 40
0
 40
0
 40
1
 40
1
 40
1
 40
1
 10
151.233113
 20
105.165155
 30
0.0
 10
151.598921
 20
104.160714
 30
0.0
 10
151.705434
 20
103.328544
 30
0.0
 10
151.654290
 20
101.874614
 30
0.0
  0
SPLINE
  5
147
100
AcDbEntity
  8
0
 62
7
100
AcDbSpline
 70
8
 71
3
 72
8
 73
4
 74
0
 40
0
 40
0
 40
0
 40
0
 40
1
 40
1
 40
1
 40
1
 10
151.654290
 20
101.874614
 30
0.0
 10
151.620376
 20
100.910536
 30
0.0
 10
151.564533
 20
100.474044
 30
0.0
 10
151.414747
 20
100.002406
 30
0.0
  0
SPLINE
  5
148
100
AcDbEntity
  8
0
 62
7
100
AcDbSpline
 70
8
 71
3
 72
8
 73
4
 74
0
 40
0
 40
0
 40
0
 40
0
 40
1
 40
1
 40
1
 40
1
 10
151.414747
 20
100.002406
 30
0.0
 10
150.954769
 20
98.554016
 30
0.0
 10
150.186919
 20
97.552822
 30
0.0
 10
148.921126
 20
96.750971
 30
0.0
  0
LWPOLYLINE
  5
149
100
AcDbEntity
  8
0
 62
7
100
AcDbPolyline
 90
3
 70
0
 10
128.480815
 20
95.254027
 30
0.0
 10
128.480815
 20
109.974610
 30
0.0
 10
136.032348
 20
109.974610
 30
0.0
  0
SPLINE
  5
14a
100
AcDbEntity
  8
0
 62
7
100
AcDbSpline
 70
8
 71
3
 72
8
 73
4
 74
0
 40
0
 40
0
 40
0
 40
0
 40
1
 40
1
 40
1
 40
1
 10
148.782252
 20
96.076619
 30
0.0
 10
150.258060
 20
95.406697
 30
0.0
 10
151.480528
 20
94.132464
 30
0.0
 10
152.066032
 20
92.653797
 30
0.0
  0
SPLINE
  5
14b
100
AcDbEntity
  8
0
 62
7
100
AcDbSpline
 70
8
 71
3
 72
8
 73
4
 74
0
 40
0
 40
0
 40
0
 40
0
 40
1
 40
1
 40
1
 40
1
 10
152.066032
 20
92.653797
 30
0.0
 10
152.411240
 20
91.781990
 30
0.0
 10
152.558194
 20
91.041911
 30
0.0
 10
152.614733
 20
89.890571
 30
0.0
  0
SPLINE
  5
14c
100
AcDbEntity
  8
0
 62
7
100
AcDbSpline
 70
8
 71
3
 72
8
 73
4
 74
0
 40
0
 40
0
 40
0
 40
0
 40
1
 40
1
 40
1
 40
1
 10
152.614733
 20
89.890571
 30
0.0
 10
152.743255
 20
87.273077
 30
0.0
 10
151.936334
 20
85.058967
 30
0.0
 10
150.188464
 20
83.233159
 30
0.0
  0
SPLINE
  5
14d
100
AcDbEntity
  8
0
 62
7
100
AcDbSpline
 70
8
 71
3
 72
8
 73
4
 74
0
 40
0
 40
0
 40
0
 40
0
 40
1
 40
1
 40
1
 40
1
 10
150.188464
 20
83.233159
 30
0.0
 10
148.911022
 20
81.898755
 30
0.0
 10
147.576503
 20
81.216889
 30
0.0
 10
145.394024
 20
80.783464
 30
0.0
  0
SPLINE
  5
14e
100
AcDbEntity
  8
0
 62
7
100
AcDbSpline
 70
8
 71
3
 72
8
 73
4
 74
0
 40
0
 40
0
 40
0
 40
0
 40
1
 40
1
 40
1
 40
1
 10
145.394024
 20
80.783464
 30
0.0
 10
144.450599
 20
80.596105
 30
0.0
 10
144.237432
 20
80.590837
 30
0.0
 10
136.454184
 20
80.562484
 30
0.0
  0
LWPOLYLINE
  5
14f
100
AcDbEntity
  8
0
 62
7
100
AcDbPolyline
 90
3
 70
0
 10
148.921126
 20
96.750971
 30
0.0
 10
148.243007
 20
96.321401
 30
0.0
 10
148.782252
 20
96.076619
 30
0.0
  0
SPLINE
  5
150
100
AcDbEntity
  8
0
 62
7
100
AcDbSpline
 70
8
 71
3
 72
8
 73
4
 74
0
 40
0
 40
0
 40
0
 40
0
 40
1
 40
1
 40
1
 40
1
 10
143.305228
 20
85.863708
 30
0.0
 10
144.905420
 20
86.194239
 30
0.0
 10
145.902728
 20
87.137777
 30
0.0
 10
146.230213
 20
88.630998
 30
0.0
  0
SPLINE
  5
151
100
AcDbEntity
  8
0
 62
7
100
AcDbSpline
 70
8
 71
3
 72
8
 73
4
 74
0
 40
0
 40
0
 40
0
 40
0
 40
1
 40
1
 40
1
 40
1
 10
146.230213
 20
88.630998
 30
0.0
 10
146.390619
 20
89.362399
 30
0.0
 10
146.304437
 20
90.846119
 30
0.0
 10
146.071262
 20
91.367419
 30
0.0
  0
SPLINE
  5
152
100
AcDbEntity
  8
0
 62
7
100
AcDbSpline
 70
8
 71
3
 72
8
 73
4
 74
0
 40
0
 40
0
 40
0
 40
0
 40
1
 40
1
 40
1
 40
1
 10
146.071262
 20
91.367419
 30
0.0
 10
145.810123
 20
91.951260
 30
0.0
 10
145.226061
 20
92.549546
 30
0.0
 10
144.617210
 20
92.856891
 30
0.0
  0
SPLINE
  5
153
100
AcDbEntity
  8
0
 62
7
100
AcDbSpline
 70
8
 71
3
 72
8
 73
4
 74
0
 40
0
 40
0
 40
0
 40
0
 40
1
 40
1
 40
1
 40
1
 10
144.617210
 20
92.856891
 30
0.0
 10
143.606285
 20
93.367209
 30
0.0
 10
143.342490
 20
93.392683
 30
0.0
 10
138.650705
 20
93.433093
 30
0.0
  0
LWPOLYLINE
  5
154
100
AcDbEntity
  8
0
 62
7
100
AcDbPolyline
 90
3
 70
0
 10
136.454184
 20
80.562484
 30
0.0
 10
128.480815
 20
80.533441
 30
0.0
 10
128.480815
 20
95.254027
 30
0.0
  0
SPLINE
  5
155
100
AcDbEntity
  8
0
 62
7
100
AcDbSpline
 70
8
 71
3
 72
8
 73
4
 74
0
 40
0
 40
0
 40
0
 40
0
 40
1
 40
1
 40
1
 40
1
 10
138.500657
 20
85.725024
 30
0.0
 10
141.923722
 20
85.725024
 30
0.0
 10
142.749167
 20
85.748863
 30
0.0
 10
143.305228
 20
85.863708
 30
0.0
  0
LWPOLYLINE
  5
156
100
AcDbEntity
  8
0
 62
7
100
AcDbPolyline
 90
5
 70
0
 10
138.650705
 20
93.433093
 30
0.0
 10
134.367490
 20
93.469984
 30
0.0
 10
134.367490
 20
89.597505
 30
0.0
 10
134.367490
 20
85.725024
 30
0.0
 10
138.500657
 20
85.725024
 30
0.0
  0
SPLINE
  5
157
100
AcDbEntity
  8
0
 62
7
100
AcDbSpline
 70
8
 71
3
 72
8
 73
4
 74
0
 40
0
 40
0
 40
0
 40
0
 40
1
 40
1
 40
1
 40
1
 10
143.279828
 20
98.588936
 30
0.0
 10
145.033153
 20
99.105056
 30
0.0
 10
145.734783
 20
99.986428
 30
0.0
 10
145.733974
 20
101.671763
 30
0.0
  0
SPLINE
  5
158
100
AcDbEntity
  8
0
 62
7
100
AcDbSpline
 70
8
 71
3
 72
8
 73
4
 74
0
 40
0
 40
0
 40
0
 40
0
 40
1
 40
1
 40
1
 40
1
 10
145.733974
 20
101.671763
 30
0.0
 10
145.733180
 20
103.357132
 30
0.0
 10
145.008243
 20
104.195441
 30
0.0
 10
143.211315
 20
104.589006
 30
0.0
  0
SPLINE
  5
159
100
AcDbEntity
  8
0
 62
7
100
AcDbSpline
 70
8
 71
3
 72
8
 73
4
 74
0
 40
0
 40
0
 40
0
 40
0
 40
1
 40
1
 40
1
 40
1
 10
143.211315
 20
104.589006
 30
0.0
 10
142.707185
 20
104.699422
 30
0.0
 10
141.767901
 20
104.734445
 30
0.0
 10
138.474984
 20
104.765605
 30
0.0
  0
LWPOLYLINE
  5
15a
100
AcDbEntity
  8
0
 62
7
100
AcDbPolyline
 90
1
 70
1
 10
143.305228
 20
85.863708
 30
0.0
  0
SPLINE
  5
15b
100
AcDbEntity
  8
0
 62
7
100
AcDbSpline
 70
8
 71
3
 72
8
 73
4
 74
0
 40
0
 40
0
 40
0
 40
0
 40
1
 40
1
 40
1
 40
1
 10
138.562845
 20
98.400116
 30
0.0
 10
142.230269
 20
98.430945
 30
0.0
 10
142.823840
 20
98.454707
 30
0.0
 10
143.279828
 20
98.588936
 30
0.0
  0
LWPOLYLINE
  5
15c
100
AcDbEntity
  8
0
 62
7
100
AcDbPolyline
 90
5
 70
0
 10
138.474984
 20
104.765605
 30
0.0
 10
134.367490
 20
104.804475
 30
0.0
 10
134.367490
 20
101.584662
 30
0.0
 10
134.367490
 20
98.364850
 30
0.0
 10
138.562845
 20
98.400116
 30
0.0
  0
SPLINE
  5
15d
100
AcDbEntity
  8
0
 62
7
100
AcDbSpline
 70
8
 71
3
 72
8
 73
4
 74
0
 40
0
 40
0
 40
0
 40
0
 40
1
 40
1
 40
1
 40
1
 10
154.596505
 20
80.693379
 30
0.0
 10
154.619788
 20
80.778834
 30
0.0
 10
157.060395
 20
87.273572
 30
0.0
 10
160.020048
 20
95.126133
 30
0.0
  0
SPLINE
  5
15e
100
AcDbEntity
  8
0
 62
7
100
AcDbSpline
 70
8
 71
3
 72
8
 73
4
 74
0
 40
0
 40
0
 40
0
 40
0
 40
1
 40
1
 40
1
 40
1
 10
160.020048
 20
95.126133
 30
0.0
 10
162.979709
 20
102.978693
 30
0.0
 10
165.440619
 20
109.512891
 30
0.0
 10
165.488760
 20
109.646572
 30
0.0
  0
LWPOLYLINE
  5
15f
100
AcDbEntity
  8
0
 62
7
100
AcDbPolyline
 90
1
 70
1
 10
143.279828
 20
98.588936
 30
0.0
  0
SPLINE
  5
160
100
AcDbEntity
  8
0
 62
7
100
AcDbSpline
 70
8
 71
3
 72
8
 73
4
 74
0
 40
0
 40
0
 40
0
 40
0
 40
1
 40
1
 40
1
 40
1
 10
175.452966
 20
95.257906
 30
0.0
 10
178.366563
 20
87.236213
 30
0.0
 10
180.752126
 20
80.643357
 30
0.0
 10
180.754208
 20
80.607114
 30
0.0
  0
SPLINE
  5
161
100
AcDbEntity
  8
0
 62
7
100
AcDbSpline
 70
8
 71
3
 72
8
 73
4
 74
0
 40
0
 40
0
 40
0
 40
0
 40
1
 40
1
 40
1
 40
1
 10
180.754208
 20
80.607114
 30
0.0
 10
180.756325
 20
80.570872
 30
0.0
 10
179.759684
 20
80.541355
 30
0.0
 10
178.539518
 20
80.541521
 30
0.0
  0
LWPOLYLINE
  5
162
100
AcDbEntity
  8
0
 62
7
100
AcDbPolyline
 90
5
 70
0
 10
165.488760
 20
109.646572
 30
0.0
 10
165.576276
 20
109.889631
 30
0.0
 10
167.865904
 20
109.866216
 30
0.0
 10
170.155521
 20
109.842800
 30
0.0
 10
175.452966
 20
95.257906
 30
0.0
  0
SPLINE
  5
163
100
AcDbEntity
  8
0
 62
7
100
AcDbSpline
 70
8
 71
3
 72
8
 73
4
 74
0
 40
0
 40
0
 40
0
 40
0
 40
1
 40
1
 40
1
 40
1
 10
156.642562
 20
80.561537
 30
0.0
 10
154.681571
 20
80.539392
 30
0.0
 10
154.556719
 20
80.547435
 30
0.0
 10
154.596505
 20
80.693329
 30
0.0
  0
LWPOLYLINE
  5
164
100
AcDbEntity
  8
0
 62
7
100
AcDbPolyline
 90
9
 70
0
 10
178.539518
 20
80.541521
 30
0.0
 10
176.321032
 20
80.541786
 30
0.0
 10
174.814815
 20
84.868628
 30
0.0
 10
173.308608
 20
89.195471
 30
0.0
 10
167.578863
 20
89.195471
 30
0.0
 10
161.849115
 20
89.195471
 30
0.0
 10
160.290052
 20
84.890290
 30
0.0
 10
158.730987
 20
80.585112
 30
0.0
 10
156.642562
 20
80.561537
 30
0.0
  0
SPLINE
  5
165
100
AcDbEntity
  8
0
 62
7
100
AcDbSpline
 70
8
 71
3
 72
8
 73
4
 74
0
 40
0
 40
0
 40
0
 40
0
 40
1
 40
1
 40
1
 40
1
 10
171.895061
 20
93.259090
 30
0.0
 10
171.758568
 20
93.633597
 30
0.0
 10
170.763536
 20
96.480598
 30
0.0
 10
169.683867
 20
99.585756
 30
0.0
  0
SPLINE
  5
166
100
AcDbEntity
  8
0
 62
7
100
AcDbSpline
 70
8
 71
3
 72
8
 73
4
 74
0
 40
0
 40
0
 40
0
 40
0
 40
1
 40
1
 40
1
 40
1
 10
169.683867
 20
99.585756
 30
0.0
 10
168.604197
 20
102.690919
 30
0.0
 10
167.693829
 20
105.201540
 30
0.0
 10
167.660820
 20
105.164919
 30
0.0
  0
SPLINE
  5
167
100
AcDbEntity
  8
0
 62
7
100
AcDbSpline
 70
8
 71
3
 72
8
 73
4
 74
0
 40
0
 40
0
 40
0
 40
0
 40
1
 40
1
 40
1
 40
1
 10
167.660820
 20
105.164919
 30
0.0
 10
167.616431
 20
105.115680
 30
0.0
 10
165.038270
 20
98.033758
 30
0.0
 10
163.118617
 20
92.687995
 30
0.0
  0
SPLINE
  5
168
100
AcDbEntity
  8
0
 62
7
100
AcDbSpline
 70
8
 71
3
 72
8
 73
4
 74
0
 40
0
 40
0
 40
0
 40
0
 40
1
 40
1
 40
1
 40
1
 10
163.118617
 20
92.687995
 30
0.0
 10
163.087391
 20
92.601042
 30
0.0
 10
164.023127
 20
92.578169
 30
0.0
 10
167.611203
 20
92.578169
 30
0.0
  0
LWPOLYLINE
  5
169
100
AcDbEntity
  8
0
 62
7
100
AcDbPolyline
 90
1
 70
1
 10
154.596505
 20
80.693329
 30
0.0
  0
SPLINE
  5
16a
100
AcDbEntity
  8
0
 62
7
100
AcDbSpline
 70
8
 71
3
 72
8
 73
4
 74
0
 40
0
 40
0
 40
0
 40
0
 40
1
 40
1
 40
1
 40
1
 10
209.664213
 20
80.588570
 30
0.0
 10
209.664213
 20
80.616354
 30
0.0
 10
212.142133
 20
87.220451
 30
0.0
 10
215.170713
 20
95.264346
 30
0.0
  0
LWPOLYLINE
  5
16b
100
AcDbEntity
  8
0
 62
7
100
AcDbPolyline
 90
3
 70
0
 10
167.611203
 20
92.578169
 30
0.0
 10
172.143224
 20
92.578169
 30
0.0
 10
171.895061
 20
93.259090
 30
0.0
  0
SPLINE
  5
16c
100
AcDbEntity
  8
0
 62
7
100
AcDbSpline
 70
8
 71
3
 72
8
 73
4
 74
0
 40
0
 40
0
 40
0
 40
0
 40
1
 40
1
 40
1
 40
1
 10
230.549855
 20
95.257935
 30
0.0
 10
233.462089
 20
87.236242
 30
0.0
 10
235.845260
 20
80.643386
 30
0.0
 10
235.845787
 20
80.607143
 30
0.0
  0
SPLINE
  5
16d
100
AcDbEntity
  8
0
 62
7
100
AcDbSpline
 70
8
 71
3
 72
8
 73
4
 74
0
 40
0
 40
0
 40
0
 40
0
 40
1
 40
1
 40
1
 40
1
 10
235.845787
 20
80.607143
 30
0.0
 10
235.846580
 20
80.570901
 30
0.0
 10
234.848419
 20
80.541937
 30
0.0
 10
233.628250
 20
80.542776
 30
0.0
  0
LWPOLYLINE
  5
16e
100
AcDbEntity
  8
0
 62
7
100
AcDbPolyline
 90
5
 70
0
 10
215.170713
 20
95.264346
 30
0.0
 10
220.677206
 20
109.889608
 30
0.0
 10
222.966042
 20
109.866218
 30
0.0
 10
225.254878
 20
109.842829
 30
0.0
 10
230.549855
 20
95.257935
 30
0.0
  0
SPLINE
  5
16f
100
AcDbEntity
  8
0
 62
7
100
AcDbSpline
 70
8
 71
3
 72
8
 73
4
 74
0
 40
0
 40
0
 40
0
 40
0
 40
1
 40
1
 40
1
 40
1
 10
216.830862
 20
88.866745
 30
0.0
 10
216.753411
 20
88.661020
 30
0.0
 10
216.046704
 20
86.713520
 30
0.0
 10
215.260394
 20
84.538966
 30
0.0
  0
LWPOLYLINE
  5
170
100
AcDbEntity
  8
0
 62
7
100
AcDbPolyline
 90
7
 70
0
 10
233.628250
 20
80.542776
 30
0.0
 10
231.409764
 20
80.544363
 30
0.0
 10
229.908978
 20
84.869978
 30
0.0
 10
228.408193
 20
89.195595
 30
0.0
 10
222.689939
 20
89.218191
 30
0.0
 10
216.971676
 20
89.240786
 30
0.0
 10
216.830862
 20
88.866745
 30
0.0
  0
SPLINE
  5
171
100
AcDbEntity
  8
0
 62
7
100
AcDbSpline
 70
8
 71
3
 72
8
 73
4
 74
0
 40
0
 40
0
 40
0
 40
0
 40
1
 40
1
 40
1
 40
1
 10
211.747470
 20
80.561680
 30
0.0
 10
210.601679
 20
80.548715
 30
0.0
 10
209.664213
 20
80.560886
 30
0.0
 10
209.664213
 20
80.588638
 30
0.0
  0
LWPOLYLINE
  5
172
100
AcDbEntity
  8
0
 62
7
100
AcDbPolyline
 90
3
 70
0
 10
215.260394
 20
84.538966
 30
0.0
 10
213.830731
 20
80.585228
 30
0.0
 10
211.747470
 20
80.561680
 30
0.0
  0
SPLINE
  5
173
100
AcDbEntity
  8
0
 62
7
100
AcDbSpline
 70
8
 71
3
 72
8
 73
4
 74
0
 40
0
 40
0
 40
0
 40
0
 40
1
 40
1
 40
1
 40
1
 10
226.976871
 20
93.303021
 30
0.0
 10
226.840264
 20
93.701687
 30
0.0
 10
225.860134
 20
96.518725
 30
0.0
 10
224.798800
 20
99.563103
 30
0.0
  0
SPLINE
  5
174
100
AcDbEntity
  8
0
 62
7
100
AcDbSpline
 70
8
 71
3
 72
8
 73
4
 74
0
 40
0
 40
0
 40
0
 40
0
 40
1
 40
1
 40
1
 40
1
 10
224.798800
 20
99.563103
 30
0.0
 10
223.737469
 20
102.607480
 30
0.0
 10
222.851805
 20
105.152608
 30
0.0
 10
222.830657
 20
105.218944
 30
0.0
  0
SPLINE
  5
175
100
AcDbEntity
  8
0
 62
7
100
AcDbSpline
 70
8
 71
3
 72
8
 73
4
 74
0
 40
0
 40
0
 40
0
 40
0
 40
1
 40
1
 40
1
 40
1
 10
222.830657
 20
105.218944
 30
0.0
 10
222.809517
 20
105.285278
 30
0.0
 10
221.774578
 20
102.527730
 30
0.0
 10
220.530796
 20
99.091054
 30
0.0
  0
SPLINE
  5
176
100
AcDbEntity
  8
0
 62
7
100
AcDbSpline
 70
8
 71
3
 72
8
 73
4
 74
0
 40
0
 40
0
 40
0
 40
0
 40
1
 40
1
 40
1
 40
1
 10
220.530796
 20
99.091054
 30
0.0
 10
219.287011
 20
95.654381
 30
0.0
 10
218.246537
 20
92.783070
 30
0.0
 10
218.218642
 20
92.710362
 30
0.0
  0
SPLINE
  5
177
100
AcDbEntity
  8
0
 62
7
100
AcDbSpline
 70
8
 71
3
 72
8
 73
4
 74
0
 40
0
 40
0
 40
0
 40
0
 40
1
 40
1
 40
1
 40
1
 10
218.218642
 20
92.710362
 30
0.0
 10
218.173885
 20
92.593732
 30
0.0
 10
218.701067
 20
92.578169
 30
0.0
 10
222.696572
 20
92.578169
 30
0.0
  0
LWPOLYLINE
  5
178
100
AcDbEntity
  8
0
 62
7
100
AcDbPolyline
 90
1
 70
1
 10
209.664213
 20
80.588638
 30
0.0
  0
LWPOLYLINE
  5
179
100
AcDbEntity
  8
0
 62
7
100
AcDbPolyline
 90
3
 70
0
 10
222.696572
 20
92.578169
 30
0.0
 10
227.225236
 20
92.578169
 30
0.0
 10
226.976871
 20
93.303021
 30
0.0
  0
SPLINE
  5
17a
100
AcDbEntity
  8
0
 62
7
100
AcDbSpline
 70
8
 71
3
 72
8
 73
4
 74
0
 40
0
 40
0
 40
0
 40
0
 40
1
 40
1
 40
1
 40
1
 10
245.533392
 20
109.861694
 30
0.0
 10
253.058996
 20
109.822956
 30
0.0
 10
252.895838
 20
109.834344
 30
0.0
 10
254.736812
 20
109.219304
 30
0.0
  0
SPLINE
  5
17b
100
AcDbEntity
  8
0
 62
7
100
AcDbSpline
 70
8
 71
3
 72
8
 73
4
 74
0
 40
0
 40
0
 40
0
 40
0
 40
1
 40
1
 40
1
 40
1
 10
254.736812
 20
109.219304
 30
0.0
 10
258.032507
 20
108.118270
 30
0.0
 10
260.549887
 20
105.439213
 30
0.0
 10
261.794416
 20
101.708426
 30
0.0
  0
SPLINE
  5
17c
100
AcDbEntity
  8
0
 62
7
100
AcDbSpline
 70
8
 71
3
 72
8
 73
4
 74
0
 40
0
 40
0
 40
0
 40
0
 40
1
 40
1
 40
1
 40
1
 10
261.794416
 20
101.708426
 30
0.0
 10
262.440870
 20
99.770507
 30
0.0
 10
262.679783
 20
98.103002
 30
0.0
 10
262.674537
 20
95.565436
 30
0.0
  0
SPLINE
  5
17d
100
AcDbEntity
  8
0
 62
7
100
AcDbSpline
 70
8
 71
3
 72
8
 73
4
 74
0
 40
0
 40
0
 40
0
 40
0
 40
1
 40
1
 40
1
 40
1
 10
262.674537
 20
95.565436
 30
0.0
 10
262.668901
 20
92.856902
 30
0.0
 10
262.295812
 20
90.588999
 30
0.0
 10
261.503933
 20
88.450494
 30
0.0
  0
SPLINE
  5
17e
100
AcDbEntity
  8
0
 62
7
100
AcDbSpline
 70
8
 71
3
 72
8
 73
4
 74
0
 40
0
 40
0
 40
0
 40
0
 40
1
 40
1
 40
1
 40
1
 10
261.503933
 20
88.450494
 30
0.0
 10
259.913308
 20
84.154941
 30
0.0
 10
257.392784
 20
81.763981
 30
0.0
 10
253.418901
 20
80.781059
 30
0.0
  0
SPLINE
  5
17f
100
AcDbEntity
  8
0
 62
7
100
AcDbSpline
 70
8
 71
3
 72
8
 73
4
 74
0
 40
0
 40
0
 40
0
 40
0
 40
1
 40
1
 40
1
 40
1
 10
253.418901
 20
80.781059
 30
0.0
 10
252.697729
 20
80.602683
 30
0.0
 10
252.432979
 20
80.595258
 30
0.0
 10
245.709115
 20
80.564844
 30
0.0
  0
LWPOLYLINE
  5
180
100
AcDbEntity
  8
0
 62
7
100
AcDbPolyline
 90
3
 70
0
 10
238.746144
 20
95.214990
 30
0.0
 10
238.746144
 20
109.896632
 30
0.0
 10
245.533392
 20
109.861694
 30
0.0
  0
SPLINE
  5
181
100
AcDbEntity
  8
0
 62
7
100
AcDbSpline
 70
8
 71
3
 72
8
 73
4
 74
0
 40
0
 40
0
 40
0
 40
0
 40
1
 40
1
 40
1
 40
1
 10
251.224682
 20
84.060086
 30
0.0
 10
252.797056
 20
84.254972
 30
0.0
 10
253.848470
 20
84.674453
 30
0.0
 10
254.941327
 20
85.542906
 30
0.0
  0
SPLINE
  5
182
100
AcDbEntity
  8
0
 62
7
100
AcDbSpline
 70
8
 71
3
 72
8
 73
4
 74
0
 40
0
 40
0
 40
0
 40
0
 40
1
 40
1
 40
1
 40
1
 10
254.941327
 20
85.542906
 30
0.0
 10
256.763761
 20
86.991132
 30
0.0
 10
257.913561
 20
89.416189
 30
0.0
 10
258.388731
 20
92.813875
 30
0.0
  0
SPLINE
  5
183
100
AcDbEntity
  8
0
 62
7
100
AcDbSpline
 70
8
 71
3
 72
8
 73
4
 74
0
 40
0
 40
0
 40
0
 40
0
 40
1
 40
1
 40
1
 40
1
 10
258.388731
 20
92.813875
 30
0.0
 10
258.568055
 20
94.096179
 30
0.0
 10
258.520618
 20
97.081351
 30
0.0
 10
258.300315
 20
98.376983
 30
0.0
  0
SPLINE
  5
184
100
AcDbEntity
  8
0
 62
7
100
AcDbSpline
 70
8
 71
3
 72
8
 73
4
 74
0
 40
0
 40
0
 40
0
 40
0
 40
1
 40
1
 40
1
 40
1
 10
258.300315
 20
98.376983
 30
0.0
 10
257.847708
 20
101.038903
 30
0.0
 10
257.002111
 20
102.899625
 30
0.0
 10
255.624102
 20
104.265921
 30
0.0
  0
SPLINE
  5
185
100
AcDbEntity
  8
0
 62
7
100
AcDbSpline
 70
8
 71
3
 72
8
 73
4
 74
0
 40
0
 40
0
 40
0
 40
0
 40
1
 40
1
 40
1
 40
1
 10
255.624102
 20
104.265921
 30
0.0
 10
255.010560
 20
104.874253
 30
0.0
 10
254.711771
 20
105.093450
 30
0.0
 10
254.033925
 20
105.432527
 30
0.0
  0
SPLINE
  5
186
100
AcDbEntity
  8
0
 62
7
100
AcDbSpline
 70
8
 71
3
 72
8
 73
4
 74
0
 40
0
 40
0
 40
0
 40
0
 40
1
 40
1
 40
1
 40
1
 10
254.033925
 20
105.432527
 30
0.0
 10
253.574854
 20
105.662166
 30
0.0
 10
252.803874
 20
105.955648
 30
0.0
 10
252.320639
 20
106.084709
 30
0.0
  0
LWPOLYLINE
  5
187
100
AcDbEntity
  8
0
 62
7
100
AcDbPolyline
 90
3
 70
0
 10
245.709115
 20
80.564844
 30
0.0
 10
238.746144
 20
80.533351
 30
0.0
 10
238.746144
 20
95.214990
 30
0.0
  0
SPLINE
  5
188
100
AcDbEntity
  8
0
 62
7
100
AcDbSpline
 70
8
 71
3
 72
8
 73
4
 74
0
 40
0
 40
0
 40
0
 40
0
 40
1
 40
1
 40
1
 40
1
 10
246.633955
 20
83.967809
 30
0.0
 10
248.789679
 20
83.967809
 30
0.0
 10
250.807405
 20
84.008367
 30
0.0
 10
251.224682
 20
84.060086
 30
0.0
  0
LWPOLYLINE
  5
189
100
AcDbEntity
  8
0
 62
7
100
AcDbPolyline
 90
7
 70
0
 10
252.320639
 20
106.084709
 30
0.0
 10
251.442032
 20
106.319368
 30
0.0
 10
247.114885
 20
106.351758
 30
0.0
 10
242.787741
 20
106.384148
 30
0.0
 10
242.787741
 20
95.175980
 30
0.0
 10
242.787741
 20
83.967809
 30
0.0
 10
246.633955
 20
83.967809
 30
0.0
  0
LWPOLYLINE
  5
18a
100
AcDbEntity
  8
0
 62
7
100
AcDbPolyline
 90
1
 70
1
 10
251.224682
 20
84.060086
 30
0.0
  0
LWPOLYLINE
  5
18b
100
AcDbEntity
  8
0
 62
7
100
AcDbPolyline
 90
24
 70
1
 10
267.564500
 20
95.213993
 30
0.0
 10
267.564500
 20
109.886750
 30
0.0
 10
278.239590
 20
109.886750
 30
0.0
 10
288.914681
 20
109.886750
 30
0.0
 10
288.914681
 20
108.041673
 30
0.0
 10
288.914681
 20
106.196596
 30
0.0
 10
280.216451
 20
106.196596
 30
0.0
 10
271.518221
 20
106.196596
 30
0.0
 10
271.518221
 20
101.803555
 30
0.0
 10
271.518221
 20
97.410513
 30
0.0
 10
279.557506
 20
97.410513
 30
0.0
 10
287.596765
 20
97.410513
 30
0.0
 10
287.596765
 20
95.653296
 30
0.0
 10
287.596765
 20
93.896079
 30
0.0
 10
279.557506
 20
93.896079
 30
0.0
 10
271.518221
 20
93.896079
 30
0.0
 10
271.518221
 20
88.975875
 30
0.0
 10
271.518221
 20
84.055670
 30
0.0
 10
280.392161
 20
84.055670
 30
0.0
 10
289.266127
 20
84.055670
 30
0.0
 10
289.266127
 20
82.298453
 30
0.0
 10
289.266127
 20
80.541238
 30
0.0
 10
278.415300
 20
80.541238
 30
0.0
 10
267.564500
 20
80.541238
 30
0.0
  0
SPLINE
  5
18c
100
AcDbEntity
  8
0
 62
7
100
AcDbSpline
 70
8
 71
3
 72
8
 73
4
 74
0
 40
0
 40
0
 40
0
 40
0
 40
1
 40
1
 40
1
 40
1
 10
303.499573
 20
97.596071
 30
0.0
 10
305.794939
 20
90.837068
 30
0.0
 10
307.698299
 20
85.347014
 30
0.0
 10
307.729255
 20
85.395946
 30
0.0
  0
SPLINE
  5
18d
100
AcDbEntity
  8
0
 62
7
100
AcDbSpline
 70
8
 71
3
 72
8
 73
4
 74
0
 40
0
 40
0
 40
0
 40
0
 40
1
 40
1
 40
1
 40
1
 10
307.729255
 20
85.395946
 30
0.0
 10
307.760211
 20
85.444880
 30
0.0
 10
309.638250
 20
90.975254
 30
0.0
 10
311.902634
 20
97.685667
 30
0.0
  0
LWPOLYLINE
  5
18e
100
AcDbEntity
  8
0
 62
7
100
AcDbPolyline
 90
5
 70
0
 10
293.571295
 20
95.213993
 30
0.0
 10
293.571295
 20
109.886750
 30
0.0
 10
296.448745
 20
109.885956
 30
0.0
 10
299.326168
 20
109.885163
 30
0.0
 10
303.499573
 20
97.596071
 30
0.0
  0
SPLINE
  5
18f
100
AcDbEntity
  8
0
 62
7
100
AcDbSpline
 70
8
 71
3
 72
8
 73
4
 74
0
 40
0
 40
0
 40
0
 40
0
 40
1
 40
1
 40
1
 40
1
 10
316.805125
 20
101.548089
 30
0.0
 10
316.174014
 20
99.683279
 30
0.0
 10
314.315925
 20
94.193905
 30
0.0
 10
312.676011
 20
89.349479
 30
0.0
  0
LWPOLYLINE
  5
190
100
AcDbEntity
  8
0
 62
7
100
AcDbPolyline
 90
11
 70
0
 10
311.902634
 20
97.685667
 30
0.0
 10
316.019736
 20
109.886417
 30
0.0
 10
318.897185
 20
109.886681
 30
0.0
 10
321.774608
 20
109.886943
 30
0.0
 10
321.774608
 20
95.214189
 30
0.0
 10
321.774608
 20
80.541432
 30
0.0
 10
319.837938
 20
80.541432
 30
0.0
 10
317.901267
 20
80.541432
 30
0.0
 10
317.926932
 20
92.740041
 30
0.0
 10
317.952596
 20
104.938650
 30
0.0
 10
316.805125
 20
101.548089
 30
0.0
  0
SPLINE
  5
191
100
AcDbEntity
  8
0
 62
7
100
AcDbSpline
 70
8
 71
3
 72
8
 73
4
 74
0
 40
0
 40
0
 40
0
 40
0
 40
1
 40
1
 40
1
 40
1
 10
301.474955
 20
92.746565
 30
0.0
 10
299.181626
 20
99.459386
 30
0.0
 10
297.301126
 20
104.945196
 30
0.0
 10
297.296020
 20
104.937253
 30
0.0
  0
SPLINE
  5
192
100
AcDbEntity
  8
0
 62
7
100
AcDbSpline
 70
8
 71
3
 72
8
 73
4
 74
0
 40
0
 40
0
 40
0
 40
0
 40
1
 40
1
 40
1
 40
1
 10
297.296020
 20
104.937253
 30
0.0
 10
297.290993
 20
104.929316
 30
0.0
 10
297.317716
 20
103.637845
 30
0.0
 10
297.355577
 20
102.067331
 30
0.0
  0
SPLINE
  5
193
100
AcDbEntity
  8
0
 62
7
100
AcDbSpline
 70
8
 71
3
 72
8
 73
4
 74
0
 40
0
 40
0
 40
0
 40
0
 40
1
 40
1
 40
1
 40
1
 10
297.355577
 20
102.067331
 30
0.0
 10
297.393413
 20
100.496820
 30
0.0
 10
297.427253
 20
95.011010
 30
0.0
 10
297.430746
 20
89.876643
 30
0.0
  0
LWPOLYLINE
  5
194
100
AcDbEntity
  8
0
 62
7
100
AcDbPolyline
 90
5
 70
0
 10
312.676011
 20
89.349479
 30
0.0
 10
309.694342
 20
80.541432
 30
0.0
 10
307.669459
 20
80.541432
 30
0.0
 10
305.644603
 20
80.541432
 30
0.0
 10
301.474955
 20
92.746565
 30
0.0
  0
LWPOLYLINE
  5
195
100
AcDbEntity
  8
0
 62
7
100
AcDbPolyline
 90
5
 70
0
 10
297.430746
 20
89.876643
 30
0.0
 10
297.437096
 20
80.541479
 30
0.0
 10
295.504156
 20
80.541479
 30
0.0
 10
293.571216
 20
80.541479
 30
0.0
 10
293.571295
 20
95.213993
 30
0.0
  0
SPLINE
  5
196
100
AcDbEntity
  8
0
 62
7
100
AcDbSpline
 70
8
 71
3
 72
8
 73
4
 74
0
 40
0
 40
0
 40
0
 40
0
 40
1
 40
1
 40
1
 40
1
 10
330.121392
 20
101.058128
 30
0.0
 10
327.077017
 20
105.865697
 30
0.0
 10
324.586177
 20
109.818871
 30
0.0
 10
324.586177
 20
109.842956
 30
0.0
  0
SPLINE
  5
197
100
AcDbEntity
  8
0
 62
7
100
AcDbSpline
 70
8
 71
3
 72
8
 73
4
 74
0
 40
0
 40
0
 40
0
 40
0
 40
1
 40
1
 40
1
 40
1
 10
324.586177
 20
109.842956
 30
0.0
 10
324.586177
 20
109.867033
 30
0.0
 10
325.647764
 20
109.886750
 30
0.0
 10
326.945255
 20
109.886750
 30
0.0
  0
LWPOLYLINE
  5
198
100
AcDbEntity
  8
0
 62
7
100
AcDbPolyline
 90
3
 70
0
 10
335.656634
 20
86.429165
 30
0.0
 10
335.656634
 20
92.317091
 30
0.0
 10
330.121392
 20
101.058128
 30
0.0
  0
SPLINE
  5
199
100
AcDbEntity
  8
0
 62
7
100
AcDbSpline
 70
8
 71
3
 72
8
 73
4
 74
0
 40
0
 40
0
 40
0
 40
0
 40
1
 40
1
 40
1
 40
1
 10
333.468927
 20
102.905867
 30
0.0
 10
335.759451
 20
99.066382
 30
0.0
 10
337.653260
 20
95.924100
 30
0.0
 10
337.677416
 20
95.923015
 30
0.0
  0
SPLINE
  5
19a
100
AcDbEntity
  8
0
 62
7
100
AcDbSpline
 70
8
 71
3
 72
8
 73
4
 74
0
 40
0
 40
0
 40
0
 40
0
 40
1
 40
1
 40
1
 40
1
 10
337.677416
 20
95.923015
 30
0.0
 10
337.701493
 20
95.921957
 30
0.0
 10
339.598344
 20
99.063328
 30
0.0
 10
341.892414
 20
102.903896
 30
0.0
  0
LWPOLYLINE
  5
19b
100
AcDbEntity
  8
0
 62
7
100
AcDbPolyline
 90
3
 70
0
 10
326.945255
 20
109.886750
 30
0.0
 10
329.304359
 20
109.886750
 30
0.0
 10
333.468927
 20
102.905867
 30
0.0
  0
SPLINE
  5
19c
100
AcDbEntity
  8
0
 62
7
100
AcDbSpline
 70
8
 71
3
 72
8
 73
4
 74
0
 40
0
 40
0
 40
0
 40
0
 40
1
 40
1
 40
1
 40
1
 10
348.465193
 20
109.886750
 30
0.0
 10
350.363552
 20
109.886750
 30
0.0
 10
350.852952
 20
109.863731
 30
0.0
 10
350.800273
 20
109.776921
 30
0.0
  0
SPLINE
  5
19d
100
AcDbEntity
  8
0
 62
7
100
AcDbSpline
 70
8
 71
3
 72
8
 73
4
 74
0
 40
0
 40
0
 40
0
 40
0
 40
1
 40
1
 40
1
 40
1
 10
350.800273
 20
109.776921
 30
0.0
 10
350.763602
 20
109.716517
 30
0.0
 10
348.250960
 20
105.752897
 30
0.0
 10
345.216612
 20
100.968876
 30
0.0
  0
LWPOLYLINE
  5
19e
100
AcDbEntity
  8
0
 62
7
100
AcDbPolyline
 90
3
 70
0
 10
341.892414
 20
102.903896
 30
0.0
 10
346.063491
 20
109.886750
 30
0.0
 10
348.465193
 20
109.886750
 30
0.0
  0
SPLINE
  5
19f
100
AcDbEntity
  8
0
 62
7
100
AcDbSpline
 70
8
 71
3
 72
8
 73
4
 74
0
 40
0
 40
0
 40
0
 40
0
 40
1
 40
1
 40
1
 40
1
 10
53.711258
 20
98.247533
 30
0.0
 10
53.300508
 20
98.311946
 30
0.0
 10
52.628374
 20
98.470940
 30
0.0
 10
52.217624
 20
98.600853
 30
0.0
  0
SPLINE
  5
1a0
100
AcDbEntity
  8
0
 62
7
100
AcDbSpline
 70
8
 71
3
 72
8
 73
4
 74
0
 40
0
 40
0
 40
0
 40
0
 40
1
 40
1
 40
1
 40
1
 10
52.217624
 20
98.600853
 30
0.0
 10
49.640384
 20
99.415989
 30
0.0
 10
48.030601
 20
101.065465
 30
0.0
 10
47.929334
 20
102.994889
 30
0.0
  0
LWPOLYLINE
  5
1a1
100
AcDbEntity
  8
0
 62
7
100
AcDbPolyline
 90
8
 70
0
 10
345.216612
 20
100.968876
 30
0.0
 10
339.699626
 20
92.270657
 30
0.0
 10
339.699626
 20
86.405948
 30
0.0
 10
339.699626
 20
80.541238
 30
0.0
 10
337.678818
 20
80.541238
 30
0.0
 10
335.658037
 20
80.541238
 30
0.0
 10
335.658037
 20
86.429165
 30
0.0
 10
335.656634
 20
86.429165
 30
0.0
  0
SPLINE
  5
1a2
100
AcDbEntity
  8
0
 62
7
100
AcDbSpline
 70
8
 71
3
 72
8
 73
4
 74
0
 40
0
 40
0
 40
0
 40
0
 40
1
 40
1
 40
1
 40
1
 10
47.352966
 20
104.021535
 30
0.0
 10
47.056635
 20
104.192350
 30
0.0
 10
46.096558
 20
104.747679
 30
0.0
 10
45.219459
 20
105.255600
 30
0.0
  0
LWPOLYLINE
  5
1a3
100
AcDbEntity
  8
0
 62
7
100
AcDbPolyline
 90
3
 70
0
 10
47.929334
 20
102.994889
 30
0.0
 10
47.891748
 20
103.710968
 30
0.0
 10
47.352966
 20
104.021535
 30
0.0
  0
SPLINE
  5
1a4
100
AcDbEntity
  8
0
 62
7
100
AcDbSpline
 70
8
 71
3
 72
8
 73
4
 74
0
 40
0
 40
0
 40
0
 40
0
 40
1
 40
1
 40
1
 40
1
 10
38.997443
 20
103.947809
 30
0.0
 10
38.802569
 20
104.060908
 30
0.0
 10
38.415788
 20
104.280859
 30
0.0
 10
38.137928
 20
104.436590
 30
0.0
  0
SPLINE
  5
1a5
100
AcDbEntity
  8
0
 62
7
100
AcDbSpline
 70
8
 71
3
 72
8
 73
4
 74
0
 40
0
 40
0
 40
0
 40
0
 40
1
 40
1
 40
1
 40
1
 10
38.137928
 20
104.436590
 30
0.0
 10
37.860068
 20
104.592318
 30
0.0
 10
37.632730
 20
104.748457
 30
0.0
 10
37.632730
 20
104.783565
 30
0.0
  0
SPLINE
  5
1a6
100
AcDbEntity
  8
0
 62
7
100
AcDbSpline
 70
8
 71
3
 72
8
 73
4
 74
0
 40
0
 40
0
 40
0
 40
0
 40
1
 40
1
 40
1
 40
1
 10
37.632730
 20
104.783565
 30
0.0
 10
37.632730
 20
104.818669
 30
0.0
 10
37.834528
 20
105.141077
 30
0.0
 10
38.081172
 20
105.500030
 30
0.0
  0
SPLINE
  5
1a7
100
AcDbEntity
  8
0
 62
7
100
AcDbSpline
 70
8
 71
3
 72
8
 73
4
 74
0
 40
0
 40
0
 40
0
 40
0
 40
1
 40
1
 40
1
 40
1
 10
38.081172
 20
105.500030
 30
0.0
 10
39.585797
 20
107.689758
 30
0.0
 10
41.594651
 20
109.666826
 30
0.0
 10
43.787486
 20
111.116049
 30
0.0
  0
SPLINE
  5
1a8
100
AcDbEntity
  8
0
 62
7
100
AcDbSpline
 70
8
 71
3
 72
8
 73
4
 74
0
 40
0
 40
0
 40
0
 40
0
 40
1
 40
1
 40
1
 40
1
 10
43.787486
 20
111.116049
 30
0.0
 10
49.788477
 20
115.082045
 30
0.0
 10
57.368017
 20
115.706890
 30
0.0
 10
63.936930
 20
112.777138
 30
0.0
  0
SPLINE
  5
1a9
100
AcDbEntity
  8
0
 62
7
100
AcDbSpline
 70
8
 71
3
 72
8
 73
4
 74
0
 40
0
 40
0
 40
0
 40
0
 40
1
 40
1
 40
1
 40
1
 10
63.936930
 20
112.777138
 30
0.0
 10
67.363139
 20
111.249039
 30
0.0
 10
70.503510
 20
108.637501
 30
0.0
 10
72.605781
 20
105.568104
 30
0.0
  0
LWPOLYLINE
  5
1aa
100
AcDbEntity
  8
0
 62
7
100
AcDbPolyline
 90
5
 70
0
 10
45.219459
 20
105.255600
 30
0.0
 10
43.624733
 20
106.179096
 30
0.0
 10
41.488246
 20
104.960634
 30
0.0
 10
39.351757
 20
103.742172
 30
0.0
 10
38.997443
 20
103.947809
 30
0.0
  0
SPLINE
  5
1ab
100
AcDbEntity
  8
0
 62
7
100
AcDbSpline
 70
8
 71
3
 72
8
 73
4
 74
0
 40
0
 40
0
 40
0
 40
0
 40
1
 40
1
 40
1
 40
1
 10
72.801864
 20
104.590038
 30
0.0
 10
71.968614
 20
104.072071
 30
0.0
 10
71.438132
 20
103.809496
 30
0.0
 10
71.300829
 20
103.847061
 30
0.0
  0
SPLINE
  5
1ac
100
AcDbEntity
  8
0
 62
7
100
AcDbSpline
 70
8
 71
3
 72
8
 73
4
 74
0
 40
0
 40
0
 40
0
 40
0
 40
1
 40
1
 40
1
 40
1
 10
71.300829
 20
103.847061
 30
0.0
 10
71.218772
 20
103.869524
 30
0.0
 10
67.619824
 20
105.928525
 30
0.0
 10
63.303171
 20
108.422641
 30
0.0
  0
LWPOLYLINE
  5
1ad
100
AcDbEntity
  8
0
 62
7
100
AcDbPolyline
 90
3
 70
0
 10
72.605781
 20
105.568104
 30
0.0
 10
73.134186
 20
104.796614
 30
0.0
 10
72.801864
 20
104.590038
 30
0.0
  0
SPLINE
  5
1ae
100
AcDbEntity
  8
0
 62
7
100
AcDbSpline
 70
8
 71
3
 72
8
 73
4
 74
0
 40
0
 40
0
 40
0
 40
0
 40
1
 40
1
 40
1
 40
1
 10
52.914008
 20
111.500933
 30
0.0
 10
51.516621
 20
110.699878
 30
0.0
 10
50.391499
 20
110.015025
 30
0.0
 10
50.413740
 20
109.979039
 30
0.0
  0
SPLINE
  5
1af
100
AcDbEntity
  8
0
 62
7
100
AcDbSpline
 70
8
 71
3
 72
8
 73
4
 74
0
 40
0
 40
0
 40
0
 40
0
 40
1
 40
1
 40
1
 40
1
 10
50.413740
 20
109.979039
 30
0.0
 10
50.435965
 20
109.943053
 30
0.0
 10
51.137598
 20
109.522080
 30
0.0
 10
51.972890
 20
109.043539
 30
0.0
  0
LWPOLYLINE
  5
1b0
100
AcDbEntity
  8
0
 62
7
100
AcDbPolyline
 90
3
 70
0
 10
63.303171
 20
108.422641
 30
0.0
 10
55.454714
 20
112.957401
 30
0.0
 10
52.914008
 20
111.500933
 30
0.0
  0
SPLINE
  5
1b1
100
AcDbEntity
  8
0
 62
7
100
AcDbSpline
 70
8
 71
3
 72
8
 73
4
 74
0
 40
0
 40
0
 40
0
 40
0
 40
1
 40
1
 40
1
 40
1
 10
54.941311
 20
108.201124
 30
0.0
 10
57.395472
 20
108.247953
 30
0.0
 10
58.983515
 20
107.844384
 30
0.0
 10
60.625673
 20
106.756557
 30
0.0
  0
SPLINE
  5
1b2
100
AcDbEntity
  8
0
 62
7
100
AcDbSpline
 70
8
 71
3
 72
8
 73
4
 74
0
 40
0
 40
0
 40
0
 40
0
 40
1
 40
1
 40
1
 40
1
 10
60.625673
 20
106.756557
 30
0.0
 10
63.472806
 20
104.870512
 30
0.0
 10
63.584384
 20
101.671128
 30
0.0
 10
60.870560
 20
99.734584
 30
0.0
  0
SPLINE
  5
1b3
100
AcDbEntity
  8
0
 62
7
100
AcDbSpline
 70
8
 71
3
 72
8
 73
4
 74
0
 40
0
 40
0
 40
0
 40
0
 40
1
 40
1
 40
1
 40
1
 10
60.870560
 20
99.734584
 30
0.0
 10
59.014087
 20
98.409834
 30
0.0
 10
56.287601
 20
97.843517
 30
0.0
 10
53.711258
 20
98.247533
 30
0.0
  0
LWPOLYLINE
  5
1b4
100
AcDbEntity
  8
0
 62
7
100
AcDbPolyline
 90
3
 70
0
 10
51.972890
 20
109.043539
 30
0.0
 10
53.491606
 20
108.173462
 30
0.0
 10
54.941311
 20
108.201124
 30
0.0
  0
LWPOLYLINE
  5
1b5
100
AcDbEntity
  8
0
 62
7
100
AcDbPolyline
 90
1
 70
1
 10
53.711258
 20
98.247533
 30
0.0
  0
SPLINE
  5
1b6
100
AcDbEntity
  8
0
 62
7
100
AcDbSpline
 70
8
 71
3
 72
8
 73
4
 74
0
 40
0
 40
0
 40
0
 40
0
 40
1
 40
1
 40
1
 40
1
 10
94.733269
 20
172.545994
 30
0.0
 10
94.629619
 20
170.058406
 30
0.0
 10
94.507124
 20
166.670952
 30
0.0
 10
94.365784
 20
162.383631
 30
0.0
  0
LWPOLYLINE
  5
1b7
100
AcDbEntity
  8
0
 62
7
100
AcDbPolyline
 90
2
 70
0
 10
95.284496
 20
184.093488
 30
0.0
 10
94.733269
 20
172.545994
 30
0.0
  0
SPLINE
  5
1b8
100
AcDbEntity
  8
0
 62
7
100
AcDbSpline
 70
8
 71
3
 72
8
 73
4
 74
0
 40
0
 40
0
 40
0
 40
0
 40
1
 40
1
 40
1
 40
1
 10
118.238146
 20
175.203189
 30
0.0
 10
117.719897
 20
175.363374
 30
0.0
 10
117.055598
 20
175.443467
 30
0.0
 10
116.245248
 20
175.443467
 30
0.0
  0
SPLINE
  5
1b9
100
AcDbEntity
  8
0
 62
7
100
AcDbSpline
 70
8
 71
3
 72
8
 73
4
 74
0
 40
0
 40
0
 40
0
 40
0
 40
1
 40
1
 40
1
 40
1
 10
116.245248
 20
175.443467
 30
0.0
 10
114.737619
 20
175.443467
 30
0.0
 10
113.512671
 20
175.047715
 30
0.0
 10
112.570403
 20
174.256211
 30
0.0
  0
SPLINE
  5
1ba
100
AcDbEntity
  8
0
 62
7
100
AcDbSpline
 70
8
 71
3
 72
8
 73
4
 74
0
 40
0
 40
0
 40
0
 40
0
 40
1
 40
1
 40
1
 40
1
 10
112.570403
 20
174.256211
 30
0.0
 10
111.505640
 20
173.370479
 30
0.0
 10
110.973259
 20
172.093706
 30
0.0
 10
110.973259
 20
170.425891
 30
0.0
  0
SPLINE
  5
1bb
100
AcDbEntity
  8
0
 62
7
100
AcDbSpline
 70
8
 71
3
 72
8
 73
4
 74
0
 40
0
 40
0
 40
0
 40
0
 40
1
 40
1
 40
1
 40
1
 10
110.973259
 20
170.425891
 30
0.0
 10
110.973259
 20
169.125560
 30
0.0
 10
111.392568
 20
168.056086
 30
0.0
 10
112.231186
 20
167.217468
 30
0.0
  0
SPLINE
  5
1bc
100
AcDbEntity
  8
0
 62
7
100
AcDbSpline
 70
8
 71
3
 72
8
 73
4
 74
0
 40
0
 40
0
 40
0
 40
0
 40
1
 40
1
 40
1
 40
1
 10
112.231186
 20
167.217468
 30
0.0
 10
113.079228
 20
166.388271
 30
0.0
 10
114.186393
 20
165.973673
 30
0.0
 10
115.552680
 20
165.973673
 30
0.0
  0
SPLINE
  5
1bd
100
AcDbEntity
  8
0
 62
7
100
AcDbSpline
 70
8
 71
3
 72
8
 73
4
 74
0
 40
0
 40
0
 40
0
 40
0
 40
1
 40
1
 40
1
 40
1
 10
115.552680
 20
165.973673
 30
0.0
 10
116.485527
 20
165.973673
 30
0.0
 10
117.371260
 20
166.204529
 30
0.0
 10
118.209878
 20
166.666241
 30
0.0
  0
SPLINE
  5
1be
100
AcDbEntity
  8
0
 62
7
100
AcDbSpline
 70
8
 71
3
 72
8
 73
4
 74
0
 40
0
 40
0
 40
0
 40
0
 40
1
 40
1
 40
1
 40
1
 10
118.209878
 20
166.666241
 30
0.0
 10
118.115651
 20
166.279910
 30
0.0
 10
117.955465
 20
165.568498
 30
0.0
 10
117.729320
 20
164.532003
 30
0.0
  0
SPLINE
  5
1bf
100
AcDbEntity
  8
0
 62
7
100
AcDbSpline
 70
8
 71
3
 72
8
 73
4
 74
0
 40
0
 40
0
 40
0
 40
0
 40
1
 40
1
 40
1
 40
1
 10
117.729320
 20
164.532003
 30
0.0
 10
117.597402
 20
163.844148
 30
0.0
 10
117.470196
 20
163.128024
 30
0.0
 10
117.347701
 20
162.383631
 30
0.0
  0
SPLINE
  5
1c0
100
AcDbEntity
  8
0
 62
7
100
AcDbSpline
 70
8
 71
3
 72
8
 73
4
 74
0
 40
0
 40
0
 40
0
 40
0
 40
1
 40
1
 40
1
 40
1
 10
117.347701
 20
162.383631
 30
0.0
 10
116.292361
 20
161.978457
 30
0.0
 10
114.940207
 20
161.775870
 30
0.0
 10
113.291239
 20
161.775870
 30
0.0
  0
SPLINE
  5
1c1
100
AcDbEntity
  8
0
 62
7
100
AcDbSpline
 70
8
 71
3
 72
8
 73
4
 74
0
 40
0
 40
0
 40
0
 40
0
 40
1
 40
1
 40
1
 40
1
 10
113.291239
 20
161.775870
 30
0.0
 10
110.304248
 20
161.775870
 30
0.0
 10
107.750702
 20
162.779385
 30
0.0
 10
105.630599
 20
164.786416
 30
0.0
  0
SPLINE
  5
1c2
100
AcDbEntity
  8
0
 62
7
100
AcDbSpline
 70
8
 71
3
 72
8
 73
4
 74
0
 40
0
 40
0
 40
0
 40
0
 40
1
 40
1
 40
1
 40
1
 10
105.630599
 20
164.786416
 30
0.0
 10
103.331465
 20
166.972477
 30
0.0
 10
102.181898
 20
169.818127
 30
0.0
 10
102.181898
 20
173.323364
 30
0.0
  0
SPLINE
  5
1c3
100
AcDbEntity
  8
0
 62
7
100
AcDbSpline
 70
8
 71
3
 72
8
 73
4
 74
0
 40
0
 40
0
 40
0
 40
0
 40
1
 40
1
 40
1
 40
1
 10
102.181898
 20
173.323364
 30
0.0
 10
102.181898
 20
176.564767
 30
0.0
 10
103.171279
 20
179.184273
 30
0.0
 10
105.150042
 20
181.181880
 30
0.0
  0
SPLINE
  5
1c4
100
AcDbEntity
  8
0
 62
7
100
AcDbSpline
 70
8
 71
3
 72
8
 73
4
 74
0
 40
0
 40
0
 40
0
 40
0
 40
1
 40
1
 40
1
 40
1
 10
105.150042
 20
181.181880
 30
0.0
 10
107.260722
 20
183.311406
 30
0.0
 10
110.177041
 20
184.376168
 30
0.0
 10
113.899000
 20
184.376168
 30
0.0
  0
SPLINE
  5
1c5
100
AcDbEntity
  8
0
 62
7
100
AcDbSpline
 70
8
 71
3
 72
8
 73
4
 74
0
 40
0
 40
0
 40
0
 40
0
 40
1
 40
1
 40
1
 40
1
 10
113.899000
 20
184.376168
 30
0.0
 10
115.689310
 20
184.376168
 30
0.0
 10
116.984929
 20
184.272519
 30
0.0
 10
117.785856
 20
184.065220
 30
0.0
  0
LWPOLYLINE
  5
1c6
100
AcDbEntity
  8
0
 62
7
100
AcDbPolyline
 90
4
 70
0
 10
94.365784
 20
162.383631
 30
0.0
 10
86.436597
 20
162.383631
 30
0.0
 10
85.475485
 20
184.093488
 30
0.0
 10
95.284496
 20
184.093488
 30
0.0
  0
LWPOLYLINE
  5
1c7
100
AcDbEntity
  8
0
 62
7
100
AcDbPolyline
 90
2
 70
0
 10
117.785856
 20
184.065220
 30
0.0
 10
118.238146
 20
175.203189
 30
0.0
  0
SPLINE
  5
1c8
100
AcDbEntity
  8
0
 62
7
100
AcDbSpline
 70
8
 71
3
 72
8
 73
4
 74
0
 40
0
 40
0
 40
0
 40
0
 40
1
 40
1
 40
1
 40
1
 10
128.485310
 20
164.263456
 30
0.0
 10
128.268588
 20
164.178652
 30
0.0
 10
127.726784
 20
163.891261
 30
0.0
 10
126.859898
 20
163.401282
 30
0.0
  0
SPLINE
  5
1c9
100
AcDbEntity
  8
0
 62
7
100
AcDbSpline
 70
8
 71
3
 72
8
 73
4
 74
0
 40
0
 40
0
 40
0
 40
0
 40
1
 40
1
 40
1
 40
1
 10
126.859898
 20
163.401282
 30
0.0
 10
126.303961
 20
163.043220
 30
0.0
 10
125.686775
 20
162.567375
 30
0.0
 10
125.008341
 20
161.973747
 30
0.0
  0
LWPOLYLINE
  5
1ca
100
AcDbEntity
  8
0
 62
7
100
AcDbPolyline
 90
3
 70
0
 10
136.739580
 20
162.383631
 30
0.0
 10
129.008270
 20
162.383631
 30
0.0
 10
128.485310
 20
164.263456
 30
0.0
  0
SPLINE
  5
1cb
100
AcDbEntity
  8
0
 62
7
100
AcDbSpline
 70
8
 71
3
 72
8
 73
4
 74
0
 40
0
 40
0
 40
0
 40
0
 40
1
 40
1
 40
1
 40
1
 10
124.202703
 20
163.683963
 30
0.0
 10
124.042517
 20
164.023178
 30
0.0
 10
123.811661
 20
164.499024
 30
0.0
 10
123.510135
 20
165.111499
 30
0.0
  0
LWPOLYLINE
  5
1cc
100
AcDbEntity
  8
0
 62
7
100
AcDbPolyline
 90
2
 70
0
 10
125.008341
 20
161.973747
 30
0.0
 10
124.202703
 20
163.683963
 30
0.0
  0
SPLINE
  5
1cd
100
AcDbEntity
  8
0
 62
7
100
AcDbSpline
 70
8
 71
3
 72
8
 73
4
 74
0
 40
0
 40
0
 40
0
 40
0
 40
1
 40
1
 40
1
 40
1
 10
118.648033
 20
162.383631
 30
0.0
 10
119.251084
 20
164.711033
 30
0.0
 10
120.183929
 20
168.550776
 30
0.0
 10
121.446568
 20
173.902859
 30
0.0
  0
SPLINE
  5
1ce
100
AcDbEntity
  8
0
 62
7
100
AcDbSpline
 70
8
 71
3
 72
8
 73
4
 74
0
 40
0
 40
0
 40
0
 40
0
 40
1
 40
1
 40
1
 40
1
 10
121.446568
 20
173.902859
 30
0.0
 10
122.219229
 20
177.483478
 30
0.0
 10
122.864682
 20
180.880354
 30
0.0
 10
123.382929
 20
184.093488
 30
0.0
  0
LWPOLYLINE
  5
1cf
100
AcDbEntity
  8
0
 62
7
100
AcDbPolyline
 90
3
 70
0
 10
123.510135
 20
165.111499
 30
0.0
 10
122.746897
 20
162.383631
 30
0.0
 10
118.648033
 20
162.383631
 30
0.0
  0
SPLINE
  5
1d0
100
AcDbEntity
  8
0
 62
7
100
AcDbSpline
 70
8
 71
3
 72
8
 73
4
 74
0
 40
0
 40
0
 40
0
 40
0
 40
1
 40
1
 40
1
 40
1
 10
131.877475
 20
184.093488
 30
0.0
 10
132.141310
 20
182.614128
 30
0.0
 10
132.862145
 20
179.170139
 30
0.0
 10
134.039980
 20
173.761519
 30
0.0
  0
SPLINE
  5
1d1
100
AcDbEntity
  8
0
 62
7
100
AcDbSpline
 70
8
 71
3
 72
8
 73
4
 74
0
 40
0
 40
0
 40
0
 40
0
 40
1
 40
1
 40
1
 40
1
 10
134.039980
 20
173.761519
 30
0.0
 10
134.690146
 20
170.934714
 30
0.0
 10
135.590013
 20
167.142085
 30
0.0
 10
136.739580
 20
162.383631
 30
0.0
  0
LWPOLYLINE
  5
1d2
100
AcDbEntity
  8
0
 62
7
100
AcDbPolyline
 90
2
 70
0
 10
123.382929
 20
184.093488
 30
0.0
 10
131.877475
 20
184.093488
 30
0.0
  0
SPLINE
  5
1d3
100
AcDbEntity
  8
0
 62
7
100
AcDbSpline
 70
8
 71
3
 72
8
 73
4
 74
0
 40
0
 40
0
 40
0
 40
0
 40
1
 40
1
 40
1
 40
1
 10
127.821013
 20
167.019592
 30
0.0
 10
127.660827
 20
167.518993
 30
0.0
 10
127.378146
 20
168.329343
 30
0.0
 10
126.972970
 20
169.450642
 30
0.0
  0
SPLINE
  5
1d4
100
AcDbEntity
  8
0
 62
7
100
AcDbSpline
 70
8
 71
3
 72
8
 73
4
 74
0
 40
0
 40
0
 40
0
 40
0
 40
1
 40
1
 40
1
 40
1
 10
126.972970
 20
169.450642
 30
0.0
 10
126.727980
 20
170.072539
 30
0.0
 10
126.355785
 20
170.930004
 30
0.0
 10
125.856384
 20
172.023035
 30
0.0
  0
SPLINE
  5
1d5
100
AcDbEntity
  8
0
 62
7
100
AcDbSpline
 70
8
 71
3
 72
8
 73
4
 74
0
 40
0
 40
0
 40
0
 40
0
 40
1
 40
1
 40
1
 40
1
 10
125.856384
 20
172.023035
 30
0.0
 10
125.639662
 20
171.476518
 30
0.0
 10
125.300445
 20
170.581364
 30
0.0
 10
124.838733
 20
169.337572
 30
0.0
  0
SPLINE
  5
1d6
100
AcDbEntity
  8
0
 62
7
100
AcDbSpline
 70
8
 71
3
 72
8
 73
4
 74
0
 40
0
 40
0
 40
0
 40
0
 40
1
 40
1
 40
1
 40
1
 10
124.838733
 20
169.337572
 30
0.0
 10
124.584322
 20
168.621447
 30
0.0
 10
124.282796
 20
167.646199
 30
0.0
 10
123.934157
 20
166.411828
 30
0.0
  0
SPLINE
  5
1d7
100
AcDbEntity
  8
0
 62
7
100
AcDbSpline
 70
8
 71
3
 72
8
 73
4
 74
0
 40
0
 40
0
 40
0
 40
0
 40
1
 40
1
 40
1
 40
1
 10
123.934157
 20
166.411828
 30
0.0
 10
124.216837
 20
166.411828
 30
0.0
 10
124.857580
 20
166.468364
 30
0.0
 10
125.856384
 20
166.581436
 30
0.0
  0
SPLINE
  5
1d8
100
AcDbEntity
  8
0
 62
7
100
AcDbSpline
 70
8
 71
3
 72
8
 73
4
 74
0
 40
0
 40
0
 40
0
 40
0
 40
1
 40
1
 40
1
 40
1
 10
125.856384
 20
166.581436
 30
0.0
 10
126.459434
 20
166.666241
 30
0.0
 10
127.114311
 20
166.812292
 30
0.0
 10
127.821013
 20
167.019592
 30
0.0
  0
LWPOLYLINE
  5
1d9
100
AcDbEntity
  8
0
 62
7
100
AcDbPolyline
 90
1
 70
1
 10
136.739580
 20
162.383631
 30
0.0
  0
SPLINE
  5
1da
100
AcDbEntity
  8
0
 62
7
100
AcDbSpline
 70
8
 71
3
 72
8
 73
4
 74
0
 40
0
 40
0
 40
0
 40
0
 40
1
 40
1
 40
1
 40
1
 10
154.633247
 20
184.093488
 30
0.0
 10
154.501331
 20
182.190107
 30
0.0
 10
154.317590
 20
178.868612
 30
0.0
 10
154.082022
 20
174.129004
 30
0.0
  0
SPLINE
  5
1db
100
AcDbEntity
  8
0
 62
7
100
AcDbSpline
 70
8
 71
3
 72
8
 73
4
 74
0
 40
0
 40
0
 40
0
 40
0
 40
1
 40
1
 40
1
 40
1
 10
154.082022
 20
174.129004
 30
0.0
 10
153.940682
 20
170.642612
 30
0.0
 10
153.822898
 20
166.633262
 30
0.0
 10
153.728671
 20
162.100953
 30
0.0
  0
SPLINE
  5
1dc
100
AcDbEntity
  8
0
 62
7
100
AcDbSpline
 70
8
 71
3
 72
8
 73
4
 74
0
 40
0
 40
0
 40
0
 40
0
 40
1
 40
1
 40
1
 40
1
 10
153.728671
 20
162.100953
 30
0.0
 10
152.494300
 20
163.071489
 30
0.0
 10
150.614475
 20
164.517870
 30
0.0
 10
148.089197
 20
166.440096
 30
0.0
  0
SPLINE
  5
1dd
100
AcDbEntity
  8
0
 62
7
100
AcDbSpline
 70
8
 71
3
 72
8
 73
4
 74
0
 40
0
 40
0
 40
0
 40
0
 40
1
 40
1
 40
1
 40
1
 10
148.089197
 20
166.440096
 30
0.0
 10
146.996166
 20
167.203333
 30
0.0
 10
145.366042
 20
168.348188
 30
0.0
 10
143.198826
 20
169.874663
 30
0.0
  0
LWPOLYLINE
  5
1de
100
AcDbEntity
  8
0
 62
7
100
AcDbPolyline
 90
1
 70
1
 10
127.821013
 20
167.019592
 30
0.0
  0
SPLINE
  5
1df
100
AcDbEntity
  8
0
 62
7
100
AcDbSpline
 70
8
 71
3
 72
8
 73
4
 74
0
 40
0
 40
0
 40
0
 40
0
 40
1
 40
1
 40
1
 40
1
 10
138.506330
 20
162.383631
 30
0.0
 10
138.430948
 20
164.296437
 30
0.0
 10
138.256629
 20
167.905323
 30
0.0
 10
137.983373
 20
173.210291
 30
0.0
  0
SPLINE
  5
1e0
100
AcDbEntity
  8
0
 62
7
100
AcDbSpline
 70
8
 71
3
 72
8
 73
4
 74
0
 40
0
 40
0
 40
0
 40
0
 40
1
 40
1
 40
1
 40
1
 10
137.983373
 20
173.210291
 30
0.0
 10
137.747805
 20
177.507035
 30
0.0
 10
137.507527
 20
181.134767
 30
0.0
 10
137.262537
 20
184.093488
 30
0.0
  0
LWPOLYLINE
  5
1e1
100
AcDbEntity
  8
0
 62
7
100
AcDbPolyline
 90
3
 70
0
 10
143.198826
 20
169.874663
 30
0.0
 10
143.057486
 20
162.383631
 30
0.0
 10
138.506330
 20
162.383631
 30
0.0
  0
SPLINE
  5
1e2
100
AcDbEntity
  8
0
 62
7
100
AcDbSpline
 70
8
 71
3
 72
8
 73
4
 74
0
 40
0
 40
0
 40
0
 40
0
 40
1
 40
1
 40
1
 40
1
 10
149.615671
 20
179.118313
 30
0.0
 10
149.615671
 20
180.258457
 30
0.0
 10
149.596825
 20
181.153612
 30
0.0
 10
149.559134
 20
181.803778
 30
0.0
  0
SPLINE
  5
1e3
100
AcDbEntity
  8
0
 62
7
100
AcDbSpline
 70
8
 71
3
 72
8
 73
4
 74
0
 40
0
 40
0
 40
0
 40
0
 40
1
 40
1
 40
1
 40
1
 10
149.559134
 20
181.803778
 30
0.0
 10
149.530866
 20
182.378561
 30
0.0
 10
149.474330
 20
183.141797
 30
0.0
 10
149.389526
 20
184.093488
 30
0.0
  0
LWPOLYLINE
  5
1e4
100
AcDbEntity
  8
0
 62
7
100
AcDbPolyline
 90
3
 70
0
 10
137.262537
 20
184.093488
 30
0.0
 10
144.357815
 20
184.093488
 30
0.0
 10
149.615671
 20
179.118313
 30
0.0
  0
LWPOLYLINE
  5
1e5
100
AcDbEntity
  8
0
 62
7
100
AcDbPolyline
 90
2
 70
0
 10
149.389526
 20
184.093488
 30
0.0
 10
154.633247
 20
184.093488
 30
0.0
  0
LWPOLYLINE
  5
1e6
100
AcDbEntity
  8
0
 62
7
100
AcDbPolyline
 90
4
 70
1
 10
160.414065
 20
184.093488
 30
0.0
 10
160.202055
 20
173.987664
 30
0.0
 10
157.219777
 20
173.987664
 30
0.0
 10
156.965364
 20
184.093488
 30
0.0
  0
SPLINE
  5
1e7
100
AcDbEntity
  8
0
 62
7
100
AcDbSpline
 70
8
 71
3
 72
8
 73
4
 74
0
 40
0
 40
0
 40
0
 40
0
 40
1
 40
1
 40
1
 40
1
 10
179.551526
 20
175.203189
 30
0.0
 10
179.184041
 20
175.259725
 30
0.0
 10
178.595123
 20
175.330395
 30
0.0
 10
177.784773
 20
175.415199
 30
0.0
  0
SPLINE
  5
1e8
100
AcDbEntity
  8
0
 62
7
100
AcDbSpline
 70
8
 71
3
 72
8
 73
4
 74
0
 40
0
 40
0
 40
0
 40
0
 40
1
 40
1
 40
1
 40
1
 10
177.784773
 20
175.415199
 30
0.0
 10
177.285370
 20
175.443467
 30
0.0
 10
176.475020
 20
175.471735
 30
0.0
 10
175.353721
 20
175.500004
 30
0.0
  0
SPLINE
  5
1e9
100
AcDbEntity
  8
0
 62
7
100
AcDbSpline
 70
8
 71
3
 72
8
 73
4
 74
0
 40
0
 40
0
 40
0
 40
0
 40
1
 40
1
 40
1
 40
1
 10
175.353721
 20
175.500004
 30
0.0
 10
175.297185
 20
174.944066
 30
0.0
 10
175.198247
 20
173.601334
 30
0.0
 10
175.056908
 20
171.471807
 30
0.0
  0
SPLINE
  5
1ea
100
AcDbEntity
  8
0
 62
7
100
AcDbSpline
 70
8
 71
3
 72
8
 73
4
 74
0
 40
0
 40
0
 40
0
 40
0
 40
1
 40
1
 40
1
 40
1
 10
175.056908
 20
171.471807
 30
0.0
 10
174.953259
 20
169.408240
 30
0.0
 10
174.783650
 20
166.378849
 30
0.0
 10
174.548083
 20
162.383631
 30
0.0
  0
LWPOLYLINE
  5
1eb
100
AcDbEntity
  8
0
 62
7
100
AcDbPolyline
 90
2
 70
0
 10
179.961413
 20
184.093488
 30
0.0
 10
179.551526
 20
175.203189
 30
0.0
  0
SPLINE
  5
1ec
100
AcDbEntity
  8
0
 62
7
100
AcDbSpline
 70
8
 71
3
 72
8
 73
4
 74
0
 40
0
 40
0
 40
0
 40
0
 40
1
 40
1
 40
1
 40
1
 10
167.707217
 20
162.383631
 30
0.0
 10
167.631836
 20
164.287014
 30
0.0
 10
167.490495
 20
167.278715
 30
0.0
 10
167.283196
 20
171.358735
 30
0.0
  0
SPLINE
  5
1ed
100
AcDbEntity
  8
0
 62
7
100
AcDbSpline
 70
8
 71
3
 72
8
 73
4
 74
0
 40
0
 40
0
 40
0
 40
0
 40
1
 40
1
 40
1
 40
1
 10
167.283196
 20
171.358735
 30
0.0
 10
167.188969
 20
172.772137
 30
0.0
 10
167.090031
 20
174.152560
 30
0.0
 10
166.986381
 20
175.500004
 30
0.0
  0
LWPOLYLINE
  5
1ee
100
AcDbEntity
  8
0
 62
7
100
AcDbPolyline
 90
2
 70
0
 10
174.548083
 20
162.383631
 30
0.0
 10
167.707217
 20
162.383631
 30
0.0
  0
SPLINE
  5
1ef
100
AcDbEntity
  8
0
 62
7
100
AcDbSpline
 70
8
 71
3
 72
8
 73
4
 74
0
 40
0
 40
0
 40
0
 40
0
 40
1
 40
1
 40
1
 40
1
 10
200.074130
 20
175.203189
 30
0.0
 10
199.376853
 20
175.363374
 30
0.0
 10
198.849183
 20
175.443467
 30
0.0
 10
198.491120
 20
175.443467
 30
0.0
  0
SPLINE
  5
1f0
100
AcDbEntity
  8
0
 62
7
100
AcDbSpline
 70
8
 71
3
 72
8
 73
4
 74
0
 40
0
 40
0
 40
0
 40
0
 40
1
 40
1
 40
1
 40
1
 10
198.491120
 20
175.443467
 30
0.0
 10
198.048256
 20
175.443467
 30
0.0
 10
197.643081
 20
175.292704
 30
0.0
 10
197.275596
 20
174.991178
 30
0.0
  0
SPLINE
  5
1f1
100
AcDbEntity
  8
0
 62
7
100
AcDbSpline
 70
8
 71
3
 72
8
 73
4
 74
0
 40
0
 40
0
 40
0
 40
0
 40
1
 40
1
 40
1
 40
1
 10
197.275596
 20
174.991178
 30
0.0
 10
196.832729
 20
174.623695
 30
0.0
 10
196.611296
 20
174.147850
 30
0.0
 10
196.611296
 20
173.563642
 30
0.0
  0
SPLINE
  5
1f2
100
AcDbEntity
  8
0
 62
7
100
AcDbSpline
 70
8
 71
3
 72
8
 73
4
 74
0
 40
0
 40
0
 40
0
 40
0
 40
1
 40
1
 40
1
 40
1
 10
196.611296
 20
173.563642
 30
0.0
 10
196.611296
 20
173.111355
 30
0.0
 10
197.016471
 20
172.239757
 30
0.0
 10
197.826823
 20
170.948850
 30
0.0
  0
SPLINE
  5
1f3
100
AcDbEntity
  8
0
 62
7
100
AcDbSpline
 70
8
 71
3
 72
8
 73
4
 74
0
 40
0
 40
0
 40
0
 40
0
 40
1
 40
1
 40
1
 40
1
 10
197.826823
 20
170.948850
 30
0.0
 10
198.637173
 20
169.657943
 30
0.0
 10
199.042348
 20
168.470685
 30
0.0
 10
199.042348
 20
167.387077
 30
0.0
  0
SPLINE
  5
1f4
100
AcDbEntity
  8
0
 62
7
100
AcDbSpline
 70
8
 71
3
 72
8
 73
4
 74
0
 40
0
 40
0
 40
0
 40
0
 40
1
 40
1
 40
1
 40
1
 10
199.042348
 20
167.387077
 30
0.0
 10
199.042348
 20
165.813489
 30
0.0
 10
198.444008
 20
164.522581
 30
0.0
 10
197.247327
 20
163.514355
 30
0.0
  0
SPLINE
  5
1f5
100
AcDbEntity
  8
0
 62
7
100
AcDbSpline
 70
8
 71
3
 72
8
 73
4
 74
0
 40
0
 40
0
 40
0
 40
0
 40
1
 40
1
 40
1
 40
1
 10
197.247327
 20
163.514355
 30
0.0
 10
196.107183
 20
162.543819
 30
0.0
 10
194.698492
 20
162.058551
 30
0.0
 10
193.021254
 20
162.058551
 30
0.0
  0
SPLINE
  5
1f6
100
AcDbEntity
  8
0
 62
7
100
AcDbSpline
 70
8
 71
3
 72
8
 73
4
 74
0
 40
0
 40
0
 40
0
 40
0
 40
1
 40
1
 40
1
 40
1
 10
193.021254
 20
162.058551
 30
0.0
 10
191.475936
 20
162.058551
 30
0.0
 10
190.335792
 20
162.166911
 30
0.0
 10
189.600821
 20
162.383631
 30
0.0
  0
SPLINE
  5
1f7
100
AcDbEntity
  8
0
 62
7
100
AcDbSpline
 70
8
 71
3
 72
8
 73
4
 74
0
 40
0
 40
0
 40
0
 40
0
 40
1
 40
1
 40
1
 40
1
 10
189.600821
 20
162.383631
 30
0.0
 10
189.516017
 20
162.817075
 30
0.0
 10
189.369966
 20
163.523777
 30
0.0
 10
189.162669
 20
164.503735
 30
0.0
  0
SPLINE
  5
1f8
100
AcDbEntity
  8
0
 62
7
100
AcDbSpline
 70
8
 71
3
 72
8
 73
4
 74
0
 40
0
 40
0
 40
0
 40
0
 40
1
 40
1
 40
1
 40
1
 10
189.162669
 20
164.503735
 30
0.0
 10
189.030751
 20
165.031406
 30
0.0
 10
188.847009
 20
165.733396
 30
0.0
 10
188.611441
 20
166.609705
 30
0.0
  0
SPLINE
  5
1f9
100
AcDbEntity
  8
0
 62
7
100
AcDbSpline
 70
8
 71
3
 72
8
 73
4
 74
0
 40
0
 40
0
 40
0
 40
0
 40
1
 40
1
 40
1
 40
1
 10
188.611441
 20
166.609705
 30
0.0
 10
189.647936
 20
166.355292
 30
0.0
 10
190.345214
 20
166.228085
 30
0.0
 10
190.703277
 20
166.228085
 30
0.0
  0
SPLINE
  5
1fa
100
AcDbEntity
  8
0
 62
7
100
AcDbSpline
 70
8
 71
3
 72
8
 73
4
 74
0
 40
0
 40
0
 40
0
 40
0
 40
1
 40
1
 40
1
 40
1
 10
190.703277
 20
166.228085
 30
0.0
 10
192.107256
 20
166.228085
 30
0.0
 10
192.809246
 20
166.760467
 30
0.0
 10
192.809246
 20
167.825230
 30
0.0
  0
SPLINE
  5
1fb
100
AcDbEntity
  8
0
 62
7
100
AcDbSpline
 70
8
 71
3
 72
8
 73
4
 74
0
 40
0
 40
0
 40
0
 40
0
 40
1
 40
1
 40
1
 40
1
 10
192.809246
 20
167.825230
 30
0.0
 10
192.809246
 20
168.597890
 30
0.0
 10
192.526565
 20
169.290458
 30
0.0
 10
191.961204
 20
169.902931
 30
0.0
  0
SPLINE
  5
1fc
100
AcDbEntity
  8
0
 62
7
100
AcDbSpline
 70
8
 71
3
 72
8
 73
4
 74
0
 40
0
 40
0
 40
0
 40
0
 40
1
 40
1
 40
1
 40
1
 10
191.961204
 20
169.902931
 30
0.0
 10
191.037781
 20
170.713283
 30
0.0
 10
190.114359
 20
171.528345
 30
0.0
 10
189.190937
 20
172.348118
 30
0.0
  0
SPLINE
  5
1fd
100
AcDbEntity
  8
0
 62
7
100
AcDbSpline
 70
8
 71
3
 72
8
 73
4
 74
0
 40
0
 40
0
 40
0
 40
0
 40
1
 40
1
 40
1
 40
1
 10
189.190937
 20
172.348118
 30
0.0
 10
187.400627
 20
173.931128
 30
0.0
 10
186.505472
 20
175.810953
 30
0.0
 10
186.505472
 20
177.987592
 30
0.0
  0
SPLINE
  5
1fe
100
AcDbEntity
  8
0
 62
7
100
AcDbSpline
 70
8
 71
3
 72
8
 73
4
 74
0
 40
0
 40
0
 40
0
 40
0
 40
1
 40
1
 40
1
 40
1
 10
186.505472
 20
177.987592
 30
0.0
 10
186.505472
 20
180.258458
 30
0.0
 10
187.353513
 20
181.978097
 30
0.0
 10
189.049596
 20
183.146510
 30
0.0
  0
SPLINE
  5
1ff
100
AcDbEntity
  8
0
 62
7
100
AcDbSpline
 70
8
 71
3
 72
8
 73
4
 74
0
 40
0
 40
0
 40
0
 40
0
 40
1
 40
1
 40
1
 40
1
 10
189.049596
 20
183.146510
 30
0.0
 10
190.528956
 20
184.164159
 30
0.0
 10
192.498296
 20
184.672983
 30
0.0
 10
194.957615
 20
184.672983
 30
0.0
  0
SPLINE
  5
200
100
AcDbEntity
  8
0
 62
7
100
AcDbSpline
 70
8
 71
3
 72
8
 73
4
 74
0
 40
0
 40
0
 40
0
 40
0
 40
1
 40
1
 40
1
 40
1
 10
194.957615
 20
184.672983
 30
0.0
 10
196.352172
 20
184.672983
 30
0.0
 10
197.916338
 20
184.470395
 30
0.0
 10
199.650112
 20
184.065220
 30
0.0
  0
LWPOLYLINE
  5
201
100
AcDbEntity
  8
0
 62
7
100
AcDbPolyline
 90
5
 70
0
 10
166.986381
 20
175.500004
 30
0.0
 10
164.753205
 20
175.415199
 30
0.0
 10
162.732040
 20
175.203189
 30
0.0
 10
162.378692
 20
184.093488
 30
0.0
 10
179.961413
 20
184.093488
 30
0.0
  0
SPLINE
  5
202
100
AcDbEntity
  8
0
 62
7
100
AcDbSpline
 70
8
 71
3
 72
8
 73
4
 74
0
 40
0
 40
0
 40
0
 40
0
 40
1
 40
1
 40
1
 40
1
 10
215.875960
 20
166.666241
 30
0.0
 10
215.781733
 20
166.289333
 30
0.0
 10
215.607413
 20
165.577920
 30
0.0
 10
215.353000
 20
164.532003
 30
0.0
  0
SPLINE
  5
203
100
AcDbEntity
  8
0
 62
7
100
AcDbSpline
 70
8
 71
3
 72
8
 73
4
 74
0
 40
0
 40
0
 40
0
 40
0
 40
1
 40
1
 40
1
 40
1
 10
215.353000
 20
164.532003
 30
0.0
 10
215.221084
 20
163.919530
 30
0.0
 10
215.108013
 20
163.203406
 30
0.0
 10
215.013786
 20
162.383631
 30
0.0
  0
LWPOLYLINE
  5
204
100
AcDbEntity
  8
0
 62
7
100
AcDbPolyline
 90
2
 70
0
 10
199.650112
 20
184.065220
 30
0.0
 10
200.074130
 20
175.203189
 30
0.0
  0
SPLINE
  5
205
100
AcDbEntity
  8
0
 62
7
100
AcDbSpline
 70
8
 71
3
 72
8
 73
4
 74
0
 40
0
 40
0
 40
0
 40
0
 40
1
 40
1
 40
1
 40
1
 10
202.222497
 20
162.383631
 30
0.0
 10
202.175383
 20
164.597963
 30
0.0
 10
202.057600
 20
168.244540
 30
0.0
 10
201.869146
 20
173.323364
 30
0.0
  0
SPLINE
  5
206
100
AcDbEntity
  8
0
 62
7
100
AcDbSpline
 70
8
 71
3
 72
8
 73
4
 74
0
 40
0
 40
0
 40
0
 40
0
 40
1
 40
1
 40
1
 40
1
 10
201.869146
 20
173.323364
 30
0.0
 10
201.746651
 20
175.924024
 30
0.0
 10
201.525217
 20
179.514065
 30
0.0
 10
201.204846
 20
184.093488
 30
0.0
  0
LWPOLYLINE
  5
207
100
AcDbEntity
  8
0
 62
7
100
AcDbPolyline
 90
2
 70
0
 10
215.013786
 20
162.383631
 30
0.0
 10
202.222497
 20
162.383631
 30
0.0
  0
SPLINE
  5
208
100
AcDbEntity
  8
0
 62
7
100
AcDbSpline
 70
8
 71
3
 72
8
 73
4
 74
0
 40
0
 40
0
 40
0
 40
0
 40
1
 40
1
 40
1
 40
1
 10
210.208217
 20
166.086745
 30
0.0
 10
211.122219
 20
166.086745
 30
0.0
 10
212.493219
 20
166.185683
 30
0.0
 10
214.321218
 20
166.383560
 30
0.0
  0
SPLINE
  5
209
100
AcDbEntity
  8
0
 62
7
100
AcDbSpline
 70
8
 71
3
 72
8
 73
4
 74
0
 40
0
 40
0
 40
0
 40
0
 40
1
 40
1
 40
1
 40
1
 10
214.321218
 20
166.383560
 30
0.0
 10
214.698126
 20
166.421251
 30
0.0
 10
215.216373
 20
166.515478
 30
0.0
 10
215.875960
 20
166.666241
 30
0.0
  0
LWPOLYLINE
  5
20a
100
AcDbEntity
  8
0
 62
7
100
AcDbPolyline
 90
3
 70
0
 10
201.204846
 20
184.093488
 30
0.0
 10
211.013858
 20
184.093488
 30
0.0
 10
210.208217
 20
166.086745
 30
0.0
  0
LWPOLYLINE
  5
20b
100
AcDbEntity
  8
0
 62
7
100
AcDbPolyline
 90
1
 70
1
 10
215.875960
 20
166.666241
 30
0.0
  0
SPLINE
  5
20c
100
AcDbEntity
  8
0
 62
7
100
AcDbSpline
 70
8
 71
3
 72
8
 73
4
 74
0
 40
0
 40
0
 40
0
 40
0
 40
1
 40
1
 40
1
 40
1
 10
230.773219
 20
175.146653
 30
0.0
 10
230.424579
 20
175.203189
 30
0.0
 10
229.670764
 20
175.302127
 30
0.0
 10
228.511775
 20
175.443467
 30
0.0
  0
SPLINE
  5
20d
100
AcDbEntity
  8
0
 62
7
100
AcDbSpline
 70
8
 71
3
 72
8
 73
4
 74
0
 40
0
 40
0
 40
0
 40
0
 40
1
 40
1
 40
1
 40
1
 10
228.511775
 20
175.443467
 30
0.0
 10
227.720270
 20
175.518849
 30
0.0
 10
226.853384
 20
175.565962
 30
0.0
 10
225.911116
 20
175.584808
 30
0.0
  0
LWPOLYLINE
  5
20e
100
AcDbEntity
  8
0
 62
7
100
AcDbPolyline
 90
2
 70
0
 10
231.380983
 20
184.093488
 30
0.0
 10
230.773219
 20
175.146653
 30
0.0
  0
SPLINE
  5
20f
100
AcDbEntity
  8
0
 62
7
100
AcDbSpline
 70
8
 71
3
 72
8
 73
4
 74
0
 40
0
 40
0
 40
0
 40
0
 40
1
 40
1
 40
1
 40
1
 10
225.699106
 20
172.885211
 30
0.0
 10
226.735600
 20
172.856943
 30
0.0
 10
228.426971
 20
172.880500
 30
0.0
 10
230.773219
 20
172.955881
 30
0.0
  0
SPLINE
  5
210
100
AcDbEntity
  8
0
 62
7
100
AcDbSpline
 70
8
 71
3
 72
8
 73
4
 74
0
 40
0
 40
0
 40
0
 40
0
 40
1
 40
1
 40
1
 40
1
 10
230.773219
 20
172.955881
 30
0.0
 10
230.669569
 20
172.607242
 30
0.0
 10
230.504672
 20
171.957077
 30
0.0
 10
230.278527
 20
171.005386
 30
0.0
  0
SPLINE
  5
211
100
AcDbEntity
  8
0
 62
7
100
AcDbSpline
 70
8
 71
3
 72
8
 73
4
 74
0
 40
0
 40
0
 40
0
 40
0
 40
1
 40
1
 40
1
 40
1
 10
230.278527
 20
171.005386
 30
0.0
 10
230.146610
 20
170.430602
 30
0.0
 10
230.028826
 20
169.766303
 30
0.0
 10
229.925176
 20
169.012489
 30
0.0
  0
SPLINE
  5
212
100
AcDbEntity
  8
0
 62
7
100
AcDbSpline
 70
8
 71
3
 72
8
 73
4
 74
0
 40
0
 40
0
 40
0
 40
0
 40
1
 40
1
 40
1
 40
1
 10
229.925176
 20
169.012489
 30
0.0
 10
229.651920
 20
169.078448
 30
0.0
 10
228.968776
 20
169.163252
 30
0.0
 10
227.875745
 20
169.266902
 30
0.0
  0
SPLINE
  5
213
100
AcDbEntity
  8
0
 62
7
100
AcDbSpline
 70
8
 71
3
 72
8
 73
4
 74
0
 40
0
 40
0
 40
0
 40
0
 40
1
 40
1
 40
1
 40
1
 10
227.875745
 20
169.266902
 30
0.0
 10
227.366920
 20
169.295170
 30
0.0
 10
226.613105
 20
169.304593
 30
0.0
 10
225.614301
 20
169.295170
 30
0.0
  0
LWPOLYLINE
  5
214
100
AcDbEntity
  8
0
 62
7
100
AcDbPolyline
 90
2
 70
0
 10
225.911116
 20
175.584808
 30
0.0
 10
225.699106
 20
172.885211
 30
0.0
  0
SPLINE
  5
215
100
AcDbEntity
  8
0
 62
7
100
AcDbSpline
 70
8
 71
3
 72
8
 73
4
 74
0
 40
0
 40
0
 40
0
 40
0
 40
1
 40
1
 40
1
 40
1
 10
225.472961
 20
166.143281
 30
0.0
 10
226.179661
 20
166.152700
 30
0.0
 10
227.479991
 20
166.213948
 30
0.0
 10
229.373951
 20
166.327024
 30
0.0
  0
SPLINE
  5
216
100
AcDbEntity
  8
0
 62
7
100
AcDbSpline
 70
8
 71
3
 72
8
 73
4
 74
0
 40
0
 40
0
 40
0
 40
0
 40
1
 40
1
 40
1
 40
1
 10
229.373951
 20
166.327024
 30
0.0
 10
229.732012
 20
166.355292
 30
0.0
 10
230.320929
 20
166.468364
 30
0.0
 10
231.140704
 20
166.666241
 30
0.0
  0
SPLINE
  5
217
100
AcDbEntity
  8
0
 62
7
100
AcDbSpline
 70
8
 71
3
 72
8
 73
4
 74
0
 40
0
 40
0
 40
0
 40
0
 40
1
 40
1
 40
1
 40
1
 10
231.140704
 20
166.666241
 30
0.0
 10
231.065322
 20
166.374137
 30
0.0
 10
230.891002
 20
165.672147
 30
0.0
 10
230.617744
 20
164.560271
 30
0.0
  0
SPLINE
  5
218
100
AcDbEntity
  8
0
 62
7
100
AcDbSpline
 70
8
 71
3
 72
8
 73
4
 74
0
 40
0
 40
0
 40
0
 40
0
 40
1
 40
1
 40
1
 40
1
 10
230.617744
 20
164.560271
 30
0.0
 10
230.485827
 20
163.985489
 30
0.0
 10
230.325641
 20
163.259942
 30
0.0
 10
230.137187
 20
162.383631
 30
0.0
  0
LWPOLYLINE
  5
219
100
AcDbEntity
  8
0
 62
7
100
AcDbPolyline
 90
2
 70
0
 10
225.614301
 20
169.295170
 30
0.0
 10
225.472961
 20
166.143281
 30
0.0
  0
SPLINE
  5
21a
100
AcDbEntity
  8
0
 62
7
100
AcDbSpline
 70
8
 71
3
 72
8
 73
4
 74
0
 40
0
 40
0
 40
0
 40
0
 40
1
 40
1
 40
1
 40
1
 10
217.077354
 20
173.464704
 30
0.0
 10
217.001972
 20
175.999405
 30
0.0
 10
216.818229
 20
179.542333
 30
0.0
 10
216.526126
 20
184.093488
 30
0.0
  0
LWPOLYLINE
  5
21b
100
AcDbEntity
  8
0
 62
7
100
AcDbPolyline
 90
3
 70
0
 10
230.137187
 20
162.383631
 30
0.0
 10
217.487238
 20
162.383631
 30
0.0
 10
217.077354
 20
173.464704
 30
0.0
  0
LWPOLYLINE
  5
21c
100
AcDbEntity
  8
0
 62
7
100
AcDbPolyline
 90
2
 70
0
 10
216.526126
 20
184.093488
 30
0.0
 10
231.380983
 20
184.093488
 30
0.0
  0
SPLINE
  5
21d
100
AcDbEntity
  8
0
 62
7
100
AcDbSpline
 70
8
 71
3
 72
8
 73
4
 74
0
 40
0
 40
0
 40
0
 40
0
 40
1
 40
1
 40
1
 40
1
 10
246.829474
 20
175.146653
 30
0.0
 10
246.480834
 20
175.203189
 30
0.0
 10
245.727020
 20
175.302127
 30
0.0
 10
244.568030
 20
175.443467
 30
0.0
  0
SPLINE
  5
21e
100
AcDbEntity
  8
0
 62
7
100
AcDbSpline
 70
8
 71
3
 72
8
 73
4
 74
0
 40
0
 40
0
 40
0
 40
0
 40
1
 40
1
 40
1
 40
1
 10
244.568030
 20
175.443467
 30
0.0
 10
243.776526
 20
175.518849
 30
0.0
 10
242.909639
 20
175.565962
 30
0.0
 10
241.967372
 20
175.584808
 30
0.0
  0
LWPOLYLINE
  5
21f
100
AcDbEntity
  8
0
 62
7
100
AcDbPolyline
 90
2
 70
0
 10
247.437238
 20
184.093488
 30
0.0
 10
246.829474
 20
175.146653
 30
0.0
  0
SPLINE
  5
220
100
AcDbEntity
  8
0
 62
7
100
AcDbSpline
 70
8
 71
3
 72
8
 73
4
 74
0
 40
0
 40
0
 40
0
 40
0
 40
1
 40
1
 40
1
 40
1
 10
241.755361
 20
172.885211
 30
0.0
 10
242.791856
 20
172.856943
 30
0.0
 10
244.483227
 20
172.880500
 30
0.0
 10
246.829474
 20
172.955881
 30
0.0
  0
SPLINE
  5
221
100
AcDbEntity
  8
0
 62
7
100
AcDbSpline
 70
8
 71
3
 72
8
 73
4
 74
0
 40
0
 40
0
 40
0
 40
0
 40
1
 40
1
 40
1
 40
1
 10
246.829474
 20
172.955881
 30
0.0
 10
246.725825
 20
172.607242
 30
0.0
 10
246.560927
 20
171.957077
 30
0.0
 10
246.334783
 20
171.005386
 30
0.0
  0
SPLINE
  5
222
100
AcDbEntity
  8
0
 62
7
100
AcDbSpline
 70
8
 71
3
 72
8
 73
4
 74
0
 40
0
 40
0
 40
0
 40
0
 40
1
 40
1
 40
1
 40
1
 10
246.334783
 20
171.005386
 30
0.0
 10
246.202865
 20
170.430602
 30
0.0
 10
246.085081
 20
169.766303
 30
0.0
 10
245.981432
 20
169.012489
 30
0.0
  0
SPLINE
  5
223
100
AcDbEntity
  8
0
 62
7
100
AcDbSpline
 70
8
 71
3
 72
8
 73
4
 74
0
 40
0
 40
0
 40
0
 40
0
 40
1
 40
1
 40
1
 40
1
 10
245.981432
 20
169.012489
 30
0.0
 10
245.708175
 20
169.078448
 30
0.0
 10
245.025031
 20
169.163252
 30
0.0
 10
243.931998
 20
169.266902
 30
0.0
  0
SPLINE
  5
224
100
AcDbEntity
  8
0
 62
7
100
AcDbSpline
 70
8
 71
3
 72
8
 73
4
 74
0
 40
0
 40
0
 40
0
 40
0
 40
1
 40
1
 40
1
 40
1
 10
243.931998
 20
169.266902
 30
0.0
 10
243.423175
 20
169.295170
 30
0.0
 10
242.669361
 20
169.304593
 30
0.0
 10
241.670557
 20
169.295170
 30
0.0
  0
LWPOLYLINE
  5
225
100
AcDbEntity
  8
0
 62
7
100
AcDbPolyline
 90
2
 70
0
 10
241.967372
 20
175.584808
 30
0.0
 10
241.755361
 20
172.885211
 30
0.0
  0
SPLINE
  5
226
100
AcDbEntity
  8
0
 62
7
100
AcDbSpline
 70
8
 71
3
 72
8
 73
4
 74
0
 40
0
 40
0
 40
0
 40
0
 40
1
 40
1
 40
1
 40
1
 10
241.529216
 20
166.143281
 30
0.0
 10
242.235917
 20
166.152700
 30
0.0
 10
243.536247
 20
166.213948
 30
0.0
 10
245.430207
 20
166.327024
 30
0.0
  0
SPLINE
  5
227
100
AcDbEntity
  8
0
 62
7
100
AcDbSpline
 70
8
 71
3
 72
8
 73
4
 74
0
 40
0
 40
0
 40
0
 40
0
 40
1
 40
1
 40
1
 40
1
 10
245.430207
 20
166.327024
 30
0.0
 10
245.788267
 20
166.355292
 30
0.0
 10
246.377185
 20
166.468364
 30
0.0
 10
247.196959
 20
166.666241
 30
0.0
  0
SPLINE
  5
228
100
AcDbEntity
  8
0
 62
7
100
AcDbSpline
 70
8
 71
3
 72
8
 73
4
 74
0
 40
0
 40
0
 40
0
 40
0
 40
1
 40
1
 40
1
 40
1
 10
247.196959
 20
166.666241
 30
0.0
 10
247.121578
 20
166.374137
 30
0.0
 10
246.947258
 20
165.672147
 30
0.0
 10
246.674000
 20
164.560271
 30
0.0
  0
SPLINE
  5
229
100
AcDbEntity
  8
0
 62
7
100
AcDbSpline
 70
8
 71
3
 72
8
 73
4
 74
0
 40
0
 40
0
 40
0
 40
0
 40
1
 40
1
 40
1
 40
1
 10
246.674000
 20
164.560271
 30
0.0
 10
246.542082
 20
163.985489
 30
0.0
 10
246.381896
 20
163.259942
 30
0.0
 10
246.193442
 20
162.383631
 30
0.0
  0
LWPOLYLINE
  5
22a
100
AcDbEntity
  8
0
 62
7
100
AcDbPolyline
 90
2
 70
0
 10
241.670557
 20
169.295170
 30
0.0
 10
241.529216
 20
166.143281
 30
0.0
  0
SPLINE
  5
22b
100
AcDbEntity
  8
0
 62
7
100
AcDbSpline
 70
8
 71
3
 72
8
 73
4
 74
0
 40
0
 40
0
 40
0
 40
0
 40
1
 40
1
 40
1
 40
1
 10
233.133606
 20
173.464704
 30
0.0
 10
233.058227
 20
175.999405
 30
0.0
 10
232.874485
 20
179.542333
 30
0.0
 10
232.582381
 20
184.093488
 30
0.0
  0
LWPOLYLINE
  5
22c
100
AcDbEntity
  8
0
 62
7
100
AcDbPolyline
 90
3
 70
0
 10
246.193442
 20
162.383631
 30
0.0
 10
233.543494
 20
162.383631
 30
0.0
 10
233.133606
 20
173.464704
 30
0.0
  0
SPLINE
  5
22d
100
AcDbEntity
  8
0
 62
7
100
AcDbSpline
 70
8
 71
3
 72
8
 73
4
 74
0
 40
0
 40
0
 40
0
 40
0
 40
1
 40
1
 40
1
 40
1
 10
266.956302
 20
175.528272
 30
0.0
 10
266.956302
 20
172.852230
 30
0.0
 10
266.098841
 20
170.708570
 30
0.0
 10
264.383920
 20
169.097293
 30
0.0
  0
SPLINE
  5
22e
100
AcDbEntity
  8
0
 62
7
100
AcDbSpline
 70
8
 71
3
 72
8
 73
4
 74
0
 40
0
 40
0
 40
0
 40
0
 40
1
 40
1
 40
1
 40
1
 10
264.383920
 20
169.097293
 30
0.0
 10
262.678414
 20
167.495437
 30
0.0
 10
260.412259
 20
166.694509
 30
0.0
 10
257.585456
 20
166.694509
 30
0.0
  0
LWPOLYLINE
  5
22f
100
AcDbEntity
  8
0
 62
7
100
AcDbPolyline
 90
2
 70
0
 10
232.582381
 20
184.093488
 30
0.0
 10
247.437238
 20
184.093488
 30
0.0
  0
SPLINE
  5
230
100
AcDbEntity
  8
0
 62
7
100
AcDbSpline
 70
8
 71
3
 72
8
 73
4
 74
0
 40
0
 40
0
 40
0
 40
0
 40
1
 40
1
 40
1
 40
1
 10
249.218114
 20
172.913479
 30
0.0
 10
249.095619
 20
175.627210
 30
0.0
 10
248.902455
 20
179.353879
 30
0.0
 10
248.638621
 20
184.093488
 30
0.0
  0
SPLINE
  5
231
100
AcDbEntity
  8
0
 62
7
100
AcDbSpline
 70
8
 71
3
 72
8
 73
4
 74
0
 40
0
 40
0
 40
0
 40
0
 40
1
 40
1
 40
1
 40
1
 10
248.638621
 20
184.093488
 30
0.0
 10
250.108558
 20
184.385591
 30
0.0
 10
252.261640
 20
184.531643
 30
0.0
 10
255.097867
 20
184.531643
 30
0.0
  0
SPLINE
  5
232
100
AcDbEntity
  8
0
 62
7
100
AcDbSpline
 70
8
 71
3
 72
8
 73
4
 74
0
 40
0
 40
0
 40
0
 40
0
 40
1
 40
1
 40
1
 40
1
 10
255.097867
 20
184.531643
 30
0.0
 10
258.555991
 20
184.531643
 30
0.0
 10
261.326259
 20
183.839076
 30
0.0
 10
263.408671
 20
182.453941
 30
0.0
  0
SPLINE
  5
233
100
AcDbEntity
  8
0
 62
7
100
AcDbSpline
 70
8
 71
3
 72
8
 73
4
 74
0
 40
0
 40
0
 40
0
 40
0
 40
1
 40
1
 40
1
 40
1
 10
263.408671
 20
182.453941
 30
0.0
 10
265.773758
 20
180.880355
 30
0.0
 10
266.956302
 20
178.571798
 30
0.0
 10
266.956302
 20
175.528272
 30
0.0
  0
LWPOLYLINE
  5
234
100
AcDbEntity
  8
0
 62
7
100
AcDbPolyline
 90
4
 70
0
 10
257.585456
 20
166.694509
 30
0.0
 10
257.415848
 20
162.383631
 30
0.0
 10
249.628001
 20
162.383631
 30
0.0
 10
249.218114
 20
172.913479
 30
0.0
  0
SPLINE
  5
235
100
AcDbEntity
  8
0
 62
7
100
AcDbSpline
 70
8
 71
3
 72
8
 73
4
 74
0
 40
0
 40
0
 40
0
 40
0
 40
1
 40
1
 40
1
 40
1
 10
261.090693
 20
173.153755
 30
0.0
 10
261.090693
 20
174.623694
 30
0.0
 10
260.219095
 20
175.358663
 30
0.0
 10
258.475898
 20
175.358663
 30
0.0
  0
SPLINE
  5
236
100
AcDbEntity
  8
0
 62
7
100
AcDbSpline
 70
8
 71
3
 72
8
 73
4
 74
0
 40
0
 40
0
 40
0
 40
0
 40
1
 40
1
 40
1
 40
1
 10
258.475898
 20
175.358663
 30
0.0
 10
258.268599
 20
175.358663
 30
0.0
 10
258.056588
 20
175.344529
 30
0.0
 10
257.839866
 20
175.316261
 30
0.0
  0
LWPOLYLINE
  5
237
100
AcDbEntity
  8
0
 62
7
100
AcDbPolyline
 90
1
 70
1
 10
266.956302
 20
175.528272
 30
0.0
  0
SPLINE
  5
238
100
AcDbEntity
  8
0
 62
7
100
AcDbSpline
 70
8
 71
3
 72
8
 73
4
 74
0
 40
0
 40
0
 40
0
 40
0
 40
1
 40
1
 40
1
 40
1
 10
257.698526
 20
170.369354
 30
0.0
 10
259.959971
 20
170.444736
 30
0.0
 10
261.090693
 20
171.372870
 30
0.0
 10
261.090693
 20
173.153755
 30
0.0
  0
LWPOLYLINE
  5
239
100
AcDbEntity
  8
0
 62
7
100
AcDbPolyline
 90
2
 70
0
 10
257.839866
 20
175.316261
 30
0.0
 10
257.698526
 20
170.369354
 30
0.0
  0
SPLINE
  5
23a
100
AcDbEntity
  8
0
 62
7
100
AcDbSpline
 70
8
 71
3
 72
8
 73
4
 74
0
 40
0
 40
0
 40
0
 40
0
 40
1
 40
1
 40
1
 40
1
 10
280.680451
 20
164.560271
 30
0.0
 10
280.680451
 20
163.815880
 30
0.0
 10
280.364785
 20
163.193983
 30
0.0
 10
279.733454
 20
162.694580
 30
0.0
  0
SPLINE
  5
23b
100
AcDbEntity
  8
0
 62
7
100
AcDbSpline
 70
8
 71
3
 72
8
 73
4
 74
0
 40
0
 40
0
 40
0
 40
0
 40
1
 40
1
 40
1
 40
1
 10
279.733454
 20
162.694580
 30
0.0
 10
279.111560
 20
162.195179
 30
0.0
 10
278.376592
 20
161.945479
 30
0.0
 10
277.528549
 20
161.945479
 30
0.0
  0
SPLINE
  5
23c
100
AcDbEntity
  8
0
 62
7
100
AcDbSpline
 70
8
 71
3
 72
8
 73
4
 74
0
 40
0
 40
0
 40
0
 40
0
 40
1
 40
1
 40
1
 40
1
 10
277.528549
 20
161.945479
 30
0.0
 10
276.642830
 20
161.945479
 30
0.0
 10
275.893733
 20
162.195179
 30
0.0
 10
275.281258
 20
162.694580
 30
0.0
  0
SPLINE
  5
23d
100
AcDbEntity
  8
0
 62
7
100
AcDbSpline
 70
8
 71
3
 72
8
 73
4
 74
0
 40
0
 40
0
 40
0
 40
0
 40
1
 40
1
 40
1
 40
1
 10
275.281258
 20
162.694580
 30
0.0
 10
274.640507
 20
163.203406
 30
0.0
 10
274.320132
 20
163.834725
 30
0.0
 10
274.320132
 20
164.588539
 30
0.0
  0
SPLINE
  5
23e
100
AcDbEntity
  8
0
 62
7
100
AcDbSpline
 70
8
 71
3
 72
8
 73
4
 74
0
 40
0
 40
0
 40
0
 40
0
 40
1
 40
1
 40
1
 40
1
 10
274.320132
 20
164.588539
 30
0.0
 10
274.320132
 20
165.351777
 30
0.0
 10
274.626370
 20
165.973674
 30
0.0
 10
275.238845
 20
166.454230
 30
0.0
  0
SPLINE
  5
23f
100
AcDbEntity
  8
0
 62
7
100
AcDbSpline
 70
8
 71
3
 72
8
 73
4
 74
0
 40
0
 40
0
 40
0
 40
0
 40
1
 40
1
 40
1
 40
1
 10
275.238845
 20
166.454230
 30
0.0
 10
275.851320
 20
166.944210
 30
0.0
 10
276.614555
 20
167.189200
 30
0.0
 10
277.528549
 20
167.189200
 30
0.0
  0
SPLINE
  5
240
100
AcDbEntity
  8
0
 62
7
100
AcDbSpline
 70
8
 71
3
 72
8
 73
4
 74
0
 40
0
 40
0
 40
0
 40
0
 40
1
 40
1
 40
1
 40
1
 10
277.528549
 20
167.189200
 30
0.0
 10
278.386011
 20
167.189200
 30
0.0
 10
279.125698
 20
166.944210
 30
0.0
 10
279.747610
 20
166.454230
 30
0.0
  0
SPLINE
  5
241
100
AcDbEntity
  8
0
 62
7
100
AcDbSpline
 70
8
 71
3
 72
8
 73
4
 74
0
 40
0
 40
0
 40
0
 40
0
 40
1
 40
1
 40
1
 40
1
 10
279.747610
 20
166.454230
 30
0.0
 10
280.369504
 20
165.964252
 30
0.0
 10
280.680451
 20
165.332932
 30
0.0
 10
280.680451
 20
164.560271
 30
0.0
  0
LWPOLYLINE
  5
242
100
AcDbEntity
  8
0
 62
7
100
AcDbPolyline
 90
1
 70
1
 10
261.090693
 20
173.153755
 30
0.0
  0
SPLINE
  5
243
100
AcDbEntity
  8
0
 62
7
100
AcDbSpline
 70
8
 71
3
 72
8
 73
4
 74
0
 40
0
 40
0
 40
0
 40
0
 40
1
 40
1
 40
1
 40
1
 10
289.387015
 20
164.560271
 30
0.0
 10
289.387015
 20
163.815880
 30
0.0
 10
289.071350
 20
163.193983
 30
0.0
 10
288.440019
 20
162.694580
 30
0.0
  0
SPLINE
  5
244
100
AcDbEntity
  8
0
 62
7
100
AcDbSpline
 70
8
 71
3
 72
8
 73
4
 74
0
 40
0
 40
0
 40
0
 40
0
 40
1
 40
1
 40
1
 40
1
 10
288.440019
 20
162.694580
 30
0.0
 10
287.818124
 20
162.195179
 30
0.0
 10
287.083156
 20
161.945479
 30
0.0
 10
286.235114
 20
161.945479
 30
0.0
  0
SPLINE
  5
245
100
AcDbEntity
  8
0
 62
7
100
AcDbSpline
 70
8
 71
3
 72
8
 73
4
 74
0
 40
0
 40
0
 40
0
 40
0
 40
1
 40
1
 40
1
 40
1
 10
286.235114
 20
161.945479
 30
0.0
 10
285.349377
 20
161.945479
 30
0.0
 10
284.600271
 20
162.195179
 30
0.0
 10
283.987796
 20
162.694580
 30
0.0
  0
SPLINE
  5
246
100
AcDbEntity
  8
0
 62
7
100
AcDbSpline
 70
8
 71
3
 72
8
 73
4
 74
0
 40
0
 40
0
 40
0
 40
0
 40
1
 40
1
 40
1
 40
1
 10
283.987796
 20
162.694580
 30
0.0
 10
283.347063
 20
163.203406
 30
0.0
 10
283.026697
 20
163.834725
 30
0.0
 10
283.026697
 20
164.588539
 30
0.0
  0
SPLINE
  5
247
100
AcDbEntity
  8
0
 62
7
100
AcDbSpline
 70
8
 71
3
 72
8
 73
4
 74
0
 40
0
 40
0
 40
0
 40
0
 40
1
 40
1
 40
1
 40
1
 10
283.026697
 20
164.588539
 30
0.0
 10
283.026697
 20
165.351777
 30
0.0
 10
283.332934
 20
165.973674
 30
0.0
 10
283.945409
 20
166.454230
 30
0.0
  0
SPLINE
  5
248
100
AcDbEntity
  8
0
 62
7
100
AcDbSpline
 70
8
 71
3
 72
8
 73
4
 74
0
 40
0
 40
0
 40
0
 40
0
 40
1
 40
1
 40
1
 40
1
 10
283.945409
 20
166.454230
 30
0.0
 10
284.557885
 20
166.944210
 30
0.0
 10
285.321119
 20
167.189200
 30
0.0
 10
286.235114
 20
167.189200
 30
0.0
  0
SPLINE
  5
249
100
AcDbEntity
  8
0
 62
7
100
AcDbSpline
 70
8
 71
3
 72
8
 73
4
 74
0
 40
0
 40
0
 40
0
 40
0
 40
1
 40
1
 40
1
 40
1
 10
286.235114
 20
167.189200
 30
0.0
 10
287.092575
 20
167.189200
 30
0.0
 10
287.832253
 20
166.944210
 30
0.0
 10
288.454148
 20
166.454230
 30
0.0
  0
SPLINE
  5
24a
100
AcDbEntity
  8
0
 62
7
100
AcDbSpline
 70
8
 71
3
 72
8
 73
4
 74
0
 40
0
 40
0
 40
0
 40
0
 40
1
 40
1
 40
1
 40
1
 10
288.454148
 20
166.454230
 30
0.0
 10
289.076059
 20
165.964252
 30
0.0
 10
289.387015
 20
165.332932
 30
0.0
 10
289.387015
 20
164.560271
 30
0.0
  0
LWPOLYLINE
  5
24b
100
AcDbEntity
  8
0
 62
7
100
AcDbPolyline
 90
1
 70
1
 10
280.680451
 20
164.560271
 30
0.0
  0
SPLINE
  5
24c
100
AcDbEntity
  8
0
 62
7
100
AcDbSpline
 70
8
 71
3
 72
8
 73
4
 74
0
 40
0
 40
0
 40
0
 40
0
 40
1
 40
1
 40
1
 40
1
 10
298.093553
 20
164.560271
 30
0.0
 10
298.093553
 20
163.815880
 30
0.0
 10
297.777897
 20
163.193983
 30
0.0
 10
297.146583
 20
162.694580
 30
0.0
  0
SPLINE
  5
24d
100
AcDbEntity
  8
0
 62
7
100
AcDbSpline
 70
8
 71
3
 72
8
 73
4
 74
0
 40
0
 40
0
 40
0
 40
0
 40
1
 40
1
 40
1
 40
1
 10
297.146583
 20
162.694580
 30
0.0
 10
296.524689
 20
162.195179
 30
0.0
 10
295.789720
 20
161.945479
 30
0.0
 10
294.941678
 20
161.945479
 30
0.0
  0
SPLINE
  5
24e
100
AcDbEntity
  8
0
 62
7
100
AcDbSpline
 70
8
 71
3
 72
8
 73
4
 74
0
 40
0
 40
0
 40
0
 40
0
 40
1
 40
1
 40
1
 40
1
 10
294.941678
 20
161.945479
 30
0.0
 10
294.055941
 20
161.945479
 30
0.0
 10
293.306835
 20
162.195179
 30
0.0
 10
292.694360
 20
162.694580
 30
0.0
  0
SPLINE
  5
24f
100
AcDbEntity
  8
0
 62
7
100
AcDbSpline
 70
8
 71
3
 72
8
 73
4
 74
0
 40
0
 40
0
 40
0
 40
0
 40
1
 40
1
 40
1
 40
1
 10
292.694360
 20
162.694580
 30
0.0
 10
292.053627
 20
163.203406
 30
0.0
 10
291.733261
 20
163.834725
 30
0.0
 10
291.733261
 20
164.588539
 30
0.0
  0
SPLINE
  5
250
100
AcDbEntity
  8
0
 62
7
100
AcDbSpline
 70
8
 71
3
 72
8
 73
4
 74
0
 40
0
 40
0
 40
0
 40
0
 40
1
 40
1
 40
1
 40
1
 10
291.733261
 20
164.588539
 30
0.0
 10
291.733261
 20
165.351777
 30
0.0
 10
292.039499
 20
165.973674
 30
0.0
 10
292.651974
 20
166.454230
 30
0.0
  0
SPLINE
  5
251
100
AcDbEntity
  8
0
 62
7
100
AcDbSpline
 70
8
 71
3
 72
8
 73
4
 74
0
 40
0
 40
0
 40
0
 40
0
 40
1
 40
1
 40
1
 40
1
 10
292.651974
 20
166.454230
 30
0.0
 10
293.264449
 20
166.944210
 30
0.0
 10
294.027684
 20
167.189200
 30
0.0
 10
294.941678
 20
167.189200
 30
0.0
  0
SPLINE
  5
252
100
AcDbEntity
  8
0
 62
7
100
AcDbSpline
 70
8
 71
3
 72
8
 73
4
 74
0
 40
0
 40
0
 40
0
 40
0
 40
1
 40
1
 40
1
 40
1
 10
294.941678
 20
167.189200
 30
0.0
 10
295.799140
 20
167.189200
 30
0.0
 10
296.538818
 20
166.944210
 30
0.0
 10
297.160712
 20
166.454230
 30
0.0
  0
SPLINE
  5
253
100
AcDbEntity
  8
0
 62
7
100
AcDbSpline
 70
8
 71
3
 72
8
 73
4
 74
0
 40
0
 40
0
 40
0
 40
0
 40
1
 40
1
 40
1
 40
1
 10
297.160712
 20
166.454230
 30
0.0
 10
297.782606
 20
165.964252
 30
0.0
 10
298.093553
 20
165.332932
 30
0.0
 10
298.093553
 20
164.560271
 30
0.0
  0
LWPOLYLINE
  5
254
100
AcDbEntity
  8
0
 62
7
100
AcDbPolyline
 90
1
 70
1
 10
289.387015
 20
164.560271
 30
0.0
  0
LWPOLYLINE
  5
255
100
AcDbEntity
  8
0
 62
7
100
AcDbPolyline
 90
1
 70
1
 10
298.093553
 20
164.560271
 30
0.0
  0
SPLINE
  5
256
100
AcDbEntity
  8
0
 62
7
100
AcDbSpline
 70
8
 71
3
 72
8
 73
4
 74
0
 40
0
 40
0
 40
0
 40
0
 40
1
 40
1
 40
1
 40
1
 10
155.877043
 20
136.362900
 30
0.0
 10
155.773393
 20
133.875313
 30
0.0
 10
155.650898
 20
130.487858
 30
0.0
 10
155.509558
 20
126.200538
 30
0.0
  0
LWPOLYLINE
  5
257
100
AcDbEntity
  8
0
 62
7
100
AcDbPolyline
 90
2
 70
0
 10
156.428271
 20
147.910394
 30
0.0
 10
155.877043
 20
136.362900
 30
0.0
  0
SPLINE
  5
258
100
AcDbEntity
  8
0
 62
7
100
AcDbSpline
 70
8
 71
3
 72
8
 73
4
 74
0
 40
0
 40
0
 40
0
 40
0
 40
1
 40
1
 40
1
 40
1
 10
184.766982
 20
147.910394
 30
0.0
 10
184.606796
 20
145.592415
 30
0.0
 10
184.394785
 20
141.818632
 30
0.0
 10
184.130950
 20
136.589045
 30
0.0
  0
SPLINE
  5
259
100
AcDbEntity
  8
0
 62
7
100
AcDbSpline
 70
8
 71
3
 72
8
 73
4
 74
0
 40
0
 40
0
 40
0
 40
0
 40
1
 40
1
 40
1
 40
1
 10
184.130950
 20
136.589045
 30
0.0
 10
184.055568
 20
134.101457
 30
0.0
 10
183.923652
 20
130.638621
 30
0.0
 10
183.735199
 20
126.200538
 30
0.0
  0
LWPOLYLINE
  5
25a
100
AcDbEntity
  8
0
 62
7
100
AcDbPolyline
 90
4
 70
0
 10
155.509558
 20
126.200538
 30
0.0
 10
147.580374
 20
126.200538
 30
0.0
 10
146.619259
 20
147.910394
 30
0.0
 10
156.428271
 20
147.910394
 30
0.0
  0
SPLINE
  5
25b
100
AcDbEntity
  8
0
 62
7
100
AcDbSpline
 70
8
 71
3
 72
8
 73
4
 74
0
 40
0
 40
0
 40
0
 40
0
 40
1
 40
1
 40
1
 40
1
 10
176.371374
 20
130.949570
 30
0.0
 10
176.201766
 20
130.893034
 30
0.0
 10
175.857838
 20
130.756405
 30
0.0
 10
175.339589
 20
130.539683
 30
0.0
  0
SPLINE
  5
25c
100
AcDbEntity
  8
0
 62
7
100
AcDbSpline
 70
8
 71
3
 72
8
 73
4
 74
0
 40
0
 40
0
 40
0
 40
0
 40
1
 40
1
 40
1
 40
1
 10
175.339589
 20
130.539683
 30
0.0
 10
174.727116
 20
130.275848
 30
0.0
 10
174.293673
 20
130.063837
 30
0.0
 10
174.039260
 20
129.903651
 30
0.0
  0
LWPOLYLINE
  5
25d
100
AcDbEntity
  8
0
 62
7
100
AcDbPolyline
 90
3
 70
0
 10
183.735199
 20
126.200538
 30
0.0
 10
176.526849
 20
126.200538
 30
0.0
 10
176.371374
 20
130.949570
 30
0.0
  0
SPLINE
  5
25e
100
AcDbEntity
  8
0
 62
7
100
AcDbSpline
 70
8
 71
3
 72
8
 73
4
 74
0
 40
0
 40
0
 40
0
 40
0
 40
1
 40
1
 40
1
 40
1
 10
173.304290
 20
131.642136
 30
0.0
 10
173.153527
 20
132.019044
 30
0.0
 10
172.903826
 20
132.551426
 30
0.0
 10
172.555188
 20
133.239282
 30
0.0
  0
LWPOLYLINE
  5
25f
100
AcDbEntity
  8
0
 62
7
100
AcDbPolyline
 90
2
 70
0
 10
174.039260
 20
129.903651
 30
0.0
 10
173.304290
 20
131.642136
 30
0.0
  0
SPLINE
  5
260
100
AcDbEntity
  8
0
 62
7
100
AcDbSpline
 70
8
 71
3
 72
8
 73
4
 74
0
 40
0
 40
0
 40
0
 40
0
 40
1
 40
1
 40
1
 40
1
 10
164.046506
 20
136.589045
 30
0.0
 10
163.961703
 20
139.293353
 30
0.0
 10
163.749694
 20
143.067136
 30
0.0
 10
163.410477
 20
147.910394
 30
0.0
  0
LWPOLYLINE
  5
261
100
AcDbEntity
  8
0
 62
7
100
AcDbPolyline
 90
4
 70
0
 10
172.555188
 20
133.239282
 30
0.0
 10
172.413848
 20
126.200538
 30
0.0
 10
164.456393
 20
126.200538
 30
0.0
 10
164.046506
 20
136.589045
 30
0.0
  0
SPLINE
  5
262
100
AcDbEntity
  8
0
 62
7
100
AcDbSpline
 70
8
 71
3
 72
8
 73
4
 74
0
 40
0
 40
0
 40
0
 40
0
 40
1
 40
1
 40
1
 40
1
 10
172.668261
 20
134.539612
 30
0.0
 10
173.356116
 20
134.473653
 30
0.0
 10
174.015703
 20
134.454807
 30
0.0
 10
174.647024
 20
134.483075
 30
0.0
  0
SPLINE
  5
263
100
AcDbEntity
  8
0
 62
7
100
AcDbSpline
 70
8
 71
3
 72
8
 73
4
 74
0
 40
0
 40
0
 40
0
 40
0
 40
1
 40
1
 40
1
 40
1
 10
174.647024
 20
134.483075
 30
0.0
 10
175.052198
 20
134.492495
 30
0.0
 10
175.598713
 20
134.530185
 30
0.0
 10
176.286570
 20
134.596148
 30
0.0
  0
LWPOLYLINE
  5
264
100
AcDbEntity
  8
0
 62
7
100
AcDbPolyline
 90
3
 70
0
 10
163.410477
 20
147.910394
 30
0.0
 10
173.332558
 20
147.910394
 30
0.0
 10
172.668261
 20
134.539612
 30
0.0
  0
LWPOLYLINE
  5
265
100
AcDbEntity
  8
0
 62
7
100
AcDbPolyline
 90
3
 70
0
 10
176.286570
 20
134.596148
 30
0.0
 10
175.565734
 20
147.910394
 30
0.0
 10
184.766982
 20
147.910394
 30
0.0
  0
SPLINE
  5
266
100
AcDbEntity
  8
0
 62
7
100
AcDbSpline
 70
8
 71
3
 72
8
 73
4
 74
0
 40
0
 40
0
 40
0
 40
0
 40
1
 40
1
 40
1
 40
1
 10
194.943479
 20
128.080363
 30
0.0
 10
194.726757
 20
127.995558
 30
0.0
 10
194.184952
 20
127.708167
 30
0.0
 10
193.318064
 20
127.218189
 30
0.0
  0
SPLINE
  5
267
100
AcDbEntity
  8
0
 62
7
100
AcDbSpline
 70
8
 71
3
 72
8
 73
4
 74
0
 40
0
 40
0
 40
0
 40
0
 40
1
 40
1
 40
1
 40
1
 10
193.318064
 20
127.218189
 30
0.0
 10
192.762127
 20
126.860126
 30
0.0
 10
192.144941
 20
126.384281
 30
0.0
 10
191.466507
 20
125.790653
 30
0.0
  0
LWPOLYLINE
  5
268
100
AcDbEntity
  8
0
 62
7
100
AcDbPolyline
 90
3
 70
0
 10
203.197746
 20
126.200538
 30
0.0
 10
195.466436
 20
126.200538
 30
0.0
 10
194.943479
 20
128.080363
 30
0.0
  0
SPLINE
  5
269
100
AcDbEntity
  8
0
 62
7
100
AcDbSpline
 70
8
 71
3
 72
8
 73
4
 74
0
 40
0
 40
0
 40
0
 40
0
 40
1
 40
1
 40
1
 40
1
 10
190.660869
 20
127.500869
 30
0.0
 10
190.500684
 20
127.840085
 30
0.0
 10
190.269827
 20
128.315930
 30
0.0
 10
189.968301
 20
128.928405
 30
0.0
  0
LWPOLYLINE
  5
26a
100
AcDbEntity
  8
0
 62
7
100
AcDbPolyline
 90
2
 70
0
 10
191.466507
 20
125.790653
 30
0.0
 10
190.660869
 20
127.500869
 30
0.0
  0
SPLINE
  5
26b
100
AcDbEntity
  8
0
 62
7
100
AcDbSpline
 70
8
 71
3
 72
8
 73
4
 74
0
 40
0
 40
0
 40
0
 40
0
 40
1
 40
1
 40
1
 40
1
 10
185.106199
 20
126.200538
 30
0.0
 10
185.709251
 20
128.527941
 30
0.0
 10
186.642096
 20
132.367684
 30
0.0
 10
187.904734
 20
137.719766
 30
0.0
  0
SPLINE
  5
26c
100
AcDbEntity
  8
0
 62
7
100
AcDbSpline
 70
8
 71
3
 72
8
 73
4
 74
0
 40
0
 40
0
 40
0
 40
0
 40
1
 40
1
 40
1
 40
1
 10
187.904734
 20
137.719766
 30
0.0
 10
188.677395
 20
141.300384
 30
0.0
 10
189.322848
 20
144.697260
 30
0.0
 10
189.841095
 20
147.910394
 30
0.0
  0
LWPOLYLINE
  5
26d
100
AcDbEntity
  8
0
 62
7
100
AcDbPolyline
 90
3
 70
0
 10
189.968301
 20
128.928405
 30
0.0
 10
189.205066
 20
126.200538
 30
0.0
 10
185.106199
 20
126.200538
 30
0.0
  0
SPLINE
  5
26e
100
AcDbEntity
  8
0
 62
7
100
AcDbSpline
 70
8
 71
3
 72
8
 73
4
 74
0
 40
0
 40
0
 40
0
 40
0
 40
1
 40
1
 40
1
 40
1
 10
198.335643
 20
147.910394
 30
0.0
 10
198.599477
 20
146.431034
 30
0.0
 10
199.320311
 20
142.987045
 30
0.0
 10
200.498146
 20
137.578425
 30
0.0
  0
SPLINE
  5
26f
100
AcDbEntity
  8
0
 62
7
100
AcDbSpline
 70
8
 71
3
 72
8
 73
4
 74
0
 40
0
 40
0
 40
0
 40
0
 40
1
 40
1
 40
1
 40
1
 10
200.498146
 20
137.578425
 30
0.0
 10
201.148312
 20
134.751621
 30
0.0
 10
202.048179
 20
130.958991
 30
0.0
 10
203.197746
 20
126.200538
 30
0.0
  0
LWPOLYLINE
  5
270
100
AcDbEntity
  8
0
 62
7
100
AcDbPolyline
 90
2
 70
0
 10
189.841095
 20
147.910394
 30
0.0
 10
198.335643
 20
147.910394
 30
0.0
  0
SPLINE
  5
271
100
AcDbEntity
  8
0
 62
7
100
AcDbSpline
 70
8
 71
3
 72
8
 73
4
 74
0
 40
0
 40
0
 40
0
 40
0
 40
1
 40
1
 40
1
 40
1
 10
194.279179
 20
130.836498
 30
0.0
 10
194.118993
 20
131.335899
 30
0.0
 10
193.836312
 20
132.146250
 30
0.0
 10
193.431136
 20
133.267551
 30
0.0
  0
SPLINE
  5
272
100
AcDbEntity
  8
0
 62
7
100
AcDbSpline
 70
8
 71
3
 72
8
 73
4
 74
0
 40
0
 40
0
 40
0
 40
0
 40
1
 40
1
 40
1
 40
1
 10
193.431136
 20
133.267551
 30
0.0
 10
193.186148
 20
133.889447
 30
0.0
 10
192.813952
 20
134.746910
 30
0.0
 10
192.314550
 20
135.839941
 30
0.0
  0
SPLINE
  5
273
100
AcDbEntity
  8
0
 62
7
100
AcDbSpline
 70
8
 71
3
 72
8
 73
4
 74
0
 40
0
 40
0
 40
0
 40
0
 40
1
 40
1
 40
1
 40
1
 10
192.314550
 20
135.839941
 30
0.0
 10
192.097828
 20
135.293426
 30
0.0
 10
191.758611
 20
134.398272
 30
0.0
 10
191.296901
 20
133.154478
 30
0.0
  0
SPLINE
  5
274
100
AcDbEntity
  8
0
 62
7
100
AcDbSpline
 70
8
 71
3
 72
8
 73
4
 74
0
 40
0
 40
0
 40
0
 40
0
 40
1
 40
1
 40
1
 40
1
 10
191.296901
 20
133.154478
 30
0.0
 10
191.042488
 20
132.438353
 30
0.0
 10
190.740962
 20
131.463105
 30
0.0
 10
190.392323
 20
130.228734
 30
0.0
  0
SPLINE
  5
275
100
AcDbEntity
  8
0
 62
7
100
AcDbSpline
 70
8
 71
3
 72
8
 73
4
 74
0
 40
0
 40
0
 40
0
 40
0
 40
1
 40
1
 40
1
 40
1
 10
190.392323
 20
130.228734
 30
0.0
 10
190.675003
 20
130.228734
 30
0.0
 10
191.315746
 20
130.285270
 30
0.0
 10
192.314550
 20
130.398343
 30
0.0
  0
SPLINE
  5
276
100
AcDbEntity
  8
0
 62
7
100
AcDbSpline
 70
8
 71
3
 72
8
 73
4
 74
0
 40
0
 40
0
 40
0
 40
0
 40
1
 40
1
 40
1
 40
1
 10
192.314550
 20
130.398343
 30
0.0
 10
192.917602
 20
130.483147
 30
0.0
 10
193.572478
 20
130.629199
 30
0.0
 10
194.279179
 20
130.836498
 30
0.0
  0
LWPOLYLINE
  5
277
100
AcDbEntity
  8
0
 62
7
100
AcDbPolyline
 90
1
 70
1
 10
203.197746
 20
126.200538
 30
0.0
  0
SPLINE
  5
278
100
AcDbEntity
  8
0
 62
7
100
AcDbSpline
 70
8
 71
3
 72
8
 73
4
 74
0
 40
0
 40
0
 40
0
 40
0
 40
1
 40
1
 40
1
 40
1
 10
221.925322
 20
147.910394
 30
0.0
 10
221.143240
 20
145.592415
 30
0.0
 10
219.890023
 20
141.809209
 30
0.0
 10
218.165672
 20
136.560777
 30
0.0
  0
SPLINE
  5
279
100
AcDbEntity
  8
0
 62
7
100
AcDbSpline
 70
8
 71
3
 72
8
 73
4
 74
0
 40
0
 40
0
 40
0
 40
0
 40
1
 40
1
 40
1
 40
1
 10
218.165672
 20
136.560777
 30
0.0
 10
217.374167
 20
134.092035
 30
0.0
 10
216.351807
 20
130.638621
 30
0.0
 10
215.098590
 20
126.200538
 30
0.0
  0
LWPOLYLINE
  5
27a
100
AcDbEntity
  8
0
 62
7
100
AcDbPolyline
 90
1
 70
1
 10
194.279179
 20
130.836498
 30
0.0
  0
SPLINE
  5
27b
100
AcDbEntity
  8
0
 62
7
100
AcDbSpline
 70
8
 71
3
 72
8
 73
4
 74
0
 40
0
 40
0
 40
0
 40
0
 40
1
 40
1
 40
1
 40
1
 10
210.179952
 20
126.200538
 30
0.0
 10
209.548631
 20
128.348910
 30
0.0
 10
208.493290
 20
131.858859
 30
0.0
 10
207.013929
 20
136.730385
 30
0.0
  0
SPLINE
  5
27c
100
AcDbEntity
  8
0
 62
7
100
AcDbSpline
 70
8
 71
3
 72
8
 73
4
 74
0
 40
0
 40
0
 40
0
 40
0
 40
1
 40
1
 40
1
 40
1
 10
207.013929
 20
136.730385
 30
0.0
 10
206.175311
 20
139.425271
 30
0.0
 10
204.931518
 20
143.151940
 30
0.0
 10
203.282550
 20
147.910394
 30
0.0
  0
LWPOLYLINE
  5
27d
100
AcDbEntity
  8
0
 62
7
100
AcDbPolyline
 90
2
 70
0
 10
215.098590
 20
126.200538
 30
0.0
 10
210.179952
 20
126.200538
 30
0.0
  0
SPLINE
  5
27e
100
AcDbEntity
  8
0
 62
7
100
AcDbSpline
 70
8
 71
3
 72
8
 73
4
 74
0
 40
0
 40
0
 40
0
 40
0
 40
1
 40
1
 40
1
 40
1
 10
213.275302
 20
147.910394
 30
0.0
 10
213.369529
 20
147.015240
 30
0.0
 10
213.590962
 20
145.559436
 30
0.0
 10
213.939602
 20
143.542983
 30
0.0
  0
SPLINE
  5
27f
100
AcDbEntity
  8
0
 62
7
100
AcDbSpline
 70
8
 71
3
 72
8
 73
4
 74
0
 40
0
 40
0
 40
0
 40
0
 40
1
 40
1
 40
1
 40
1
 10
213.939602
 20
143.542983
 30
0.0
 10
214.175167
 20
142.468798
 30
0.0
 10
214.542651
 20
140.989436
 30
0.0
 10
215.042054
 20
139.104899
 30
0.0
  0
SPLINE
  5
280
100
AcDbEntity
  8
0
 62
7
100
AcDbSpline
 70
8
 71
3
 72
8
 73
4
 74
0
 40
0
 40
0
 40
0
 40
0
 40
1
 40
1
 40
1
 40
1
 10
215.042054
 20
139.104899
 30
0.0
 10
215.305890
 20
140.018901
 30
0.0
 10
215.692219
 20
141.507684
 30
0.0
 10
216.201043
 20
143.571251
 30
0.0
  0
SPLINE
  5
281
100
AcDbEntity
  8
0
 62
7
100
AcDbSpline
 70
8
 71
3
 72
8
 73
4
 74
0
 40
0
 40
0
 40
0
 40
0
 40
1
 40
1
 40
1
 40
1
 10
216.201043
 20
143.571251
 30
0.0
 10
216.436610
 20
144.683127
 30
0.0
 10
216.705157
 20
146.129508
 30
0.0
 10
217.006683
 20
147.910394
 30
0.0
  0
LWPOLYLINE
  5
282
100
AcDbEntity
  8
0
 62
7
100
AcDbPolyline
 90
2
 70
0
 10
203.282550
 20
147.910394
 30
0.0
 10
213.275302
 20
147.910394
 30
0.0
  0
LWPOLYLINE
  5
283
100
AcDbEntity
  8
0
 62
7
100
AcDbPolyline
 90
2
 70
0
 10
217.006683
 20
147.910394
 30
0.0
 10
221.925322
 20
147.910394
 30
0.0
  0
SPLINE
  5
284
100
AcDbEntity
  8
0
 62
7
100
AcDbSpline
 70
8
 71
3
 72
8
 73
4
 74
0
 40
0
 40
0
 40
0
 40
0
 40
1
 40
1
 40
1
 40
1
 10
236.907382
 20
138.963559
 30
0.0
 10
236.558743
 20
139.020095
 30
0.0
 10
235.804928
 20
139.119033
 30
0.0
 10
234.645938
 20
139.260374
 30
0.0
  0
SPLINE
  5
285
100
AcDbEntity
  8
0
 62
7
100
AcDbSpline
 70
8
 71
3
 72
8
 73
4
 74
0
 40
0
 40
0
 40
0
 40
0
 40
1
 40
1
 40
1
 40
1
 10
234.645938
 20
139.260374
 30
0.0
 10
233.854434
 20
139.335755
 30
0.0
 10
232.987547
 20
139.382869
 30
0.0
 10
232.045280
 20
139.401714
 30
0.0
  0
LWPOLYLINE
  5
286
100
AcDbEntity
  8
0
 62
7
100
AcDbPolyline
 90
2
 70
0
 10
237.515146
 20
147.910394
 30
0.0
 10
236.907382
 20
138.963559
 30
0.0
  0
SPLINE
  5
287
100
AcDbEntity
  8
0
 62
7
100
AcDbSpline
 70
8
 71
3
 72
8
 73
4
 74
0
 40
0
 40
0
 40
0
 40
0
 40
1
 40
1
 40
1
 40
1
 10
231.833269
 20
136.702117
 30
0.0
 10
232.869764
 20
136.673849
 30
0.0
 10
234.561135
 20
136.697406
 30
0.0
 10
236.907382
 20
136.772788
 30
0.0
  0
SPLINE
  5
288
100
AcDbEntity
  8
0
 62
7
100
AcDbSpline
 70
8
 71
3
 72
8
 73
4
 74
0
 40
0
 40
0
 40
0
 40
0
 40
1
 40
1
 40
1
 40
1
 10
236.907382
 20
136.772788
 30
0.0
 10
236.803733
 20
136.424148
 30
0.0
 10
236.638835
 20
135.773983
 30
0.0
 10
236.412691
 20
134.822292
 30
0.0
  0
SPLINE
  5
289
100
AcDbEntity
  8
0
 62
7
100
AcDbSpline
 70
8
 71
3
 72
8
 73
4
 74
0
 40
0
 40
0
 40
0
 40
0
 40
1
 40
1
 40
1
 40
1
 10
236.412691
 20
134.822292
 30
0.0
 10
236.280775
 20
134.247508
 30
0.0
 10
236.162992
 20
133.583209
 30
0.0
 10
236.059342
 20
132.829395
 30
0.0
  0
SPLINE
  5
28a
100
AcDbEntity
  8
0
 62
7
100
AcDbSpline
 70
8
 71
3
 72
8
 73
4
 74
0
 40
0
 40
0
 40
0
 40
0
 40
1
 40
1
 40
1
 40
1
 10
236.059342
 20
132.829395
 30
0.0
 10
235.786084
 20
132.895354
 30
0.0
 10
235.102940
 20
132.980158
 30
0.0
 10
234.009909
 20
133.083808
 30
0.0
  0
SPLINE
  5
28b
100
AcDbEntity
  8
0
 62
7
100
AcDbSpline
 70
8
 71
3
 72
8
 73
4
 74
0
 40
0
 40
0
 40
0
 40
0
 40
1
 40
1
 40
1
 40
1
 10
234.009909
 20
133.083808
 30
0.0
 10
233.501083
 20
133.112076
 30
0.0
 10
232.747269
 20
133.121499
 30
0.0
 10
231.748465
 20
133.112076
 30
0.0
  0
LWPOLYLINE
  5
28c
100
AcDbEntity
  8
0
 62
7
100
AcDbPolyline
 90
2
 70
0
 10
232.045280
 20
139.401714
 30
0.0
 10
231.833269
 20
136.702117
 30
0.0
  0
SPLINE
  5
28d
100
AcDbEntity
  8
0
 62
7
100
AcDbSpline
 70
8
 71
3
 72
8
 73
4
 74
0
 40
0
 40
0
 40
0
 40
0
 40
1
 40
1
 40
1
 40
1
 10
231.607125
 20
129.960187
 30
0.0
 10
232.313825
 20
129.969607
 30
0.0
 10
233.614155
 20
130.030854
 30
0.0
 10
235.508115
 20
130.143930
 30
0.0
  0
SPLINE
  5
28e
100
AcDbEntity
  8
0
 62
7
100
AcDbSpline
 70
8
 71
3
 72
8
 73
4
 74
0
 40
0
 40
0
 40
0
 40
0
 40
1
 40
1
 40
1
 40
1
 10
235.508115
 20
130.143930
 30
0.0
 10
235.866177
 20
130.172198
 30
0.0
 10
236.455095
 20
130.285270
 30
0.0
 10
237.274867
 20
130.483147
 30
0.0
  0
SPLINE
  5
28f
100
AcDbEntity
  8
0
 62
7
100
AcDbSpline
 70
8
 71
3
 72
8
 73
4
 74
0
 40
0
 40
0
 40
0
 40
0
 40
1
 40
1
 40
1
 40
1
 10
237.274867
 20
130.483147
 30
0.0
 10
237.199486
 20
130.191043
 30
0.0
 10
237.025166
 20
129.489054
 30
0.0
 10
236.751908
 20
128.377177
 30
0.0
  0
SPLINE
  5
290
100
AcDbEntity
  8
0
 62
7
100
AcDbSpline
 70
8
 71
3
 72
8
 73
4
 74
0
 40
0
 40
0
 40
0
 40
0
 40
1
 40
1
 40
1
 40
1
 10
236.751908
 20
128.377177
 30
0.0
 10
236.619990
 20
127.802395
 30
0.0
 10
236.459804
 20
127.076848
 30
0.0
 10
236.271350
 20
126.200538
 30
0.0
  0
LWPOLYLINE
  5
291
100
AcDbEntity
  8
0
 62
7
100
AcDbPolyline
 90
2
 70
0
 10
231.748465
 20
133.112076
 30
0.0
 10
231.607125
 20
129.960187
 30
0.0
  0
SPLINE
  5
292
100
AcDbEntity
  8
0
 62
7
100
AcDbSpline
 70
8
 71
3
 72
8
 73
4
 74
0
 40
0
 40
0
 40
0
 40
0
 40
1
 40
1
 40
1
 40
1
 10
223.211517
 20
137.281610
 30
0.0
 10
223.136135
 20
139.816312
 30
0.0
 10
222.952393
 20
143.359240
 30
0.0
 10
222.660289
 20
147.910394
 30
0.0
  0
LWPOLYLINE
  5
293
100
AcDbEntity
  8
0
 62
7
100
AcDbPolyline
 90
3
 70
0
 10
236.271350
 20
126.200538
 30
0.0
 10
223.621402
 20
126.200538
 30
0.0
 10
223.211517
 20
137.281610
 30
0.0
  0
LWPOLYLINE
  5
294
100
AcDbEntity
  8
0
 62
7
100
AcDbPolyline
 90
2
 70
0
 10
222.660289
 20
147.910394
 30
0.0
 10
237.515146
 20
147.910394
 30
0.0
  0
ENDSEC
  0
SECTION
  2
OBJECTS
  0
DICTIONARY
  5
C
330
0
100
AcDbDictionary
  3
ACAD_GROUP
350
D
  3
ACAD_MLINESTYLE
350
17
  0
DICTIONARY
  5
D
330
C
100
AcDbDictionary
  0
DICTIONARY
  5
1A
330
C
100
AcDbDictionary
  0
DICTIONARY
  5
17
330
C
100
AcDbDictionary
  3
STANDARD
350
18
  0
DICTIONARY
  5
19
330
C
100
AcDbDictionary
  0
ENDSEC
  0
EOF
