0
SECTION
2
HEADER
9
$INSUNITS
70
4
9
$ACADVER
1
AC1014
9
$HANDSEED
5
FFFF
0
ENDSEC
0
SECTION
2
TABLES
0
TABLE
2
VPORT
5
8
100
AcDbSymbolTable
0
ENDTAB
0
TABLE
2
LTYPE
5
5
100
AcDbSymbolTable
0
LTYPE
5
14
100
AcDbSymbolTableRecord
100
AcDbLinetypeTableRecord
2
BYBLOCK
70
0
0
LTYPE
5
15
100
AcDbSymbolTableRecord
100
AcDbLinetypeTableRecord
2
BYLAYER
70
0
0
ENDTAB
0
TABLE
2
LAYER
5
2
100
AcDbSymbolTable
70
2
0
LAYER
5
50
100
AcDbSymbolTableRecord
100
AcDbLayerTableRecord
2
0
70
0
6
CONTINUOUS
0
ENDTAB
0
TABLE
2
STYLE
5
3
100
AcDbSymbolTable
70
1
0
STYLE
5
11
100
AcDbSymbolTableRecord
100
AcDbTextStyleTableRecord
2
STANDARD
70
0
0
ENDTAB
0
TABLE
2
VIEW
5
6
100
AcDbSymbolTable
70
0
0
ENDTAB
0
TABLE
2
UCS
5
7
100
AcDbSymbolTable
70
0
0
ENDTAB
0
TABLE
2
APPID
5
9
100
AcDbSymbolTable
70
2
0
APPID
5
12
100
AcDbSymbolTableRecord
100
AcDbRegAppTableRecord
2
ACAD
70
0
0
ENDTAB
0
TABLE
2
DIMSTYLE
5
A
100
AcDbSymbolTable
70
1
0
ENDTAB
0
TABLE
2
BLOCK_RECORD
5
1
100
AcDbSymbolTable
70
1
0
BLOCK_RECORD
5
1F
100
AcDbSymbolTableRecord
100
AcDbBlockTableRecord
2
*MODEL_SPACE
0
BLOCK_RECORD
5
1B
100
AcDbSymbolTableRecord
100
AcDbBlockTableRecord
2
*PAPER_SPACE
0
ENDTAB
0
ENDSEC
0
SECTION
2
BLOCKS
0
BLOCK
5
20
100
AcDbEntity
100
AcDbBlockBegin
2
*MODEL_SPACE
0
ENDBLK
5
21
100
AcDbEntity
100
AcDbBlockEnd
0
BLOCK
5
1C
100
AcDbEntity
100
AcDbBlockBegin
2
*PAPER_SPACE
0
ENDBLK
5
1D
100
AcDbEntity
100
AcDbBlockEnd
0
ENDSEC
0
SECTION
2
ENTITIES
0
CIRCLE
5
100
100
AcDbEntity
8
0
100
AcDbCircle
10
0
20
0
30
0
40
5
210
0
220
0
230
1
0
ARC
5
101
100
AcDbEntity
8
0
100
AcDbCircle
10
38.105117766492086
20
-21.999999999998746
30
0
40
3.0000000000000071
210
0
220
0
230
1
100
AcDbArc
50
-90.000000000013586
51
29.999999999985807
0
LINE
5
102
100
AcDbEntity
8
0
100
AcDbLine
10
40.703193977845785
20
-20.499999999999382
30
0
11
24.100635094600619
21
8.2564755214511081
31
0
0
ARC
5
103
100
AcDbEntity
8
0
100
AcDbCircle
10
21.502558883246941
20
6.7564755214517325
30
0
40
2.9999999999999987
210
0
220
-0
230
1
100
AcDbArc
50
29.999999999986215
51
119.99999999997286
0
LINE
5
104
100
AcDbEntity
8
0
100
AcDbLine
10
20.002558883248174
20
9.3545517328057581
30
0
11
9.610254037832247
21
3.3545517328107821
31
0
0
LINE
5
105
100
AcDbEntity
8
0
100
AcDbLine
10
9.610254037832247
20
3.3545517328107821
30
0
11
7.7102540378358153
21
6.6454482671854755
31
0
0
LINE
5
106
100
AcDbEntity
8
0
100
AcDbLine
10
7.7102540378358153
20
6.6454482671854755
30
0
11
18.102558883249699
21
12.645448267185845
31
0
0
ARC
5
107
100
AcDbEntity
8
0
100
AcDbCircle
10
16.602558883249699
20
15.243524478539161
30
0
40
2.9999999999999987
210
-0
220
0
230
1
100
AcDbArc
50
-59.999999999999986
51
29.999999999986279
0
LINE
5
108
100
AcDbEntity
8
0
100
AcDbLine
10
19.200635094603374
20
16.743524478538539
30
0
11
2.5980762113641975
21
45.499999999978655
31
0
0
ARC
5
109
100
AcDbEntity
8
0
100
AcDbCircle
10
1.0524081606178015e-11
20
43.999999999979281
30
0
40
2.999999999999996
210
0
220
-0
230
1
100
AcDbArc
50
29.99999999998623
51
149.99999999998639
0
LINE
5
110
100
AcDbEntity
8
0
100
AcDbLine
10
-2.5980762113424349
20
45.499999999979899
30
0
11
-19.200635094601335
21
16.74352447853736
31
0
0
ARC
5
111
100
AcDbEntity
8
0
100
AcDbCircle
10
-16.602558883248374
20
15.243524478536743
30
0
40
3.0000000000000031
210
0
220
0
230
1
100
AcDbArc
50
149.99999999998641
51
239.99999999997283
0
LINE
5
112
100
AcDbEntity
8
0
100
AcDbLine
10
-18.102558883249607
20
12.645448267184134
30
0
11
-7.7102540378393662
21
6.6454482671793116
31
0
0
LINE
5
113
100
AcDbEntity
8
0
100
AcDbLine
10
-7.7102540378393662
20
6.6454482671793116
30
0
11
-9.610254037835805
21
3.3545517328046239
31
0
0
LINE
5
114
100
AcDbEntity
8
0
100
AcDbLine
10
-9.610254037835805
20
3.3545517328046239
30
0
11
-20.002558883249698
21
9.3545517328049765
31
0
0
ARC
5
115
100
AcDbEntity
8
0
100
AcDbCircle
10
-21.502558883249698
20
6.756475521451665
30
0
40
2.999999999999996
210
0
220
-0
230
1
100
AcDbArc
50
59.999999999999957
51
149.99999999998633
0
LINE
5
116
100
AcDbEntity
8
0
100
AcDbLine
10
-24.100635094602652
20
8.2564755214522823
30
0
11
-40.703193977855577
21
-20.499999999979895
31
0
0
ARC
5
117
100
AcDbEntity
8
0
100
AcDbCircle
10
-38.10511776650263
20
-21.999999999980517
30
0
40
2.9999999999999942
210
0
220
0
230
1
100
AcDbArc
50
149.99999999998619
51
269.99999999998641
0
LINE
5
118
100
AcDbEntity
8
0
100
AcDbLine
10
-38.105117766503341
20
-24.99999999998051
30
0
11
-4.8999999999992916
21
-24.999999999988461
31
0
0
ARC
5
119
100
AcDbEntity
8
0
100
AcDbCircle
10
-4.8999999999985668
20
-21.999999999988468
30
0
40
2.9999999999999938
210
0
220
0
230
1
100
AcDbArc
50
269.99999999998619
51
360
0
LINE
5
120
100
AcDbEntity
8
0
100
AcDbLine
10
-1.8999999999985728
20
-21.999999999989885
30
0
11
-1.8999999999928812
21
-9.9999999999900915
31
0
0
LINE
5
121
100
AcDbEntity
8
0
100
AcDbLine
10
-1.8999999999928812
20
-9.9999999999900915
30
0
11
1.8999999999999879
21
-9.9999999999900986
31
0
0
LINE
5
122
100
AcDbEntity
8
0
100
AcDbLine
10
1.8999999999999879
20
-9.9999999999900986
30
0
11
1.8999999999999928
21
-21.99999999999082
31
0
0
ARC
5
123
100
AcDbEntity
8
0
100
AcDbCircle
10
4.8999999999999879
20
-21.99999999999082
30
0
40
2.9999999999999947
210
0
220
0
230
1
100
AcDbArc
50
180
51
269.99999999998636
0
LINE
5
124
100
AcDbEntity
8
0
100
AcDbLine
10
4.8999999999992729
20
-24.999999999990816
30
0
11
38.105117766491382
21
-24.999999999998749
31
0
0
ENDSEC
0
SECTION
2
OBJECTS
0
DICTIONARY
5
C
100
AcDbDictionary
3
ACAD_GROUP
350
D
3
ACAD_MLINESTYLE
350
17
0
DICTIONARY
5
D
100
AcDbDictionary
0
DICTIONARY
5
1A
330
C
100
AcDbDictionary
0
DICTIONARY
5
17
100
AcDbDictionary
0
ENDSEC
0
EOF
