0
SECTION
2
HEADER
9
$INSUNITS
70
5
9
$ACADVER
1
AC1014
9
$HANDSEED
5
FFFF
0
ENDSEC
0
SECTION
2
TABLES
0
TABLE
2
VPORT
5
8
100
AcDbSymbolTable
0
ENDTAB
0
TABLE
2
LTYPE
5
5
100
AcDbSymbolTable
0
LTYPE
5
14
100
AcDbSymbolTableRecord
100
AcDbLinetypeTableRecord
2
BYBLOCK
70
0
0
LTYPE
5
15
100
AcDbSymbolTableRecord
100
AcDbLinetypeTableRecord
2
BYLAYER
70
0
0
ENDTAB
0
TABLE
2
LAYER
5
2
100
AcDbSymbolTable
70
2
0
LAYER
5
50
100
AcDbSymbolTableRecord
100
AcDbLayerTableRecord
2
0
70
0
6
CONTINUOUS
0
ENDTAB
0
TABLE
2
STYLE
5
3
100
AcDbSymbolTable
70
1
0
STYLE
5
11
100
AcDbSymbolTableRecord
100
AcDbTextStyleTableRecord
2
STANDARD
70
0
0
ENDTAB
0
TABLE
2
VIEW
5
6
100
AcDbSymbolTable
70
0
0
ENDTAB
0
TABLE
2
UCS
5
7
100
AcDbSymbolTable
70
0
0
ENDTAB
0
TABLE
2
APPID
5
9
100
AcDbSymbolTable
70
2
0
APPID
5
12
100
AcDbSymbolTableRecord
100
AcDbRegAppTableRecord
2
ACAD
70
0
0
ENDTAB
0
TABLE
2
DIMSTYLE
5
A
100
AcDbSymbolTable
70
1
0
ENDTAB
0
TABLE
2
BLOCK_RECORD
5
1
100
AcDbSymbolTable
70
1
0
BLOCK_RECORD
5
1F
100
AcDbSymbolTableRecord
100
AcDbBlockTableRecord
2
*MODEL_SPACE
0
BLOCK_RECORD
5
1B
100
AcDbSymbolTableRecord
100
AcDbBlockTableRecord
2
*PAPER_SPACE
0
ENDTAB
0
ENDSEC
0
SECTION
2
BLOCKS
0
BLOCK
5
20
100
AcDbEntity
100
AcDbBlockBegin
2
*MODEL_SPACE
0
ENDBLK
5
21
100
AcDbEntity
100
AcDbBlockEnd
0
BLOCK
5
1C
100
AcDbEntity
100
AcDbBlockBegin
2
*PAPER_SPACE
0
ENDBLK
5
1D
100
AcDbEntity
100
AcDbBlockEnd
0
ENDSEC
0
SECTION
2
ENTITIES
0
ARC
5
100
100
AcDbEntity
8
0
100
AcDbCircle
10
-2.5084251555854498
20
193.25211128240278
30
0
40
0.30000000000000221
210
0
220
0
230
1
100
AcDbArc
50
135.00000000000151
51
315.00000000000148
0
LINE
5
101
100
AcDbEntity
8
0
100
AcDbLine
10
-2.7205571899414212
20
193.46424331675874
30
0
11
-2.720557189941414
21
215.89997924804686
31
0
0
LINE
5
102
100
AcDbEntity
8
0
100
AcDbLine
10
-2.720557189941414
20
215.89997924804686
30
0
11
-39.698557189941404
21
215.89997924804686
31
0
0
LINE
5
103
100
AcDbEntity
8
0
100
AcDbLine
10
-39.698557189941404
20
215.89997924804686
30
0
11
-39.698557189941404
21
193.4642433167588
31
0
0
ARC
5
104
100
AcDbEntity
8
0
100
AcDbCircle
10
-39.910689224297371
20
193.25211128240281
30
0
40
0.29999999999999438
210
0
220
0
230
1
100
AcDbArc
50
-135
51
45.000000000002878
0
LINE
5
105
100
AcDbEntity
8
0
100
AcDbLine
10
-40.122821258653332
20
193.03997924804685
30
0
11
-41.105293121229479
21
193.03997924804685
31
0
0
ARC
5
106
100
AcDbEntity
8
0
100
AcDbCircle
10
-41.31742515558544
20
193.25211128240281
30
4.9606513019311151e-47
40
0.29999999999999938
210
-8.715763992105617e-33
220
-8.7157639921052885e-33
230
1
100
AcDbArc
50
135.00000000000097
51
315
0
LINE
5
107
100
AcDbEntity
8
0
100
AcDbLine
10
-41.529557189941407
20
193.46424331675877
30
-8.2333755952442726e-47
11
-41.529557189941414
21
215.89997924804686
31
0
0
LINE
5
108
100
AcDbEntity
8
0
100
AcDbLine
10
-41.529557189941414
20
215.89997924804686
30
0
11
-51.689557189941404
21
215.89997924804689
31
0
0
LINE
5
109
100
AcDbEntity
8
0
100
AcDbLine
10
-51.689557189941404
20
215.89997924804689
30
0
11
-51.689557189941411
21
144.77997924804689
31
0
0
LINE
5
110
100
AcDbEntity
8
0
100
AcDbLine
10
-51.689557189941411
20
144.77997924804689
30
0
11
-31.369557189941435
21
2.5399792480468761
31
0
0
LINE
5
111
100
AcDbEntity
8
0
100
AcDbLine
10
-31.369557189941435
20
2.5399792480468761
30
0
11
-11.049557189941432
21
2.5399792480468451
31
0
0
LINE
5
112
100
AcDbEntity
8
0
100
AcDbLine
10
-11.049557189941432
20
2.5399792480468451
30
0
11
9.2704428100585865
21
144.77997924804686
31
0
0
LINE
5
113
100
AcDbEntity
8
0
100
AcDbLine
10
9.2704428100585865
20
144.77997924804686
30
0
11
9.2704428100585918
21
215.89997924804689
31
0
0
LINE
5
114
100
AcDbEntity
8
0
100
AcDbLine
10
9.2704428100585918
20
215.89997924804689
30
0
11
-0.88955718994140653
21
215.89997924804686
31
0
0
LINE
5
115
100
AcDbEntity
8
0
100
AcDbLine
10
-0.88955718994140653
20
215.89997924804686
30
0
11
-0.8895571899414022
21
193.46424331675877
31
0
0
ARC
5
116
100
AcDbEntity
8
0
100
AcDbCircle
10
-1.101689224297373
20
193.25211128240281
30
0
40
0.29999999999999533
210
0
220
0
230
1
100
AcDbArc
50
-135.0000000000002
51
44.999999999998572
0
LINE
5
117
100
AcDbEntity
8
0
100
AcDbLine
10
-1.3138212586533347
20
193.03997924804685
30
0
11
-2.2962931212294784
21
193.03997924804682
31
0
0
ARC
5
118
100
AcDbEntity
8
0
100
AcDbCircle
10
-23.286175155585465
20
10.356611282402806
30
-7.868619306511424e-48
40
0.30000000000000066
210
8.7157639921053542e-33
220
-8.7157639921051366e-33
230
1
100
AcDbArc
50
134.99999999999977
51
314.99999999999977
0
LINE
5
119
100
AcDbEntity
8
0
100
AcDbLine
10
-23.498307189941428
20
10.568743316758772
30
3.697785493223492e-33
11
-23.498307189941428
21
11.551215179334918
31
0
0
ARC
5
120
100
AcDbEntity
8
0
100
AcDbCircle
10
-23.286175155585465
20
11.763347213690878
30
-6.8422776578360209e-49
40
0.30000000000000193
210
8.7157639921051312e-33
220
-8.7157639921053638e-33
230
1
100
AcDbArc
50
44.99999999999855
51
224.99999999999952
0
LINE
5
121
100
AcDbEntity
8
0
100
AcDbLine
10
-23.074043121229494
20
11.975479248046838
30
-4.4111535164366928e-47
11
-19.345071258653359
21
11.975479248046838
31
0
0
ARC
5
122
100
AcDbEntity
8
0
100
AcDbCircle
10
-19.132939224297392
20
11.763347213690881
30
0
40
0.30000000000000066
210
-0
220
0
230
1
100
AcDbArc
50
-45.000000000000256
51
135.00000000000145
0
LINE
5
123
100
AcDbEntity
8
0
100
AcDbLine
10
-18.920807189941428
20
11.551215179334916
30
0
11
-18.920807189941428
21
10.56874331675877
31
0
0
ARC
5
124
100
AcDbEntity
8
0
100
AcDbCircle
10
-19.132939224297392
20
10.35661128240281
30
0
40
0.30000000000000193
210
0
220
0
230
1
100
AcDbArc
50
-135.00000000000145
51
44.999999999999524
0
LINE
5
125
100
AcDbEntity
8
0
100
AcDbLine
10
-19.345071258653363
20
10.144479248046849
30
0
11
-23.074043121229501
21
10.14447924804684
31
-3.6977854932235084e-33
0
ARC
5
126
100
AcDbEntity
8
0
100
AcDbCircle
10
34.29634788507763
20
138.11474760431591
30
0
40
0.29999999999999938
210
-0
220
0
230
1
100
AcDbArc
50
-44.999999999999034
51
135.00000000000097
0
LWPOLYLINE
5
127
100
AcDbEntity
8
0
100
AcDbPolyline
90
8
70
1
43
0.0
10
39.372397668903488
20
144.6958797608614
42
-0.99999999999999989
10
39.796661737615423
20
144.27161569214948
10
39.796661737615423
20
143.30687398573045
42
-0.99999999999999989
10
39.372397668903488
20
142.88260991701853
10
36.558925806327352
20
142.88260991701853
42
-0.99999999999999989
10
36.134661737615417
20
143.30687398573045
10
36.134661737615417
20
144.27161569214948
42
-0.99999999999999989
10
36.558925806327352
20
144.6958797608614
0
LWPOLYLINE
5
128
100
AcDbEntity
8
0
100
AcDbPolyline
90
8
70
1
43
0.0
10
52.968479919433584
20
175.06496394895595
42
-0.99999999999999989
10
53.392743988145519
20
175.48922801766787
10
54.353072993578799
20
175.48922801766787
42
-0.99999999999999989
10
54.777337062290734
20
175.06496394895595
10
54.777337062290734
20
172.25149208637981
42
-0.99999999999999989
10
54.353072993578799
20
171.82722801766789
10
53.392743988145519
20
171.82722801766789
42
-0.99999999999999989
10
52.968479919433584
20
172.25149208637981
0
ARC
5
129
100
AcDbEntity
8
0
100
AcDbCircle
10
34.29634788507763
20
136.70801167302784
30
0
40
0.29999999999999938
210
0
220
0
230
1
100
AcDbArc
50
-135.00000000000097
51
44.999999999999034
0
SPLINE
5
130
100
AcDbEntity
8
0
100
AcDbSpline
70
4
71
5
72
26
73
20
74
0
42
0.000000001
43
0.0000000001
44
0.0000000001
40
0
40
0
40
0
40
0
40
0
40
0
40
0.066666666666666666
40
0.13333333333333333
40
0.20000000000000001
40
0.26666666666666666
40
0.33333333333333331
40
0.39999999999999997
40
0.46666666666666662
40
0.53333333333333333
40
0.59999999999999998
40
0.66666666666666663
40
0.73333333333333328
40
0.79999999999999993
40
0.86666666666666659
40
0.93333333333333324
40
1
40
1
40
1
40
1
40
1
40
1
41
1
41
1
41
1
41
1
41
1
41
1
41
1
41
1
41
1
41
1
41
1
41
1
41
1
41
1
41
1
41
1
41
1
41
1
41
1
41
1
10
11.648479919433598
20
138.32687963867187
30
0
10
12.026137890476868
20
139.14456525913403
30
0
10
12.823753698159912
20
140.7241014846999
30
0
10
14.147015434548592
20
142.92576605966437
30
0
10
16.167467653009346
20
145.52480022597393
30
0
10
19.120196504146044
20
148.23093608625371
30
0
10
22.490790708031874
20
150.49703794402237
30
0
10
26.226575000306447
20
152.51262999084011
30
0
10
30.26231871754376
20
154.70698400783502
30
0
10
34.316391102565994
20
157.41305256101143
30
0
10
38.00583107594786
20
160.77869767694114
30
0
10
41.027336974556796
20
164.78607266477792
30
0
10
43.26697657212339
20
169.24429392742326
30
0
10
45.049071941824359
20
173.72417837904149
30
0
10
47.101572795407698
20
177.65523982518235
30
0
10
49.715094382669712
20
180.79325213424656
30
0
10
52.394393018504601
20
182.56508886398191
30
0
10
54.747863384773972
20
183.47010019759341
30
0
10
56.469528858849152
20
183.88586217252188
30
0
10
57.368479919433582
20
184.04687963867187
30
0
0
LINE
5
131
100
AcDbEntity
8
0
100
AcDbLine
10
34.084215850721662
20
138.32687963867187
30
0
11
11.648479919433598
21
138.32687963867187
31
0
0
LINE
5
132
100
AcDbEntity
8
0
100
AcDbLine
10
34.508479919433597
20
136.9201437073838
30
0
11
34.508479919433597
21
137.90261556995995
31
0
0
LINE
5
133
100
AcDbEntity
8
0
100
AcDbLine
10
11.648479919433598
20
136.49587963867188
30
0
11
34.084215850721662
21
136.49587963867188
31
0
0
SPLINE
5
134
100
AcDbEntity
8
0
100
AcDbSpline
70
4
71
5
72
26
73
20
74
0
42
0.000000001
43
0.0000000001
44
0.0000000001
40
-1
40
-1
40
-1
40
-1
40
-1
40
-1
40
-0.93333333333333324
40
-0.86666666666666659
40
-0.79999999999999993
40
-0.73333333333333328
40
-0.66666666666666663
40
-0.59999999999999998
40
-0.53333333333333333
40
-0.46666666666666662
40
-0.39999999999999997
40
-0.33333333333333331
40
-0.26666666666666666
40
-0.20000000000000001
40
-0.13333333333333333
40
-0.066666666666666666
40
0
40
0
40
0
40
0
40
0
40
0
41
1
41
1
41
1
41
1
41
1
41
1
41
1
41
1
41
1
41
1
41
1
41
1
41
1
41
1
41
1
41
1
41
1
41
1
41
1
41
1
10
57.368479919433604
20
90.775879638671881
30
0
10
56.469528858849181
20
90.936897104821881
30
0
10
54.747863384773993
20
91.35265907975031
30
0
10
52.394393018504623
20
92.257670413361637
30
0
10
49.715094382669726
20
94.029507143096922
30
0
10
47.101572795407712
20
97.167519452161201
30
0
10
45.049071941824373
20
101.09858089830226
30
0
10
43.266976572123404
20
105.57846534992049
30
0
10
41.02733697455681
20
110.03668661256576
30
0
10
38.005831075947853
20
114.04406160040249
30
0
10
34.31639110256598
20
117.40970671633221
30
0
10
30.262318717543753
20
120.11577526950867
30
0
10
26.226575000306454
20
122.31012928650365
30
0
10
22.490790708031881
20
124.32572133332137
30
0
10
19.120196504146001
20
126.59182319108987
30
0
10
16.167467653009282
20
129.29795905136953
30
0
10
14.147015434548557
20
131.89699321767918
30
0
10
12.823753698159898
20
134.09865779264382
30
0
10
12.026137890476868
20
135.67819401820972
30
0
10
11.648479919433598
20
136.49587963867188
30
0
0
LINE
5
135
100
AcDbEntity
8
0
100
AcDbLine
10
57.368479919433582
20
184.04687963867187
30
0
11
57.368479919433604
21
90.775879638671881
31
0
0
ARC
5
136
100
AcDbEntity
8
0
100
AcDbCircle
10
21.768070297187041
20
50.41674613947216
30
0
40
0.30000000000000193
210
0
220
0
230
1
100
AcDbArc
50
-45.000000000000462
51
134.99999999999955
0
LWPOLYLINE
5
137
100
AcDbEntity
8
0
100
AcDbPolyline
90
8
70
1
43
0.0
10
26.8441200810129
20
56.997878296017653
42
-0.99999999999999989
10
27.268384149724827
20
56.573614227305718
10
27.268384149724827
20
55.60887252088672
42
-0.99999999999999989
10
26.8441200810129
20
55.184608452174785
10
24.030648218436756
20
55.184608452174785
42
-0.99999999999999989
10
23.606384149724828
20
55.60887252088672
10
23.606384149724828
20
56.573614227305718
42
-0.99999999999999989
10
24.030648218436756
20
56.997878296017653
0
LWPOLYLINE
5
138
100
AcDbEntity
8
0
100
AcDbPolyline
90
8
70
1
43
0.0
10
40.440202331543006
20
87.366962484112193
42
-0.99999999999999989
10
40.86446640025494
20
87.791226552824114
10
41.824795405688221
20
87.791226552824114
42
-0.99999999999999989
10
42.249059474400156
20
87.366962484112193
10
42.249059474400156
20
84.553490621536042
42
-0.99999999999999989
10
41.824795405688221
20
84.129226552824122
10
40.86446640025494
20
84.129226552824122
42
-0.99999999999999989
10
40.440202331543006
20
84.553490621536042
0
ARC
5
139
100
AcDbEntity
8
0
100
AcDbCircle
10
21.768070297187041
20
49.010010208184092
30
0
40
0.30000000000000193
210
0
220
0
230
1
100
AcDbArc
50
-134.99999999999955
51
45.000000000000483
0
LINE
5
140
100
AcDbEntity
8
0
100
AcDbLine
10
21.555938262831077
20
50.628878173828127
30
0
11
-0.87979766845699459
21
50.628878173828134
31
-1.3899476444035707e-16
0
SPLINE
5
141
100
AcDbEntity
8
0
100
AcDbSpline
70
4
71
5
72
26
73
20
74
0
42
0.000000001
43
0.0000000001
44
0.0000000001
40
0
40
0
40
0
40
0
40
0
40
0
40
0.066666666666666666
40
0.13333333333333333
40
0.20000000000000001
40
0.26666666666666666
40
0.33333333333333331
40
0.39999999999999997
40
0.46666666666666662
40
0.53333333333333333
40
0.59999999999999998
40
0.66666666666666663
40
0.73333333333333328
40
0.79999999999999993
40
0.86666666666666659
40
0.93333333333333324
40
1
40
1
40
1
40
1
40
1
40
1
41
1
41
1
41
1
41
1
41
1
41
1
41
1
41
1
41
1
41
1
41
1
41
1
41
1
41
1
41
1
41
1
41
1
41
1
41
1
41
1
10
-0.87979766845699481
20
50.628878173828127
30
0
10
-0.50213969741372488
20
51.446563794290277
30
0
10
0.29547611026931953
20
53.026100019856145
30
0
10
1.6187378466579998
20
55.227764594820641
30
0
10
3.6391900651187536
20
57.826798761130199
30
0
10
6.5919189162554517
20
60.532934621409971
30
0
10
9.9625131201412813
20
62.799036479178632
30
0
10
13.698297412415862
20
64.814628525996369
30
0
10
17.734041129653175
20
67.008982542991262
30
0
10
21.788113514675409
20
69.71505109616767
30
0
10
25.477553488057282
20
73.080696212097394
30
0
10
28.499059386666218
20
77.088071199934177
30
0
10
30.738698984232812
20
81.546292462579515
30
0
10
32.52079435393378
20
86.026176914197748
30
0
10
34.57329520751712
20
89.957238360338607
30
0
10
37.186816794779133
20
93.095250669402802
30
0
10
39.86611543061403
20
94.867087399138143
30
0
10
42.219585796883401
20
95.77209873274964
30
0
10
43.941251270958581
20
96.187860707678126
30
0
10
44.840202331543011
20
96.348878173828126
30
0
0
LINE
5
142
100
AcDbEntity
8
0
100
AcDbLine
10
21.980202331543005
20
50.204614105116192
30
0
11
21.980202331543005
21
49.222142242540059
31
0
0
LINE
5
143
100
AcDbEntity
8
0
100
AcDbLine
10
21.555938262831077
20
48.797878173828124
30
0
11
-0.87979766845699459
21
48.797878173828131
31
-1.3899476444035707e-16
0
SPLINE
5
144
100
AcDbEntity
8
0
100
AcDbSpline
70
4
71
5
72
26
73
20
74
0
42
0.000000001
43
0.0000000001
44
0.0000000001
40
0
40
0
40
0
40
0
40
0
40
0
40
0.066666666666666666
40
0.13333333333333333
40
0.20000000000000001
40
0.26666666666666666
40
0.33333333333333331
40
0.39999999999999997
40
0.46666666666666662
40
0.53333333333333333
40
0.59999999999999998
40
0.66666666666666663
40
0.73333333333333328
40
0.79999999999999993
40
0.86666666666666659
40
0.93333333333333324
40
1
40
1
40
1
40
1
40
1
40
1
41
1
41
1
41
1
41
1
41
1
41
1
41
1
41
1
41
1
41
1
41
1
41
1
41
1
41
1
41
1
41
1
41
1
41
1
41
1
41
1
10
-0.87979766845699481
20
48.797878173828131
30
0
10
-0.50213969741372488
20
47.980192553365981
30
0
10
0.29547611026930531
20
46.400656327800085
30
0
10
1.6187378466579643
20
44.198991752835454
30
0
10
3.6391900651186897
20
41.599957586525782
30
0
10
6.591918916255409
20
38.893821726246131
30
0
10
9.9625131201412884
20
36.627719868477627
30
0
10
13.698297412415855
20
34.612127821659911
30
0
10
17.734041129653153
20
32.417773804664932
30
0
10
21.788113514675381
20
29.711705251488461
30
0
10
25.477553488057254
20
26.346060135558737
30
0
10
28.499059386666204
20
22.338685147722003
30
0
10
30.738698984232798
20
17.880463885076747
30
0
10
32.520794353933766
20
13.400579433458503
30
0
10
34.573295207517099
20
9.4695179873174453
30
0
10
37.186816794779112
20
6.3315056782531656
30
0
10
39.866115430614009
20
4.5596689485178814
30
0
10
42.219585796883379
20
3.6546576149065473
30
0
10
43.941251270958567
20
3.238895639978125
30
0
10
44.840202331542997
20
3.0778781738281253
30
0
0
LINE
5
145
100
AcDbEntity
8
0
100
AcDbLine
10
44.840202331543011
20
96.348878173828112
30
0
11
44.840202331542997
21
3.0778781738281258
31
0
0
LWPOLYLINE
5
146
100
AcDbEntity
8
0
100
AcDbPolyline
90
4
70
1
43
0.0
10
50.584452331542948
20
73.789929199218747
10
50.584452331542948
20
73.774429199218744
10
48.753452331542945
20
73.774429199218744
10
48.753452331542952
20
73.789929199218747
0
LWPOLYLINE
5
147
100
AcDbEntity
8
0
100
AcDbPolyline
90
4
70
1
43
0.0
10
51.957702331542947
20
43.309929199218743
10
47.380202331542947
20
43.309929199218743
10
47.380202331542947
20
89.029929199218742
10
51.957702331542947
20
89.029929199218742
0
LWPOLYLINE
5
148
100
AcDbEntity
8
0
100
AcDbPolyline
90
20
70
1
43
0.0
10
13.803446237703227
20
80.727677093397432
42
-0.41421356237308521
10
13.803446237703227
20
81.151941162109367
10
14.227710306415162
20
81.151941162109367
10
15.634446237703223
20
81.151941162109367
10
15.63444623770323
20
118.19194116210937
10
14.227710306415165
20
118.19194116210937
10
13.803446237703232
20
118.19194116210937
42
-0.41421356237308282
10
13.803446237703234
20
118.61620523082129
10
13.803446237703234
20
125.51594116210937
10
10.141446237703235
20
125.51594116210936
10
10.141446237703235
20
118.61620523082129
42
-0.41421356237308521
10
10.141446237703235
20
118.19194116210937
10
9.7171821689912967
20
118.19194116210937
10
8.3104462377032302
20
118.19194116210937
10
8.3104462377032249
20
81.151941162109367
10
9.7171821689912932
20
81.151941162109367
10
10.141446237703228
20
81.151941162109381
42
-0.41421356237308521
10
10.141446237703228
20
80.727677093397446
10
10.141446237703228
20
73.827941162109369
10
13.803446237703227
20
73.827941162109369
0
ARC
5
149
100
AcDbEntity
8
0
100
AcDbCircle
10
12.675814203347265
20
77.748573196465301
30
0
40
0.29999999999999938
210
0
220
0
230
1
100
AcDbArc
50
-135.00000000000097
51
44.999999999999034
0
ARC
5
150
100
AcDbEntity
8
0
100
AcDbCircle
10
11.269078272059197
20
79.15530912775337
30
0
40
0.29999999999999938
210
0
220
-0
230
1
100
AcDbArc
50
44.999999999999034
51
224.99999999999855
0
ARC
5
151
100
AcDbEntity
8
0
100
AcDbCircle
10
11.269078272059197
20
77.748573196465301
30
0
40
0.30000000000000193
210
0
220
0
230
1
100
AcDbArc
50
135.00000000000145
51
315.00000000000097
0
ARC
5
152
100
AcDbEntity
8
0
100
AcDbCircle
10
12.675814203347265
20
79.15530912775337
30
0
40
0.29999999999999938
210
0
220
0
230
1
100
AcDbArc
50
-44.999999999999034
51
135.00000000000097
0
LINE
5
153
100
AcDbEntity
8
0
100
AcDbLine
10
11.481210306415164
20
77.536441162109341
30
0
11
12.463682168991298
21
77.536441162109341
31
0
0
LINE
5
154
100
AcDbEntity
8
0
100
AcDbLine
10
12.463682168991298
20
79.36744116210933
30
0
11
11.481210306415164
21
79.36744116210933
31
0
0
LWPOLYLINE
5
155
100
AcDbEntity
8
0
100
AcDbPolyline
90
8
70
1
43
0.0
10
12.463682168991319
20
121.80744116210937
42
-0.99999999999999989
10
12.887946237703254
20
121.38317709339745
10
12.887946237703243
20
120.40070523082132
42
-0.99999999999999989
10
12.46368216899133
20
119.97644116210937
10
11.481210306415186
20
119.97644116210938
42
-0.99999999999999989
10
11.056946237703251
20
120.4007052308213
10
11.056946237703261
20
121.38317709339744
42
-0.99999999999999989
10
11.481210306415175
20
121.80744116210938
0
LINE
5
156
100
AcDbEntity
8
0
100
AcDbLine
10
12.887946237703233
20
77.960705230821262
30
0
11
12.887946237703233
21
78.943177093397409
31
0
0
LINE
5
157
100
AcDbEntity
8
0
100
AcDbLine
10
11.056946237703226
20
78.943177093397409
30
0
11
11.056946237703226
21
77.960705230821262
31
0
0
LWPOLYLINE
5
158
100
AcDbEntity
8
0
100
AcDbPolyline
90
20
70
1
43
0.0
10
-46.19655376229678
20
35.727677093397453
42
-0.41421356237308521
10
-46.19655376229678
20
36.151941162109374
10
-45.772289693584845
20
36.151941162109374
10
-44.365553762296784
20
36.151941162109374
10
-44.365553762296777
20
73.191941162109373
10
-45.772289693584845
20
73.191941162109373
10
-46.196553762296773
20
73.191941162109373
42
-0.41421356237308032
10
-46.196553762296773
20
73.616205230821294
10
-46.196553762296773
20
80.515941162109385
10
-49.858553762296772
20
80.515941162109371
10
-49.858553762296772
20
73.616205230821294
42
-0.41421356237308521
10
-49.858553762296772
20
73.191941162109373
10
-50.282817831008707
20
73.191941162109373
10
-51.689553762296775
20
73.191941162109373
10
-51.689553762296782
20
36.151941162109374
10
-50.282817831008714
20
36.151941162109374
10
-49.858553762296779
20
36.151941162109374
42
-0.41421356237308521
10
-49.858553762296779
20
35.727677093397453
10
-49.858553762296779
20
28.827941162109376
10
-46.19655376229678
20
28.827941162109376
0
LWPOLYLINE
5
159
100
AcDbEntity
8
0
100
AcDbPolyline
90
8
70
1
43
0.0
10
-47.112053762296775
20
32.960705230821262
42
-0.99999999999999989
10
-47.536317831008709
20
32.536441162109341
10
-48.518789693584836
20
32.536441162109348
42
-0.99999999999999989
10
-48.943053762296785
20
32.960705230821254
10
-48.943053762296778
20
33.943177093397416
42
-0.99999999999999989
10
-48.518789693584843
20
34.367441162109337
10
-47.536317831008709
20
34.367441162109337
42
-0.99999999999999989
10
-47.112053762296775
20
33.943177093397416
0
LWPOLYLINE
5
160
100
AcDbEntity
8
0
100
AcDbPolyline
90
8
70
1
43
0.0
10
-47.536317831008688
20
76.80744116210937
42
-0.99999999999999989
10
-47.112053762296753
20
76.38317709339745
10
-47.11205376229676
20
75.400705230821316
42
-0.99999999999999989
10
-47.536317831008681
20
74.976441162109367
10
-48.518789693584822
20
74.976441162109381
42
-0.99999999999999989
10
-48.943053762296756
20
75.400705230821302
10
-48.943053762296749
20
76.383177093397435
42
-0.99999999999999989
10
-48.518789693584829
20
76.807441162109384
0
LWPOLYLINE
5
161
100
AcDbEntity
8
0
100
AcDbPolyline
90
4
70
1
43
0.0
10
-0.73232390247694257
20
32.468639404296866
10
-2.5633239024769456
20
32.468639404296866
10
-2.5633239024769456
20
41.623639404296867
10
-0.73232390247694257
20
41.623639404296867
0
LWPOLYLINE
5
162
100
AcDbEntity
8
0
100
AcDbPolyline
90
4
70
1
43
0.0
10
-39.994554982999873
20
33.439952636718743
10
-41.825554982999876
20
33.439952636718743
10
-41.825554982999876
20
42.594952636718745
10
-39.994554982999873
20
42.594952636718745
0
LWPOLYLINE
5
163
100
AcDbEntity
8
0
100
AcDbPolyline
90
4
70
1
43
0.0
10
-49.85855644784364
20
102.48795678710938
10
-51.689556447843643
20
102.48795678710938
10
-51.689556447843643
20
111.64295678710938
10
-49.85855644784364
20
111.64295678710938
0
LWPOLYLINE
5
164
100
AcDbEntity
8
0
100
AcDbPolyline
90
4
70
1
43
0.0
10
20.226487132679317
20
112.64752124023437
10
18.395487132679314
20
112.64752124023437
10
18.395487132679314
20
121.80252124023438
10
20.226487132679317
20
121.80252124023437
0
LWPOLYLINE
5
165
100
AcDbEntity
8
0
100
AcDbPolyline
90
4
70
1
43
0.0
10
5.9914848022461094
20
79.535262451171903
10
4.1604848022461098
20
79.535262451171903
10
4.1604848022461089
20
88.690262451171904
10
5.9914848022461085
20
88.690262451171904
0
ENDSEC
0
SECTION
2
OBJECTS
0
DICTIONARY
5
C
100
AcDbDictionary
3
ACAD_GROUP
350
D
3
ACAD_MLINESTYLE
350
17
0
DICTIONARY
5
D
100
AcDbDictionary
0
DICTIONARY
5
1A
330
C
100
AcDbDictionary
0
DICTIONARY
5
17
100
AcDbDictionary
0
ENDSEC
0
EOF
