  0
SECTION
  2
HEADER
  9
$ACADVER
  1
AC1012
  9
$DWGCODEPAGE
  3
ansi_932
  9
$INSBASE
 10
0.0
 20
0.0
 30
0.0
  9
$EXTMIN
 10
-28.7261
 20
-39.0126
 30
0.0
  9
$EXTMAX
 10
28.7261
 20
39.0126
 30
0.0
  9
$LIMMIN
 10
0.0
 20
0.0
  9
$LIMMAX
 10
12.0
 20
9.0
  9
$ORTHOMODE
 70
     0
  9
$REGENMODE
 70
     1
  9
$FILLMODE
 70
     1
  9
$QTEXTMODE
 70
     0
  9
$MIRRTEXT
 70
     1
  9
$DRAGMODE
 70
     2
  9
$LTSCALE
 40
1.0
  9
$OSMODE
 70
    37
  9
$ATTMODE
 70
     1
  9
$TEXTSIZE
 40
0.2
  9
$TRACEWID
 40
0.05
  9
$TEXTSTYLE
  7
STANDARD
  9
$CLAYER
  8
0
  9
$CELTYPE
  6
BYLAYER
  9
$CECOLOR
 62
   256
  9
$CELTSCALE
 40
1.0
  9
$DELOBJ
 70
     1
  9
$DISPSILH
 70
     0
  9
$DIMSCALE
 40
1.0
  9
$DIMASZ
 40
0.18
  9
$DIMEXO
 40
0.0625
  9
$DIMDLI
 40
0.38
  9
$DIMRND
 40
0.0
  9
$DIMDLE
 40
0.0
  9
$DIMEXE
 40
0.18
  9
$DIMTP
 40
0.0
  9
$DIMTM
 40
0.0
  9
$DIMTXT
 40
0.18
  9
$DIMCEN
 40
0.09
  9
$DIMTSZ
 40
0.0
  9
$DIMTOL
 70
     0
  9
$DIMLIM
 70
     0
  9
$DIMTIH
 70
     1
  9
$DIMTOH
 70
     1
  9
$DIMSE1
 70
     0
  9
$DIMSE2
 70
     0
  9
$DIMTAD
 70
     0
  9
$DIMZIN
 70
     0
  9
$DIMBLK
  1

  9
$DIMASO
 70
     1
  9
$DIMSHO
 70
     1
  9
$DIMPOST
  1

  9
$DIMAPOST
  1

  9
$DIMALT
 70
     0
  9
$DIMALTD
 70
     2
  9
$DIMALTF
 40
25.4
  9
$DIMLFAC
 40
1.0
  9
$DIMTOFL
 70
     0
  9
$DIMTVP
 40
0.0
  9
$DIMTIX
 70
     0
  9
$DIMSOXD
 70
     0
  9
$DIMSAH
 70
     0
  9
$DIMBLK1
  1

  9
$DIMBLK2
  1

  9
$DIMSTYLE
  2
STANDARD
  9
$DIMCLRD
 70
     0
  9
$DIMCLRE
 70
     0
  9
$DIMCLRT
 70
     0
  9
$DIMTFAC
 40
1.0
  9
$DIMGAP
 40
0.09
  9
$DIMJUST
 70
     0
  9
$DIMSD1
 70
     0
  9
$DIMSD2
 70
     0
  9
$DIMTOLJ
 70
     1
  9
$DIMTZIN
 70
     0
  9
$DIMALTZ
 70
     0
  9
$DIMALTTZ
 70
     0
  9
$DIMFIT
 70
     3
  9
$DIMUPT
 70
     0
  9
$DIMUNIT
 70
     2
  9
$DIMDEC
 70
     4
  9
$DIMTDEC
 70
     4
  9
$DIMALTU
 70
     2
  9
$DIMALTTD
 70
     2
  9
$DIMTXSTY
  7
STANDARD
  9
$DIMAUNIT
 70
     0
  9
$LUNITS
 70
     2
  9
$LUPREC
 70
     4
  9
$SKETCHINC
 40
0.1
  9
$FILLETRAD
 40
0.5
  9
$AUNITS
 70
     0
  9
$AUPREC
 70
     0
  9
$MENU
  1
.
  9
$ELEVATION
 40
0.0
  9
$PELEVATION
 40
0.0
  9
$THICKNESS
 40
0.0
  9
$LIMCHECK
 70
     0
  9
$CHAMFERA
 40
0.5
  9
$CHAMFERB
 40
0.5
  9
$CHAMFERC
 40
1.0
  9
$CHAMFERD
 40
0.0
  9
$SKPOLY
 70
     0
  9
$TDCREATE
 40
2459259.782685671
  9
$TDUPDATE
 40
2459259.782686204
  9
$TDINDWG
 40
0.0000000116
  9
$TDUSRTIMER
 40
0.0000000116
  9
$USRTIMER
 70
     1
  9
$ANGBASE
 50
0.0
  9
$ANGDIR
 70
     0
  9
$PDMODE
 70
     0
  9
$PDSIZE
 40
0.0
  9
$PLINEWID
 40
0.0
  9
$COORDS
 70
     1
  9
$SPLFRAME
 70
     0
  9
$SPLINETYPE
 70
     6
  9
$SPLINESEGS
 70
     8
  9
$ATTDIA
 70
     0
  9
$ATTREQ
 70
     1
  9
$HANDLING
 70
     1
  9
$HANDSEED
  5
77
  9
$SURFTAB1
 70
     6
  9
$SURFTAB2
 70
     6
  9
$SURFTYPE
 70
     6
  9
$SURFU
 70
     6
  9
$SURFV
 70
     6
  9
$UCSNAME
  2

  9
$UCSORG
 10
0.0
 20
0.0
 30
0.0
  9
$UCSXDIR
 10
1.0
 20
0.0
 30
0.0
  9
$UCSYDIR
 10
0.0
 20
1.0
 30
0.0
  9
$PUCSNAME
  2

  9
$PUCSORG
 10
0.0
 20
0.0
 30
0.0
  9
$PUCSXDIR
 10
1.0
 20
0.0
 30
0.0
  9
$PUCSYDIR
 10
0.0
 20
1.0
 30
0.0
  9
$USERI1
 70
     0
  9
$USERI2
 70
     0
  9
$USERI3
 70
     0
  9
$USERI4
 70
     0
  9
$USERI5
 70
     0
  9
$USERR1
 40
0.0
  9
$USERR2
 40
0.0
  9
$USERR3
 40
0.0
  9
$USERR4
 40
0.0
  9
$USERR5
 40
0.0
  9
$WORLDVIEW
 70
     1
  9
$SHADEDGE
 70
     3
  9
$SHADEDIF
 70
    70
  9
$TILEMODE
 70
     1
  9
$MAXACTVP
 70
    64
  9
$PINSBASE
 10
0.0
 20
0.0
 30
0.0
  9
$PLIMCHECK
 70
     0
  9
$PEXTMIN
 10
1.000000000000000E+20
 20
1.000000000000000E+20
 30
1.000000000000000E+20
  9
$PEXTMAX
 10
-1.000000000000000E+20
 20
-1.000000000000000E+20
 30
-1.000000000000000E+20
  9
$PLIMMIN
 10
0.0
 20
0.0
  9
$PLIMMAX
 10
12.0
 20
9.0
  9
$UNITMODE
 70
     0
  9
$VISRETAIN
 70
     1
  9
$PLINEGEN
 70
     0
  9
$PSLTSCALE
 70
     1
  9
$TREEDEPTH
 70
  3020
  9
$PICKSTYLE
 70
     1
  9
$CMLSTYLE
  2
STANDARD
  9
$CMLJUST
 70
     0
  9
$CMLSCALE
 40
1.0
  9
$SAVEIMAGES
 70
     1
  0
ENDSEC
  0
SECTION
  2
CLASSES
  0
CLASS
  1
ACDBDICTIONARYWDFLT
  2
AcDbDictionaryWithDefault
  3
ObjectDBX Classes
 90
    32768
280
     0
281
     0
  0
CLASS
  1
VISUALSTYLE
  2
AcDbVisualStyle
  3
ObjectDBX Classes
 90
     4095
280
     0
281
     0
  0
CLASS
  1
MATERIAL
  2
AcDbMaterial
  3
ObjectDBX Classes
 90
     1153
280
     0
281
     0
  0
CLASS
  1
DICTIONARYVAR
  2
AcDbDictionaryVar
  3
ObjectDBX Classes
 90
        0
280
     0
281
     0
  0
CLASS
  1
XRECORD
  2
AcDbXrecord
  3
AutoCAD 2000
 90
    32768
280
     0
281
     0
  0
CLASS
  1
LWPOLYLINE
  2
AcDbPolyline
  3
AutoCAD 2000
 90
    32768
280
     0
281
     1
  0
CLASS
  1
HATCH
  2
AcDbHatch
  3
AutoCAD 2000
 90
    32768
280
     0
281
     1
  0
CLASS
  1
ACDBPLACEHOLDER
  2
AcDbPlaceHolder
  3
ObjectDBX Classes
 90
        0
280
     0
281
     0
  0
CLASS
  1
LAYOUT
  2
AcDbLayout
  3
ObjectDBX Classes
 90
        0
280
     0
281
     0
  0
ENDSEC
  0
SECTION
  2
TABLES
  0
TABLE
  2
VPORT
  5
8
330
0
100
AcDbSymbolTable
 70
     1
  0
VPORT
  5
29
330
8
100
AcDbSymbolTableRecord
100
AcDbViewportTableRecord
  2
*ACTIVE
 70
     0
 10
0.0
 20
0.0
 11
1.0
 21
1.0
 12
10.42990654205607
 22
4.5
 13
0.0
 23
0.0
 14
0.5
 24
0.5
 15
0.5
 25
0.5
 16
0.0
 26
0.0
 36
1.0
 17
0.0
 27
0.0
 37
0.0
 40
9.0
 41
1.972972972850329
 42
50.0
 43
0.0
 44
0.0
 50
0.0
 51
0.0
 71
     0
 72
   100
 73
     1
 74
     3
 75
     0
 76
     0
 77
     0
 78
     0
  0
ENDTAB
  0
TABLE
  2
LTYPE
  5
5
330
0
100
AcDbSymbolTable
 70
     1
  0
LTYPE
  5
14
330
5
100
AcDbSymbolTableRecord
100
AcDbLinetypeTableRecord
  2
BYBLOCK
 70
     0
  3

 72
    65
 73
     0
 40
0.0
  0
LTYPE
  5
15
330
5
100
AcDbSymbolTableRecord
100
AcDbLinetypeTableRecord
  2
BYLAYER
 70
     0
  3

 72
    65
 73
     0
 40
0.0
  0
LTYPE
  5
16
330
5
100
AcDbSymbolTableRecord
100
AcDbLinetypeTableRecord
  2
CONTINUOUS
 70
     0
  3
Solid line
 72
    65
 73
     0
 40
0.0
  0
ENDTAB
  0
TABLE
  2
LAYER
  5
2
330
0
100
AcDbSymbolTable
 70
     2
  0
LAYER
  5
10
330
2
100
AcDbSymbolTableRecord
100
AcDbLayerTableRecord
  2
0
 70
     0
 62
     7
  6
CONTINUOUS
  0
LAYER
  5
40
330
2
100
AcDbSymbolTableRecord
100
AcDbLayerTableRecord
  2
_LAYER_1
 70
     0
 62
     7
  6
CONTINUOUS
  0
ENDTAB
  0
TABLE
  2
STYLE
  5
3
330
0
100
AcDbSymbolTable
 70
     1
  0
STYLE
  5
11
330
3
100
AcDbSymbolTableRecord
100
AcDbTextStyleTableRecord
  2
STANDARD
 70
     0
 40
0.0
 41
1.0
 50
0.0
 71
     0
 42
0.2
  3
txt
  4

  0
ENDTAB
  0
TABLE
  2
VIEW
  5
6
330
0
100
AcDbSymbolTable
 70
     0
  0
ENDTAB
  0
TABLE
  2
UCS
  5
7
330
0
100
AcDbSymbolTable
 70
     0
  0
ENDTAB
  0
TABLE
  2
APPID
  5
9
330
0
100
AcDbSymbolTable
 70
     2
  0
APPID
  5
12
330
9
100
AcDbSymbolTableRecord
100
AcDbRegAppTableRecord
  2
ACAD
 70
     0
  0
APPID
  5
3F
330
9
100
AcDbSymbolTableRecord
100
AcDbRegAppTableRecord
  2
ODA
 70
     0
  0
ENDTAB
  0
TABLE
  2
DIMSTYLE
  5
A
330
0
100
AcDbSymbolTable
 70
     1
  0
DIMSTYLE
105
27
330
A
100
AcDbSymbolTableRecord
100
AcDbDimStyleTableRecord
  2
STANDARD
 70
     0
  3

  4

  5

  6

  7

 40
1.0
 41
0.18
 42
0.0625
 43
0.38
 44
0.18
 45
0.0
 46
0.0
 47
0.0
 48
0.0
140
0.18
141
0.09
142
0.0
143
25.4
144
1.0
145
0.0
146
1.0
147
0.09
 71
     0
 72
     0
 73
     1
 74
     1
 75
     0
 76
     0
 77
     0
 78
     0
170
     0
171
     2
172
     0
173
     0
174
     0
175
     0
176
     0
177
     0
178
     0
270
     2
271
     4
272
     4
273
     2
274
     2
340
11
275
     0
280
     0
281
     0
282
     0
283
     1
284
     0
285
     0
286
     0
287
     3
288
     0
  0
ENDTAB
  0
TABLE
  2
BLOCK_RECORD
  5
1
330
0
100
AcDbSymbolTable
 70
     1
  0
BLOCK_RECORD
  5
1F
330
1
100
AcDbSymbolTableRecord
100
AcDbBlockTableRecord
  2
*MODEL_SPACE
  0
BLOCK_RECORD
  5
1B
330
1
100
AcDbSymbolTableRecord
100
AcDbBlockTableRecord
  2
*PAPER_SPACE
  0
ENDTAB
  0
ENDSEC
  0
SECTION
  2
BLOCKS
  0
BLOCK
  5
20
330
1F
100
AcDbEntity
  8
0
100
AcDbBlockBegin
  2
*MODEL_SPACE
 70
     0
 10
0.0
 20
0.0
 30
0.0
  3
*MODEL_SPACE
  1

  0
ENDBLK
  5
21
330
1F
100
AcDbEntity
  8
0
100
AcDbBlockEnd
  0
BLOCK
  5
1C
330
1B
100
AcDbEntity
 67
     1
  8
0
100
AcDbBlockBegin
  2
*PAPER_SPACE
 70
     0
 10
0.0
 20
0.0
 30
0.0
  3
*PAPER_SPACE
  1

  0
ENDBLK
  5
1D
330
1B
100
AcDbEntity
 67
     1
  8
0
100
AcDbBlockEnd
  0
ENDSEC
  0
SECTION
  2
ENTITIES
  0
SPLINE
  5
41
330
1F
100
AcDbEntity
  8
_LAYER_1
100
AcDbSpline
210
0.0
220
0.0
230
1.0
 70
    11
 71
     3
 72
    32
 73
    28
 74
     0
 42
0.0000000001
 43
0.0000000001
 12
1.0
 22
0.0
 32
0.0
 13
1.0
 23
0.0
 33
0.0
 40
0.0
 40
0.0
 40
0.0
 40
0.0
 40
0.125
 40
0.125
 40
0.125
 40
0.125
 40
0.25
 40
0.25
 40
0.25
 40
0.25
 40
0.375
 40
0.375
 40
0.375
 40
0.375
 40
0.5
 40
0.5
 40
0.5
 40
0.5
 40
0.625
 40
0.625
 40
0.625
 40
0.625
 40
0.75
 40
0.75
 40
0.75
 40
0.75
 40
1.0
 40
1.0
 40
1.0
 40
1.0
 10
28.298
 20
-39.0126
 30
0.0
 10
28.0501
 20
-38.6445
 30
0.0
 10
28.2454
 20
-38.1262
 30
0.0
 10
27.8623
 20
-37.8107
 30
0.0
 10
27.8623
 20
-37.8107
 30
0.0
 10
27.8548
 20
-37.7957
 30
0.0
 10
27.8623
 20
-37.7356
 30
0.0
 10
27.8698
 20
-37.7356
 30
0.0
 10
27.8698
 20
-37.7356
 30
0.0
 10
27.9299
 20
-37.7356
 30
0.0
 10
28.005
 20
-37.7131
 30
0.0
 10
28.0501
 20
-37.7431
 30
0.0
 10
28.0501
 20
-37.7431
 30
0.0
 10
28.1102
 20
-37.7807
 30
0.0
 10
28.1778
 20
-37.8483
 30
0.0
 10
28.1928
 20
-37.9159
 30
0.0
 10
28.1928
 20
-37.9159
 30
0.0
 10
28.2379
 20
-38.1112
 30
0.0
 10
28.2379
 20
-38.3215
 30
0.0
 10
28.2754
 20
-38.5168
 30
0.0
 10
28.2754
 20
-38.5168
 30
0.0
 10
28.313
 20
-38.6745
 30
0.0
 10
28.3731
 20
-38.8248
 30
0.0
 10
28.4257
 20
-38.9975
 30
0.0
 10
28.4257
 20
-38.9975
 30
0.0
 10
28.3881
 20
-39.0126
 30
0.0
 10
28.3506
 20
-39.0126
 30
0.0
 10
28.298
 20
-39.0126
 30
0.0
  0
SPLINE
  5
42
330
1F
100
AcDbEntity
  8
_LAYER_1
100
AcDbSpline
210
0.0
220
0.0
230
1.0
 70
    11
 71
     3
 72
    24
 73
    20
 74
     0
 42
0.0000000001
 43
0.0000000001
 12
1.0
 22
0.0
 32
0.0
 13
1.0
 23
0.0
 33
0.0
 40
0.0
 40
0.0
 40
0.0
 40
0.0
 40
0.1666666666666667
 40
0.1666666666666667
 40
0.1666666666666667
 40
0.1666666666666667
 40
0.3333333333333333
 40
0.3333333333333333
 40
0.3333333333333333
 40
0.3333333333333333
 40
0.5
 40
0.5
 40
0.5
 40
0.5
 40
0.6666666666666666
 40
0.6666666666666666
 40
0.6666666666666666
 40
0.6666666666666666
 40
1.0
 40
1.0
 40
1.0
 40
1.0
 10
28.7261
 20
-26.6036
 30
0.0
 10
28.6886
 20
-26.6186
 30
0.0
 10
28.651
 20
-26.6186
 30
0.0
 10
28.6135
 20
-26.6186
 30
0.0
 10
28.6135
 20
-26.6186
 30
0.0
 10
28.5008
 20
-26.6337
 30
0.0
 10
28.3881
 20
-26.6487
 30
0.0
 10
28.2754
 20
-26.6562
 30
0.0
 10
28.2754
 20
-26.6562
 30
0.0
 10
28.2829
 20
-26.6262
 30
0.0
 10
28.2904
 20
-26.5661
 30
0.0
 10
28.298
 20
-26.5586
 30
0.0
 10
28.298
 20
-26.5586
 30
0.0
 10
28.4257
 20
-26.5511
 30
0.0
 10
28.5609
 20
-26.5511
 30
0.0
 10
28.7111
 20
-26.5435
 30
0.0
 10
28.7111
 20
-26.5435
 30
0.0
 10
28.7261
 20
-26.5435
 30
0.0
 10
28.7261
 20
-26.5811
 30
0.0
 10
28.7261
 20
-26.6036
 30
0.0
  0
SPLINE
  5
43
330
1F
100
AcDbEntity
  8
_LAYER_1
100
AcDbSpline
210
0.0
220
0.0
230
1.0
 70
    11
 71
     3
 72
    20
 73
    16
 74
     0
 42
0.0000000001
 43
0.0000000001
 12
1.0
 22
0.0
 32
0.0
 13
1.0
 23
0.0
 33
0.0
 40
0.0
 40
0.0
 40
0.0
 40
0.0
 40
0.2
 40
0.2
 40
0.2
 40
0.2
 40
0.4
 40
0.4
 40
0.4
 40
0.4
 40
0.6
 40
0.6
 40
0.6
 40
0.6
 40
1.0
 40
1.0
 40
1.0
 40
1.0
 10
28.7261
 20
-19.6179
 30
0.0
 10
28.6736
 20
-19.6405
 30
0.0
 10
28.6135
 20
-19.6555
 30
0.0
 10
28.5609
 20
-19.6555
 30
0.0
 10
28.5609
 20
-19.6555
 30
0.0
 10
28.5459
 20
-19.6555
 30
0.0
 10
28.5308
 20
-19.6029
 30
0.0
 10
28.5158
 20
-19.5804
 30
0.0
 10
28.5158
 20
-19.5804
 30
0.0
 10
28.5759
 20
-19.5729
 30
0.0
 10
28.6285
 20
-19.5654
 30
0.0
 10
28.7111
 20
-19.5579
 30
0.0
 10
28.7111
 20
-19.5579
 30
0.0
 10
28.7261
 20
-19.5579
 30
0.0
 10
28.7261
 20
-19.5954
 30
0.0
 10
28.7261
 20
-19.6179
 30
0.0
  0
SPLINE
  5
44
330
1F
100
AcDbEntity
  8
_LAYER_1
100
AcDbSpline
210
0.0
220
0.0
230
1.0
 70
    11
 71
     3
 72
    12
 73
     8
 74
     0
 42
0.0000000001
 43
0.0000000001
 12
1.0
 22
0.0
 32
0.0
 13
1.0
 23
0.0
 33
0.0
 40
0.0
 40
0.0
 40
0.0
 40
0.0
 40
0.3333333333333333
 40
0.3333333333333333
 40
0.3333333333333333
 40
0.3333333333333333
 40
1.0
 40
1.0
 40
1.0
 40
1.0
 10
28.7261
 20
-32.1621
 30
0.0
 10
28.7111
 20
-32.1246
 30
0.0
 10
28.7036
 20
-32.0795
 30
0.0
 10
28.7111
 20
-32.0269
 30
0.0
 10
28.7111
 20
-32.0269
 30
0.0
 10
28.7261
 20
-32.0645
 30
0.0
 10
28.7261
 20
-32.102
 30
0.0
 10
28.7261
 20
-32.1621
 30
0.0
  0
SPLINE
  5
45
330
1F
100
AcDbEntity
  8
_LAYER_1
100
AcDbSpline
210
0.0
220
0.0
230
1.0
 70
    11
 71
     3
 72
    16
 73
    12
 74
     0
 42
0.0000000001
 43
0.0000000001
 12
1.0
 22
0.0
 32
0.0
 13
1.0
 23
0.0
 33
0.0
 40
0.0
 40
0.0
 40
0.0
 40
0.0
 40
0.25
 40
0.25
 40
0.25
 40
0.25
 40
0.5
 40
0.5
 40
0.5
 40
0.5
 40
1.0
 40
1.0
 40
1.0
 40
1.0
 10
28.7261
 20
-14.8106
 30
0.0
 10
28.681
 20
-14.8106
 30
0.0
 10
28.636
 20
-14.7956
 30
0.0
 10
28.5909
 20
-14.7731
 30
0.0
 10
28.5909
 20
-14.7731
 30
0.0
 10
28.621
 20
-14.7655
 30
0.0
 10
28.6585
 20
-14.758
 30
0.0
 10
28.7111
 20
-14.7505
 30
0.0
 10
28.7111
 20
-14.7505
 30
0.0
 10
28.7261
 20
-14.7505
 30
0.0
 10
28.7261
 20
-14.7881
 30
0.0
 10
28.7261
 20
-14.8106
 30
0.0
  0
SPLINE
  5
46
330
1F
100
AcDbEntity
  8
_LAYER_1
100
AcDbSpline
210
0.0
220
0.0
230
1.0
 70
    11
 71
     3
 72
    20
 73
    16
 74
     0
 42
0.0000000001
 43
0.0000000001
 12
1.0
 22
0.0
 32
0.0
 13
1.0
 23
0.0
 33
0.0
 40
0.0
 40
0.0
 40
0.0
 40
0.0
 40
0.2
 40
0.2
 40
0.2
 40
0.2
 40
0.4
 40
0.4
 40
0.4
 40
0.4
 40
0.6
 40
0.6
 40
0.6
 40
0.6
 40
1.0
 40
1.0
 40
1.0
 40
1.0
 10
27.8473
 20
-30.9979
 30
0.0
 10
27.8999
 20
-30.9753
 30
0.0
 10
27.9374
 20
-30.9678
 30
0.0
 10
27.975
 20
-30.9753
 30
0.0
 10
27.975
 20
-30.9753
 30
0.0
 10
28.0726
 20
-30.9903
 30
0.0
 10
28.1703
 20
-31.0053
 30
0.0
 10
28.2604
 20
-31.0279
 30
0.0
 10
28.2604
 20
-31.0279
 30
0.0
 10
28.2454
 20
-31.0429
 30
0.0
 10
28.2229
 20
-31.0805
 30
0.0
 10
28.2078
 20
-31.073
 30
0.0
 10
28.2078
 20
-31.073
 30
0.0
 10
28.0801
 20
-31.0579
 30
0.0
 10
27.9525
 20
-31.0354
 30
0.0
 10
27.8473
 20
-30.9979
 30
0.0
  0
SPLINE
  5
47
330
1F
100
AcDbEntity
  8
_LAYER_1
100
AcDbSpline
210
0.0
220
0.0
230
1.0
 70
    11
 71
     3
 72
    16
 73
    12
 74
     0
 42
0.0000000001
 43
0.0000000001
 12
1.0
 22
0.0
 32
0.0
 13
1.0
 23
0.0
 33
0.0
 40
0.0
 40
0.0
 40
0.0
 40
0.0
 40
0.25
 40
0.25
 40
0.25
 40
0.25
 40
0.5
 40
0.5
 40
0.5
 40
0.5
 40
1.0
 40
1.0
 40
1.0
 40
1.0
 10
28.3731
 20
-14.6604
 30
0.0
 10
28.3355
 20
-14.5552
 30
0.0
 10
28.3205
 20
-14.4651
 30
0.0
 10
28.3055
 20
-14.3824
 30
0.0
 10
28.3055
 20
-14.3824
 30
0.0
 10
28.3881
 20
-14.4651
 30
0.0
 10
28.4782
 20
-14.5402
 30
0.0
 10
28.5609
 20
-14.6228
 30
0.0
 10
28.5609
 20
-14.6228
 30
0.0
 10
28.5008
 20
-14.6379
 30
0.0
 10
28.4482
 20
-14.6604
 30
0.0
 10
28.3731
 20
-14.6604
 30
0.0
  0
SPLINE
  5
48
330
1F
100
AcDbEntity
  8
_LAYER_1
100
AcDbSpline
210
0.0
220
0.0
230
1.0
 70
    11
 71
     3
 72
    16
 73
    12
 74
     0
 42
0.0000000001
 43
0.0000000001
 12
1.0
 22
0.0
 32
0.0
 13
1.0
 23
0.0
 33
0.0
 40
0.0
 40
0.0
 40
0.0
 40
0.0
 40
0.25
 40
0.25
 40
0.25
 40
0.25
 40
0.5
 40
0.5
 40
0.5
 40
0.5
 40
1.0
 40
1.0
 40
1.0
 40
1.0
 10
28.3355
 20
-35.3845
 30
0.0
 10
28.2529
 20
-35.4221
 30
0.0
 10
28.2003
 20
-35.4446
 30
0.0
 10
28.1402
 20
-35.4596
 30
0.0
 10
28.1402
 20
-35.4596
 30
0.0
 10
28.1402
 20
-35.4296
 30
0.0
 10
28.1327
 20
-35.3921
 30
0.0
 10
28.1327
 20
-35.362
 30
0.0
 10
28.1327
 20
-35.362
 30
0.0
 10
28.2078
 20
-35.362
 30
0.0
 10
28.2754
 20
-35.3695
 30
0.0
 10
28.3355
 20
-35.3845
 30
0.0
  0
SPLINE
  5
49
330
1F
100
AcDbEntity
  8
_LAYER_1
100
AcDbSpline
210
0.0
220
0.0
230
1.0
 70
    11
 71
     3
 72
    24
 73
    20
 74
     0
 42
0.0000000001
 43
0.0000000001
 12
1.0
 22
0.0
 32
0.0
 13
1.0
 23
0.0
 33
0.0
 40
0.0
 40
0.0
 40
0.0
 40
0.0
 40
0.1666666666666667
 40
0.1666666666666667
 40
0.1666666666666667
 40
0.1666666666666667
 40
0.3333333333333333
 40
0.3333333333333333
 40
0.3333333333333333
 40
0.3333333333333333
 40
0.5
 40
0.5
 40
0.5
 40
0.5
 40
0.6666666666666666
 40
0.6666666666666666
 40
0.6666666666666666
 40
0.6666666666666666
 40
1.0
 40
1.0
 40
1.0
 40
1.0
 10
27.96
 20
-34.378
 30
0.0
 10
27.9074
 20
-34.3479
 30
0.0
 10
27.8698
 20
-34.3405
 30
0.0
 10
27.8398
 20
-34.3329
 30
0.0
 10
27.8398
 20
-34.3329
 30
0.0
 10
27.8849
 20
-34.3179
 30
0.0
 10
27.9449
 20
-34.2728
 30
0.0
 10
27.96
 20
-34.2879
 30
0.0
 10
27.96
 20
-34.2879
 30
0.0
 10
27.99
 20
-34.3179
 30
0.0
 10
28.005
 20
-34.3705
 30
0.0
 10
28.0276
 20
-34.4156
 30
0.0
 10
28.0276
 20
-34.4156
 30
0.0
 10
28.02
 20
-34.4156
 30
0.0
 10
28.005
 20
-34.4231
 30
0.0
 10
27.9975
 20
-34.4156
 30
0.0
 10
27.9975
 20
-34.4156
 30
0.0
 10
27.99
 20
-34.408
 30
0.0
 10
27.9825
 20
-34.4005
 30
0.0
 10
27.96
 20
-34.378
 30
0.0
  0
SPLINE
  5
4A
330
1F
100
AcDbEntity
  8
_LAYER_1
100
AcDbSpline
210
0.0
220
0.0
230
1.0
 70
    11
 71
     3
 72
    12
 73
     8
 74
     0
 42
0.0000000001
 43
0.0000000001
 12
1.0
 22
0.0
 32
0.0
 13
1.0
 23
0.0
 33
0.0
 40
0.0
 40
0.0
 40
0.0
 40
0.0
 40
0.3333333333333333
 40
0.3333333333333333
 40
0.3333333333333333
 40
0.3333333333333333
 40
1.0
 40
1.0
 40
1.0
 40
1.0
 10
28.0501
 20
-26.6186
 30
0.0
 10
28.0726
 20
-26.5961
 30
0.0
 10
28.1027
 20
-26.6036
 30
0.0
 10
28.1252
 20
-26.6186
 30
0.0
 10
28.1252
 20
-26.6186
 30
0.0
 10
28.1027
 20
-26.6337
 30
0.0
 10
28.0726
 20
-26.6412
 30
0.0
 10
28.0501
 20
-26.6186
 30
0.0
  0
SPLINE
  5
4B
330
1F
100
AcDbEntity
  8
_LAYER_1
100
AcDbSpline
210
0.0
220
0.0
230
1.0
 70
    11
 71
     3
 72
    16
 73
    12
 74
     0
 42
0.0000000001
 43
0.0000000001
 12
1.0
 22
0.0
 32
0.0
 13
1.0
 23
0.0
 33
0.0
 40
0.0
 40
0.0
 40
0.0
 40
0.0
 40
0.25
 40
0.25
 40
0.25
 40
0.25
 40
0.5
 40
0.5
 40
0.5
 40
0.5
 40
1.0
 40
1.0
 40
1.0
 40
1.0
 10
28.298
 20
-19.5053
 30
0.0
 10
28.343
 20
-19.4902
 30
0.0
 10
28.3731
 20
-19.4978
 30
0.0
 10
28.4106
 20
-19.5053
 30
0.0
 10
28.4106
 20
-19.5053
 30
0.0
 10
28.4031
 20
-19.5203
 30
0.0
 10
28.3956
 20
-19.5504
 30
0.0
 10
28.3956
 20
-19.5504
 30
0.0
 10
28.3956
 20
-19.5504
 30
0.0
 10
28.3581
 20
-19.5428
 30
0.0
 10
28.313
 20
-19.5278
 30
0.0
 10
28.298
 20
-19.5053
 30
0.0
  0
SPLINE
  5
4C
330
1F
100
AcDbEntity
  8
_LAYER_1
100
AcDbSpline
210
0.0
220
0.0
230
1.0
 70
    11
 71
     3
 72
    12
 73
     8
 74
     0
 42
0.0000000001
 43
0.0000000001
 12
1.0
 22
0.0
 32
0.0
 13
1.0
 23
0.0
 33
0.0
 40
0.0
 40
0.0
 40
0.0
 40
0.0
 40
0.3333333333333333
 40
0.3333333333333333
 40
0.3333333333333333
 40
0.3333333333333333
 40
1.0
 40
1.0
 40
1.0
 40
1.0
 10
28.1252
 20
-14.3224
 30
0.0
 10
28.1477
 20
-14.3148
 30
0.0
 10
28.1703
 20
-14.3299
 30
0.0
 10
28.1928
 20
-14.3449
 30
0.0
 10
28.1928
 20
-14.3449
 30
0.0
 10
28.1703
 20
-14.3374
 30
0.0
 10
28.1477
 20
-14.3374
 30
0.0
 10
28.1252
 20
-14.3224
 30
0.0
  0
SPLINE
  5
4D
330
1F
100
AcDbEntity
  8
_LAYER_1
100
AcDbSpline
210
0.0
220
0.0
230
1.0
 70
    11
 71
     3
 72
    12
 73
     8
 74
     0
 42
0.0000000001
 43
0.0000000001
 12
1.0
 22
0.0
 32
0.0
 13
1.0
 23
0.0
 33
0.0
 40
0.0
 40
0.0
 40
0.0
 40
0.0
 40
0.3333333333333333
 40
0.3333333333333333
 40
0.3333333333333333
 40
0.3333333333333333
 40
1.0
 40
1.0
 40
1.0
 40
1.0
 10
28.1853
 20
-19.5428
 30
0.0
 10
28.1628
 20
-19.5353
 30
0.0
 10
28.1553
 20
-19.5128
 30
0.0
 10
28.1553
 20
-19.4902
 30
0.0
 10
28.1553
 20
-19.4902
 30
0.0
 10
28.1703
 20
-19.4978
 30
0.0
 10
28.1853
 20
-19.5128
 30
0.0
 10
28.1853
 20
-19.5428
 30
0.0
  0
SPLINE
  5
4E
330
1F
100
AcDbEntity
  8
_LAYER_1
100
AcDbSpline
210
0.0
220
0.0
230
1.0
 70
    11
 71
     3
 72
    12
 73
     8
 74
     0
 42
0.0000000001
 43
0.0000000001
 12
1.0
 22
0.0
 32
0.0
 13
1.0
 23
0.0
 33
0.0
 40
0.0
 40
0.0
 40
0.0
 40
0.0
 40
0.3333333333333333
 40
0.3333333333333333
 40
0.3333333333333333
 40
0.3333333333333333
 40
1.0
 40
1.0
 40
1.0
 40
1.0
 10
27.96
 20
-26.6787
 30
0.0
 10
27.9374
 20
-26.6712
 30
0.0
 10
27.9299
 20
-26.6487
 30
0.0
 10
27.9299
 20
-26.6262
 30
0.0
 10
27.9299
 20
-26.6262
 30
0.0
 10
27.9449
 20
-26.6337
 30
0.0
 10
27.96
 20
-26.6487
 30
0.0
 10
27.96
 20
-26.6787
 30
0.0
  0
SPLINE
  5
4F
330
1F
100
AcDbEntity
  8
_LAYER_1
100
AcDbSpline
210
0.0
220
0.0
230
1.0
 70
    11
 71
     3
 72
    12
 73
     8
 74
     0
 42
0.0000000001
 43
0.0000000001
 12
1.0
 22
0.0
 32
0.0
 13
1.0
 23
0.0
 33
0.0
 40
0.0
 40
0.0
 40
0.0
 40
0.0
 40
0.3333333333333333
 40
0.3333333333333333
 40
0.3333333333333333
 40
0.3333333333333333
 40
1.0
 40
1.0
 40
1.0
 40
1.0
 10
28.5984
 20
-30.5997
 30
0.0
 10
28.5909
 20
-30.5772
 30
0.0
 10
28.6059
 20
-30.5547
 30
0.0
 10
28.621
 20
-30.5321
 30
0.0
 10
28.621
 20
-30.5321
 30
0.0
 10
28.6135
 20
-30.5547
 30
0.0
 10
28.6135
 20
-30.5772
 30
0.0
 10
28.5984
 20
-30.5997
 30
0.0
  0
SPLINE
  5
50
330
1F
100
AcDbEntity
  8
_LAYER_1
100
AcDbSpline
210
0.0
220
0.0
230
1.0
 70
    11
 71
     3
 72
    12
 73
     8
 74
     0
 42
0.0000000001
 43
0.0000000001
 12
1.0
 22
0.0
 32
0.0
 13
1.0
 23
0.0
 33
0.0
 40
0.0
 40
0.0
 40
0.0
 40
0.0
 40
0.3333333333333333
 40
0.3333333333333333
 40
0.3333333333333333
 40
0.3333333333333333
 40
1.0
 40
1.0
 40
1.0
 40
1.0
 10
28.5233
 20
-30.6748
 30
0.0
 10
28.5158
 20
-30.6523
 30
0.0
 10
28.5233
 20
-30.6222
 30
0.0
 10
28.5609
 20
-30.5997
 30
0.0
 10
28.5609
 20
-30.5997
 30
0.0
 10
28.5609
 20
-30.6222
 30
0.0
 10
28.5534
 20
-30.6523
 30
0.0
 10
28.5233
 20
-30.6748
 30
0.0
  0
SPLINE
  5
51
330
1F
100
AcDbEntity
  8
_LAYER_1
100
AcDbSpline
210
0.0
220
0.0
230
1.0
 70
    11
 71
     3
 72
    12
 73
     8
 74
     0
 42
0.0000000001
 43
0.0000000001
 12
1.0
 22
0.0
 32
0.0
 13
1.0
 23
0.0
 33
0.0
 40
0.0
 40
0.0
 40
0.0
 40
0.0
 40
0.3333333333333333
 40
0.3333333333333333
 40
0.3333333333333333
 40
0.3333333333333333
 40
1.0
 40
1.0
 40
1.0
 40
1.0
 10
28.4857
 20
-30.6748
 30
0.0
 10
28.4857
 20
-30.6974
 30
0.0
 10
28.4707
 20
-30.7199
 30
0.0
 10
28.4557
 20
-30.7424
 30
0.0
 10
28.4557
 20
-30.7424
 30
0.0
 10
28.4632
 20
-30.7199
 30
0.0
 10
28.4632
 20
-30.6974
 30
0.0
 10
28.4857
 20
-30.6748
 30
0.0
  0
SPLINE
  5
52
330
1F
100
AcDbEntity
  8
_LAYER_1
100
AcDbSpline
210
0.0
220
0.0
230
1.0
 70
    11
 71
     3
 72
    12
 73
     8
 74
     0
 42
0.0000000001
 43
0.0000000001
 12
1.0
 22
0.0
 32
0.0
 13
1.0
 23
0.0
 33
0.0
 40
0.0
 40
0.0
 40
0.0
 40
0.0
 40
0.3333333333333333
 40
0.3333333333333333
 40
0.3333333333333333
 40
0.3333333333333333
 40
1.0
 40
1.0
 40
1.0
 40
1.0
 10
28.3731
 20
-30.9603
 30
0.0
 10
28.3731
 20
-30.9377
 30
0.0
 10
28.3956
 20
-30.9302
 30
0.0
 10
28.4182
 20
-30.9302
 30
0.0
 10
28.4182
 20
-30.9302
 30
0.0
 10
28.4106
 20
-30.9453
 30
0.0
 10
28.3956
 20
-30.9603
 30
0.0
 10
28.3731
 20
-30.9603
 30
0.0
  0
SPLINE
  5
53
330
1F
100
AcDbEntity
  8
_LAYER_1
100
AcDbSpline
210
0.0
220
0.0
230
1.0
 70
    11
 71
     3
 72
    12
 73
     8
 74
     0
 42
0.0000000001
 43
0.0000000001
 12
1.0
 22
0.0
 32
0.0
 13
1.0
 23
0.0
 33
0.0
 40
0.0
 40
0.0
 40
0.0
 40
0.0
 40
0.3333333333333333
 40
0.3333333333333333
 40
0.3333333333333333
 40
0.3333333333333333
 40
1.0
 40
1.0
 40
1.0
 40
1.0
 10
27.9224
 20
-38.7872
 30
0.0
 10
27.9149
 20
-38.7647
 30
0.0
 10
27.9299
 20
-38.7422
 30
0.0
 10
27.9449
 20
-38.7196
 30
0.0
 10
27.9449
 20
-38.7196
 30
0.0
 10
27.9374
 20
-38.7422
 30
0.0
 10
27.9374
 20
-38.7647
 30
0.0
 10
27.9224
 20
-38.7872
 30
0.0
  0
SPLINE
  5
54
330
1F
100
AcDbEntity
  8
_LAYER_1
100
AcDbSpline
210
0.0
220
0.0
230
1.0
 70
    11
 71
     3
 72
    16
 73
    12
 74
     0
 42
0.0000000001
 43
0.0000000001
 12
1.0
 22
0.0
 32
0.0
 13
1.0
 23
0.0
 33
0.0
 40
0.0
 40
0.0
 40
0.0
 40
0.0
 40
0.25
 40
0.25
 40
0.25
 40
0.25
 40
0.5
 40
0.5
 40
0.5
 40
0.5
 40
1.0
 40
1.0
 40
1.0
 40
1.0
 10
28.3506
 20
-5.9621
 30
0.0
 10
28.2529
 20
-5.9546
 30
0.0
 10
28.2003
 20
-5.9471
 30
0.0
 10
28.1402
 20
-5.9396
 30
0.0
 10
28.1402
 20
-5.9396
 30
0.0
 10
28.2229
 20
-5.8945
 30
0.0
 10
28.3055
 20
-5.8569
 30
0.0
 10
28.3881
 20
-5.8119
 30
0.0
 10
28.3881
 20
-5.8119
 30
0.0
 10
28.3881
 20
-5.8644
 30
0.0
 10
28.3881
 20
-5.9095
 30
0.0
 10
28.3506
 20
-5.9621
 30
0.0
  0
SPLINE
  5
55
330
1F
100
AcDbEntity
  8
_LAYER_1
100
AcDbSpline
210
0.0
220
0.0
230
1.0
 70
    11
 71
     3
 72
    12
 73
     8
 74
     0
 42
0.0000000001
 43
0.0000000001
 12
1.0
 22
0.0
 32
0.0
 13
1.0
 23
0.0
 33
0.0
 40
0.0
 40
0.0
 40
0.0
 40
0.0
 40
0.3333333333333333
 40
0.3333333333333333
 40
0.3333333333333333
 40
0.3333333333333333
 40
1.0
 40
1.0
 40
1.0
 40
1.0
 10
27.8247
 20
-9.7404
 30
0.0
 10
27.8698
 20
-9.7329
 30
0.0
 10
27.9224
 20
-9.7479
 30
0.0
 10
27.9675
 20
-9.7629
 30
0.0
 10
27.9675
 20
-9.7629
 30
0.0
 10
27.9224
 20
-9.7554
 30
0.0
 10
27.8698
 20
-9.7554
 30
0.0
 10
27.8247
 20
-9.7404
 30
0.0
  0
SPLINE
  5
56
330
1F
100
AcDbEntity
  8
_LAYER_1
100
AcDbSpline
210
0.0
220
0.0
230
1.0
 70
    11
 71
     3
 72
    16
 73
    12
 74
     0
 42
0.0000000001
 43
0.0000000001
 12
1.0
 22
0.0
 32
0.0
 13
1.0
 23
0.0
 33
0.0
 40
0.0
 40
0.0
 40
0.0
 40
0.0
 40
0.25
 40
0.25
 40
0.25
 40
0.25
 40
0.5
 40
0.5
 40
0.5
 40
0.5
 40
1.0
 40
1.0
 40
1.0
 40
1.0
 10
27.96
 20
-5.8344
 30
0.0
 10
27.9675
 20
-5.8795
 30
0.0
 10
27.96
 20
-5.9095
 30
0.0
 10
27.9525
 20
-5.9471
 30
0.0
 10
27.9525
 20
-5.9471
 30
0.0
 10
27.9374
 20
-5.9396
 30
0.0
 10
27.9074
 20
-5.932
 30
0.0
 10
27.9074
 20
-5.932
 30
0.0
 10
27.9074
 20
-5.932
 30
0.0
 10
27.9149
 20
-5.8945
 30
0.0
 10
27.9299
 20
-5.8494
 30
0.0
 10
27.96
 20
-5.8344
 30
0.0
  0
SPLINE
  5
57
330
1F
100
AcDbEntity
  8
_LAYER_1
100
AcDbSpline
210
0.0
220
0.0
230
1.0
 70
    11
 71
     3
 72
    12
 73
     8
 74
     0
 42
0.0000000001
 43
0.0000000001
 12
1.0
 22
0.0
 32
0.0
 13
1.0
 23
0.0
 33
0.0
 40
0.0
 40
0.0
 40
0.0
 40
0.0
 40
0.3333333333333333
 40
0.3333333333333333
 40
0.3333333333333333
 40
0.3333333333333333
 40
1.0
 40
1.0
 40
1.0
 40
1.0
 10
28.2003
 20
-2.8299
 30
0.0
 10
28.2229
 20
-2.8224
 30
0.0
 10
28.2454
 20
-2.8374
 30
0.0
 10
28.2679
 20
-2.8525
 30
0.0
 10
28.2679
 20
-2.8525
 30
0.0
 10
28.2454
 20
-2.8449
 30
0.0
 10
28.2229
 20
-2.8449
 30
0.0
 10
28.2003
 20
-2.8299
 30
0.0
  0
SPLINE
  5
58
330
1F
100
AcDbEntity
  8
_LAYER_1
100
AcDbSpline
210
0.0
220
0.0
230
1.0
 70
    11
 71
     3
 72
    12
 73
     8
 74
     0
 42
0.0000000001
 43
0.0000000001
 12
1.0
 22
0.0
 32
0.0
 13
1.0
 23
0.0
 33
0.0
 40
0.0
 40
0.0
 40
0.0
 40
0.0
 40
0.3333333333333333
 40
0.3333333333333333
 40
0.3333333333333333
 40
0.3333333333333333
 40
1.0
 40
1.0
 40
1.0
 40
1.0
 10
28.2003
 20
-2.7923
 30
0.0
 10
28.2003
 20
-2.8074
 30
0.0
 10
28.1628
 20
-2.8074
 30
0.0
 10
28.1477
 20
-2.8074
 30
0.0
 10
28.1477
 20
-2.8074
 30
0.0
 10
28.1477
 20
-2.7923
 30
0.0
 10
28.1778
 20
-2.7848
 30
0.0
 10
28.2003
 20
-2.7923
 30
0.0
  0
SPLINE
  5
59
330
1F
100
AcDbEntity
  8
_LAYER_1
100
AcDbSpline
210
0.0
220
0.0
230
1.0
 70
    11
 71
     3
 72
    12
 73
     8
 74
     0
 42
0.0000000001
 43
0.0000000001
 12
1.0
 22
0.0
 32
0.0
 13
1.0
 23
0.0
 33
0.0
 40
0.0
 40
0.0
 40
0.0
 40
0.0
 40
0.3333333333333333
 40
0.3333333333333333
 40
0.3333333333333333
 40
0.3333333333333333
 40
1.0
 40
1.0
 40
1.0
 40
1.0
 10
27.9975
 20
-9.6277
 30
0.0
 10
27.9975
 20
-9.6052
 30
0.0
 10
28.02
 20
-9.5976
 30
0.0
 10
28.0426
 20
-9.5976
 30
0.0
 10
28.0426
 20
-9.5976
 30
0.0
 10
28.0351
 20
-9.6127
 30
0.0
 10
28.02
 20
-9.6277
 30
0.0
 10
27.9975
 20
-9.6277
 30
0.0
  0
SPLINE
  5
5A
330
1F
100
AcDbEntity
  8
_LAYER_1
100
AcDbSpline
210
0.0
220
0.0
230
1.0
 70
    11
 71
     3
 72
    84
 73
    80
 74
     0
 42
0.0000000001
 43
0.0000000001
 12
1.0
 22
0.0
 32
0.0
 13
1.0
 23
0.0
 33
0.0
 40
0.0
 40
0.0
 40
0.0
 40
0.0
 40
0.0476190476190476
 40
0.0476190476190476
 40
0.0476190476190476
 40
0.0476190476190476
 40
0.0952380952380952
 40
0.0952380952380952
 40
0.0952380952380952
 40
0.0952380952380952
 40
0.1428571428571428
 40
0.1428571428571428
 40
0.1428571428571428
 40
0.1428571428571428
 40
0.1904761904761905
 40
0.1904761904761905
 40
0.1904761904761905
 40
0.1904761904761905
 40
0.2380952380952381
 40
0.2380952380952381
 40
0.2380952380952381
 40
0.2380952380952381
 40
0.2857142857142857
 40
0.2857142857142857
 40
0.2857142857142857
 40
0.2857142857142857
 40
0.3333333333333333
 40
0.3333333333333333
 40
0.3333333333333333
 40
0.3333333333333333
 40
0.3809523809523809
 40
0.3809523809523809
 40
0.3809523809523809
 40
0.3809523809523809
 40
0.4285714285714285
 40
0.4285714285714285
 40
0.4285714285714285
 40
0.4285714285714285
 40
0.4761904761904762
 40
0.4761904761904762
 40
0.4761904761904762
 40
0.4761904761904762
 40
0.5238095238095238
 40
0.5238095238095238
 40
0.5238095238095238
 40
0.5238095238095238
 40
0.5714285714285714
 40
0.5714285714285714
 40
0.5714285714285714
 40
0.5714285714285714
 40
0.6190476190476191
 40
0.6190476190476191
 40
0.6190476190476191
 40
0.6190476190476191
 40
0.6666666666666666
 40
0.6666666666666666
 40
0.6666666666666666
 40
0.6666666666666666
 40
0.7142857142857143
 40
0.7142857142857143
 40
0.7142857142857143
 40
0.7142857142857143
 40
0.7619047619047619
 40
0.7619047619047619
 40
0.7619047619047619
 40
0.7619047619047619
 40
0.8095238095238095
 40
0.8095238095238095
 40
0.8095238095238095
 40
0.8095238095238095
 40
0.8571428571428571
 40
0.8571428571428571
 40
0.8571428571428571
 40
0.8571428571428571
 40
0.9047619047619048
 40
0.9047619047619048
 40
0.9047619047619048
 40
0.9047619047619048
 40
1.0
 40
1.0
 40
1.0
 40
1.0
 10
-8.1491
 20
33.8003
 30
0.0
 10
-8.4809
 20
33.6318
 30
0.0
 10
-9.208
 20
33.0547
 30
0.0
 10
-8.8708
 20
32.6198
 30
0.0
 10
-8.8708
 20
32.6198
 30
0.0
 10
-8.7644
 20
32.4825
 30
0.0
 10
-8.5905
 20
32.4173
 30
0.0
 10
-8.4768
 20
32.2847
 30
0.0
 10
-8.4768
 20
32.2847
 30
0.0
 10
-8.3552
 20
32.1429
 30
0.0
 10
-8.3664
 20
32.0894
 30
0.0
 10
-8.4207
 20
31.9026
 30
0.0
 10
-8.4207
 20
31.9026
 30
0.0
 10
-8.4426
 20
31.8274
 30
0.0
 10
-8.4706
 20
31.7608
 30
0.0
 10
-8.4807
 20
31.6819
 30
0.0
 10
-8.4807
 20
31.6819
 30
0.0
 10
-8.5207
 20
31.3695
 30
0.0
 10
-8.3659
 20
31.0874
 30
0.0
 10
-8.231
 20
30.8178
 30
0.0
 10
-8.231
 20
30.8178
 30
0.0
 10
-8.1514
 20
30.6586
 30
0.0
 10
-8.0378
 20
30.4643
 30
0.0
 10
-8.0409
 20
30.2799
 30
0.0
 10
-8.0409
 20
30.2799
 30
0.0
 10
-8.044
 20
30.096
 30
0.0
 10
-8.1933
 20
29.9509
 30
0.0
 10
-8.2445
 20
29.779
 30
0.0
 10
-8.2445
 20
29.779
 30
0.0
 10
-8.3003
 20
29.5915
 30
0.0
 10
-8.2576
 20
29.4172
 30
0.0
 10
-8.0892
 20
29.307
 30
0.0
 10
-8.0892
 20
29.307
 30
0.0
 10
-7.8083
 20
29.1233
 30
0.0
 10
-7.4078
 20
29.1129
 30
0.0
 10
-7.0854
 20
29.0608
 30
0.0
 10
-7.0854
 20
29.0608
 30
0.0
 10
-6.7491
 20
29.0066
 30
0.0
 10
-6.4413
 20
28.9589
 30
0.0
 10
-6.3365
 20
28.5827
 30
0.0
 10
-6.3365
 20
28.5827
 30
0.0
 10
-6.3213
 20
28.5281
 30
0.0
 10
-6.2362
 20
28.5513
 30
0.0
 10
-6.2515
 20
28.6061
 30
0.0
 10
-6.2515
 20
28.6061
 30
0.0
 10
-6.3973
 20
29.1298
 30
0.0
 10
-6.9388
 20
29.1275
 30
0.0
 10
-7.3922
 20
29.1996
 30
0.0
 10
-7.3922
 20
29.1996
 30
0.0
 10
-7.7018
 20
29.2489
 30
0.0
 10
-8.2903
 20
29.3128
 30
0.0
 10
-8.1594
 20
29.7556
 30
0.0
 10
-8.1594
 20
29.7556
 30
0.0
 10
-8.0764
 20
30.0366
 30
0.0
 10
-7.8891
 20
30.1785
 30
0.0
 10
-7.9932
 20
30.4894
 30
0.0
 10
-7.9932
 20
30.4894
 30
0.0
 10
-8.0942
 20
30.791
 30
0.0
 10
-8.2975
 20
31.057
 30
0.0
 10
-8.3715
 20
31.3672
 30
0.0
 10
-8.3715
 20
31.3672
 30
0.0
 10
-8.4243
 20
31.5886
 30
0.0
 10
-8.3652
 20
31.7413
 30
0.0
 10
-8.3011
 20
31.9514
 30
0.0
 10
-8.3011
 20
31.9514
 30
0.0
 10
-8.2747
 20
32.0381
 30
0.0
 10
-8.2719
 20
32.1007
 30
0.0
 10
-8.3083
 20
32.1887
 30
0.0
 10
-8.3083
 20
32.1887
 30
0.0
 10
-8.4295
 20
32.4814
 30
0.0
 10
-8.9164
 20
32.5799
 30
0.0
 10
-8.8613
 20
32.9298
 30
0.0
 10
-8.8613
 20
32.9298
 30
0.0
 10
-8.812
 20
33.2432
 30
0.0
 10
-8.366
 20
33.5914
 30
0.0
 10
-8.1045
 20
33.7242
 30
0.0
 10
-8.1045
 20
33.7242
 30
0.0
 10
-8.0539
 20
33.7499
 30
0.0
 10
-8.0985
 20
33.826
 30
0.0
 10
-8.1491
 20
33.8003
 30
0.0
  0
SPLINE
  5
5B
330
1F
100
AcDbEntity
  8
_LAYER_1
100
AcDbSpline
210
0.0
220
0.0
230
1.0
 70
    11
 71
     3
 72
   276
 73
   272
 74
     0
 42
0.0000000001
 43
0.0000000001
 12
1.0
 22
0.0
 32
0.0
 13
1.0
 23
0.0
 33
0.0
 40
0.0
 40
0.0
 40
0.0
 40
0.0
 40
0.0144927536231884
 40
0.0144927536231884
 40
0.0144927536231884
 40
0.0144927536231884
 40
0.0289855072463768
 40
0.0289855072463768
 40
0.0289855072463768
 40
0.0289855072463768
 40
0.0434782608695652
 40
0.0434782608695652
 40
0.0434782608695652
 40
0.0434782608695652
 40
0.0579710144927536
 40
0.0579710144927536
 40
0.0579710144927536
 40
0.0579710144927536
 40
0.072463768115942
 40
0.072463768115942
 40
0.072463768115942
 40
0.072463768115942
 40
0.0869565217391304
 40
0.0869565217391304
 40
0.0869565217391304
 40
0.0869565217391304
 40
0.1014492753623188
 40
0.1014492753623188
 40
0.1014492753623188
 40
0.1014492753623188
 40
0.1159420289855072
 40
0.1159420289855072
 40
0.1159420289855072
 40
0.1159420289855072
 40
0.1304347826086956
 40
0.1304347826086956
 40
0.1304347826086956
 40
0.1304347826086956
 40
0.1449275362318841
 40
0.1449275362318841
 40
0.1449275362318841
 40
0.1449275362318841
 40
0.1594202898550725
 40
0.1594202898550725
 40
0.1594202898550725
 40
0.1594202898550725
 40
0.1739130434782609
 40
0.1739130434782609
 40
0.1739130434782609
 40
0.1739130434782609
 40
0.1884057971014493
 40
0.1884057971014493
 40
0.1884057971014493
 40
0.1884057971014493
 40
0.2028985507246377
 40
0.2028985507246377
 40
0.2028985507246377
 40
0.2028985507246377
 40
0.2173913043478261
 40
0.2173913043478261
 40
0.2173913043478261
 40
0.2173913043478261
 40
0.2318840579710145
 40
0.2318840579710145
 40
0.2318840579710145
 40
0.2318840579710145
 40
0.2463768115942029
 40
0.2463768115942029
 40
0.2463768115942029
 40
0.2463768115942029
 40
0.2608695652173913
 40
0.2608695652173913
 40
0.2608695652173913
 40
0.2608695652173913
 40
0.2753623188405797
 40
0.2753623188405797
 40
0.2753623188405797
 40
0.2753623188405797
 40
0.2898550724637681
 40
0.2898550724637681
 40
0.2898550724637681
 40
0.2898550724637681
 40
0.3043478260869565
 40
0.3043478260869565
 40
0.3043478260869565
 40
0.3043478260869565
 40
0.3188405797101449
 40
0.3188405797101449
 40
0.3188405797101449
 40
0.3188405797101449
 40
0.3333333333333333
 40
0.3333333333333333
 40
0.3333333333333333
 40
0.3333333333333333
 40
0.3478260869565217
 40
0.3478260869565217
 40
0.3478260869565217
 40
0.3478260869565217
 40
0.3623188405797101
 40
0.3623188405797101
 40
0.3623188405797101
 40
0.3623188405797101
 40
0.3768115942028986
 40
0.3768115942028986
 40
0.3768115942028986
 40
0.3768115942028986
 40
0.391304347826087
 40
0.391304347826087
 40
0.391304347826087
 40
0.391304347826087
 40
0.4057971014492754
 40
0.4057971014492754
 40
0.4057971014492754
 40
0.4057971014492754
 40
0.4202898550724637
 40
0.4202898550724637
 40
0.4202898550724637
 40
0.4202898550724637
 40
0.4347826086956522
 40
0.4347826086956522
 40
0.4347826086956522
 40
0.4347826086956522
 40
0.4492753623188406
 40
0.4492753623188406
 40
0.4492753623188406
 40
0.4492753623188406
 40
0.463768115942029
 40
0.463768115942029
 40
0.463768115942029
 40
0.463768115942029
 40
0.4782608695652174
 40
0.4782608695652174
 40
0.4782608695652174
 40
0.4782608695652174
 40
0.4927536231884058
 40
0.4927536231884058
 40
0.4927536231884058
 40
0.4927536231884058
 40
0.5072463768115942
 40
0.5072463768115942
 40
0.5072463768115942
 40
0.5072463768115942
 40
0.5217391304347826
 40
0.5217391304347826
 40
0.5217391304347826
 40
0.5217391304347826
 40
0.5362318840579711
 40
0.5362318840579711
 40
0.5362318840579711
 40
0.5362318840579711
 40
0.5507246376811594
 40
0.5507246376811594
 40
0.5507246376811594
 40
0.5507246376811594
 40
0.5652173913043478
 40
0.5652173913043478
 40
0.5652173913043478
 40
0.5652173913043478
 40
0.5797101449275363
 40
0.5797101449275363
 40
0.5797101449275363
 40
0.5797101449275363
 40
0.5942028985507246
 40
0.5942028985507246
 40
0.5942028985507246
 40
0.5942028985507246
 40
0.6086956521739131
 40
0.6086956521739131
 40
0.6086956521739131
 40
0.6086956521739131
 40
0.6231884057971014
 40
0.6231884057971014
 40
0.6231884057971014
 40
0.6231884057971014
 40
0.6376811594202898
 40
0.6376811594202898
 40
0.6376811594202898
 40
0.6376811594202898
 40
0.6521739130434783
 40
0.6521739130434783
 40
0.6521739130434783
 40
0.6521739130434783
 40
0.6666666666666666
 40
0.6666666666666666
 40
0.6666666666666666
 40
0.6666666666666666
 40
0.6811594202898551
 40
0.6811594202898551
 40
0.6811594202898551
 40
0.6811594202898551
 40
0.6956521739130435
 40
0.6956521739130435
 40
0.6956521739130435
 40
0.6956521739130435
 40
0.7101449275362319
 40
0.7101449275362319
 40
0.7101449275362319
 40
0.7101449275362319
 40
0.7246376811594203
 40
0.7246376811594203
 40
0.7246376811594203
 40
0.7246376811594203
 40
0.7391304347826086
 40
0.7391304347826086
 40
0.7391304347826086
 40
0.7391304347826086
 40
0.7536231884057971
 40
0.7536231884057971
 40
0.7536231884057971
 40
0.7536231884057971
 40
0.7681159420289855
 40
0.7681159420289855
 40
0.7681159420289855
 40
0.7681159420289855
 40
0.782608695652174
 40
0.782608695652174
 40
0.782608695652174
 40
0.782608695652174
 40
0.7971014492753623
 40
0.7971014492753623
 40
0.7971014492753623
 40
0.7971014492753623
 40
0.8115942028985508
 40
0.8115942028985508
 40
0.8115942028985508
 40
0.8115942028985508
 40
0.8260869565217391
 40
0.8260869565217391
 40
0.8260869565217391
 40
0.8260869565217391
 40
0.8405797101449275
 40
0.8405797101449275
 40
0.8405797101449275
 40
0.8405797101449275
 40
0.855072463768116
 40
0.855072463768116
 40
0.855072463768116
 40
0.855072463768116
 40
0.8695652173913043
 40
0.8695652173913043
 40
0.8695652173913043
 40
0.8695652173913043
 40
0.8840579710144928
 40
0.8840579710144928
 40
0.8840579710144928
 40
0.8840579710144928
 40
0.8985507246376812
 40
0.8985507246376812
 40
0.8985507246376812
 40
0.8985507246376812
 40
0.9130434782608695
 40
0.9130434782608695
 40
0.9130434782608695
 40
0.9130434782608695
 40
0.927536231884058
 40
0.927536231884058
 40
0.927536231884058
 40
0.927536231884058
 40
0.9420289855072463
 40
0.9420289855072463
 40
0.9420289855072463
 40
0.9420289855072463
 40
0.9565217391304348
 40
0.9565217391304348
 40
0.9565217391304348
 40
0.9565217391304348
 40
0.9710144927536232
 40
0.9710144927536232
 40
0.9710144927536232
 40
0.9710144927536232
 40
1.0
 40
1.0
 40
1.0
 40
1.0
 10
-1.5898
 20
27.0837
 30
0.0
 10
-1.4113
 20
27.2395
 30
0.0
 10
-1.1854
 20
27.3755
 30
0.0
 10
-1.0352
 20
27.5569
 30
0.0
 10
-1.0352
 20
27.5569
 30
0.0
 10
-0.8798
 20
27.7446
 30
0.0
 10
-0.73
 20
27.9377
 30
0.0
 10
-0.5799
 20
28.1296
 30
0.0
 10
-0.5799
 20
28.1296
 30
0.0
 10
-0.2944
 20
28.4947
 30
0.0
 10
-0.0163
 20
28.8662
 30
0.0
 10
0.233
 20
29.2571
 30
0.0
 10
0.233
 20
29.2571
 30
0.0
 10
0.4716
 20
29.6311
 30
0.0
 10
0.6713
 20
30.0129
 30
0.0
 10
0.7704
 20
30.4483
 30
0.0
 10
0.7704
 20
30.4483
 30
0.0
 10
0.8105
 20
30.6242
 30
0.0
 10
0.8687
 20
30.8515
 30
0.0
 10
0.8521
 20
31.0335
 30
0.0
 10
0.8521
 20
31.0335
 30
0.0
 10
0.8419
 20
31.1452
 30
0.0
 10
0.7807
 20
31.2333
 30
0.0
 10
0.7917
 20
31.3505
 30
0.0
 10
0.7917
 20
31.3505
 30
0.0
 10
0.7984
 20
31.4222
 30
0.0
 10
0.8175
 20
31.4886
 30
0.0
 10
0.8192
 20
31.5617
 30
0.0
 10
0.8192
 20
31.5617
 30
0.0
 10
0.7918
 20
31.5543
 30
0.0
 10
0.7644
 20
31.5469
 30
0.0
 10
0.7371
 20
31.5395
 30
0.0
 10
0.7371
 20
31.5395
 30
0.0
 10
0.7496
 20
31.5219
 30
0.0
 10
0.7622
 20
31.5043
 30
0.0
 10
0.7748
 20
31.4868
 30
0.0
 10
0.7748
 20
31.4868
 30
0.0
 10
0.7978
 20
31.4546
 30
0.0
 10
0.8604
 20
31.4613
 30
0.0
 10
0.8569
 20
31.509
 30
0.0
 10
0.8569
 20
31.509
 30
0.0
 10
0.8539
 20
31.5554
 30
0.0
 10
0.8503
 20
31.6018
 30
0.0
 10
0.846
 20
31.648
 30
0.0
 10
0.846
 20
31.648
 30
0.0
 10
0.8438
 20
31.6733
 30
0.0
 10
0.8274
 20
31.6902
 30
0.0
 10
0.8019
 20
31.6921
 30
0.0
 10
0.8019
 20
31.6921
 30
0.0
 10
0.7854
 20
31.6934
 30
0.0
 10
0.769
 20
31.6947
 30
0.0
 10
0.7526
 20
31.696
 30
0.0
 10
0.7526
 20
31.696
 30
0.0
 10
0.7668
 20
31.6773
 30
0.0
 10
0.7809
 20
31.6587
 30
0.0
 10
0.7951
 20
31.6401
 30
0.0
 10
0.7951
 20
31.6401
 30
0.0
 10
0.8736
 20
31.9125
 30
0.0
 10
0.8259
 20
32.2328
 30
0.0
 10
0.8267
 20
32.5161
 30
0.0
 10
0.8267
 20
32.5161
 30
0.0
 10
0.8278
 20
32.9513
 30
0.0
 10
0.8315
 20
33.3866
 30
0.0
 10
0.8279
 20
33.8218
 30
0.0
 10
0.8279
 20
33.8218
 30
0.0
 10
0.8255
 20
34.1131
 30
0.0
 10
0.8368
 20
34.4112
 30
0.0
 10
0.7683
 20
34.6959
 30
0.0
 10
0.7683
 20
34.6959
 30
0.0
 10
0.6166
 20
35.3265
 30
0.0
 10
0.4352
 20
35.9588
 30
0.0
 10
0.1237
 20
36.5314
 30
0.0
 10
0.1237
 20
36.5314
 30
0.0
 10
-0.166
 20
37.0639
 30
0.0
 10
-0.5756
 20
37.5249
 30
0.0
 10
-1.0763
 20
37.8677
 30
0.0
 10
-1.0763
 20
37.8677
 30
0.0
 10
-1.309
 20
38.0271
 30
0.0
 10
-1.5599
 20
38.1586
 30
0.0
 10
-1.8225
 20
38.2617
 30
0.0
 10
-1.8225
 20
38.2617
 30
0.0
 10
-1.9694
 20
38.3194
 30
0.0
 10
-2.12
 20
38.3679
 30
0.0
 10
-2.2728
 20
38.4074
 30
0.0
 10
-2.2728
 20
38.4074
 30
0.0
 10
-2.3393
 20
38.4245
 30
0.0
 10
-2.4064
 20
38.4391
 30
0.0
 10
-2.4735
 20
38.4537
 30
0.0
 10
-2.4735
 20
38.4537
 30
0.0
 10
-2.5963
 20
38.4805
 30
0.0
 10
-2.6686
 20
38.5309
 30
0.0
 10
-2.7756
 20
38.5849
 30
0.0
 10
-2.7756
 20
38.5849
 30
0.0
 10
-2.8815
 20
38.6383
 30
0.0
 10
-3.038
 20
38.6377
 30
0.0
 10
-3.1567
 20
38.659
 30
0.0
 10
-3.1567
 20
38.659
 30
0.0
 10
-3.3443
 20
38.6927
 30
0.0
 10
-3.5319
 20
38.727
 30
0.0
 10
-3.7206
 20
38.7545
 30
0.0
 10
-3.7206
 20
38.7545
 30
0.0
 10
-4.0894
 20
38.8083
 30
0.0
 10
-4.4596
 20
38.8278
 30
0.0
 10
-4.8321
 20
38.8157
 30
0.0
 10
-4.8321
 20
38.8157
 30
0.0
 10
-5.0084
 20
38.8101
 30
0.0
 10
-5.2247
 20
38.8276
 30
0.0
 10
-5.3951
 20
38.7795
 30
0.0
 10
-5.3951
 20
38.7795
 30
0.0
 10
-5.5246
 20
38.743
 30
0.0
 10
-5.6571
 20
38.6491
 30
0.0
 10
-5.7762
 20
38.585
 30
0.0
 10
-5.7762
 20
38.585
 30
0.0
 10
-6.1092
 20
38.4056
 30
0.0
 10
-6.437
 20
38.2161
 30
0.0
 10
-6.7557
 20
38.0122
 30
0.0
 10
-6.7557
 20
38.0122
 30
0.0
 10
-6.9052
 20
37.9165
 30
0.0
 10
-6.9896
 20
37.8043
 30
0.0
 10
-7.1029
 20
37.6669
 30
0.0
 10
-7.1029
 20
37.6669
 30
0.0
 10
-7.2174
 20
37.5279
 30
0.0
 10
-7.3601
 20
37.3883
 30
0.0
 10
-7.4543
 20
37.2342
 30
0.0
 10
-7.4543
 20
37.2342
 30
0.0
 10
-7.5373
 20
37.0982
 30
0.0
 10
-7.5542
 20
36.9195
 30
0.0
 10
-7.5924
 20
36.765
 30
0.0
 10
-7.5924
 20
36.765
 30
0.0
 10
-7.6439
 20
36.5571
 30
0.0
 10
-7.695
 20
36.349
 30
0.0
 10
-7.7465
 20
36.1411
 30
0.0
 10
-7.7465
 20
36.1411
 30
0.0
 10
-7.8012
 20
35.9202
 30
0.0
 10
-7.8442
 20
35.6905
 30
0.0
 10
-7.9136
 20
35.4738
 30
0.0
 10
-7.9136
 20
35.4738
 30
0.0
 10
-7.9551
 20
35.3443
 30
0.0
 10
-8.0428
 20
35.2397
 30
0.0
 10
-8.0685
 20
35.1049
 30
0.0
 10
-8.0685
 20
35.1049
 30
0.0
 10
-8.1093
 20
34.8908
 30
0.0
 10
-8.0939
 20
34.6468
 30
0.0
 10
-8.1037
 20
34.4287
 30
0.0
 10
-8.1037
 20
34.4287
 30
0.0
 10
-8.1139
 20
34.2027
 30
0.0
 10
-8.1227
 20
33.9766
 30
0.0
 10
-8.1313
 20
33.7505
 30
0.0
 10
-8.1313
 20
33.7505
 30
0.0
 10
-8.1335
 20
33.6937
 30
0.0
 10
-8.0453
 20
33.6938
 30
0.0
 10
-8.0431
 20
33.7505
 30
0.0
 10
-8.0431
 20
33.7505
 30
0.0
 10
-8.0297
 20
34.1035
 30
0.0
 10
-8.0155
 20
34.4565
 30
0.0
 10
-7.9969
 20
34.8093
 30
0.0
 10
-7.9969
 20
34.8093
 30
0.0
 10
-7.987
 20
34.9993
 30
0.0
 10
-7.9651
 20
35.1518
 30
0.0
 10
-7.8782
 20
35.3204
 30
0.0
 10
-7.8782
 20
35.3204
 30
0.0
 10
-7.8117
 20
35.4494
 30
0.0
 10
-7.7899
 20
35.6024
 30
0.0
 10
-7.7548
 20
35.7425
 30
0.0
 10
-7.7548
 20
35.7425
 30
0.0
 10
-7.6645
 20
36.103
 30
0.0
 10
-7.5763
 20
36.464
 30
0.0
 10
-7.4868
 20
36.8247
 30
0.0
 10
-7.4868
 20
36.8247
 30
0.0
 10
-7.4388
 20
37.0182
 30
0.0
 10
-7.3992
 20
37.1657
 30
0.0
 10
-7.2721
 20
37.3231
 30
0.0
 10
-7.2721
 20
37.3231
 30
0.0
 10
-7.1608
 20
37.461
 30
0.0
 10
-7.0463
 20
37.5963
 30
0.0
 10
-6.9345
 20
37.7337
 30
0.0
 10
-6.9345
 20
37.7337
 30
0.0
 10
-6.7386
 20
37.9743
 30
0.0
 10
-6.423
 20
38.1189
 30
0.0
 10
-6.1565
 20
38.2724
 30
0.0
 10
-6.1565
 20
38.2724
 30
0.0
 10
-5.8577
 20
38.4446
 30
0.0
 10
-5.5281
 20
38.6839
 30
0.0
 10
-5.1787
 20
38.7091
 30
0.0
 10
-5.1787
 20
38.7091
 30
0.0
 10
-4.4358
 20
38.7628
 30
0.0
 10
-3.7075
 20
38.6903
 30
0.0
 10
-2.9793
 20
38.5383
 30
0.0
 10
-2.9793
 20
38.5383
 30
0.0
 10
-2.8612
 20
38.5136
 30
0.0
 10
-2.79
 20
38.4651
 30
0.0
 10
-2.6847
 20
38.4189
 30
0.0
 10
-2.6847
 20
38.4189
 30
0.0
 10
-2.5543
 20
38.3617
 30
0.0
 10
-2.4007
 20
38.3502
 30
0.0
 10
-2.2633
 20
38.3135
 30
0.0
 10
-2.2633
 20
38.3135
 30
0.0
 10
-1.9747
 20
38.2365
 30
0.0
 10
-1.6952
 20
38.1266
 30
0.0
 10
-1.4331
 20
37.9833
 30
0.0
 10
-1.4331
 20
37.9833
 30
0.0
 10
-0.8829
 20
37.6826
 30
0.0
 10
-0.4139
 20
37.2383
 30
0.0
 10
-0.0811
 20
36.7071
 30
0.0
 10
-0.0811
 20
36.7071
 30
0.0
 10
0.2545
 20
36.1713
 30
0.0
 10
0.4548
 20
35.5653
 30
0.0
 10
0.6125
 20
34.9567
 30
0.0
 10
0.6125
 20
34.9567
 30
0.0
 10
0.6991
 20
34.6226
 30
0.0
 10
0.7328
 20
34.3355
 30
0.0
 10
0.7378
 20
33.9932
 30
0.0
 10
0.7378
 20
33.9932
 30
0.0
 10
0.7443
 20
33.5536
 30
0.0
 10
0.7406
 20
33.1139
 30
0.0
 10
0.739
 20
32.6743
 30
0.0
 10
0.739
 20
32.6743
 30
0.0
 10
0.7378
 20
32.3559
 30
0.0
 10
0.7986
 20
31.9707
 30
0.0
 10
0.7101
 20
31.6636
 30
0.0
 10
0.7101
 20
31.6636
 30
0.0
 10
0.7016
 20
31.6342
 30
0.0
 10
0.7247
 20
31.6099
 30
0.0
 10
0.7526
 20
31.6078
 30
0.0
 10
0.7526
 20
31.6078
 30
0.0
 10
0.7676
 20
31.577
 30
0.0
 10
0.7729
 20
31.544
 30
0.0
 10
0.7687
 20
31.509
 30
0.0
 10
0.7687
 20
31.509
 30
0.0
 10
0.7961
 20
31.5164
 30
0.0
 10
0.8235
 20
31.5238
 30
0.0
 10
0.8509
 20
31.5313
 30
0.0
 10
0.8509
 20
31.5313
 30
0.0
 10
0.8383
 20
31.5488
 30
0.0
 10
0.8258
 20
31.5664
 30
0.0
 10
0.8132
 20
31.584
 30
0.0
 10
0.8132
 20
31.584
 30
0.0
 10
0.7885
 20
31.6185
 30
0.0
 10
0.7321
 20
31.6079
 30
0.0
 10
0.731
 20
31.5617
 30
0.0
 10
0.731
 20
31.5617
 30
0.0
 10
0.729
 20
31.4759
 30
0.0
 10
0.6901
 20
31.3924
 30
0.0
 10
0.6875
 20
31.3105
 30
0.0
 10
0.6875
 20
31.3105
 30
0.0
 10
0.6858
 20
31.2567
 30
0.0
 10
0.7139
 20
31.2029
 30
0.0
 10
0.7269
 20
31.1509
 30
0.0
 10
0.7269
 20
31.1509
 30
0.0
 10
0.7858
 20
30.9155
 30
0.0
 10
0.7329
 20
30.6676
 30
0.0
 10
0.6769
 20
30.4344
 30
0.0
 10
0.6769
 20
30.4344
 30
0.0
 10
0.5681
 20
29.9816
 30
0.0
 10
0.3441
 20
29.5859
 30
0.0
 10
0.0908
 20
29.1997
 30
0.0
 10
0.0908
 20
29.1997
 30
0.0
 10
-0.1594
 20
28.8182
 30
0.0
 10
-0.4353
 20
28.4543
 30
0.0
 10
-0.7176
 20
28.0961
 30
0.0
 10
-0.7176
 20
28.0961
 30
0.0
 10
-0.8574
 20
27.9189
 30
0.0
 10
-0.9907
 20
27.7254
 30
0.0
 10
-1.1507
 20
27.5661
 30
0.0
 10
-1.1507
 20
27.5661
 30
0.0
 10
-1.3042
 20
27.4133
 30
0.0
 10
-1.4886
 20
27.2888
 30
0.0
 10
-1.6522
 20
27.1461
 30
0.0
 10
-1.6522
 20
27.1461
 30
0.0
 10
-1.6951
 20
27.1087
 30
0.0
 10
-1.6324
 20
27.0466
 30
0.0
 10
-1.5898
 20
27.0837
 30
0.0
  0
SPLINE
  5
5C
330
1F
100
AcDbEntity
  8
_LAYER_1
100
AcDbSpline
210
0.0
220
0.0
230
1.0
 70
    11
 71
     3
 72
  1432
 73
  1428
 74
     0
 42
0.0000000001
 43
0.0000000001
 12
1.0
 22
0.0
 32
0.0
 13
1.0
 23
0.0
 33
0.0
 40
0.0
 40
0.0
 40
0.0
 40
0.0
 40
0.0027932960893855
 40
0.0027932960893855
 40
0.0027932960893855
 40
0.0027932960893855
 40
0.0055865921787709
 40
0.0055865921787709
 40
0.0055865921787709
 40
0.0055865921787709
 40
0.0083798882681564
 40
0.0083798882681564
 40
0.0083798882681564
 40
0.0083798882681564
 40
0.0111731843575419
 40
0.0111731843575419
 40
0.0111731843575419
 40
0.0111731843575419
 40
0.0139664804469274
 40
0.0139664804469274
 40
0.0139664804469274
 40
0.0139664804469274
 40
0.0167597765363128
 40
0.0167597765363128
 40
0.0167597765363128
 40
0.0167597765363128
 40
0.0195530726256983
 40
0.0195530726256983
 40
0.0195530726256983
 40
0.0195530726256983
 40
0.0223463687150838
 40
0.0223463687150838
 40
0.0223463687150838
 40
0.0223463687150838
 40
0.0251396648044693
 40
0.0251396648044693
 40
0.0251396648044693
 40
0.0251396648044693
 40
0.0279329608938547
 40
0.0279329608938547
 40
0.0279329608938547
 40
0.0279329608938547
 40
0.0307262569832402
 40
0.0307262569832402
 40
0.0307262569832402
 40
0.0307262569832402
 40
0.0335195530726257
 40
0.0335195530726257
 40
0.0335195530726257
 40
0.0335195530726257
 40
0.0363128491620112
 40
0.0363128491620112
 40
0.0363128491620112
 40
0.0363128491620112
 40
0.0391061452513966
 40
0.0391061452513966
 40
0.0391061452513966
 40
0.0391061452513966
 40
0.0418994413407821
 40
0.0418994413407821
 40
0.0418994413407821
 40
0.0418994413407821
 40
0.0446927374301676
 40
0.0446927374301676
 40
0.0446927374301676
 40
0.0446927374301676
 40
0.0474860335195531
 40
0.0474860335195531
 40
0.0474860335195531
 40
0.0474860335195531
 40
0.0502793296089385
 40
0.0502793296089385
 40
0.0502793296089385
 40
0.0502793296089385
 40
0.053072625698324
 40
0.053072625698324
 40
0.053072625698324
 40
0.053072625698324
 40
0.0558659217877095
 40
0.0558659217877095
 40
0.0558659217877095
 40
0.0558659217877095
 40
0.058659217877095
 40
0.058659217877095
 40
0.058659217877095
 40
0.058659217877095
 40
0.0614525139664804
 40
0.0614525139664804
 40
0.0614525139664804
 40
0.0614525139664804
 40
0.0642458100558659
 40
0.0642458100558659
 40
0.0642458100558659
 40
0.0642458100558659
 40
0.0670391061452514
 40
0.0670391061452514
 40
0.0670391061452514
 40
0.0670391061452514
 40
0.0698324022346369
 40
0.0698324022346369
 40
0.0698324022346369
 40
0.0698324022346369
 40
0.0726256983240224
 40
0.0726256983240224
 40
0.0726256983240224
 40
0.0726256983240224
 40
0.0754189944134078
 40
0.0754189944134078
 40
0.0754189944134078
 40
0.0754189944134078
 40
0.0782122905027933
 40
0.0782122905027933
 40
0.0782122905027933
 40
0.0782122905027933
 40
0.0810055865921788
 40
0.0810055865921788
 40
0.0810055865921788
 40
0.0810055865921788
 40
0.0837988826815642
 40
0.0837988826815642
 40
0.0837988826815642
 40
0.0837988826815642
 40
0.0865921787709497
 40
0.0865921787709497
 40
0.0865921787709497
 40
0.0865921787709497
 40
0.0893854748603352
 40
0.0893854748603352
 40
0.0893854748603352
 40
0.0893854748603352
 40
0.0921787709497207
 40
0.0921787709497207
 40
0.0921787709497207
 40
0.0921787709497207
 40
0.0949720670391061
 40
0.0949720670391061
 40
0.0949720670391061
 40
0.0949720670391061
 40
0.0977653631284916
 40
0.0977653631284916
 40
0.0977653631284916
 40
0.0977653631284916
 40
0.1005586592178771
 40
0.1005586592178771
 40
0.1005586592178771
 40
0.1005586592178771
 40
0.1033519553072626
 40
0.1033519553072626
 40
0.1033519553072626
 40
0.1033519553072626
 40
0.106145251396648
 40
0.106145251396648
 40
0.106145251396648
 40
0.106145251396648
 40
0.1089385474860335
 40
0.1089385474860335
 40
0.1089385474860335
 40
0.1089385474860335
 40
0.111731843575419
 40
0.111731843575419
 40
0.111731843575419
 40
0.111731843575419
 40
0.1145251396648045
 40
0.1145251396648045
 40
0.1145251396648045
 40
0.1145251396648045
 40
0.1173184357541899
 40
0.1173184357541899
 40
0.1173184357541899
 40
0.1173184357541899
 40
0.1201117318435754
 40
0.1201117318435754
 40
0.1201117318435754
 40
0.1201117318435754
 40
0.1229050279329609
 40
0.1229050279329609
 40
0.1229050279329609
 40
0.1229050279329609
 40
0.1256983240223464
 40
0.1256983240223464
 40
0.1256983240223464
 40
0.1256983240223464
 40
0.1284916201117318
 40
0.1284916201117318
 40
0.1284916201117318
 40
0.1284916201117318
 40
0.1312849162011173
 40
0.1312849162011173
 40
0.1312849162011173
 40
0.1312849162011173
 40
0.1340782122905028
 40
0.1340782122905028
 40
0.1340782122905028
 40
0.1340782122905028
 40
0.1368715083798883
 40
0.1368715083798883
 40
0.1368715083798883
 40
0.1368715083798883
 40
0.1396648044692737
 40
0.1396648044692737
 40
0.1396648044692737
 40
0.1396648044692737
 40
0.1424581005586592
 40
0.1424581005586592
 40
0.1424581005586592
 40
0.1424581005586592
 40
0.1452513966480447
 40
0.1452513966480447
 40
0.1452513966480447
 40
0.1452513966480447
 40
0.1480446927374302
 40
0.1480446927374302
 40
0.1480446927374302
 40
0.1480446927374302
 40
0.1508379888268156
 40
0.1508379888268156
 40
0.1508379888268156
 40
0.1508379888268156
 40
0.1536312849162011
 40
0.1536312849162011
 40
0.1536312849162011
 40
0.1536312849162011
 40
0.1564245810055866
 40
0.1564245810055866
 40
0.1564245810055866
 40
0.1564245810055866
 40
0.1592178770949721
 40
0.1592178770949721
 40
0.1592178770949721
 40
0.1592178770949721
 40
0.1620111731843575
 40
0.1620111731843575
 40
0.1620111731843575
 40
0.1620111731843575
 40
0.164804469273743
 40
0.164804469273743
 40
0.164804469273743
 40
0.164804469273743
 40
0.1675977653631285
 40
0.1675977653631285
 40
0.1675977653631285
 40
0.1675977653631285
 40
0.170391061452514
 40
0.170391061452514
 40
0.170391061452514
 40
0.170391061452514
 40
0.1731843575418995
 40
0.1731843575418995
 40
0.1731843575418995
 40
0.1731843575418995
 40
0.1759776536312849
 40
0.1759776536312849
 40
0.1759776536312849
 40
0.1759776536312849
 40
0.1787709497206704
 40
0.1787709497206704
 40
0.1787709497206704
 40
0.1787709497206704
 40
0.1815642458100559
 40
0.1815642458100559
 40
0.1815642458100559
 40
0.1815642458100559
 40
0.1843575418994413
 40
0.1843575418994413
 40
0.1843575418994413
 40
0.1843575418994413
 40
0.1871508379888268
 40
0.1871508379888268
 40
0.1871508379888268
 40
0.1871508379888268
 40
0.1899441340782123
 40
0.1899441340782123
 40
0.1899441340782123
 40
0.1899441340782123
 40
0.1927374301675978
 40
0.1927374301675978
 40
0.1927374301675978
 40
0.1927374301675978
 40
0.1955307262569832
 40
0.1955307262569832
 40
0.1955307262569832
 40
0.1955307262569832
 40
0.1983240223463687
 40
0.1983240223463687
 40
0.1983240223463687
 40
0.1983240223463687
 40
0.2011173184357542
 40
0.2011173184357542
 40
0.2011173184357542
 40
0.2011173184357542
 40
0.2039106145251397
 40
0.2039106145251397
 40
0.2039106145251397
 40
0.2039106145251397
 40
0.2067039106145251
 40
0.2067039106145251
 40
0.2067039106145251
 40
0.2067039106145251
 40
0.2094972067039106
 40
0.2094972067039106
 40
0.2094972067039106
 40
0.2094972067039106
 40
0.2122905027932961
 40
0.2122905027932961
 40
0.2122905027932961
 40
0.2122905027932961
 40
0.2150837988826816
 40
0.2150837988826816
 40
0.2150837988826816
 40
0.2150837988826816
 40
0.217877094972067
 40
0.217877094972067
 40
0.217877094972067
 40
0.217877094972067
 40
0.2206703910614525
 40
0.2206703910614525
 40
0.2206703910614525
 40
0.2206703910614525
 40
0.223463687150838
 40
0.223463687150838
 40
0.223463687150838
 40
0.223463687150838
 40
0.2262569832402235
 40
0.2262569832402235
 40
0.2262569832402235
 40
0.2262569832402235
 40
0.2290502793296089
 40
0.2290502793296089
 40
0.2290502793296089
 40
0.2290502793296089
 40
0.2318435754189944
 40
0.2318435754189944
 40
0.2318435754189944
 40
0.2318435754189944
 40
0.2346368715083799
 40
0.2346368715083799
 40
0.2346368715083799
 40
0.2346368715083799
 40
0.2374301675977654
 40
0.2374301675977654
 40
0.2374301675977654
 40
0.2374301675977654
 40
0.2402234636871508
 40
0.2402234636871508
 40
0.2402234636871508
 40
0.2402234636871508
 40
0.2430167597765363
 40
0.2430167597765363
 40
0.2430167597765363
 40
0.2430167597765363
 40
0.2458100558659218
 40
0.2458100558659218
 40
0.2458100558659218
 40
0.2458100558659218
 40
0.2486033519553073
 40
0.2486033519553073
 40
0.2486033519553073
 40
0.2486033519553073
 40
0.2513966480446927
 40
0.2513966480446927
 40
0.2513966480446927
 40
0.2513966480446927
 40
0.2541899441340782
 40
0.2541899441340782
 40
0.2541899441340782
 40
0.2541899441340782
 40
0.2569832402234637
 40
0.2569832402234637
 40
0.2569832402234637
 40
0.2569832402234637
 40
0.2597765363128491
 40
0.2597765363128491
 40
0.2597765363128491
 40
0.2597765363128491
 40
0.2625698324022346
 40
0.2625698324022346
 40
0.2625698324022346
 40
0.2625698324022346
 40
0.2653631284916201
 40
0.2653631284916201
 40
0.2653631284916201
 40
0.2653631284916201
 40
0.2681564245810056
 40
0.2681564245810056
 40
0.2681564245810056
 40
0.2681564245810056
 40
0.2709497206703911
 40
0.2709497206703911
 40
0.2709497206703911
 40
0.2709497206703911
 40
0.2737430167597765
 40
0.2737430167597765
 40
0.2737430167597765
 40
0.2737430167597765
 40
0.276536312849162
 40
0.276536312849162
 40
0.276536312849162
 40
0.276536312849162
 40
0.2793296089385475
 40
0.2793296089385475
 40
0.2793296089385475
 40
0.2793296089385475
 40
0.282122905027933
 40
0.282122905027933
 40
0.282122905027933
 40
0.282122905027933
 40
0.2849162011173184
 40
0.2849162011173184
 40
0.2849162011173184
 40
0.2849162011173184
 40
0.2877094972067039
 40
0.2877094972067039
 40
0.2877094972067039
 40
0.2877094972067039
 40
0.2905027932960894
 40
0.2905027932960894
 40
0.2905027932960894
 40
0.2905027932960894
 40
0.2932960893854749
 40
0.2932960893854749
 40
0.2932960893854749
 40
0.2932960893854749
 40
0.2960893854748604
 40
0.2960893854748604
 40
0.2960893854748604
 40
0.2960893854748604
 40
0.2988826815642458
 40
0.2988826815642458
 40
0.2988826815642458
 40
0.2988826815642458
 40
0.3016759776536313
 40
0.3016759776536313
 40
0.3016759776536313
 40
0.3016759776536313
 40
0.3044692737430167
 40
0.3044692737430167
 40
0.3044692737430167
 40
0.3044692737430167
 40
0.3072625698324022
 40
0.3072625698324022
 40
0.3072625698324022
 40
0.3072625698324022
 40
0.3100558659217877
 40
0.3100558659217877
 40
0.3100558659217877
 40
0.3100558659217877
 40
0.3128491620111732
 40
0.3128491620111732
 40
0.3128491620111732
 40
0.3128491620111732
 40
0.3156424581005586
 40
0.3156424581005586
 40
0.3156424581005586
 40
0.3156424581005586
 40
0.3184357541899441
 40
0.3184357541899441
 40
0.3184357541899441
 40
0.3184357541899441
 40
0.3212290502793296
 40
0.3212290502793296
 40
0.3212290502793296
 40
0.3212290502793296
 40
0.3240223463687151
 40
0.3240223463687151
 40
0.3240223463687151
 40
0.3240223463687151
 40
0.3268156424581006
 40
0.3268156424581006
 40
0.3268156424581006
 40
0.3268156424581006
 40
0.329608938547486
 40
0.329608938547486
 40
0.329608938547486
 40
0.329608938547486
 40
0.3324022346368715
 40
0.3324022346368715
 40
0.3324022346368715
 40
0.3324022346368715
 40
0.335195530726257
 40
0.335195530726257
 40
0.335195530726257
 40
0.335195530726257
 40
0.3379888268156425
 40
0.3379888268156425
 40
0.3379888268156425
 40
0.3379888268156425
 40
0.3407821229050279
 40
0.3407821229050279
 40
0.3407821229050279
 40
0.3407821229050279
 40
0.3435754189944134
 40
0.3435754189944134
 40
0.3435754189944134
 40
0.3435754189944134
 40
0.3463687150837989
 40
0.3463687150837989
 40
0.3463687150837989
 40
0.3463687150837989
 40
0.3491620111731844
 40
0.3491620111731844
 40
0.3491620111731844
 40
0.3491620111731844
 40
0.3519553072625698
 40
0.3519553072625698
 40
0.3519553072625698
 40
0.3519553072625698
 40
0.3547486033519553
 40
0.3547486033519553
 40
0.3547486033519553
 40
0.3547486033519553
 40
0.3575418994413408
 40
0.3575418994413408
 40
0.3575418994413408
 40
0.3575418994413408
 40
0.3603351955307262
 40
0.3603351955307262
 40
0.3603351955307262
 40
0.3603351955307262
 40
0.3631284916201117
 40
0.3631284916201117
 40
0.3631284916201117
 40
0.3631284916201117
 40
0.3659217877094972
 40
0.3659217877094972
 40
0.3659217877094972
 40
0.3659217877094972
 40
0.3687150837988827
 40
0.3687150837988827
 40
0.3687150837988827
 40
0.3687150837988827
 40
0.3715083798882682
 40
0.3715083798882682
 40
0.3715083798882682
 40
0.3715083798882682
 40
0.3743016759776536
 40
0.3743016759776536
 40
0.3743016759776536
 40
0.3743016759776536
 40
0.3770949720670391
 40
0.3770949720670391
 40
0.3770949720670391
 40
0.3770949720670391
 40
0.3798882681564246
 40
0.3798882681564246
 40
0.3798882681564246
 40
0.3798882681564246
 40
0.3826815642458101
 40
0.3826815642458101
 40
0.3826815642458101
 40
0.3826815642458101
 40
0.3854748603351955
 40
0.3854748603351955
 40
0.3854748603351955
 40
0.3854748603351955
 40
0.388268156424581
 40
0.388268156424581
 40
0.388268156424581
 40
0.388268156424581
 40
0.3910614525139665
 40
0.3910614525139665
 40
0.3910614525139665
 40
0.3910614525139665
 40
0.393854748603352
 40
0.393854748603352
 40
0.393854748603352
 40
0.393854748603352
 40
0.3966480446927375
 40
0.3966480446927375
 40
0.3966480446927375
 40
0.3966480446927375
 40
0.3994413407821229
 40
0.3994413407821229
 40
0.3994413407821229
 40
0.3994413407821229
 40
0.4022346368715084
 40
0.4022346368715084
 40
0.4022346368715084
 40
0.4022346368715084
 40
0.4050279329608938
 40
0.4050279329608938
 40
0.4050279329608938
 40
0.4050279329608938
 40
0.4078212290502793
 40
0.4078212290502793
 40
0.4078212290502793
 40
0.4078212290502793
 40
0.4106145251396648
 40
0.4106145251396648
 40
0.4106145251396648
 40
0.4106145251396648
 40
0.4134078212290503
 40
0.4134078212290503
 40
0.4134078212290503
 40
0.4134078212290503
 40
0.4162011173184357
 40
0.4162011173184357
 40
0.4162011173184357
 40
0.4162011173184357
 40
0.4189944134078212
 40
0.4189944134078212
 40
0.4189944134078212
 40
0.4189944134078212
 40
0.4217877094972067
 40
0.4217877094972067
 40
0.4217877094972067
 40
0.4217877094972067
 40
0.4245810055865922
 40
0.4245810055865922
 40
0.4245810055865922
 40
0.4245810055865922
 40
0.4273743016759777
 40
0.4273743016759777
 40
0.4273743016759777
 40
0.4273743016759777
 40
0.4301675977653631
 40
0.4301675977653631
 40
0.4301675977653631
 40
0.4301675977653631
 40
0.4329608938547486
 40
0.4329608938547486
 40
0.4329608938547486
 40
0.4329608938547486
 40
0.4357541899441341
 40
0.4357541899441341
 40
0.4357541899441341
 40
0.4357541899441341
 40
0.4385474860335196
 40
0.4385474860335196
 40
0.4385474860335196
 40
0.4385474860335196
 40
0.441340782122905
 40
0.441340782122905
 40
0.441340782122905
 40
0.441340782122905
 40
0.4441340782122905
 40
0.4441340782122905
 40
0.4441340782122905
 40
0.4441340782122905
 40
0.446927374301676
 40
0.446927374301676
 40
0.446927374301676
 40
0.446927374301676
 40
0.4497206703910615
 40
0.4497206703910615
 40
0.4497206703910615
 40
0.4497206703910615
 40
0.4525139664804469
 40
0.4525139664804469
 40
0.4525139664804469
 40
0.4525139664804469
 40
0.4553072625698324
 40
0.4553072625698324
 40
0.4553072625698324
 40
0.4553072625698324
 40
0.4581005586592179
 40
0.4581005586592179
 40
0.4581005586592179
 40
0.4581005586592179
 40
0.4608938547486033
 40
0.4608938547486033
 40
0.4608938547486033
 40
0.4608938547486033
 40
0.4636871508379888
 40
0.4636871508379888
 40
0.4636871508379888
 40
0.4636871508379888
 40
0.4664804469273743
 40
0.4664804469273743
 40
0.4664804469273743
 40
0.4664804469273743
 40
0.4692737430167598
 40
0.4692737430167598
 40
0.4692737430167598
 40
0.4692737430167598
 40
0.4720670391061452
 40
0.4720670391061452
 40
0.4720670391061452
 40
0.4720670391061452
 40
0.4748603351955307
 40
0.4748603351955307
 40
0.4748603351955307
 40
0.4748603351955307
 40
0.4776536312849162
 40
0.4776536312849162
 40
0.4776536312849162
 40
0.4776536312849162
 40
0.4804469273743017
 40
0.4804469273743017
 40
0.4804469273743017
 40
0.4804469273743017
 40
0.4832402234636872
 40
0.4832402234636872
 40
0.4832402234636872
 40
0.4832402234636872
 40
0.4860335195530726
 40
0.4860335195530726
 40
0.4860335195530726
 40
0.4860335195530726
 40
0.4888268156424581
 40
0.4888268156424581
 40
0.4888268156424581
 40
0.4888268156424581
 40
0.4916201117318436
 40
0.4916201117318436
 40
0.4916201117318436
 40
0.4916201117318436
 40
0.4944134078212291
 40
0.4944134078212291
 40
0.4944134078212291
 40
0.4944134078212291
 40
0.4972067039106145
 40
0.4972067039106145
 40
0.4972067039106145
 40
0.4972067039106145
 40
0.5
 40
0.5
 40
0.5
 40
0.5
 40
0.5027932960893855
 40
0.5027932960893855
 40
0.5027932960893855
 40
0.5027932960893855
 40
0.505586592178771
 40
0.505586592178771
 40
0.505586592178771
 40
0.505586592178771
 40
0.5083798882681564
 40
0.5083798882681564
 40
0.5083798882681564
 40
0.5083798882681564
 40
0.5111731843575419
 40
0.5111731843575419
 40
0.5111731843575419
 40
0.5111731843575419
 40
0.5139664804469274
 40
0.5139664804469274
 40
0.5139664804469274
 40
0.5139664804469274
 40
0.5167597765363129
 40
0.5167597765363129
 40
0.5167597765363129
 40
0.5167597765363129
 40
0.5195530726256983
 40
0.5195530726256983
 40
0.5195530726256983
 40
0.5195530726256983
 40
0.5223463687150838
 40
0.5223463687150838
 40
0.5223463687150838
 40
0.5223463687150838
 40
0.5251396648044693
 40
0.5251396648044693
 40
0.5251396648044693
 40
0.5251396648044693
 40
0.5279329608938548
 40
0.5279329608938548
 40
0.5279329608938548
 40
0.5279329608938548
 40
0.5307262569832403
 40
0.5307262569832403
 40
0.5307262569832403
 40
0.5307262569832403
 40
0.5335195530726257
 40
0.5335195530726257
 40
0.5335195530726257
 40
0.5335195530726257
 40
0.5363128491620112
 40
0.5363128491620112
 40
0.5363128491620112
 40
0.5363128491620112
 40
0.5391061452513967
 40
0.5391061452513967
 40
0.5391061452513967
 40
0.5391061452513967
 40
0.5418994413407822
 40
0.5418994413407822
 40
0.5418994413407822
 40
0.5418994413407822
 40
0.5446927374301676
 40
0.5446927374301676
 40
0.5446927374301676
 40
0.5446927374301676
 40
0.547486033519553
 40
0.547486033519553
 40
0.547486033519553
 40
0.547486033519553
 40
0.5502793296089385
 40
0.5502793296089385
 40
0.5502793296089385
 40
0.5502793296089385
 40
0.553072625698324
 40
0.553072625698324
 40
0.553072625698324
 40
0.553072625698324
 40
0.5558659217877095
 40
0.5558659217877095
 40
0.5558659217877095
 40
0.5558659217877095
 40
0.5586592178770949
 40
0.5586592178770949
 40
0.5586592178770949
 40
0.5586592178770949
 40
0.5614525139664804
 40
0.5614525139664804
 40
0.5614525139664804
 40
0.5614525139664804
 40
0.5642458100558659
 40
0.5642458100558659
 40
0.5642458100558659
 40
0.5642458100558659
 40
0.5670391061452514
 40
0.5670391061452514
 40
0.5670391061452514
 40
0.5670391061452514
 40
0.5698324022346368
 40
0.5698324022346368
 40
0.5698324022346368
 40
0.5698324022346368
 40
0.5726256983240223
 40
0.5726256983240223
 40
0.5726256983240223
 40
0.5726256983240223
 40
0.5754189944134078
 40
0.5754189944134078
 40
0.5754189944134078
 40
0.5754189944134078
 40
0.5782122905027933
 40
0.5782122905027933
 40
0.5782122905027933
 40
0.5782122905027933
 40
0.5810055865921788
 40
0.5810055865921788
 40
0.5810055865921788
 40
0.5810055865921788
 40
0.5837988826815642
 40
0.5837988826815642
 40
0.5837988826815642
 40
0.5837988826815642
 40
0.5865921787709497
 40
0.5865921787709497
 40
0.5865921787709497
 40
0.5865921787709497
 40
0.5893854748603352
 40
0.5893854748603352
 40
0.5893854748603352
 40
0.5893854748603352
 40
0.5921787709497207
 40
0.5921787709497207
 40
0.5921787709497207
 40
0.5921787709497207
 40
0.5949720670391061
 40
0.5949720670391061
 40
0.5949720670391061
 40
0.5949720670391061
 40
0.5977653631284916
 40
0.5977653631284916
 40
0.5977653631284916
 40
0.5977653631284916
 40
0.6005586592178771
 40
0.6005586592178771
 40
0.6005586592178771
 40
0.6005586592178771
 40
0.6033519553072626
 40
0.6033519553072626
 40
0.6033519553072626
 40
0.6033519553072626
 40
0.6061452513966481
 40
0.6061452513966481
 40
0.6061452513966481
 40
0.6061452513966481
 40
0.6089385474860335
 40
0.6089385474860335
 40
0.6089385474860335
 40
0.6089385474860335
 40
0.611731843575419
 40
0.611731843575419
 40
0.611731843575419
 40
0.611731843575419
 40
0.6145251396648045
 40
0.6145251396648045
 40
0.6145251396648045
 40
0.6145251396648045
 40
0.61731843575419
 40
0.61731843575419
 40
0.61731843575419
 40
0.61731843575419
 40
0.6201117318435754
 40
0.6201117318435754
 40
0.6201117318435754
 40
0.6201117318435754
 40
0.6229050279329609
 40
0.6229050279329609
 40
0.6229050279329609
 40
0.6229050279329609
 40
0.6256983240223464
 40
0.6256983240223464
 40
0.6256983240223464
 40
0.6256983240223464
 40
0.6284916201117319
 40
0.6284916201117319
 40
0.6284916201117319
 40
0.6284916201117319
 40
0.6312849162011173
 40
0.6312849162011173
 40
0.6312849162011173
 40
0.6312849162011173
 40
0.6340782122905028
 40
0.6340782122905028
 40
0.6340782122905028
 40
0.6340782122905028
 40
0.6368715083798883
 40
0.6368715083798883
 40
0.6368715083798883
 40
0.6368715083798883
 40
0.6396648044692738
 40
0.6396648044692738
 40
0.6396648044692738
 40
0.6396648044692738
 40
0.6424581005586593
 40
0.6424581005586593
 40
0.6424581005586593
 40
0.6424581005586593
 40
0.6452513966480447
 40
0.6452513966480447
 40
0.6452513966480447
 40
0.6452513966480447
 40
0.6480446927374302
 40
0.6480446927374302
 40
0.6480446927374302
 40
0.6480446927374302
 40
0.6508379888268156
 40
0.6508379888268156
 40
0.6508379888268156
 40
0.6508379888268156
 40
0.6536312849162011
 40
0.6536312849162011
 40
0.6536312849162011
 40
0.6536312849162011
 40
0.6564245810055865
 40
0.6564245810055865
 40
0.6564245810055865
 40
0.6564245810055865
 40
0.659217877094972
 40
0.659217877094972
 40
0.659217877094972
 40
0.659217877094972
 40
0.6620111731843575
 40
0.6620111731843575
 40
0.6620111731843575
 40
0.6620111731843575
 40
0.664804469273743
 40
0.664804469273743
 40
0.664804469273743
 40
0.664804469273743
 40
0.6675977653631285
 40
0.6675977653631285
 40
0.6675977653631285
 40
0.6675977653631285
 40
0.6703910614525139
 40
0.6703910614525139
 40
0.6703910614525139
 40
0.6703910614525139
 40
0.6731843575418994
 40
0.6731843575418994
 40
0.6731843575418994
 40
0.6731843575418994
 40
0.6759776536312849
 40
0.6759776536312849
 40
0.6759776536312849
 40
0.6759776536312849
 40
0.6787709497206704
 40
0.6787709497206704
 40
0.6787709497206704
 40
0.6787709497206704
 40
0.6815642458100558
 40
0.6815642458100558
 40
0.6815642458100558
 40
0.6815642458100558
 40
0.6843575418994413
 40
0.6843575418994413
 40
0.6843575418994413
 40
0.6843575418994413
 40
0.6871508379888268
 40
0.6871508379888268
 40
0.6871508379888268
 40
0.6871508379888268
 40
0.6899441340782123
 40
0.6899441340782123
 40
0.6899441340782123
 40
0.6899441340782123
 40
0.6927374301675978
 40
0.6927374301675978
 40
0.6927374301675978
 40
0.6927374301675978
 40
0.6955307262569832
 40
0.6955307262569832
 40
0.6955307262569832
 40
0.6955307262569832
 40
0.6983240223463687
 40
0.6983240223463687
 40
0.6983240223463687
 40
0.6983240223463687
 40
0.7011173184357542
 40
0.7011173184357542
 40
0.7011173184357542
 40
0.7011173184357542
 40
0.7039106145251397
 40
0.7039106145251397
 40
0.7039106145251397
 40
0.7039106145251397
 40
0.7067039106145251
 40
0.7067039106145251
 40
0.7067039106145251
 40
0.7067039106145251
 40
0.7094972067039106
 40
0.7094972067039106
 40
0.7094972067039106
 40
0.7094972067039106
 40
0.7122905027932961
 40
0.7122905027932961
 40
0.7122905027932961
 40
0.7122905027932961
 40
0.7150837988826816
 40
0.7150837988826816
 40
0.7150837988826816
 40
0.7150837988826816
 40
0.7178770949720671
 40
0.7178770949720671
 40
0.7178770949720671
 40
0.7178770949720671
 40
0.7206703910614525
 40
0.7206703910614525
 40
0.7206703910614525
 40
0.7206703910614525
 40
0.723463687150838
 40
0.723463687150838
 40
0.723463687150838
 40
0.723463687150838
 40
0.7262569832402235
 40
0.7262569832402235
 40
0.7262569832402235
 40
0.7262569832402235
 40
0.729050279329609
 40
0.729050279329609
 40
0.729050279329609
 40
0.729050279329609
 40
0.7318435754189944
 40
0.7318435754189944
 40
0.7318435754189944
 40
0.7318435754189944
 40
0.7346368715083799
 40
0.7346368715083799
 40
0.7346368715083799
 40
0.7346368715083799
 40
0.7374301675977654
 40
0.7374301675977654
 40
0.7374301675977654
 40
0.7374301675977654
 40
0.7402234636871509
 40
0.7402234636871509
 40
0.7402234636871509
 40
0.7402234636871509
 40
0.7430167597765364
 40
0.7430167597765364
 40
0.7430167597765364
 40
0.7430167597765364
 40
0.7458100558659218
 40
0.7458100558659218
 40
0.7458100558659218
 40
0.7458100558659218
 40
0.7486033519553073
 40
0.7486033519553073
 40
0.7486033519553073
 40
0.7486033519553073
 40
0.7513966480446927
 40
0.7513966480446927
 40
0.7513966480446927
 40
0.7513966480446927
 40
0.7541899441340782
 40
0.7541899441340782
 40
0.7541899441340782
 40
0.7541899441340782
 40
0.7569832402234636
 40
0.7569832402234636
 40
0.7569832402234636
 40
0.7569832402234636
 40
0.7597765363128491
 40
0.7597765363128491
 40
0.7597765363128491
 40
0.7597765363128491
 40
0.7625698324022346
 40
0.7625698324022346
 40
0.7625698324022346
 40
0.7625698324022346
 40
0.7653631284916201
 40
0.7653631284916201
 40
0.7653631284916201
 40
0.7653631284916201
 40
0.7681564245810056
 40
0.7681564245810056
 40
0.7681564245810056
 40
0.7681564245810056
 40
0.770949720670391
 40
0.770949720670391
 40
0.770949720670391
 40
0.770949720670391
 40
0.7737430167597765
 40
0.7737430167597765
 40
0.7737430167597765
 40
0.7737430167597765
 40
0.776536312849162
 40
0.776536312849162
 40
0.776536312849162
 40
0.776536312849162
 40
0.7793296089385475
 40
0.7793296089385475
 40
0.7793296089385475
 40
0.7793296089385475
 40
0.7821229050279329
 40
0.7821229050279329
 40
0.7821229050279329
 40
0.7821229050279329
 40
0.7849162011173184
 40
0.7849162011173184
 40
0.7849162011173184
 40
0.7849162011173184
 40
0.7877094972067039
 40
0.7877094972067039
 40
0.7877094972067039
 40
0.7877094972067039
 40
0.7905027932960894
 40
0.7905027932960894
 40
0.7905027932960894
 40
0.7905027932960894
 40
0.7932960893854749
 40
0.7932960893854749
 40
0.7932960893854749
 40
0.7932960893854749
 40
0.7960893854748603
 40
0.7960893854748603
 40
0.7960893854748603
 40
0.7960893854748603
 40
0.7988826815642458
 40
0.7988826815642458
 40
0.7988826815642458
 40
0.7988826815642458
 40
0.8016759776536313
 40
0.8016759776536313
 40
0.8016759776536313
 40
0.8016759776536313
 40
0.8044692737430168
 40
0.8044692737430168
 40
0.8044692737430168
 40
0.8044692737430168
 40
0.8072625698324022
 40
0.8072625698324022
 40
0.8072625698324022
 40
0.8072625698324022
 40
0.8100558659217877
 40
0.8100558659217877
 40
0.8100558659217877
 40
0.8100558659217877
 40
0.8128491620111732
 40
0.8128491620111732
 40
0.8128491620111732
 40
0.8128491620111732
 40
0.8156424581005587
 40
0.8156424581005587
 40
0.8156424581005587
 40
0.8156424581005587
 40
0.8184357541899442
 40
0.8184357541899442
 40
0.8184357541899442
 40
0.8184357541899442
 40
0.8212290502793296
 40
0.8212290502793296
 40
0.8212290502793296
 40
0.8212290502793296
 40
0.8240223463687151
 40
0.8240223463687151
 40
0.8240223463687151
 40
0.8240223463687151
 40
0.8268156424581006
 40
0.8268156424581006
 40
0.8268156424581006
 40
0.8268156424581006
 40
0.8296089385474861
 40
0.8296089385474861
 40
0.8296089385474861
 40
0.8296089385474861
 40
0.8324022346368715
 40
0.8324022346368715
 40
0.8324022346368715
 40
0.8324022346368715
 40
0.835195530726257
 40
0.835195530726257
 40
0.835195530726257
 40
0.835195530726257
 40
0.8379888268156425
 40
0.8379888268156425
 40
0.8379888268156425
 40
0.8379888268156425
 40
0.840782122905028
 40
0.840782122905028
 40
0.840782122905028
 40
0.840782122905028
 40
0.8435754189944135
 40
0.8435754189944135
 40
0.8435754189944135
 40
0.8435754189944135
 40
0.8463687150837989
 40
0.8463687150837989
 40
0.8463687150837989
 40
0.8463687150837989
 40
0.8491620111731844
 40
0.8491620111731844
 40
0.8491620111731844
 40
0.8491620111731844
 40
0.8519553072625698
 40
0.8519553072625698
 40
0.8519553072625698
 40
0.8519553072625698
 40
0.8547486033519553
 40
0.8547486033519553
 40
0.8547486033519553
 40
0.8547486033519553
 40
0.8575418994413407
 40
0.8575418994413407
 40
0.8575418994413407
 40
0.8575418994413407
 40
0.8603351955307262
 40
0.8603351955307262
 40
0.8603351955307262
 40
0.8603351955307262
 40
0.8631284916201117
 40
0.8631284916201117
 40
0.8631284916201117
 40
0.8631284916201117
 40
0.8659217877094972
 40
0.8659217877094972
 40
0.8659217877094972
 40
0.8659217877094972
 40
0.8687150837988827
 40
0.8687150837988827
 40
0.8687150837988827
 40
0.8687150837988827
 40
0.8715083798882681
 40
0.8715083798882681
 40
0.8715083798882681
 40
0.8715083798882681
 40
0.8743016759776536
 40
0.8743016759776536
 40
0.8743016759776536
 40
0.8743016759776536
 40
0.8770949720670391
 40
0.8770949720670391
 40
0.8770949720670391
 40
0.8770949720670391
 40
0.8798882681564246
 40
0.8798882681564246
 40
0.8798882681564246
 40
0.8798882681564246
 40
0.88268156424581
 40
0.88268156424581
 40
0.88268156424581
 40
0.88268156424581
 40
0.8854748603351955
 40
0.8854748603351955
 40
0.8854748603351955
 40
0.8854748603351955
 40
0.888268156424581
 40
0.888268156424581
 40
0.888268156424581
 40
0.888268156424581
 40
0.8910614525139665
 40
0.8910614525139665
 40
0.8910614525139665
 40
0.8910614525139665
 40
0.8938547486033519
 40
0.8938547486033519
 40
0.8938547486033519
 40
0.8938547486033519
 40
0.8966480446927374
 40
0.8966480446927374
 40
0.8966480446927374
 40
0.8966480446927374
 40
0.8994413407821229
 40
0.8994413407821229
 40
0.8994413407821229
 40
0.8994413407821229
 40
0.9022346368715084
 40
0.9022346368715084
 40
0.9022346368715084
 40
0.9022346368715084
 40
0.9050279329608939
 40
0.9050279329608939
 40
0.9050279329608939
 40
0.9050279329608939
 40
0.9078212290502793
 40
0.9078212290502793
 40
0.9078212290502793
 40
0.9078212290502793
 40
0.9106145251396648
 40
0.9106145251396648
 40
0.9106145251396648
 40
0.9106145251396648
 40
0.9134078212290503
 40
0.9134078212290503
 40
0.9134078212290503
 40
0.9134078212290503
 40
0.9162011173184358
 40
0.9162011173184358
 40
0.9162011173184358
 40
0.9162011173184358
 40
0.9189944134078212
 40
0.9189944134078212
 40
0.9189944134078212
 40
0.9189944134078212
 40
0.9217877094972067
 40
0.9217877094972067
 40
0.9217877094972067
 40
0.9217877094972067
 40
0.9245810055865922
 40
0.9245810055865922
 40
0.9245810055865922
 40
0.9245810055865922
 40
0.9273743016759777
 40
0.9273743016759777
 40
0.9273743016759777
 40
0.9273743016759777
 40
0.9301675977653632
 40
0.9301675977653632
 40
0.9301675977653632
 40
0.9301675977653632
 40
0.9329608938547486
 40
0.9329608938547486
 40
0.9329608938547486
 40
0.9329608938547486
 40
0.9357541899441341
 40
0.9357541899441341
 40
0.9357541899441341
 40
0.9357541899441341
 40
0.9385474860335196
 40
0.9385474860335196
 40
0.9385474860335196
 40
0.9385474860335196
 40
0.9413407821229051
 40
0.9413407821229051
 40
0.9413407821229051
 40
0.9413407821229051
 40
0.9441340782122905
 40
0.9441340782122905
 40
0.9441340782122905
 40
0.9441340782122905
 40
0.946927374301676
 40
0.946927374301676
 40
0.946927374301676
 40
0.946927374301676
 40
0.9497206703910615
 40
0.9497206703910615
 40
0.9497206703910615
 40
0.9497206703910615
 40
0.952513966480447
 40
0.952513966480447
 40
0.952513966480447
 40
0.952513966480447
 40
0.9553072625698324
 40
0.9553072625698324
 40
0.9553072625698324
 40
0.9553072625698324
 40
0.9581005586592178
 40
0.9581005586592178
 40
0.9581005586592178
 40
0.9581005586592178
 40
0.9608938547486033
 40
0.9608938547486033
 40
0.9608938547486033
 40
0.9608938547486033
 40
0.9636871508379888
 40
0.9636871508379888
 40
0.9636871508379888
 40
0.9636871508379888
 40
0.9664804469273743
 40
0.9664804469273743
 40
0.9664804469273743
 40
0.9664804469273743
 40
0.9692737430167597
 40
0.9692737430167597
 40
0.9692737430167597
 40
0.9692737430167597
 40
0.9720670391061452
 40
0.9720670391061452
 40
0.9720670391061452
 40
0.9720670391061452
 40
0.9748603351955307
 40
0.9748603351955307
 40
0.9748603351955307
 40
0.9748603351955307
 40
0.9776536312849162
 40
0.9776536312849162
 40
0.9776536312849162
 40
0.9776536312849162
 40
0.9804469273743017
 40
0.9804469273743017
 40
0.9804469273743017
 40
0.9804469273743017
 40
0.9832402234636871
 40
0.9832402234636871
 40
0.9832402234636871
 40
0.9832402234636871
 40
0.9860335195530726
 40
0.9860335195530726
 40
0.9860335195530726
 40
0.9860335195530726
 40
0.9888268156424581
 40
0.9888268156424581
 40
0.9888268156424581
 40
0.9888268156424581
 40
0.9916201117318436
 40
0.9916201117318436
 40
0.9916201117318436
 40
0.9916201117318436
 40
0.994413407821229
 40
0.994413407821229
 40
0.994413407821229
 40
0.994413407821229
 40
1.0
 40
1.0
 40
1.0
 40
1.0
 10
-6.2976
 20
28.6049
 30
0.0
 10
-6.4195
 20
28.4079
 30
0.0
 10
-6.4745
 20
28.1527
 30
0.0
 10
-6.5592
 20
27.9385
 30
0.0
 10
-6.5592
 20
27.9385
 30
0.0
 10
-6.5747
 20
27.8994
 30
0.0
 10
-6.6002
 20
27.7754
 30
0.0
 10
-6.6389
 20
27.7513
 30
0.0
 10
-6.6389
 20
27.7513
 30
0.0
 10
-6.6153
 20
27.766
 30
0.0
 10
-6.6219
 20
27.8102
 30
0.0
 10
-6.6418
 20
27.8861
 30
0.0
 10
-6.6418
 20
27.8861
 30
0.0
 10
-6.6795
 20
28.0299
 30
0.0
 10
-6.8101
 20
28.2171
 30
0.0
 10
-6.9355
 20
28.3
 30
0.0
 10
-6.9355
 20
28.3
 30
0.0
 10
-7.2847
 20
28.5309
 30
0.0
 10
-7.8151
 20
28.5127
 30
0.0
 10
-8.2068
 20
28.4608
 30
0.0
 10
-8.2068
 20
28.4608
 30
0.0
 10
-8.762
 20
28.3872
 30
0.0
 10
-9.386
 20
28.3086
 30
0.0
 10
-9.9356
 20
28.4622
 30
0.0
 10
-9.9356
 20
28.4622
 30
0.0
 10
-10.1885
 20
28.5329
 30
0.0
 10
-10.4217
 20
28.6586
 30
0.0
 10
-10.679
 20
28.7153
 30
0.0
 10
-10.679
 20
28.7153
 30
0.0
 10
-10.76
 20
28.7331
 30
0.0
 10
-10.8561
 20
28.7311
 30
0.0
 10
-10.933
 20
28.7628
 30
0.0
 10
-10.933
 20
28.7628
 30
0.0
 10
-11.0643
 20
28.817
 30
0.0
 10
-11.138
 20
28.9276
 30
0.0
 10
-11.2357
 20
29.0219
 30
0.0
 10
-11.2357
 20
29.0219
 30
0.0
 10
-11.4984
 20
29.2752
 30
0.0
 10
-11.7371
 20
29.2717
 30
0.0
 10
-12.0819
 20
29.2863
 30
0.0
 10
-12.0819
 20
29.2863
 30
0.0
 10
-12.2908
 20
29.2952
 30
0.0
 10
-12.4786
 20
29.4485
 30
0.0
 10
-12.6697
 20
29.5301
 30
0.0
 10
-12.6697
 20
29.5301
 30
0.0
 10
-12.8175
 20
29.5933
 30
0.0
 10
-12.9702
 20
29.6435
 30
0.0
 10
-13.1209
 20
29.6991
 30
0.0
 10
-13.1209
 20
29.6991
 30
0.0
 10
-13.2984
 20
29.7647
 30
0.0
 10
-13.4767
 20
29.8348
 30
0.0
 10
-13.6355
 20
29.9393
 30
0.0
 10
-13.6355
 20
29.9393
 30
0.0
 10
-13.8782
 20
30.099
 30
0.0
 10
-13.9411
 20
30.2897
 30
0.0
 10
-14.0909
 20
30.5174
 30
0.0
 10
-14.0909
 20
30.5174
 30
0.0
 10
-14.1819
 20
30.6558
 30
0.0
 10
-14.3141
 20
30.692
 30
0.0
 10
-14.4607
 20
30.7624
 30
0.0
 10
-14.4607
 20
30.7624
 30
0.0
 10
-14.7059
 20
30.8802
 30
0.0
 10
-14.9383
 20
31.0235
 30
0.0
 10
-15.1614
 20
31.1788
 30
0.0
 10
-15.1614
 20
31.1788
 30
0.0
 10
-15.5993
 20
31.4837
 30
0.0
 10
-16.0035
 20
31.8348
 30
0.0
 10
-16.426
 20
32.1602
 30
0.0
 10
-16.426
 20
32.1602
 30
0.0
 10
-17.3545
 20
32.8752
 30
0.0
 10
-18.3429
 20
33.5069
 30
0.0
 10
-19.3232
 20
34.1475
 30
0.0
 10
-19.3232
 20
34.1475
 30
0.0
 10
-19.7833
 20
34.4482
 30
0.0
 10
-20.2239
 20
34.7916
 30
0.0
 10
-20.6969
 20
35.0708
 30
0.0
 10
-20.6969
 20
35.0708
 30
0.0
 10
-21.1073
 20
35.313
 30
0.0
 10
-21.5927
 20
35.3492
 30
0.0
 10
-21.984
 20
35.6239
 30
0.0
 10
-21.984
 20
35.6239
 30
0.0
 10
-22.2509
 20
35.8112
 30
0.0
 10
-22.3828
 20
35.9478
 30
0.0
 10
-22.4767
 20
36.2686
 30
0.0
 10
-22.4767
 20
36.2686
 30
0.0
 10
-22.5201
 20
36.4166
 30
0.0
 10
-22.5403
 20
36.503
 30
0.0
 10
-22.6523
 20
36.6138
 30
0.0
 10
-22.6523
 20
36.6138
 30
0.0
 10
-22.7711
 20
36.7316
 30
0.0
 10
-22.9258
 20
36.8024
 30
0.0
 10
-23.0615
 20
36.8971
 30
0.0
 10
-23.0615
 20
36.8971
 30
0.0
 10
-23.3141
 20
37.0734
 30
0.0
 10
-23.5052
 20
37.3962
 30
0.0
 10
-23.6824
 20
37.6491
 30
0.0
 10
-23.6824
 20
37.6491
 30
0.0
 10
-23.8326
 20
37.8635
 30
0.0
 10
-23.9455
 20
38.0903
 30
0.0
 10
-24.0784
 20
38.3137
 30
0.0
 10
-24.0784
 20
38.3137
 30
0.0
 10
-24.1301
 20
38.4006
 30
0.0
 10
-24.1872
 20
38.4894
 30
0.0
 10
-24.2911
 20
38.5164
 30
0.0
 10
-24.2911
 20
38.5164
 30
0.0
 10
-24.5643
 20
38.5875
 30
0.0
 10
-24.9866
 20
38.1035
 30
0.0
 10
-25.1905
 20
38.3573
 30
0.0
 10
-25.1905
 20
38.3573
 30
0.0
 10
-25.2437
 20
38.4235
 30
0.0
 10
-25.1706
 20
38.5803
 30
0.0
 10
-25.2559
 20
38.6678
 30
0.0
 10
-25.2559
 20
38.6678
 30
0.0
 10
-25.3585
 20
38.7731
 30
0.0
 10
-25.5859
 20
38.8691
 30
0.0
 10
-25.7209
 20
38.9348
 30
0.0
 10
-25.7209
 20
38.9348
 30
0.0
 10
-26.0097
 20
39.0754
 30
0.0
 10
-26.2844
 20
39.0214
 30
0.0
 10
-26.5128
 20
38.8037
 30
0.0
 10
-26.5128
 20
38.8037
 30
0.0
 10
-26.7737
 20
38.5552
 30
0.0
 10
-27.0848
 20
38.4697
 30
0.0
 10
-27.3167
 20
38.1856
 30
0.0
 10
-27.3167
 20
38.1856
 30
0.0
 10
-27.468
 20
38.0003
 30
0.0
 10
-27.603
 20
38.0098
 30
0.0
 10
-27.7874
 20
37.8916
 30
0.0
 10
-27.7874
 20
37.8916
 30
0.0
 10
-27.925
 20
37.8034
 30
0.0
 10
-27.9289
 20
37.693
 30
0.0
 10
-28.0227
 20
37.572
 30
0.0
 10
-28.0227
 20
37.572
 30
0.0
 10
-28.1487
 20
37.4095
 30
0.0
 10
-28.3389
 20
37.494
 30
0.0
 10
-28.4848
 20
37.3907
 30
0.0
 10
-28.4848
 20
37.3907
 30
0.0
 10
-28.5969
 20
37.3112
 30
0.0
 10
-28.6551
 20
37.1398
 30
0.0
 10
-28.6912
 20
37.0136
 30
0.0
 10
-28.6912
 20
37.0136
 30
0.0
 10
-28.7809
 20
36.7009
 30
0.0
 10
-28.6949
 20
36.33
 30
0.0
 10
-28.4602
 20
36.1041
 30
0.0
 10
-28.4602
 20
36.1041
 30
0.0
 10
-28.3292
 20
35.9779
 30
0.0
 10
-28.1776
 20
35.8612
 30
0.0
 10
-28.0287
 20
35.7565
 30
0.0
 10
-28.0287
 20
35.7565
 30
0.0
 10
-27.9775
 20
35.7206
 30
0.0
 10
-27.8421
 20
35.6668
 30
0.0
 10
-27.8157
 20
35.6249
 30
0.0
 10
-27.8157
 20
35.6249
 30
0.0
 10
-27.8109
 20
35.6173
 30
0.0
 10
-27.7715
 20
35.6311
 30
0.0
 10
-27.7687
 20
35.6241
 30
0.0
 10
-27.7687
 20
35.6241
 30
0.0
 10
-27.7672
 20
35.6204
 30
0.0
 10
-27.843
 20
35.4596
 30
0.0
 10
-27.8477
 20
35.4464
 30
0.0
 10
-27.8477
 20
35.4464
 30
0.0
 10
-27.9333
 20
35.2052
 30
0.0
 10
-28.1182
 20
34.7436
 30
0.0
 10
-27.9727
 20
34.4838
 30
0.0
 10
-27.9727
 20
34.4838
 30
0.0
 10
-27.8311
 20
34.2309
 30
0.0
 10
-27.4097
 20
34.2071
 30
0.0
 10
-27.1689
 20
34.126
 30
0.0
 10
-27.1689
 20
34.126
 30
0.0
 10
-26.8601
 20
34.0219
 30
0.0
 10
-26.4812
 20
33.9158
 30
0.0
 10
-26.3207
 20
33.6104
 30
0.0
 10
-26.3207
 20
33.6104
 30
0.0
 10
-26.2275
 20
33.4331
 30
0.0
 10
-26.2127
 20
33.2239
 30
0.0
 10
-26.1228
 20
33.0423
 30
0.0
 10
-26.1228
 20
33.0423
 30
0.0
 10
-25.73
 20
32.2489
 30
0.0
 10
-24.7163
 20
32.2821
 30
0.0
 10
-24.0788
 20
31.7716
 30
0.0
 10
-24.0788
 20
31.7716
 30
0.0
 10
-23.6999
 20
31.4682
 30
0.0
 10
-23.3805
 20
31.1417
 30
0.0
 10
-22.9674
 20
30.8764
 30
0.0
 10
-22.9674
 20
30.8764
 30
0.0
 10
-22.4835
 20
30.5656
 30
0.0
 10
-22.0264
 20
30.2369
 30
0.0
 10
-21.5724
 20
29.8832
 30
0.0
 10
-21.5724
 20
29.8832
 30
0.0
 10
-20.6578
 20
29.1707
 30
0.0
 10
-19.7464
 20
28.4498
 30
0.0
 10
-18.8589
 20
27.7037
 30
0.0
 10
-18.8589
 20
27.7037
 30
0.0
 10
-18.0111
 20
26.9911
 30
0.0
 10
-17.1843
 20
26.2656
 30
0.0
 10
-16.2869
 20
25.6146
 30
0.0
 10
-16.2869
 20
25.6146
 30
0.0
 10
-15.8041
 20
25.2643
 30
0.0
 10
-15.314
 20
24.9242
 30
0.0
 10
-14.8215
 20
24.5877
 30
0.0
 10
-14.8215
 20
24.5877
 30
0.0
 10
-14.5844
 20
24.4257
 30
0.0
 10
-14.3466
 20
24.2645
 30
0.0
 10
-14.1087
 20
24.1035
 30
0.0
 10
-14.1087
 20
24.1035
 30
0.0
 10
-13.8423
 20
23.9232
 30
0.0
 10
-13.4088
 20
23.7436
 30
0.0
 10
-13.4601
 20
23.3762
 30
0.0
 10
-13.4601
 20
23.3762
 30
0.0
 10
-13.4969
 20
23.113
 30
0.0
 10
-13.6685
 20
22.8228
 30
0.0
 10
-13.7625
 20
22.5736
 30
0.0
 10
-13.7625
 20
22.5736
 30
0.0
 10
-13.8714
 20
22.285
 30
0.0
 10
-13.9799
 20
21.9961
 30
0.0
 10
-14.0856
 20
21.7062
 30
0.0
 10
-14.0856
 20
21.7062
 30
0.0
 10
-14.2868
 20
21.1547
 30
0.0
 10
-14.4997
 20
20.6009
 30
0.0
 10
-14.6035
 20
20.021
 30
0.0
 10
-14.6035
 20
20.021
 30
0.0
 10
-14.6972
 20
19.4978
 30
0.0
 10
-14.7179
 20
18.9645
 30
0.0
 10
-14.6912
 20
18.4343
 30
0.0
 10
-14.6912
 20
18.4343
 30
0.0
 10
-14.6773
 20
18.1584
 30
0.0
 10
-14.6508
 20
17.8833
 30
0.0
 10
-14.6163
 20
17.6092
 30
0.0
 10
-14.6163
 20
17.6092
 30
0.0
 10
-14.5823
 20
17.3385
 30
0.0
 10
-14.4788
 20
17.0219
 30
0.0
 10
-14.5549
 20
16.7539
 30
0.0
 10
-14.5549
 20
16.7539
 30
0.0
 10
-14.6218
 20
16.518
 30
0.0
 10
-14.841
 20
16.3962
 30
0.0
 10
-14.9999
 20
16.2262
 30
0.0
 10
-14.9999
 20
16.2262
 30
0.0
 10
-15.1358
 20
16.0809
 30
0.0
 10
-15.248
 20
15.9138
 30
0.0
 10
-15.3335
 20
15.7344
 30
0.0
 10
-15.3335
 20
15.7344
 30
0.0
 10
-15.4116
 20
15.5706
 30
0.0
 10
-15.4675
 20
15.3968
 30
0.0
 10
-15.5077
 20
15.2201
 30
0.0
 10
-15.5077
 20
15.2201
 30
0.0
 10
-15.5719
 20
14.938
 30
0.0
 10
-15.5423
 20
14.6443
 30
0.0
 10
-15.8
 20
14.458
 30
0.0
 10
-15.8
 20
14.458
 30
0.0
 10
-15.9346
 20
14.3608
 30
0.0
 10
-16.1089
 20
14.33
 30
0.0
 10
-16.2409
 20
14.2208
 30
0.0
 10
-16.2409
 20
14.2208
 30
0.0
 10
-16.3881
 20
14.099
 30
0.0
 10
-16.4165
 20
13.9566
 30
0.0
 10
-16.4649
 20
13.777
 30
0.0
 10
-16.4649
 20
13.777
 30
0.0
 10
-16.6124
 20
13.2287
 30
0.0
 10
-16.7221
 20
12.6684
 30
0.0
 10
-16.8232
 20
12.1099
 30
0.0
 10
-16.8232
 20
12.1099
 30
0.0
 10
-17.0338
 20
10.9461
 30
0.0
 10
-17.2172
 20
9.7771
 30
0.0
 10
-17.3946
 20
8.6078
 30
0.0
 10
-17.3946
 20
8.6078
 30
0.0
 10
-17.4801
 20
8.0444
 30
0.0
 10
-17.4969
 20
7.463
 30
0.0
 10
-17.6365
 20
6.9111
 30
0.0
 10
-17.6365
 20
6.9111
 30
0.0
 10
-17.696
 20
6.6756
 30
0.0
 10
-17.7116
 20
6.4396
 30
0.0
 10
-17.4762
 20
6.3001
 30
0.0
 10
-17.4762
 20
6.3001
 30
0.0
 10
-17.3242
 20
6.2101
 30
0.0
 10
-17.1351
 20
6.2114
 30
0.0
 10
-16.9774
 20
6.1297
 30
0.0
 10
-16.9774
 20
6.1297
 30
0.0
 10
-16.8669
 20
6.0724
 30
0.0
 10
-16.7662
 20
5.9913
 30
0.0
 10
-16.7001
 20
5.8841
 30
0.0
 10
-16.7001
 20
5.8841
 30
0.0
 10
-16.6572
 20
5.8147
 30
0.0
 10
-16.6486
 20
5.7257
 30
0.0
 10
-16.5827
 20
5.6716
 30
0.0
 10
-16.5827
 20
5.6716
 30
0.0
 10
-16.5076
 20
5.6099
 30
0.0
 10
-16.3905
 20
5.6132
 30
0.0
 10
-16.3012
 20
5.6074
 30
0.0
 10
-16.3012
 20
5.6074
 30
0.0
 10
-16.0017
 20
5.588
 30
0.0
 10
-15.7014
 20
5.5793
 30
0.0
 10
-15.4021
 20
5.5562
 30
0.0
 10
-15.4021
 20
5.5562
 30
0.0
 10
-15.1615
 20
5.5377
 30
0.0
 10
-14.866
 20
5.4657
 30
0.0
 10
-14.7727
 20
5.7509
 30
0.0
 10
-14.7727
 20
5.7509
 30
0.0
 10
-14.7156
 20
5.9256
 30
0.0
 10
-14.7394
 20
6.1397
 30
0.0
 10
-14.7272
 20
6.3205
 30
0.0
 10
-14.7272
 20
6.3205
 30
0.0
 10
-14.7057
 20
6.6392
 30
0.0
 10
-14.6825
 20
6.9615
 30
0.0
 10
-14.5947
 20
7.2698
 30
0.0
 10
-14.5947
 20
7.2698
 30
0.0
 10
-14.5608
 20
7.389
 30
0.0
 10
-14.5263
 20
7.5768
 30
0.0
 10
-14.458
 20
7.3735
 30
0.0
 10
-14.458
 20
7.3735
 30
0.0
 10
-14.423
 20
7.2694
 30
0.0
 10
-14.4504
 20
7.0966
 30
0.0
 10
-14.4499
 20
6.9862
 30
0.0
 10
-14.4499
 20
6.9862
 30
0.0
 10
-14.4481
 20
6.6392
 30
0.0
 10
-14.4961
 20
6.2989
 30
0.0
 10
-14.553
 20
5.9572
 30
0.0
 10
-14.553
 20
5.9572
 30
0.0
 10
-14.6453
 20
5.4027
 30
0.0
 10
-14.7391
 20
4.857
 30
0.0
 10
-14.7689
 20
4.2949
 30
0.0
 10
-14.7689
 20
4.2949
 30
0.0
 10
-14.898
 20
1.8631
 30
0.0
 10
-14.7734
 20
-0.5678
 30
0.0
 10
-15.0466
 20
-2.9933
 30
0.0
 10
-15.0466
 20
-2.9933
 30
0.0
 10
-15.1794
 20
-4.1727
 30
0.0
 10
-15.1905
 20
-5.3645
 30
0.0
 10
-15.2485
 20
-6.5493
 30
0.0
 10
-15.2485
 20
-6.5493
 30
0.0
 10
-15.3074
 20
-7.7535
 30
0.0
 10
-15.3676
 20
-8.9577
 30
0.0
 10
-15.423
 20
-10.1621
 30
0.0
 10
-15.423
 20
-10.1621
 30
0.0
 10
-15.451
 20
-10.7698
 30
0.0
 10
-15.4679
 20
-11.3827
 30
0.0
 10
-15.532
 20
-11.9878
 30
0.0
 10
-15.532
 20
-11.9878
 30
0.0
 10
-15.5943
 20
-12.5762
 30
0.0
 10
-15.7209
 20
-13.1538
 30
0.0
 10
-15.7757
 20
-13.744
 30
0.0
 10
-15.7757
 20
-13.744
 30
0.0
 10
-15.8012
 20
-14.0192
 30
0.0
 10
-15.8222
 20
-14.2948
 30
0.0
 10
-15.8427
 20
-14.5705
 30
0.0
 10
-15.8427
 20
-14.5705
 30
0.0
 10
-15.8517
 20
-14.6923
 30
0.0
 10
-15.934
 20
-15.0091
 30
0.0
 10
-15.8675
 20
-15.1103
 30
0.0
 10
-15.8675
 20
-15.1103
 30
0.0
 10
-15.7278
 20
-15.3228
 30
0.0
 10
-15.3865
 20
-15.0021
 30
0.0
 10
-15.2735
 20
-14.9262
 30
0.0
 10
-15.2735
 20
-14.9262
 30
0.0
 10
-15.0053
 20
-14.7462
 30
0.0
 10
-14.7472
 20
-14.5302
 30
0.0
 10
-14.6178
 20
-14.226
 30
0.0
 10
-14.6178
 20
-14.226
 30
0.0
 10
-14.5668
 20
-14.106
 30
0.0
 10
-14.5498
 20
-13.9867
 30
0.0
 10
-14.527
 20
-13.8604
 30
0.0
 10
-14.527
 20
-13.8604
 30
0.0
 10
-14.4797
 20
-13.5992
 30
0.0
 10
-14.5022
 20
-13.906
 30
0.0
 10
-14.5069
 20
-13.9781
 30
0.0
 10
-14.5069
 20
-13.9781
 30
0.0
 10
-14.5186
 20
-14.1559
 30
0.0
 10
-14.5576
 20
-14.3275
 30
0.0
 10
-14.5849
 20
-14.5034
 30
0.0
 10
-14.5849
 20
-14.5034
 30
0.0
 10
-14.6678
 20
-15.0382
 30
0.0
 10
-14.6968
 20
-15.5805
 30
0.0
 10
-14.6765
 20
-16.1211
 30
0.0
 10
-14.6765
 20
-16.1211
 30
0.0
 10
-14.666
 20
-16.4027
 30
0.0
 10
-14.6362
 20
-16.6831
 30
0.0
 10
-14.6247
 20
-16.9646
 30
0.0
 10
-14.6247
 20
-16.9646
 30
0.0
 10
-14.6132
 20
-17.2468
 30
0.0
 10
-14.6545
 20
-17.5119
 30
0.0
 10
-14.6709
 20
-17.7911
 30
0.0
 10
-14.6709
 20
-17.7911
 30
0.0
 10
-14.6862
 20
-18.0524
 30
0.0
 10
-14.625
 20
-18.2776
 30
0.0
 10
-14.3842
 20
-18.4093
 30
0.0
 10
-14.3842
 20
-18.4093
 30
0.0
 10
-13.9845
 20
-18.6278
 30
0.0
 10
-13.4013
 20
-18.6669
 30
0.0
 10
-12.9573
 20
-18.7362
 30
0.0
 10
-12.9573
 20
-18.7362
 30
0.0
 10
-12.6603
 20
-18.7825
 30
0.0
 10
-12.4363
 20
-18.7808
 30
0.0
 10
-12.2189
 20
-19.0189
 30
0.0
 10
-12.2189
 20
-19.0189
 30
0.0
 10
-12.0419
 20
-19.2127
 30
0.0
 10
-11.8972
 20
-19.4395
 30
0.0
 10
-11.7257
 20
-19.6389
 30
0.0
 10
-11.7257
 20
-19.6389
 30
0.0
 10
-11.4062
 20
-20.0101
 30
0.0
 10
-11.0555
 20
-20.3233
 30
0.0
 10
-10.6044
 20
-20.5234
 30
0.0
 10
-10.6044
 20
-20.5234
 30
0.0
 10
-9.766
 20
-20.8953
 30
0.0
 10
-8.7218
 20
-21.0032
 30
0.0
 10
-7.8126
 20
-21.0294
 30
0.0
 10
-7.8126
 20
-21.0294
 30
0.0
 10
-7.5667
 20
-21.0365
 30
0.0
 10
-7.2953
 20
-21.0058
 30
0.0
 10
-7.0528
 20
-21.0458
 30
0.0
 10
-7.0528
 20
-21.0458
 30
0.0
 10
-6.7766
 20
-21.0913
 30
0.0
 10
-6.5555
 20
-21.3566
 30
0.0
 10
-6.5229
 20
-21.6374
 30
0.0
 10
-6.5229
 20
-21.6374
 30
0.0
 10
-6.5053
 20
-21.7902
 30
0.0
 10
-6.4891
 20
-21.9432
 30
0.0
 10
-6.4738
 20
-22.0962
 30
0.0
 10
-6.4738
 20
-22.0962
 30
0.0
 10
-6.4143
 20
-22.6887
 30
0.0
 10
-6.3735
 20
-23.2812
 30
0.0
 10
-6.3508
 20
-23.8762
 30
0.0
 10
-6.3508
 20
-23.8762
 30
0.0
 10
-6.3447
 20
-24.0344
 30
0.0
 10
-6.3384
 20
-24.1926
 30
0.0
 10
-6.3322
 20
-24.3508
 30
0.0
 10
-6.3322
 20
-24.3508
 30
0.0
 10
-6.3296
 20
-24.4164
 30
0.0
 10
-6.2765
 20
-24.7157
 30
0.0
 10
-6.3165
 20
-24.7598
 30
0.0
 10
-6.3165
 20
-24.7598
 30
0.0
 10
-6.3685
 20
-24.817
 30
0.0
 10
-6.5114
 20
-24.7696
 30
0.0
 10
-6.6077
 20
-24.7787
 30
0.0
 10
-6.6077
 20
-24.7787
 30
0.0
 10
-7.0268
 20
-24.8182
 30
0.0
 10
-7.4459
 20
-24.9886
 30
0.0
 10
-7.7901
 20
-25.2247
 30
0.0
 10
-7.7901
 20
-25.2247
 30
0.0
 10
-7.8087
 20
-25.2374
 30
0.0
 10
-7.8203
 20
-25.2643
 30
0.0
 10
-7.806
 20
-25.285
 30
0.0
 10
-7.806
 20
-25.285
 30
0.0
 10
-7.6647
 20
-25.4899
 30
0.0
 10
-7.5234
 20
-25.6948
 30
0.0
 10
-7.3822
 20
-25.8998
 30
0.0
 10
-7.3822
 20
-25.8998
 30
0.0
 10
-7.3303
 20
-25.975
 30
0.0
 10
-7.1936
 20
-26.1372
 30
0.0
 10
-7.2195
 20
-26.2328
 30
0.0
 10
-7.2195
 20
-26.2328
 30
0.0
 10
-7.2507
 20
-26.3479
 30
0.0
 10
-7.4747
 20
-26.4507
 30
0.0
 10
-7.5627
 20
-26.5133
 30
0.0
 10
-7.5627
 20
-26.5133
 30
0.0
 10
-7.6871
 20
-26.6016
 30
0.0
 10
-7.7428
 20
-26.6892
 30
0.0
 10
-7.8986
 20
-26.5683
 30
0.0
 10
-7.8986
 20
-26.5683
 30
0.0
 10
-7.9735
 20
-26.5102
 30
0.0
 10
-8.0238
 20
-26.411
 30
0.0
 10
-8.0768
 20
-26.3352
 30
0.0
 10
-8.0768
 20
-26.3352
 30
0.0
 10
-8.2167
 20
-26.1348
 30
0.0
 10
-8.3566
 20
-25.9345
 30
0.0
 10
-8.4965
 20
-25.7342
 30
0.0
 10
-8.4965
 20
-25.7342
 30
0.0
 10
-8.5102
 20
-25.7147
 30
0.0
 10
-8.5349
 20
-25.7056
 30
0.0
 10
-8.5569
 20
-25.7184
 30
0.0
 10
-8.5569
 20
-25.7184
 30
0.0
 10
-8.7961
 20
-25.8581
 30
0.0
 10
-9.0346
 20
-25.9962
 30
0.0
 10
-9.283
 20
-26.1192
 30
0.0
 10
-9.283
 20
-26.1192
 30
0.0
 10
-9.3055
 20
-26.1304
 30
0.0
 10
-9.3084
 20
-26.1593
 30
0.0
 10
-9.2988
 20
-26.1795
 30
0.0
 10
-9.2988
 20
-26.1795
 30
0.0
 10
-9.22
 20
-26.3446
 30
0.0
 10
-9.1411
 20
-26.5097
 30
0.0
 10
-9.0623
 20
-26.6747
 30
0.0
 10
-9.0623
 20
-26.6747
 30
0.0
 10
-8.999
 20
-26.8074
 30
0.0
 10
-8.9595
 20
-26.9419
 30
0.0
 10
-9.0743
 20
-27.0662
 30
0.0
 10
-9.0743
 20
-27.0662
 30
0.0
 10
-9.1321
 20
-27.1289
 30
0.0
 10
-9.2899
 20
-27.174
 30
0.0
 10
-9.364
 20
-27.2111
 30
0.0
 10
-9.364
 20
-27.2111
 30
0.0
 10
-9.5946
 20
-27.3264
 30
0.0
 10
-9.7128
 20
-27.219
 30
0.0
 10
-9.8142
 20
-27.0053
 30
0.0
 10
-9.8142
 20
-27.0053
 30
0.0
 10
-9.8958
 20
-26.8333
 30
0.0
 10
-9.9774
 20
-26.6613
 30
0.0
 10
-10.0591
 20
-26.4894
 30
0.0
 10
-10.0591
 20
-26.4894
 30
0.0
 10
-10.0669
 20
-26.4727
 30
0.0
 10
-10.0917
 20
-26.4633
 30
0.0
 10
-10.1088
 20
-26.4691
 30
0.0
 10
-10.1088
 20
-26.4691
 30
0.0
 10
-10.8378
 20
-26.7152
 30
0.0
 10
-11.598
 20
-26.8618
 30
0.0
 10
-12.3479
 20
-27.0288
 30
0.0
 10
-12.3479
 20
-27.0288
 30
0.0
 10
-12.8598
 20
-27.1428
 30
0.0
 10
-13.5731
 20
-27.1816
 30
0.0
 10
-13.6598
 20
-27.8218
 30
0.0
 10
-13.6598
 20
-27.8218
 30
0.0
 10
-13.7434
 20
-28.4383
 30
0.0
 10
-13.3279
 20
-28.7813
 30
0.0
 10
-12.8208
 20
-28.998
 30
0.0
 10
-12.8208
 20
-28.998
 30
0.0
 10
-12.1233
 20
-29.296
 30
0.0
 10
-11.3646
 20
-29.4761
 30
0.0
 10
-10.6179
 20
-29.5964
 30
0.0
 10
-10.6179
 20
-29.5964
 30
0.0
 10
-9.1982
 20
-29.8252
 30
0.0
 10
-7.7393
 20
-29.698
 30
0.0
 10
-6.3121
 20
-29.6106
 30
0.0
 10
-6.3121
 20
-29.6106
 30
0.0
 10
-5.4714
 20
-29.559
 30
0.0
 10
-4.6308
 20
-29.5004
 30
0.0
 10
-3.7921
 20
-29.4219
 30
0.0
 10
-3.7921
 20
-29.4219
 30
0.0
 10
-3.4515
 20
-29.3899
 30
0.0
 10
-3.1111
 20
-29.3538
 30
0.0
 10
-2.7722
 20
-29.3061
 30
0.0
 10
-2.7722
 20
-29.3061
 30
0.0
 10
-2.5456
 20
-29.2743
 30
0.0
 10
-2.1221
 20
-29.276
 30
0.0
 10
-1.937
 20
-29.126
 30
0.0
 10
-1.937
 20
-29.126
 30
0.0
 10
-1.7797
 20
-28.9984
 30
0.0
 10
-1.7687
 20
-28.6748
 30
0.0
 10
-1.7467
 20
-28.4982
 30
0.0
 10
-1.7467
 20
-28.4982
 30
0.0
 10
-1.6938
 20
-28.0726
 30
0.0
 10
-1.6919
 20
-27.6388
 30
0.0
 10
-1.7075
 20
-27.2108
 30
0.0
 10
-1.7075
 20
-27.2108
 30
0.0
 10
-1.723
 20
-26.7854
 30
0.0
 10
-1.7593
 20
-26.3591
 30
0.0
 10
-1.8086
 20
-25.9363
 30
0.0
 10
-1.8086
 20
-25.9363
 30
0.0
 10
-1.8209
 20
-25.8307
 30
0.0
 10
-1.8133
 20
-25.6552
 30
0.0
 10
-1.8682
 20
-25.56
 30
0.0
 10
-1.8682
 20
-25.56
 30
0.0
 10
-1.8882
 20
-25.5251
 30
0.0
 10
-1.9364
 20
-25.536
 30
0.0
 10
-1.9488
 20
-25.5705
 30
0.0
 10
-1.9488
 20
-25.5705
 30
0.0
 10
-2.0063
 20
-25.7308
 30
0.0
 10
-1.9051
 20
-26.036
 30
0.0
 10
-1.883
 20
-26.1957
 30
0.0
 10
-1.883
 20
-26.1957
 30
0.0
 10
-1.8803
 20
-26.2155
 30
0.0
 10
-1.858
 20
-26.2268
 30
0.0
 10
-1.8405
 20
-26.228
 30
0.0
 10
-1.8405
 20
-26.228
 30
0.0
 10
-1.8214
 20
-26.2294
 30
0.0
 10
-1.8023
 20
-26.2308
 30
0.0
 10
-1.7833
 20
-26.2321
 30
0.0
 10
-1.7833
 20
-26.2321
 30
0.0
 10
-1.7571
 20
-26.234
 30
0.0
 10
-1.73
 20
-26.202
 30
0.0
 10
-1.7407
 20
-26.1763
 30
0.0
 10
-1.7407
 20
-26.1763
 30
0.0
 10
-2.0315
 20
-25.4792
 30
0.0
 10
-2.7048
 20
-24.8615
 30
0.0
 10
-2.8228
 20
-24.0997
 30
0.0
 10
-2.8228
 20
-24.0997
 30
0.0
 10
-2.8685
 20
-23.8044
 30
0.0
 10
-2.7911
 20
-23.4674
 30
0.0
 10
-2.7661
 20
-23.1712
 30
0.0
 10
-2.7661
 20
-23.1712
 30
0.0
 10
-2.7366
 20
-22.8207
 30
0.0
 10
-2.7069
 20
-22.4703
 30
0.0
 10
-2.6783
 20
-22.1198
 30
0.0
 10
-2.6783
 20
-22.1198
 30
0.0
 10
-2.664
 20
-21.9448
 30
0.0
 10
-2.6499
 20
-21.7697
 30
0.0
 10
-2.6363
 20
-21.5946
 30
0.0
 10
-2.6363
 20
-21.5946
 30
0.0
 10
-2.6334
 20
-21.557
 30
0.0
 10
-2.6332
 20
-21.2403
 30
0.0
 10
-2.6374
 20
-21.2441
 30
0.0
 10
-2.6374
 20
-21.2441
 30
0.0
 10
-2.6027
 20
-21.2123
 30
0.0
 10
-2.4376
 20
-21.2222
 30
0.0
 10
-2.392
 20
-21.2172
 30
0.0
 10
-2.392
 20
-21.2172
 30
0.0
 10
-2.0653
 20
-21.1813
 30
0.0
 10
-1.7385
 20
-21.1454
 30
0.0
 10
-1.4117
 20
-21.1096
 30
0.0
 10
-1.4117
 20
-21.1096
 30
0.0
 10
-1.2418
 20
-21.0909
 30
0.0
 10
-0.9925
 20
-21.1104
 30
0.0
 10
-0.8325
 20
-21.0458
 30
0.0
 10
-0.8325
 20
-21.0458
 30
0.0
 10
-0.6751
 20
-20.9822
 30
0.0
 10
-0.518
 20
-20.7708
 30
0.0
 10
-0.3941
 20
-20.6581
 30
0.0
 10
-0.3941
 20
-20.6581
 30
0.0
 10
-0.206
 20
-20.4872
 30
0.0
 10
-0.018
 20
-20.3162
 30
0.0
 10
0.1701
 20
-20.1453
 30
0.0
 10
0.1701
 20
-20.1453
 30
0.0
 10
0.1855
 20
-20.1313
 30
0.0
 10
0.1852
 20
-20.1091
 30
0.0
 10
0.177
 20
-20.0918
 30
0.0
 10
0.177
 20
-20.0918
 30
0.0
 10
0.0986
 20
-19.9268
 30
0.0
 10
0.114
 20
-19.6763
 30
0.0
 10
0.0989
 20
-19.4988
 30
0.0
 10
0.0989
 20
-19.4988
 30
0.0
 10
0.0644
 20
-19.0936
 30
0.0
 10
0.0404
 20
-18.6874
 30
0.0
 10
0.0173
 20
-18.2814
 30
0.0
 10
0.0173
 20
-18.2814
 30
0.0
 10
-0.0487
 20
-17.1206
 30
0.0
 10
-0.0985
 20
-15.9588
 30
0.0
 10
-0.1477
 20
-14.7971
 30
0.0
 10
-0.1477
 20
-14.7971
 30
0.0
 10
-0.1958
 20
-13.6594
 30
0.0
 10
-0.2405
 20
-12.5216
 30
0.0
 10
-0.29
 20
-11.384
 30
0.0
 10
-0.29
 20
-11.384
 30
0.0
 10
-0.3167
 20
-10.7704
 30
0.0
 10
-0.3019
 20
-10.1356
 30
0.0
 10
-0.4313
 20
-9.5328
 30
0.0
 10
-0.4313
 20
-9.5328
 30
0.0
 10
-0.5458
 20
-8.9991
 30
0.0
 10
-0.6872
 20
-8.4708
 30
0.0
 10
-0.7762
 20
-7.9319
 30
0.0
 10
-0.7762
 20
-7.9319
 30
0.0
 10
-0.8735
 20
-7.3421
 30
0.0
 10
-0.8262
 20
-6.7708
 30
0.0
 10
-0.866
 20
-6.1806
 30
0.0
 10
-0.866
 20
-6.1806
 30
0.0
 10
-0.9415
 20
-5.0595
 30
0.0
 10
-1.1041
 20
-3.9274
 30
0.0
 10
-1.2874
 20
-2.8191
 30
0.0
 10
-1.2874
 20
-2.8191
 30
0.0
 10
-1.3784
 20
-2.2687
 30
0.0
 10
-1.4792
 20
-1.7126
 30
0.0
 10
-1.6395
 20
-1.1778
 30
0.0
 10
-1.6395
 20
-1.1778
 30
0.0
 10
-1.8133
 20
-0.5978
 30
0.0
 10
-1.812
 20
-0.0706
 30
0.0
 10
-1.7873
 20
0.5286
 30
0.0
 10
-1.7873
 20
0.5286
 30
0.0
 10
-1.7394
 20
1.6914
 30
0.0
 10
-1.5912
 20
2.8346
 30
0.0
 10
-1.4534
 20
3.9887
 30
0.0
 10
-1.4534
 20
3.9887
 30
0.0
 10
-1.3178
 20
5.1255
 30
0.0
 10
-1.3852
 20
6.2047
 30
0.0
 10
-1.5133
 20
7.3378
 30
0.0
 10
-1.5133
 20
7.3378
 30
0.0
 10
-1.6177
 20
8.2608
 30
0.0
 10
-1.7368
 20
9.1605
 30
0.0
 10
-2.178
 20
9.993
 30
0.0
 10
-2.178
 20
9.993
 30
0.0
 10
-2.379
 20
10.3723
 30
0.0
 10
-2.6318
 20
10.7227
 30
0.0
 10
-2.9243
 20
11.0367
 30
0.0
 10
-2.9243
 20
11.0367
 30
0.0
 10
-3.2482
 20
11.3844
 30
0.0
 10
-3.7449
 20
11.7
 30
0.0
 10
-3.7152
 20
12.232
 30
0.0
 10
-3.7152
 20
12.232
 30
0.0
 10
-3.6844
 20
12.7847
 30
0.0
 10
-3.4096
 20
13.4037
 30
0.0
 10
-3.1322
 20
13.8723
 30
0.0
 10
-3.1322
 20
13.8723
 30
0.0
 10
-2.9453
 20
14.1882
 30
0.0
 10
-2.6365
 20
14.5014
 30
0.0
 10
-2.7055
 20
14.9009
 30
0.0
 10
-2.7055
 20
14.9009
 30
0.0
 10
-2.7858
 20
15.3653
 30
0.0
 10
-3.4865
 20
15.672
 30
0.0
 10
-3.4018
 20
16.1407
 30
0.0
 10
-3.4018
 20
16.1407
 30
0.0
 10
-3.3095
 20
16.6523
 30
0.0
 10
-2.9876
 20
17.1098
 30
0.0
 10
-2.7878
 20
17.5806
 30
0.0
 10
-2.7878
 20
17.5806
 30
0.0
 10
-2.3664
 20
18.5736
 30
0.0
 10
-2.4863
 20
19.6979
 30
0.0
 10
-2.0652
 20
20.69
 30
0.0
 10
-2.0652
 20
20.69
 30
0.0
 10
-2.0095
 20
20.8214
 30
0.0
 10
-1.9402
 20
20.9521
 30
0.0
 10
-1.9258
 20
21.0962
 30
0.0
 10
-1.9258
 20
21.0962
 30
0.0
 10
-1.8982
 20
21.3718
 30
0.0
 10
-1.9815
 20
21.6601
 30
0.0
 10
-1.9702
 20
21.9415
 30
0.0
 10
-1.9702
 20
21.9415
 30
0.0
 10
-1.9477
 20
22.5018
 30
0.0
 10
-1.8492
 20
23.1119
 30
0.0
 10
-1.7037
 20
23.6551
 30
0.0
 10
-1.7037
 20
23.6551
 30
0.0
 10
-1.6628
 20
23.8078
 30
0.0
 10
-1.5954
 20
23.9617
 30
0.0
 10
-1.6055
 20
24.1228
 30
0.0
 10
-1.6055
 20
24.1228
 30
0.0
 10
-1.6143
 20
24.2642
 30
0.0
 10
-1.6723
 20
24.3949
 30
0.0
 10
-1.6696
 20
24.54
 30
0.0
 10
-1.6696
 20
24.54
 30
0.0
 10
-1.6658
 20
24.7389
 30
0.0
 10
-1.592
 20
24.9269
 30
0.0
 10
-1.4988
 20
25.0994
 30
0.0
 10
-1.4988
 20
25.0994
 30
0.0
 10
-1.326
 20
25.4191
 30
0.0
 10
-1.0439
 20
25.6946
 30
0.0
 10
-1.0995
 20
26.0878
 30
0.0
 10
-1.0995
 20
26.0878
 30
0.0
 10
-1.1241
 20
26.2616
 30
0.0
 10
-1.2113
 20
26.4099
 30
0.0
 10
-1.3055
 20
26.5542
 30
0.0
 10
-1.3055
 20
26.5542
 30
0.0
 10
-1.3919
 20
26.6866
 30
0.0
 10
-1.6346
 20
26.9652
 30
0.0
 10
-1.5788
 20
27.1353
 30
0.0
 10
-1.5788
 20
27.1353
 30
0.0
 10
-1.561
 20
27.1893
 30
0.0
 10
-1.6462
 20
27.2125
 30
0.0
 10
-1.6638
 20
27.1587
 30
0.0
 10
-1.6638
 20
27.1587
 30
0.0
 10
-1.751
 20
26.8932
 30
0.0
 10
-1.3951
 20
26.5674
 30
0.0
 10
-1.2844
 20
26.355
 30
0.0
 10
-1.2844
 20
26.355
 30
0.0
 10
-0.9441
 20
25.7021
 30
0.0
 10
-1.6695
 20
25.2723
 30
0.0
 10
-1.7486
 20
24.6568
 30
0.0
 10
-1.7486
 20
24.6568
 30
0.0
 10
-1.7804
 20
24.4091
 30
0.0
 10
-1.6728
 20
24.1778
 30
0.0
 10
-1.715
 20
23.9323
 30
0.0
 10
-1.715
 20
23.9323
 30
0.0
 10
-1.7669
 20
23.6296
 30
0.0
 10
-1.8581
 20
23.3278
 30
0.0
 10
-1.9135
 20
23.0232
 30
0.0
 10
-1.9135
 20
23.0232
 30
0.0
 10
-2.0149
 20
22.4666
 30
0.0
 10
-2.0995
 20
21.9169
 30
0.0
 10
-2.0333
 20
21.3505
 30
0.0
 10
-2.0333
 20
21.3505
 30
0.0
 10
-1.9939
 20
21.0131
 30
0.0
 10
-2.1447
 20
20.785
 30
0.0
 10
-2.2456
 20
20.4768
 30
0.0
 10
-2.2456
 20
20.4768
 30
0.0
 10
-2.3345
 20
20.2051
 30
0.0
 10
-2.399
 20
19.9187
 30
0.0
 10
-2.4422
 20
19.6365
 30
0.0
 10
-2.4422
 20
19.6365
 30
0.0
 10
-2.5321
 20
19.0491
 30
0.0
 10
-2.5821
 20
18.4514
 30
0.0
 10
-2.7688
 20
17.8838
 30
0.0
 10
-2.7688
 20
17.8838
 30
0.0
 10
-2.9588
 20
17.306
 30
0.0
 10
-3.3176
 20
16.8
 30
0.0
 10
-3.4747
 20
16.206
 30
0.0
 10
-3.4747
 20
16.206
 30
0.0
 10
-3.5948
 20
15.7514
 30
0.0
 10
-3.1731
 20
15.5331
 30
0.0
 10
-2.9419
 20
15.1994
 30
0.0
 10
-2.9419
 20
15.1994
 30
0.0
 10
-2.5249
 20
14.5975
 30
0.0
 10
-3.2379
 20
13.9431
 30
0.0
 10
-3.4745
 20
13.3875
 30
0.0
 10
-3.4745
 20
13.3875
 30
0.0
 10
-3.6391
 20
13.0011
 30
0.0
 10
-3.8733
 20
12.4638
 30
0.0
 10
-3.7997
 20
12.0342
 30
0.0
 10
-3.7997
 20
12.0342
 30
0.0
 10
-3.7304
 20
11.6297
 30
0.0
 10
-3.3717
 20
11.3672
 30
0.0
 10
-3.1012
 20
11.0939
 30
0.0
 10
-3.1012
 20
11.0939
 30
0.0
 10
-2.7043
 20
10.6927
 30
0.0
 10
-2.375
 20
10.228
 30
0.0
 10
-2.1383
 20
9.7152
 30
0.0
 10
-2.1383
 20
9.7152
 30
0.0
 10
-1.6205
 20
8.5942
 30
0.0
 10
-1.5692
 20
7.2715
 30
0.0
 10
-1.4659
 20
6.058
 30
0.0
 10
-1.4659
 20
6.058
 30
0.0
 10
-1.3568
 20
4.7751
 30
0.0
 10
-1.6325
 20
3.5067
 30
0.0
 10
-1.7588
 20
2.2359
 30
0.0
 10
-1.7588
 20
2.2359
 30
0.0
 10
-1.824
 20
1.5808
 30
0.0
 10
-1.8629
 20
0.9233
 30
0.0
 10
-1.8855
 20
0.2654
 30
0.0
 10
-1.8855
 20
0.2654
 30
0.0
 10
-1.8948
 20
-0.0073
 30
0.0
 10
-1.9221
 20
-0.2907
 30
0.0
 10
-1.886
 20
-0.562
 30
0.0
 10
-1.886
 20
-0.562
 30
0.0
 10
-1.8463
 20
-0.8606
 30
0.0
 10
-1.734
 20
-1.1434
 30
0.0
 10
-1.6574
 20
-1.4332
 30
0.0
 10
-1.6574
 20
-1.4332
 30
0.0
 10
-1.3145
 20
-2.7291
 30
0.0
 10
-1.1793
 20
-4.0919
 30
0.0
 10
-1.0304
 20
-5.4207
 30
0.0
 10
-1.0304
 20
-5.4207
 30
0.0
 10
-0.959
 20
-6.0572
 30
0.0
 10
-0.9866
 20
-6.6834
 30
0.0
 10
-0.9402
 20
-7.3184
 30
0.0
 10
-0.9402
 20
-7.3184
 30
0.0
 10
-0.897
 20
-7.9097
 30
0.0
 10
-0.7601
 20
-8.4884
 30
0.0
 10
-0.6273
 20
-9.0645
 30
0.0
 10
-0.6273
 20
-9.0645
 30
0.0
 10
-0.5293
 20
-9.49
 30
0.0
 10
-0.4525
 20
-9.8741
 30
0.0
 10
-0.4291
 20
-10.304
 30
0.0
 10
-0.4291
 20
-10.304
 30
0.0
 10
-0.296
 20
-12.7555
 30
0.0
 10
-0.2312
 20
-15.2104
 30
0.0
 10
-0.1044
 20
-17.6623
 30
0.0
 10
-0.1044
 20
-17.6623
 30
0.0
 10
-0.0633
 20
-18.4571
 30
0.0
 10
-0.0618
 20
-19.2796
 30
0.0
 10
0.0779
 20
-20.0653
 30
0.0
 10
0.0779
 20
-20.0653
 30
0.0
 10
0.0884
 20
-20.1243
 30
0.0
 10
0.0808
 20
-20.1317
 30
0.0
 10
0.1043
 20
-20.086
 30
0.0
 10
0.1043
 20
-20.086
 30
0.0
 10
0.0719
 20
-20.1489
 30
0.0
 10
-0.0446
 20
-20.2213
 30
0.0
 10
-0.0953
 20
-20.2674
 30
0.0
 10
-0.0953
 20
-20.2674
 30
0.0
 10
-0.3219
 20
-20.4735
 30
0.0
 10
-0.5586
 20
-20.6723
 30
0.0
 10
-0.7769
 20
-20.8871
 30
0.0
 10
-0.7769
 20
-20.8871
 30
0.0
 10
-0.8809
 20
-20.9894
 30
0.0
 10
-0.9241
 20
-20.9678
 30
0.0
 10
-1.1215
 20
-20.9895
 30
0.0
 10
-1.1215
 20
-20.9895
 30
0.0
 10
-1.4401
 20
-21.0245
 30
0.0
 10
-1.7586
 20
-21.0594
 30
0.0
 10
-2.0772
 20
-21.0944
 30
0.0
 10
-2.0772
 20
-21.0944
 30
0.0
 10
-2.2683
 20
-21.1154
 30
0.0
 10
-2.4594
 20
-21.1364
 30
0.0
 10
-2.6506
 20
-21.1574
 30
0.0
 10
-2.6506
 20
-21.1574
 30
0.0
 10
-2.6757
 20
-21.1601
 30
0.0
 10
-2.6927
 20
-21.1754
 30
0.0
 10
-2.6947
 20
-21.2015
 30
0.0
 10
-2.6947
 20
-21.2015
 30
0.0
 10
-2.7469
 20
-21.9022
 30
0.0
 10
-2.8065
 20
-22.6023
 30
0.0
 10
-2.8654
 20
-23.3025
 30
0.0
 10
-2.8654
 20
-23.3025
 30
0.0
 10
-2.905
 20
-23.7735
 30
0.0
 10
-2.9565
 20
-24.1173
 30
0.0
 10
-2.7565
 20
-24.549
 30
0.0
 10
-2.7565
 20
-24.549
 30
0.0
 10
-2.5662
 20
-24.9598
 30
0.0
 10
-2.3116
 20
-25.3383
 30
0.0
 10
-2.0799
 20
-25.7262
 30
0.0
 10
-2.0799
 20
-25.7262
 30
0.0
 10
-2.03
 20
-25.8097
 30
0.0
 10
-1.9802
 20
-25.8934
 30
0.0
 10
-1.9339
 20
-25.9789
 30
0.0
 10
-1.9339
 20
-25.9789
 30
0.0
 10
-1.8643
 20
-26.1073
 30
0.0
 10
-1.8338
 20
-26.1425
 30
0.0
 10
-1.8269
 20
-25.9572
 30
0.0
 10
-1.8269
 20
-25.9572
 30
0.0
 10
-1.823
 20
-25.8542
 30
0.0
 10
-1.8996
 20
-25.6938
 30
0.0
 10
-1.8638
 20
-25.5939
 30
0.0
 10
-1.8638
 20
-25.5939
 30
0.0
 10
-1.8906
 20
-25.5974
 30
0.0
 10
-1.9175
 20
-25.601
 30
0.0
 10
-1.9444
 20
-25.6045
 30
0.0
 10
-1.9444
 20
-25.6045
 30
0.0
 10
-1.8909
 20
-25.6972
 30
0.0
 10
-1.9042
 20
-25.8701
 30
0.0
 10
-1.8926
 20
-25.9727
 30
0.0
 10
-1.8926
 20
-25.9727
 30
0.0
 10
-1.8611
 20
-26.2514
 30
0.0
 10
-1.8367
 20
-26.5311
 30
0.0
 10
-1.8175
 20
-26.8107
 30
0.0
 10
-1.8175
 20
-26.8107
 30
0.0
 10
-1.7938
 20
-27.1558
 30
0.0
 10
-1.7828
 20
-27.5017
 30
0.0
 10
-1.7913
 20
-27.8476
 30
0.0
 10
-1.7913
 20
-27.8476
 30
0.0
 10
-1.799
 20
-28.1533
 30
0.0
 10
-1.782
 20
-28.5359
 30
0.0
 10
-1.8914
 20
-28.8233
 30
0.0
 10
-1.8914
 20
-28.8233
 30
0.0
 10
-2.0148
 20
-29.1473
 30
0.0
 10
-2.3367
 20
-29.152
 30
0.0
 10
-2.6341
 20
-29.1975
 30
0.0
 10
-2.6341
 20
-29.1975
 30
0.0
 10
-2.9963
 20
-29.2528
 30
0.0
 10
-3.3609
 20
-29.2925
 30
0.0
 10
-3.7255
 20
-29.3274
 30
0.0
 10
-3.7255
 20
-29.3274
 30
0.0
 10
-4.4092
 20
-29.393
 30
0.0
 10
-5.0945
 20
-29.4427
 30
0.0
 10
-5.7797
 20
-29.4883
 30
0.0
 10
-5.7797
 20
-29.4883
 30
0.0
 10
-6.9292
 20
-29.5648
 30
0.0
 10
-8.0849
 20
-29.6414
 30
0.0
 10
-9.2375
 20
-29.6332
 30
0.0
 10
-9.2375
 20
-29.6332
 30
0.0
 10
-9.9492
 20
-29.6282
 30
0.0
 10
-10.6598
 20
-29.5229
 30
0.0
 10
-11.3525
 20
-29.3631
 30
0.0
 10
-11.3525
 20
-29.3631
 30
0.0
 10
-11.9395
 20
-29.2276
 30
0.0
 10
-12.5599
 20
-29.0638
 30
0.0
 10
-13.0909
 20
-28.7718
 30
0.0
 10
-13.0909
 20
-28.7718
 30
0.0
 10
-13.4492
 20
-28.5747
 30
0.0
 10
-13.6676
 20
-28.1375
 30
0.0
 10
-13.5519
 20
-27.727
 30
0.0
 10
-13.5519
 20
-27.727
 30
0.0
 10
-13.4286
 20
-27.2894
 30
0.0
 10
-12.8767
 20
-27.2387
 30
0.0
 10
-12.4973
 20
-27.1527
 30
0.0
 10
-12.4973
 20
-27.1527
 30
0.0
 10
-11.8888
 20
-27.0148
 30
0.0
 10
-11.2771
 20
-26.8897
 30
0.0
 10
-10.6735
 20
-26.731
 30
0.0
 10
-10.6735
 20
-26.731
 30
0.0
 10
-10.5281
 20
-26.6928
 30
0.0
 10
-10.3814
 20
-26.6541
 30
0.0
 10
-10.2393
 20
-26.6052
 30
0.0
 10
-10.2393
 20
-26.6052
 30
0.0
 10
-10.138
 20
-26.5704
 30
0.0
 10
-10.1714
 20
-26.5388
 30
0.0
 10
-10.1084
 20
-26.5904
 30
0.0
 10
-10.1084
 20
-26.5904
 30
0.0
 10
-10.013
 20
-26.6685
 30
0.0
 10
-9.9432
 20
-26.9385
 30
0.0
 10
-9.8903
 20
-27.0498
 30
0.0
 10
-9.8903
 20
-27.0498
 30
0.0
 10
-9.8037
 20
-27.2323
 30
0.0
 10
-9.7181
 20
-27.4293
 30
0.0
 10
-9.476
 20
-27.3651
 30
0.0
 10
-9.476
 20
-27.3651
 30
0.0
 10
-9.3324
 20
-27.327
 30
0.0
 10
-8.9876
 20
-27.1808
 30
0.0
 10
-8.9089
 20
-27.0392
 30
0.0
 10
-8.9089
 20
-27.0392
 30
0.0
 10
-8.8047
 20
-26.8517
 30
0.0
 10
-9.0222
 20
-26.5549
 30
0.0
 10
-9.0974
 20
-26.3973
 30
0.0
 10
-9.0974
 20
-26.3973
 30
0.0
 10
-9.1192
 20
-26.3517
 30
0.0
 10
-9.196
 20
-26.2443
 30
0.0
 10
-9.1942
 20
-26.1945
 30
0.0
 10
-9.1942
 20
-26.1945
 30
0.0
 10
-9.1911
 20
-26.1076
 30
0.0
 10
-9.1784
 20
-26.155
 30
0.0
 10
-9.0417
 20
-26.0959
 30
0.0
 10
-9.0417
 20
-26.0959
 30
0.0
 10
-8.8956
 20
-26.0327
 30
0.0
 10
-8.7692
 20
-25.9282
 30
0.0
 10
-8.6256
 20
-25.8607
 30
0.0
 10
-8.6256
 20
-25.8607
 30
0.0
 10
-8.507
 20
-25.805
 30
0.0
 10
-8.6241
 20
-25.7739
 30
0.0
 10
-8.5246
 20
-25.8476
 30
0.0
 10
-8.5246
 20
-25.8476
 30
0.0
 10
-8.3172
 20
-26.0013
 30
0.0
 10
-8.201
 20
-26.3501
 30
0.0
 10
-8.0337
 20
-26.5503
 30
0.0
 10
-8.0337
 20
-26.5503
 30
0.0
 10
-7.9055
 20
-26.7038
 30
0.0
 10
-7.7934
 20
-26.7624
 30
0.0
 10
-7.6258
 20
-26.6658
 30
0.0
 10
-7.6258
 20
-26.6658
 30
0.0
 10
-7.478
 20
-26.5807
 30
0.0
 10
-7.1466
 20
-26.4091
 30
0.0
 10
-7.1313
 20
-26.2154
 30
0.0
 10
-7.1313
 20
-26.2154
 30
0.0
 10
-7.1127
 20
-25.9796
 30
0.0
 10
-7.4556
 20
-25.6383
 30
0.0
 10
-7.5754
 20
-25.4644
 30
0.0
 10
-7.5754
 20
-25.4644
 30
0.0
 10
-7.5975
 20
-25.4325
 30
0.0
 10
-7.7003
 20
-25.3232
 30
0.0
 10
-7.7005
 20
-25.283
 30
0.0
 10
-7.7005
 20
-25.283
 30
0.0
 10
-7.7009
 20
-25.225
 30
0.0
 10
-7.6819
 20
-25.2416
 30
0.0
 10
-7.5751
 20
-25.1884
 30
0.0
 10
-7.5751
 20
-25.1884
 30
0.0
 10
-7.236
 20
-25.0193
 30
0.0
 10
-6.6556
 20
-24.737
 30
0.0
 10
-6.2897
 20
-24.9343
 30
0.0
 10
-6.2897
 20
-24.9343
 30
0.0
 10
-6.2615
 20
-24.9495
 30
0.0
 10
-6.2221
 20
-24.9308
 30
0.0
 10
-6.2234
 20
-24.8962
 30
0.0
 10
-6.2234
 20
-24.8962
 30
0.0
 10
-6.2477
 20
-24.2251
 30
0.0
 10
-6.2657
 20
-23.5528
 30
0.0
 10
-6.3145
 20
-22.8829
 30
0.0
 10
-6.3145
 20
-22.8829
 30
0.0
 10
-6.3368
 20
-22.5766
 30
0.0
 10
-6.3671
 20
-22.2706
 30
0.0
 10
-6.3989
 20
-21.9651
 30
0.0
 10
-6.3989
 20
-21.9651
 30
0.0
 10
-6.4231
 20
-21.7325
 30
0.0
 10
-6.4007
 20
-21.3786
 30
0.0
 10
-6.4969
 20
-21.1615
 30
0.0
 10
-6.4969
 20
-21.1615
 30
0.0
 10
-6.6467
 20
-20.8232
 30
0.0
 10
-7.3469
 20
-20.951
 30
0.0
 10
-7.6227
 20
-20.9454
 30
0.0
 10
-7.6227
 20
-20.9454
 30
0.0
 10
-8.2328
 20
-20.9332
 30
0.0
 10
-8.8299
 20
-20.8592
 30
0.0
 10
-9.4307
 20
-20.7557
 30
0.0
 10
-9.4307
 20
-20.7557
 30
0.0
 10
-9.9926
 20
-20.6589
 30
0.0
 10
-10.5607
 20
-20.5167
 30
0.0
 10
-11.0325
 20
-20.1815
 30
0.0
 10
-11.0325
 20
-20.1815
 30
0.0
 10
-11.2865
 20
-20.001
 30
0.0
 10
-11.5025
 20
-19.7674
 30
0.0
 10
-11.7029
 20
-19.5304
 30
0.0
 10
-11.7029
 20
-19.5304
 30
0.0
 10
-11.8947
 20
-19.3036
 30
0.0
 10
-12.0566
 20
-18.9819
 30
0.0
 10
-12.3012
 20
-18.8072
 30
0.0
 10
-12.3012
 20
-18.8072
 30
0.0
 10
-12.4118
 20
-18.7283
 30
0.0
 10
-12.5419
 20
-18.6994
 30
0.0
 10
-12.674
 20
-18.6798
 30
0.0
 10
-12.674
 20
-18.6798
 30
0.0
 10
-12.9733
 20
-18.6354
 30
0.0
 10
-13.2706
 20
-18.5861
 30
0.0
 10
-13.5691
 20
-18.5343
 30
0.0
 10
-13.5691
 20
-18.5343
 30
0.0
 10
-13.8422
 20
-18.4868
 30
0.0
 10
-14.2051
 20
-18.455
 30
0.0
 10
-14.426
 20
-18.2734
 30
0.0
 10
-14.426
 20
-18.2734
 30
0.0
 10
-14.6826
 20
-18.0624
 30
0.0
 10
-14.5608
 20
-17.6995
 30
0.0
 10
-14.5396
 20
-17.4188
 30
0.0
 10
-14.5396
 20
-17.4188
 30
0.0
 10
-14.486
 20
-16.7097
 30
0.0
 10
-14.6223
 20
-15.9968
 30
0.0
 10
-14.58
 20
-15.2838
 30
0.0
 10
-14.58
 20
-15.2838
 30
0.0
 10
-14.5573
 20
-14.9007
 30
0.0
 10
-14.5063
 20
-14.5204
 30
0.0
 10
-14.4312
 20
-14.1441
 30
0.0
 10
-14.4312
 20
-14.1441
 30
0.0
 10
-14.3914
 20
-13.9445
 30
0.0
 10
-14.3898
 20
-13.7423
 30
0.0
 10
-14.4837
 20
-13.5546
 30
0.0
 10
-14.4837
 20
-13.5546
 30
0.0
 10
-14.4998
 20
-13.5222
 30
0.0
 10
-14.5419
 20
-13.5301
 30
0.0
 10
-14.5598
 20
-13.5546
 30
0.0
 10
-14.5598
 20
-13.5546
 30
0.0
 10
-14.6177
 20
-13.6337
 30
0.0
 10
-14.601
 20
-13.6607
 30
0.0
 10
-14.6096
 20
-13.7626
 30
0.0
 10
-14.6096
 20
-13.7626
 30
0.0
 10
-14.6255
 20
-13.9523
 30
0.0
 10
-14.6553
 20
-14.1233
 30
0.0
 10
-14.7493
 20
-14.2923
 30
0.0
 10
-14.7493
 20
-14.2923
 30
0.0
 10
-14.9023
 20
-14.5675
 30
0.0
 10
-15.1661
 20
-14.7554
 30
0.0
 10
-15.4263
 20
-14.9203
 30
0.0
 10
-15.4263
 20
-14.9203
 30
0.0
 10
-15.6167
 20
-15.0409
 30
0.0
 10
-15.7442
 20
-15.1269
 30
0.0
 10
-15.7732
 20
-14.8248
 30
0.0
 10
-15.7732
 20
-14.8248
 30
0.0
 10
-15.7905
 20
-14.6448
 30
0.0
 10
-15.7444
 20
-14.4317
 30
0.0
 10
-15.7304
 20
-14.2526
 30
0.0
 10
-15.7304
 20
-14.2526
 30
0.0
 10
-15.6939
 20
-13.7842
 30
0.0
 10
-15.6542
 20
-13.3156
 30
0.0
 10
-15.5775
 20
-12.8518
 30
0.0
 10
-15.5775
 20
-12.8518
 30
0.0
 10
-15.3067
 20
-11.2133
 30
0.0
 10
-15.3045
 20
-9.534
 30
0.0
 10
-15.2243
 20
-7.8772
 30
0.0
 10
-15.2243
 20
-7.8772
 30
0.0
 10
-15.1411
 20
-6.1592
 30
0.0
 10
-15.1111
 20
-4.4334
 30
0.0
 10
-14.928
 20
-2.7229
 30
0.0
 10
-14.928
 20
-2.7229
 30
0.0
 10
-14.7451
 20
-1.0133
 30
0.0
 10
-14.7549
 20
0.6998
 30
0.0
 10
-14.7366
 20
2.4163
 30
0.0
 10
-14.7366
 20
2.4163
 30
0.0
 10
-14.7262
 20
3.3903
 30
0.0
 10
-14.7245
 20
4.3788
 30
0.0
 10
-14.5687
 20
5.3421
 30
0.0
 10
-14.5687
 20
5.3421
 30
0.0
 10
-14.4977
 20
5.7814
 30
0.0
 10
-14.3989
 20
6.2211
 30
0.0
 10
-14.3689
 20
6.6659
 30
0.0
 10
-14.3689
 20
6.6659
 30
0.0
 10
-14.3488
 20
6.9636
 30
0.0
 10
-14.2856
 20
7.4267
 30
0.0
 10
-14.4236
 20
7.7028
 30
0.0
 10
-14.4236
 20
7.7028
 30
0.0
 10
-14.4369
 20
7.7295
 30
0.0
 10
-14.4731
 20
7.7295
 30
0.0
 10
-14.4929
 20
7.7117
 30
0.0
 10
-14.4929
 20
7.7117
 30
0.0
 10
-14.6552
 20
7.5659
 30
0.0
 10
-14.6919
 20
7.2844
 30
0.0
 10
-14.7335
 20
7.0795
 30
0.0
 10
-14.7335
 20
7.0795
 30
0.0
 10
-14.8052
 20
6.7265
 30
0.0
 10
-14.8094
 20
6.3595
 30
0.0
 10
-14.8333
 20
6.0014
 30
0.0
 10
-14.8333
 20
6.0014
 30
0.0
 10
-14.8549
 20
5.6754
 30
0.0
 10
-14.9856
 20
5.6172
 30
0.0
 10
-15.2737
 20
5.6339
 30
0.0
 10
-15.2737
 20
5.6339
 30
0.0
 10
-15.445
 20
5.6438
 30
0.0
 10
-15.616
 20
5.659
 30
0.0
 10
-15.7874
 20
5.6684
 30
0.0
 10
-15.7874
 20
5.6684
 30
0.0
 10
-16.0241
 20
5.6812
 30
0.0
 10
-16.4089
 20
5.6389
 30
0.0
 10
-16.5789
 20
5.8412
 30
0.0
 10
-16.5789
 20
5.8412
 30
0.0
 10
-16.6382
 20
5.9117
 30
0.0
 10
-16.6625
 20
5.9968
 30
0.0
 10
-16.7306
 20
6.0644
 30
0.0
 10
-16.7306
 20
6.0644
 30
0.0
 10
-16.8736
 20
6.2062
 30
0.0
 10
-17.0471
 20
6.243
 30
0.0
 10
-17.2293
 20
6.3075
 30
0.0
 10
-17.2293
 20
6.3075
 30
0.0
 10
-17.4844
 20
6.3979
 30
0.0
 10
-17.6315
 20
6.4838
 30
0.0
 10
-17.5793
 20
6.7898
 30
0.0
 10
-17.5793
 20
6.7898
 30
0.0
 10
-17.5523
 20
6.9484
 30
0.0
 10
-17.4921
 20
7.1004
 30
0.0
 10
-17.4676
 20
7.2612
 30
0.0
 10
-17.4676
 20
7.2612
 30
0.0
 10
-17.3447
 20
8.0677
 30
0.0
 10
-17.2666
 20
8.8818
 30
0.0
 10
-17.1389
 20
9.6892
 30
0.0
 10
-17.1389
 20
9.6892
 30
0.0
 10
-17.0123
 20
10.4894
 30
0.0
 10
-16.8824
 20
11.2893
 30
0.0
 10
-16.7381
 20
12.0865
 30
0.0
 10
-16.7381
 20
12.0865
 30
0.0
 10
-16.6705
 20
12.4603
 30
0.0
 10
-16.596
 20
12.8335
 30
0.0
 10
-16.5134
 20
13.2043
 30
0.0
 10
-16.5134
 20
13.2043
 30
0.0
 10
-16.4726
 20
13.3871
 30
0.0
 10
-16.4347
 20
13.5744
 30
0.0
 10
-16.3798
 20
13.7535
 30
0.0
 10
-16.3798
 20
13.7535
 30
0.0
 10
-16.2982
 20
14.0199
 30
0.0
 10
-16.1968
 20
14.1713
 30
0.0
 10
-15.9515
 20
14.2923
 30
0.0
 10
-15.9515
 20
14.2923
 30
0.0
 10
-15.794
 20
14.37
 30
0.0
 10
-15.6283
 20
14.4178
 30
0.0
 10
-15.5424
 20
14.5825
 30
0.0
 10
-15.5424
 20
14.5825
 30
0.0
 10
-15.4141
 20
14.8287
 30
0.0
 10
-15.4477
 20
15.1646
 30
0.0
 10
-15.3589
 20
15.4319
 30
0.0
 10
-15.3589
 20
15.4319
 30
0.0
 10
-15.2466
 20
15.77
 30
0.0
 10
-15.0599
 20
16.072
 30
0.0
 10
-14.7891
 20
16.3061
 30
0.0
 10
-14.7891
 20
16.3061
 30
0.0
 10
-14.5866
 20
16.4812
 30
0.0
 10
-14.4876
 20
16.5425
 30
0.0
 10
-14.4546
 20
16.829
 30
0.0
 10
-14.4546
 20
16.829
 30
0.0
 10
-14.4201
 20
17.1284
 30
0.0
 10
-14.5094
 20
17.4418
 30
0.0
 10
-14.5436
 20
17.7363
 30
0.0
 10
-14.5436
 20
17.7363
 30
0.0
 10
-14.5924
 20
18.1567
 30
0.0
 10
-14.6212
 20
18.58
 30
0.0
 10
-14.6128
 20
19.0033
 30
0.0
 10
-14.6128
 20
19.0033
 30
0.0
 10
-14.5964
 20
19.8353
 30
0.0
 10
-14.3899
 20
20.594
 30
0.0
 10
-14.1129
 20
21.3717
 30
0.0
 10
-14.1129
 20
21.3717
 30
0.0
 10
-13.9797
 20
21.7454
 30
0.0
 10
-13.8407
 20
22.1171
 30
0.0
 10
-13.7008
 20
22.4884
 30
0.0
 10
-13.7008
 20
22.4884
 30
0.0
 10
-13.6387
 20
22.6531
 30
0.0
 10
-13.5763
 20
22.8178
 30
0.0
 10
-13.5142
 20
22.9825
 30
0.0
 10
-13.5142
 20
22.9825
 30
0.0
 10
-13.4538
 20
23.1427
 30
0.0
 10
-13.3372
 20
23.3404
 30
0.0
 10
-13.3327
 20
23.513
 30
0.0
 10
-13.3327
 20
23.513
 30
0.0
 10
-13.329
 20
23.6594
 30
0.0
 10
-13.4062
 20
23.7225
 30
0.0
 10
-13.5155
 20
23.8082
 30
0.0
 10
-13.5155
 20
23.8082
 30
0.0
 10
-13.843
 20
24.0648
 30
0.0
 10
-14.2137
 20
24.2804
 30
0.0
 10
-14.5579
 20
24.5145
 30
0.0
 10
-14.5579
 20
24.5145
 30
0.0
 10
-15.8989
 20
25.4268
 30
0.0
 10
-17.1822
 20
26.3823
 30
0.0
 10
-18.4127
 20
27.4392
 30
0.0
 10
-18.4127
 20
27.4392
 30
0.0
 10
-19.5887
 20
28.4492
 30
0.0
 10
-20.8095
 20
29.4146
 30
0.0
 10
-22.0412
 20
30.3556
 30
0.0
 10
-22.0412
 20
30.3556
 30
0.0
 10
-22.3538
 20
30.5945
 30
0.0
 10
-22.6872
 20
30.7979
 30
0.0
 10
-23.0162
 20
31.0127
 30
0.0
 10
-23.0162
 20
31.0127
 30
0.0
 10
-23.358
 20
31.2359
 30
0.0
 10
-23.6332
 20
31.5032
 30
0.0
 10
-23.9369
 20
31.7703
 30
0.0
 10
-23.9369
 20
31.7703
 30
0.0
 10
-24.1513
 20
31.9589
 30
0.0
 10
-24.3985
 20
32.1012
 30
0.0
 10
-24.6599
 20
32.2142
 30
0.0
 10
-24.6599
 20
32.2142
 30
0.0
 10
-25.0062
 20
32.364
 30
0.0
 10
-25.4114
 20
32.4269
 30
0.0
 10
-25.7108
 20
32.6651
 30
0.0
 10
-25.7108
 20
32.6651
 30
0.0
 10
-26.0509
 20
32.9358
 30
0.0
 10
-26.0655
 20
33.2799
 30
0.0
 10
-26.2333
 20
33.641
 30
0.0
 10
-26.2333
 20
33.641
 30
0.0
 10
-26.3491
 20
33.8902
 30
0.0
 10
-26.5532
 20
33.9751
 30
0.0
 10
-26.7972
 20
34.0789
 30
0.0
 10
-26.7972
 20
34.0789
 30
0.0
 10
-26.9483
 20
34.1431
 30
0.0
 10
-27.103
 20
34.1994
 30
0.0
 10
-27.2598
 20
34.248
 30
0.0
 10
-27.2598
 20
34.248
 30
0.0
 10
-27.4195
 20
34.2974
 30
0.0
 10
-27.6355
 20
34.3171
 30
0.0
 10
-27.7746
 20
34.4138
 30
0.0
 10
-27.7746
 20
34.4138
 30
0.0
 10
-28.1215
 20
34.655
 30
0.0
 10
-27.7923
 20
35.3433
 30
0.0
 10
-27.6851
 20
35.6565
 30
0.0
 10
-27.6851
 20
35.6565
 30
0.0
 10
-27.6757
 20
35.6839
 30
0.0
 10
-27.7004
 20
35.7123
 30
0.0
 10
-27.7276
 20
35.7123
 30
0.0
 10
-27.7276
 20
35.7123
 30
0.0
 10
-27.9539
 20
35.7123
 30
0.0
 10
-28.2352
 20
36.0089
 30
0.0
 10
-28.3979
 20
36.1664
 30
0.0
 10
-28.3979
 20
36.1664
 30
0.0
 10
-28.641
 20
36.4018
 30
0.0
 10
-28.7362
 20
36.8967
 30
0.0
 10
-28.5252
 20
37.1911
 30
0.0
 10
-28.5252
 20
37.1911
 30
0.0
 10
-28.3422
 20
37.4464
 30
0.0
 10
-28.1574
 20
37.2578
 30
0.0
 10
-27.9988
 20
37.4141
 30
0.0
 10
-27.9988
 20
37.4141
 30
0.0
 10
-27.9674
 20
37.4451
 30
0.0
 10
-27.9511
 20
37.5211
 30
0.0
 10
-27.9319
 20
37.5582
 30
0.0
 10
-27.9319
 20
37.5582
 30
0.0
 10
-27.8295
 20
37.7556
 30
0.0
 10
-27.7264
 20
37.8334
 30
0.0
 10
-27.5246
 20
37.9044
 30
0.0
 10
-27.5246
 20
37.9044
 30
0.0
 10
-27.3714
 20
37.9583
 30
0.0
 10
-27.3683
 20
37.9652
 30
0.0
 10
-27.2685
 20
38.0975
 30
0.0
 10
-27.2685
 20
38.0975
 30
0.0
 10
-27.2228
 20
38.1819
 30
0.0
 10
-27.1628
 20
38.2534
 30
0.0
 10
-27.0885
 20
38.3119
 30
0.0
 10
-27.0885
 20
38.3119
 30
0.0
 10
-27.006
 20
38.4052
 30
0.0
 10
-26.8966
 20
38.4483
 30
0.0
 10
-26.7601
 20
38.4412
 30
0.0
 10
-26.7601
 20
38.4412
 30
0.0
 10
-26.7334
 20
38.455
 30
0.0
 10
-26.6973
 20
38.4587
 30
0.0
 10
-26.6717
 20
38.478
 30
0.0
 10
-26.6717
 20
38.478
 30
0.0
 10
-26.4078
 20
38.6762
 30
0.0
 10
-26.4025
 20
38.9625
 30
0.0
 10
-25.9595
 20
38.9103
 30
0.0
 10
-25.9595
 20
38.9103
 30
0.0
 10
-25.6737
 20
38.8767
 30
0.0
 10
-25.2395
 20
38.5893
 30
0.0
 10
-25.2955
 20
38.2614
 30
0.0
 10
-25.2955
 20
38.2614
 30
0.0
 10
-25.2997
 20
38.2364
 30
0.0
 10
-25.2841
 20
38.202
 30
0.0
 10
-25.253
 20
38.2055
 30
0.0
 10
-25.253
 20
38.2055
 30
0.0
 10
-25.1099
 20
38.2217
 30
0.0
 10
-24.9447
 20
38.1938
 30
0.0
 10
-24.807
 20
38.2363
 30
0.0
 10
-24.807
 20
38.2363
 30
0.0
 10
-24.6668
 20
38.2797
 30
0.0
 10
-24.5619
 20
38.4199
 30
0.0
 10
-24.4052
 20
38.4248
 30
0.0
 10
-24.4052
 20
38.4248
 30
0.0
 10
-24.1659
 20
38.4322
 30
0.0
 10
-24.0902
 20
38.1324
 30
0.0
 10
-23.9889
 20
37.9596
 30
0.0
 10
-23.9889
 20
37.9596
 30
0.0
 10
-23.8764
 20
37.7677
 30
0.0
 10
-23.7477
 20
37.5863
 30
0.0
 10
-23.6159
 20
37.4073
 30
0.0
 10
-23.6159
 20
37.4073
 30
0.0
 10
-23.4177
 20
37.1381
 30
0.0
 10
-23.2638
 20
36.9243
 30
0.0
 10
-22.9829
 20
36.7443
 30
0.0
 10
-22.9829
 20
36.7443
 30
0.0
 10
-22.7707
 20
36.6083
 30
0.0
 10
-22.6281
 20
36.5083
 30
0.0
 10
-22.5713
 20
36.251
 30
0.0
 10
-22.5713
 20
36.251
 30
0.0
 10
-22.5459
 20
36.1359
 30
0.0
 10
-22.5598
 20
36.0637
 30
0.0
 10
-22.492
 20
35.9576
 30
0.0
 10
-22.492
 20
35.9576
 30
0.0
 10
-22.1038
 20
35.3502
 30
0.0
 10
-21.3001
 20
35.3247
 30
0.0
 10
-20.7414
 20
34.9946
 30
0.0
 10
-20.7414
 20
34.9946
 30
0.0
 10
-19.9907
 20
34.5511
 30
0.0
 10
-19.2784
 20
34.0156
 30
0.0
 10
-18.5486
 20
33.5365
 30
0.0
 10
-18.5486
 20
33.5365
 30
0.0
 10
-17.7578
 20
33.0172
 30
0.0
 10
-16.9753
 20
32.4853
 30
0.0
 10
-16.2326
 20
31.8983
 30
0.0
 10
-16.2326
 20
31.8983
 30
0.0
 10
-15.9385
 20
31.6658
 30
0.0
 10
-15.6505
 20
31.4254
 30
0.0
 10
-15.3476
 20
31.2042
 30
0.0
 10
-15.3476
 20
31.2042
 30
0.0
 10
-15.1911
 20
31.0899
 30
0.0
 10
-15.0311
 20
30.9808
 30
0.0
 10
-14.8648
 20
30.8812
 30
0.0
 10
-14.8648
 20
30.8812
 30
0.0
 10
-14.6892
 20
30.7761
 30
0.0
 10
-14.447
 20
30.7125
 30
0.0
 10
-14.2886
 20
30.59
 30
0.0
 10
-14.2886
 20
30.59
 30
0.0
 10
-14.0697
 20
30.4206
 30
0.0
 10
-14.0073
 20
30.1122
 30
0.0
 10
-13.7782
 20
29.9326
 30
0.0
 10
-13.7782
 20
29.9326
 30
0.0
 10
-13.5795
 20
29.7768
 30
0.0
 10
-13.3418
 20
29.6869
 30
0.0
 10
-13.1073
 20
29.6007
 30
0.0
 10
-13.1073
 20
29.6007
 30
0.0
 10
-12.8364
 20
29.5011
 30
0.0
 10
-12.5981
 20
29.3847
 30
0.0
 10
-12.344
 20
29.2528
 30
0.0
 10
-12.344
 20
29.2528
 30
0.0
 10
-12.053
 20
29.1016
 30
0.0
 10
-11.7222
 20
29.2786
 30
0.0
 10
-11.4238
 20
29.0676
 30
0.0
 10
-11.4238
 20
29.0676
 30
0.0
 10
-11.3026
 20
28.9819
 30
0.0
 10
-11.2493
 20
28.8321
 30
0.0
 10
-11.1329
 20
28.7503
 30
0.0
 10
-11.1329
 20
28.7503
 30
0.0
 10
-11.0197
 20
28.6707
 30
0.0
 10
-10.8761
 20
28.6642
 30
0.0
 10
-10.7446
 20
28.6382
 30
0.0
 10
-10.7446
 20
28.6382
 30
0.0
 10
-10.3143
 20
28.5531
 30
0.0
 10
-9.9344
 20
28.3352
 30
0.0
 10
-9.4892
 20
28.3005
 30
0.0
 10
-9.4892
 20
28.3005
 30
0.0
 10
-9.0169
 20
28.2637
 30
0.0
 10
-8.5511
 20
28.3365
 30
0.0
 10
-8.0847
 20
28.3889
 30
0.0
 10
-8.0847
 20
28.3889
 30
0.0
 10
-7.498
 20
28.4549
 30
0.0
 10
-6.7971
 20
28.3502
 30
0.0
 10
-6.6773
 20
27.6643
 30
0.0
 10
-6.6773
 20
27.6643
 30
0.0
 10
-6.6716
 20
27.6317
 30
0.0
 10
-6.6247
 20
27.6218
 30
0.0
 10
-6.6036
 20
27.6449
 30
0.0
 10
-6.6036
 20
27.6449
 30
0.0
 10
-6.3873
 20
27.8807
 30
0.0
 10
-6.3879
 20
28.2914
 30
0.0
 10
-6.2215
 20
28.5604
 30
0.0
 10
-6.2215
 20
28.5604
 30
0.0
 10
-6.1916
 20
28.6088
 30
0.0
 10
-6.2678
 20
28.6532
 30
0.0
 10
-6.2976
 20
28.6049
 30
0.0
  0
SPLINE
  5
5D
330
1F
100
AcDbEntity
  8
_LAYER_1
100
AcDbSpline
210
0.0
220
0.0
230
1.0
 70
    11
 71
     3
 72
    12
 73
     8
 74
     0
 42
0.0000000001
 43
0.0000000001
 12
1.0
 22
0.0
 32
0.0
 13
1.0
 23
0.0
 33
0.0
 40
0.0
 40
0.0
 40
0.0
 40
0.0
 40
0.3333333333333333
 40
0.3333333333333333
 40
0.3333333333333333
 40
0.3333333333333333
 40
1.0
 40
1.0
 40
1.0
 40
1.0
 10
-0.0092
 20
-15.183
 30
0.0
 10
0.0476
 20
-15.183
 30
0.0
 10
0.0477
 20
-15.0948
 30
0.0
 10
-0.0092
 20
-15.0948
 30
0.0
 10
-0.0092
 20
-15.0948
 30
0.0
 10
-0.0659
 20
-15.0948
 30
0.0
 10
-0.066
 20
-15.183
 30
0.0
 10
-0.0092
 20
-15.183
 30
0.0
  0
SPLINE
  5
5E
330
1F
100
AcDbEntity
  8
_LAYER_1
100
AcDbSpline
210
0.0
220
0.0
230
1.0
 70
    11
 71
     3
 72
   120
 73
   116
 74
     0
 42
0.0000000001
 43
0.0000000001
 12
1.0
 22
0.0
 32
0.0
 13
1.0
 23
0.0
 33
0.0
 40
0.0
 40
0.0
 40
0.0
 40
0.0
 40
0.0333333333333333
 40
0.0333333333333333
 40
0.0333333333333333
 40
0.0333333333333333
 40
0.0666666666666667
 40
0.0666666666666667
 40
0.0666666666666667
 40
0.0666666666666667
 40
0.1
 40
0.1
 40
0.1
 40
0.1
 40
0.1333333333333333
 40
0.1333333333333333
 40
0.1333333333333333
 40
0.1333333333333333
 40
0.1666666666666667
 40
0.1666666666666667
 40
0.1666666666666667
 40
0.1666666666666667
 40
0.2
 40
0.2
 40
0.2
 40
0.2
 40
0.2333333333333333
 40
0.2333333333333333
 40
0.2333333333333333
 40
0.2333333333333333
 40
0.2666666666666667
 40
0.2666666666666667
 40
0.2666666666666667
 40
0.2666666666666667
 40
0.3
 40
0.3
 40
0.3
 40
0.3
 40
0.3333333333333333
 40
0.3333333333333333
 40
0.3333333333333333
 40
0.3333333333333333
 40
0.3666666666666666
 40
0.3666666666666666
 40
0.3666666666666666
 40
0.3666666666666666
 40
0.4
 40
0.4
 40
0.4
 40
0.4
 40
0.4333333333333333
 40
0.4333333333333333
 40
0.4333333333333333
 40
0.4333333333333333
 40
0.4666666666666667
 40
0.4666666666666667
 40
0.4666666666666667
 40
0.4666666666666667
 40
0.5
 40
0.5
 40
0.5
 40
0.5
 40
0.5333333333333333
 40
0.5333333333333333
 40
0.5333333333333333
 40
0.5333333333333333
 40
0.5666666666666667
 40
0.5666666666666667
 40
0.5666666666666667
 40
0.5666666666666667
 40
0.6
 40
0.6
 40
0.6
 40
0.6
 40
0.6333333333333333
 40
0.6333333333333333
 40
0.6333333333333333
 40
0.6333333333333333
 40
0.6666666666666666
 40
0.6666666666666666
 40
0.6666666666666666
 40
0.6666666666666666
 40
0.7
 40
0.7
 40
0.7
 40
0.7
 40
0.7333333333333333
 40
0.7333333333333333
 40
0.7333333333333333
 40
0.7333333333333333
 40
0.7666666666666667
 40
0.7666666666666667
 40
0.7666666666666667
 40
0.7666666666666667
 40
0.8
 40
0.8
 40
0.8
 40
0.8
 40
0.8333333333333334
 40
0.8333333333333334
 40
0.8333333333333334
 40
0.8333333333333334
 40
0.8666666666666667
 40
0.8666666666666667
 40
0.8666666666666667
 40
0.8666666666666667
 40
0.9
 40
0.9
 40
0.9
 40
0.9
 40
0.9333333333333333
 40
0.9333333333333333
 40
0.9333333333333333
 40
0.9333333333333333
 40
1.0
 40
1.0
 40
1.0
 40
1.0
 10
-25.7967
 20
37.3718
 30
0.0
 10
-25.6605
 20
37.2395
 30
0.0
 10
-25.5316
 20
37.1001
 30
0.0
 10
-25.4057
 20
36.9581
 30
0.0
 10
-25.4057
 20
36.9581
 30
0.0
 10
-25.3441
 20
36.8887
 30
0.0
 10
-25.2831
 20
36.8186
 30
0.0
 10
-25.2221
 20
36.7486
 30
0.0
 10
-25.2221
 20
36.7486
 30
0.0
 10
-25.1923
 20
36.7144
 30
0.0
 10
-25.1552
 20
36.6805
 30
0.0
 10
-25.1323
 20
36.6412
 30
0.0
 10
-25.1323
 20
36.6412
 30
0.0
 10
-25.1107
 20
36.6042
 30
0.0
 10
-25.1028
 20
36.5596
 30
0.0
 10
-25.087
 20
36.5199
 30
0.0
 10
-25.087
 20
36.5199
 30
0.0
 10
-25.0654
 20
36.5366
 30
0.0
 10
-25.0438
 20
36.5531
 30
0.0
 10
-25.0221
 20
36.5698
 30
0.0
 10
-25.0221
 20
36.5698
 30
0.0
 10
-25.0956
 20
36.6131
 30
0.0
 10
-25.163
 20
36.6614
 30
0.0
 10
-25.2465
 20
36.6841
 30
0.0
 10
-25.2465
 20
36.6841
 30
0.0
 10
-25.2892
 20
36.6957
 30
0.0
 10
-25.3154
 20
36.6942
 30
0.0
 10
-25.3581
 20
36.6825
 30
0.0
 10
-25.3581
 20
36.6825
 30
0.0
 10
-25.3847
 20
36.6752
 30
0.0
 10
-25.4111
 20
36.6668
 30
0.0
 10
-25.4347
 20
36.6524
 30
0.0
 10
-25.4347
 20
36.6524
 30
0.0
 10
-25.4146
 20
36.6471
 30
0.0
 10
-25.3945
 20
36.6418
 30
0.0
 10
-25.3744
 20
36.6365
 30
0.0
 10
-25.3744
 20
36.6365
 30
0.0
 10
-25.4819
 20
36.7882
 30
0.0
 10
-25.5965
 20
36.9345
 30
0.0
 10
-25.7132
 20
37.0791
 30
0.0
 10
-25.7132
 20
37.0791
 30
0.0
 10
-25.7693
 20
37.1485
 30
0.0
 10
-25.8257
 20
37.2177
 30
0.0
 10
-25.8814
 20
37.2874
 30
0.0
 10
-25.8814
 20
37.2874
 30
0.0
 10
-25.9349
 20
37.3542
 30
0.0
 10
-25.9681
 20
37.4238
 30
0.0
 10
-26.0054
 20
37.5003
 30
0.0
 10
-26.0054
 20
37.5003
 30
0.0
 10
-26.022
 20
37.4788
 30
0.0
 10
-26.0386
 20
37.4572
 30
0.0
 10
-26.0552
 20
37.4356
 30
0.0
 10
-26.0552
 20
37.4356
 30
0.0
 10
-25.976
 20
37.4186
 30
0.0
 10
-25.8601
 20
37.4292
 30
0.0
 10
-25.7967
 20
37.3718
 30
0.0
 10
-25.7967
 20
37.3718
 30
0.0
 10
-25.7547
 20
37.3338
 30
0.0
 10
-25.6922
 20
37.396
 30
0.0
 10
-25.7343
 20
37.4342
 30
0.0
 10
-25.7343
 20
37.4342
 30
0.0
 10
-25.8153
 20
37.5075
 30
0.0
 10
-25.9312
 20
37.499
 30
0.0
 10
-26.0317
 20
37.5206
 30
0.0
 10
-26.0317
 20
37.5206
 30
0.0
 10
-26.0707
 20
37.529
 30
0.0
 10
-26.0986
 20
37.4909
 30
0.0
 10
-26.0815
 20
37.4558
 30
0.0
 10
-26.0815
 20
37.4558
 30
0.0
 10
-26.0464
 20
37.3838
 30
0.0
 10
-26.0162
 20
37.3157
 30
0.0
 10
-25.9659
 20
37.2528
 30
0.0
 10
-25.9659
 20
37.2528
 30
0.0
 10
-25.9103
 20
37.1832
 30
0.0
 10
-25.8542
 20
37.114
 30
0.0
 10
-25.7982
 20
37.0447
 30
0.0
 10
-25.7982
 20
37.0447
 30
0.0
 10
-25.6785
 20
36.8967
 30
0.0
 10
-25.5606
 20
36.7474
 30
0.0
 10
-25.4505
 20
36.592
 30
0.0
 10
-25.4505
 20
36.592
 30
0.0
 10
-25.437
 20
36.5729
 30
0.0
 10
-25.412
 20
36.5628
 30
0.0
 10
-25.3902
 20
36.5762
 30
0.0
 10
-25.3902
 20
36.5762
 30
0.0
 10
-25.3452
 20
36.6038
 30
0.0
 10
-25.2975
 20
36.6091
 30
0.0
 10
-25.2483
 20
36.5928
 30
0.0
 10
-25.2483
 20
36.5928
 30
0.0
 10
-25.1816
 20
36.5707
 30
0.0
 10
-25.1265
 20
36.5289
 30
0.0
 10
-25.0667
 20
36.4936
 30
0.0
 10
-25.0667
 20
36.4936
 30
0.0
 10
-25.0362
 20
36.4756
 30
0.0
 10
-24.987
 20
36.5063
 30
0.0
 10
-25.0019
 20
36.5434
 30
0.0
 10
-25.0019
 20
36.5434
 30
0.0
 10
-25.0169
 20
36.581
 30
0.0
 10
-25.0266
 20
36.6205
 30
0.0
 10
-25.0427
 20
36.6576
 30
0.0
 10
-25.0427
 20
36.6576
 30
0.0
 10
-25.0605
 20
36.6984
 30
0.0
 10
-25.0883
 20
36.7291
 30
0.0
 10
-25.1172
 20
36.7623
 30
0.0
 10
-25.1172
 20
36.7623
 30
0.0
 10
-25.1843
 20
36.8391
 30
0.0
 10
-25.2511
 20
36.9161
 30
0.0
 10
-25.3186
 20
36.9926
 30
0.0
 10
-25.3186
 20
36.9926
 30
0.0
 10
-25.4525
 20
37.1442
 30
0.0
 10
-25.5892
 20
37.2932
 30
0.0
 10
-25.7343
 20
37.4342
 30
0.0
 10
-25.7343
 20
37.4342
 30
0.0
 10
-25.7751
 20
37.4737
 30
0.0
 10
-25.8375
 20
37.4114
 30
0.0
 10
-25.7967
 20
37.3718
 30
0.0
  0
SPLINE
  5
5F
330
1F
100
AcDbEntity
  8
_LAYER_1
100
AcDbSpline
210
0.0
220
0.0
230
1.0
 70
    11
 71
     3
 72
    12
 73
     8
 74
     0
 42
0.0000000001
 43
0.0000000001
 12
1.0
 22
0.0
 32
0.0
 13
1.0
 23
0.0
 33
0.0
 40
0.0
 40
0.0
 40
0.0
 40
0.0
 40
0.3333333333333333
 40
0.3333333333333333
 40
0.3333333333333333
 40
0.3333333333333333
 40
1.0
 40
1.0
 40
1.0
 40
1.0
 10
-25.6904
 20
34.144
 30
0.0
 10
-25.6337
 20
34.144
 30
0.0
 10
-25.6335
 20
34.2322
 30
0.0
 10
-25.6904
 20
34.2322
 30
0.0
 10
-25.6904
 20
34.2322
 30
0.0
 10
-25.7471
 20
34.2322
 30
0.0
 10
-25.7472
 20
34.144
 30
0.0
 10
-25.6904
 20
34.144
 30
0.0
  0
SPLINE
  5
60
330
1F
100
AcDbEntity
  8
_LAYER_1
100
AcDbSpline
210
0.0
220
0.0
230
1.0
 70
    11
 71
     3
 72
   376
 73
   372
 74
     0
 42
0.0000000001
 43
0.0000000001
 12
1.0
 22
0.0
 32
0.0
 13
1.0
 23
0.0
 33
0.0
 40
0.0
 40
0.0
 40
0.0
 40
0.0
 40
0.0106382978723404
 40
0.0106382978723404
 40
0.0106382978723404
 40
0.0106382978723404
 40
0.0212765957446809
 40
0.0212765957446809
 40
0.0212765957446809
 40
0.0212765957446809
 40
0.0319148936170213
 40
0.0319148936170213
 40
0.0319148936170213
 40
0.0319148936170213
 40
0.0425531914893617
 40
0.0425531914893617
 40
0.0425531914893617
 40
0.0425531914893617
 40
0.0531914893617021
 40
0.0531914893617021
 40
0.0531914893617021
 40
0.0531914893617021
 40
0.0638297872340425
 40
0.0638297872340425
 40
0.0638297872340425
 40
0.0638297872340425
 40
0.074468085106383
 40
0.074468085106383
 40
0.074468085106383
 40
0.074468085106383
 40
0.0851063829787234
 40
0.0851063829787234
 40
0.0851063829787234
 40
0.0851063829787234
 40
0.0957446808510638
 40
0.0957446808510638
 40
0.0957446808510638
 40
0.0957446808510638
 40
0.1063829787234043
 40
0.1063829787234043
 40
0.1063829787234043
 40
0.1063829787234043
 40
0.1170212765957447
 40
0.1170212765957447
 40
0.1170212765957447
 40
0.1170212765957447
 40
0.1276595744680851
 40
0.1276595744680851
 40
0.1276595744680851
 40
0.1276595744680851
 40
0.1382978723404255
 40
0.1382978723404255
 40
0.1382978723404255
 40
0.1382978723404255
 40
0.148936170212766
 40
0.148936170212766
 40
0.148936170212766
 40
0.148936170212766
 40
0.1595744680851064
 40
0.1595744680851064
 40
0.1595744680851064
 40
0.1595744680851064
 40
0.1702127659574468
 40
0.1702127659574468
 40
0.1702127659574468
 40
0.1702127659574468
 40
0.1808510638297872
 40
0.1808510638297872
 40
0.1808510638297872
 40
0.1808510638297872
 40
0.1914893617021277
 40
0.1914893617021277
 40
0.1914893617021277
 40
0.1914893617021277
 40
0.2021276595744681
 40
0.2021276595744681
 40
0.2021276595744681
 40
0.2021276595744681
 40
0.2127659574468085
 40
0.2127659574468085
 40
0.2127659574468085
 40
0.2127659574468085
 40
0.2234042553191489
 40
0.2234042553191489
 40
0.2234042553191489
 40
0.2234042553191489
 40
0.2340425531914894
 40
0.2340425531914894
 40
0.2340425531914894
 40
0.2340425531914894
 40
0.2446808510638298
 40
0.2446808510638298
 40
0.2446808510638298
 40
0.2446808510638298
 40
0.2553191489361702
 40
0.2553191489361702
 40
0.2553191489361702
 40
0.2553191489361702
 40
0.2659574468085106
 40
0.2659574468085106
 40
0.2659574468085106
 40
0.2659574468085106
 40
0.2765957446808511
 40
0.2765957446808511
 40
0.2765957446808511
 40
0.2765957446808511
 40
0.2872340425531915
 40
0.2872340425531915
 40
0.2872340425531915
 40
0.2872340425531915
 40
0.2978723404255319
 40
0.2978723404255319
 40
0.2978723404255319
 40
0.2978723404255319
 40
0.3085106382978723
 40
0.3085106382978723
 40
0.3085106382978723
 40
0.3085106382978723
 40
0.3191489361702128
 40
0.3191489361702128
 40
0.3191489361702128
 40
0.3191489361702128
 40
0.3297872340425532
 40
0.3297872340425532
 40
0.3297872340425532
 40
0.3297872340425532
 40
0.3404255319148936
 40
0.3404255319148936
 40
0.3404255319148936
 40
0.3404255319148936
 40
0.351063829787234
 40
0.351063829787234
 40
0.351063829787234
 40
0.351063829787234
 40
0.3617021276595745
 40
0.3617021276595745
 40
0.3617021276595745
 40
0.3617021276595745
 40
0.3723404255319149
 40
0.3723404255319149
 40
0.3723404255319149
 40
0.3723404255319149
 40
0.3829787234042553
 40
0.3829787234042553
 40
0.3829787234042553
 40
0.3829787234042553
 40
0.3936170212765958
 40
0.3936170212765958
 40
0.3936170212765958
 40
0.3936170212765958
 40
0.4042553191489361
 40
0.4042553191489361
 40
0.4042553191489361
 40
0.4042553191489361
 40
0.4148936170212766
 40
0.4148936170212766
 40
0.4148936170212766
 40
0.4148936170212766
 40
0.425531914893617
 40
0.425531914893617
 40
0.425531914893617
 40
0.425531914893617
 40
0.4361702127659575
 40
0.4361702127659575
 40
0.4361702127659575
 40
0.4361702127659575
 40
0.4468085106382979
 40
0.4468085106382979
 40
0.4468085106382979
 40
0.4468085106382979
 40
0.4574468085106383
 40
0.4574468085106383
 40
0.4574468085106383
 40
0.4574468085106383
 40
0.4680851063829787
 40
0.4680851063829787
 40
0.4680851063829787
 40
0.4680851063829787
 40
0.4787234042553192
 40
0.4787234042553192
 40
0.4787234042553192
 40
0.4787234042553192
 40
0.4893617021276596
 40
0.4893617021276596
 40
0.4893617021276596
 40
0.4893617021276596
 40
0.5
 40
0.5
 40
0.5
 40
0.5
 40
0.5106382978723404
 40
0.5106382978723404
 40
0.5106382978723404
 40
0.5106382978723404
 40
0.5212765957446809
 40
0.5212765957446809
 40
0.5212765957446809
 40
0.5212765957446809
 40
0.5319148936170213
 40
0.5319148936170213
 40
0.5319148936170213
 40
0.5319148936170213
 40
0.5425531914893617
 40
0.5425531914893617
 40
0.5425531914893617
 40
0.5425531914893617
 40
0.5531914893617021
 40
0.5531914893617021
 40
0.5531914893617021
 40
0.5531914893617021
 40
0.5638297872340425
 40
0.5638297872340425
 40
0.5638297872340425
 40
0.5638297872340425
 40
0.574468085106383
 40
0.574468085106383
 40
0.574468085106383
 40
0.574468085106383
 40
0.5851063829787234
 40
0.5851063829787234
 40
0.5851063829787234
 40
0.5851063829787234
 40
0.5957446808510638
 40
0.5957446808510638
 40
0.5957446808510638
 40
0.5957446808510638
 40
0.6063829787234043
 40
0.6063829787234043
 40
0.6063829787234043
 40
0.6063829787234043
 40
0.6170212765957447
 40
0.6170212765957447
 40
0.6170212765957447
 40
0.6170212765957447
 40
0.6276595744680851
 40
0.6276595744680851
 40
0.6276595744680851
 40
0.6276595744680851
 40
0.6382978723404256
 40
0.6382978723404256
 40
0.6382978723404256
 40
0.6382978723404256
 40
0.648936170212766
 40
0.648936170212766
 40
0.648936170212766
 40
0.648936170212766
 40
0.6595744680851063
 40
0.6595744680851063
 40
0.6595744680851063
 40
0.6595744680851063
 40
0.6702127659574468
 40
0.6702127659574468
 40
0.6702127659574468
 40
0.6702127659574468
 40
0.6808510638297872
 40
0.6808510638297872
 40
0.6808510638297872
 40
0.6808510638297872
 40
0.6914893617021277
 40
0.6914893617021277
 40
0.6914893617021277
 40
0.6914893617021277
 40
0.7021276595744681
 40
0.7021276595744681
 40
0.7021276595744681
 40
0.7021276595744681
 40
0.7127659574468085
 40
0.7127659574468085
 40
0.7127659574468085
 40
0.7127659574468085
 40
0.723404255319149
 40
0.723404255319149
 40
0.723404255319149
 40
0.723404255319149
 40
0.7340425531914894
 40
0.7340425531914894
 40
0.7340425531914894
 40
0.7340425531914894
 40
0.7446808510638298
 40
0.7446808510638298
 40
0.7446808510638298
 40
0.7446808510638298
 40
0.7553191489361702
 40
0.7553191489361702
 40
0.7553191489361702
 40
0.7553191489361702
 40
0.7659574468085106
 40
0.7659574468085106
 40
0.7659574468085106
 40
0.7659574468085106
 40
0.776595744680851
 40
0.776595744680851
 40
0.776595744680851
 40
0.776595744680851
 40
0.7872340425531915
 40
0.7872340425531915
 40
0.7872340425531915
 40
0.7872340425531915
 40
0.7978723404255319
 40
0.7978723404255319
 40
0.7978723404255319
 40
0.7978723404255319
 40
0.8085106382978723
 40
0.8085106382978723
 40
0.8085106382978723
 40
0.8085106382978723
 40
0.8191489361702128
 40
0.8191489361702128
 40
0.8191489361702128
 40
0.8191489361702128
 40
0.8297872340425532
 40
0.8297872340425532
 40
0.8297872340425532
 40
0.8297872340425532
 40
0.8404255319148937
 40
0.8404255319148937
 40
0.8404255319148937
 40
0.8404255319148937
 40
0.851063829787234
 40
0.851063829787234
 40
0.851063829787234
 40
0.851063829787234
 40
0.8617021276595744
 40
0.8617021276595744
 40
0.8617021276595744
 40
0.8617021276595744
 40
0.8723404255319149
 40
0.8723404255319149
 40
0.8723404255319149
 40
0.8723404255319149
 40
0.8829787234042553
 40
0.8829787234042553
 40
0.8829787234042553
 40
0.8829787234042553
 40
0.8936170212765957
 40
0.8936170212765957
 40
0.8936170212765957
 40
0.8936170212765957
 40
0.9042553191489362
 40
0.9042553191489362
 40
0.9042553191489362
 40
0.9042553191489362
 40
0.9148936170212766
 40
0.9148936170212766
 40
0.9148936170212766
 40
0.9148936170212766
 40
0.925531914893617
 40
0.925531914893617
 40
0.925531914893617
 40
0.925531914893617
 40
0.9361702127659575
 40
0.9361702127659575
 40
0.9361702127659575
 40
0.9361702127659575
 40
0.9468085106382979
 40
0.9468085106382979
 40
0.9468085106382979
 40
0.9468085106382979
 40
0.9574468085106383
 40
0.9574468085106383
 40
0.9574468085106383
 40
0.9574468085106383
 40
0.9680851063829787
 40
0.9680851063829787
 40
0.9680851063829787
 40
0.9680851063829787
 40
0.9787234042553191
 40
0.9787234042553191
 40
0.9787234042553191
 40
0.9787234042553191
 40
1.0
 40
1.0
 40
1.0
 40
1.0
 10
-22.5238
 20
35.1245
 30
0.0
 10
-22.7796
 20
35.1678
 30
0.0
 10
-22.9542
 20
35.2686
 30
0.0
 10
-23.1521
 20
35.4368
 30
0.0
 10
-23.1521
 20
35.4368
 30
0.0
 10
-23.3289
 20
35.5869
 30
0.0
 10
-23.5512
 20
35.7401
 30
0.0
 10
-23.6273
 20
35.965
 30
0.0
 10
-23.6273
 20
35.965
 30
0.0
 10
-23.6376
 20
35.9469
 30
0.0
 10
-23.6478
 20
35.9288
 30
0.0
 10
-23.6581
 20
35.9108
 30
0.0
 10
-23.6581
 20
35.9108
 30
0.0
 10
-23.5911
 20
35.9344
 30
0.0
 10
-23.4783
 20
35.9971
 30
0.0
 10
-23.4224
 20
35.959
 30
0.0
 10
-23.4224
 20
35.959
 30
0.0
 10
-23.3993
 20
35.9433
 30
0.0
 10
-23.3955
 20
35.8986
 30
0.0
 10
-23.3716
 20
35.8805
 30
0.0
 10
-23.3716
 20
35.8805
 30
0.0
 10
-23.3298
 20
35.8491
 30
0.0
 10
-23.3021
 20
35.855
 30
0.0
 10
-23.274
 20
35.8974
 30
0.0
 10
-23.274
 20
35.8974
 30
0.0
 10
-23.2232
 20
35.9743
 30
0.0
 10
-23.2709
 20
36.2199
 30
0.0
 10
-23.308
 20
36.2995
 30
0.0
 10
-23.308
 20
36.2995
 30
0.0
 10
-23.3659
 20
36.4233
 30
0.0
 10
-23.5371
 20
36.4643
 30
0.0
 10
-23.6607
 20
36.486
 30
0.0
 10
-23.6607
 20
36.486
 30
0.0
 10
-23.98
 20
36.5419
 30
0.0
 10
-24.3006
 20
36.4098
 30
0.0
 10
-24.509
 20
36.1657
 30
0.0
 10
-24.509
 20
36.1657
 30
0.0
 10
-24.6193
 20
36.0364
 30
0.0
 10
-24.7398
 20
35.8813
 30
0.0
 10
-24.8125
 20
35.7276
 30
0.0
 10
-24.8125
 20
35.7276
 30
0.0
 10
-24.8588
 20
35.6296
 30
0.0
 10
-24.8747
 20
35.5232
 30
0.0
 10
-24.9199
 20
35.4242
 30
0.0
 10
-24.9199
 20
35.4242
 30
0.0
 10
-24.9662
 20
35.3226
 30
0.0
 10
-25.0123
 20
35.2201
 30
0.0
 10
-25.06
 20
35.1192
 30
0.0
 10
-25.06
 20
35.1192
 30
0.0
 10
-25.0331
 20
35.1157
 30
0.0
 10
-25.0062
 20
35.1122
 30
0.0
 10
-24.9794
 20
35.1087
 30
0.0
 10
-24.9794
 20
35.1087
 30
0.0
 10
-25.019
 20
35.3168
 30
0.0
 10
-25.0244
 20
35.4899
 30
0.0
 10
-24.9944
 20
35.7012
 30
0.0
 10
-24.9944
 20
35.7012
 30
0.0
 10
-24.9899
 20
35.733
 30
0.0
 10
-25.0131
 20
35.7655
 30
0.0
 10
-25.0486
 20
35.7554
 30
0.0
 10
-25.0486
 20
35.7554
 30
0.0
 10
-25.4785
 20
35.6344
 30
0.0
 10
-25.4501
 20
35.2186
 30
0.0
 10
-25.5459
 20
34.8601
 30
0.0
 10
-25.5459
 20
34.8601
 30
0.0
 10
-25.576
 20
34.7473
 30
0.0
 10
-25.5909
 20
34.5964
 30
0.0
 10
-25.7233
 20
34.5955
 30
0.0
 10
-25.7233
 20
34.5955
 30
0.0
 10
-25.7926
 20
34.5951
 30
0.0
 10
-25.7827
 20
34.6046
 30
0.0
 10
-25.8074
 20
34.6477
 30
0.0
 10
-25.8074
 20
34.6477
 30
0.0
 10
-25.8419
 20
34.7077
 30
0.0
 10
-25.8399
 20
34.8334
 30
0.0
 10
-25.8377
 20
34.9032
 30
0.0
 10
-25.8377
 20
34.9032
 30
0.0
 10
-25.8294
 20
35.1651
 30
0.0
 10
-25.5771
 20
35.3283
 30
0.0
 10
-25.489
 20
35.5629
 30
0.0
 10
-25.489
 20
35.5629
 30
0.0
 10
-25.446
 20
35.6774
 30
0.0
 10
-25.4294
 20
35.8024
 30
0.0
 10
-25.3588
 20
35.9048
 30
0.0
 10
-25.3588
 20
35.9048
 30
0.0
 10
-25.283
 20
36.0149
 30
0.0
 10
-25.1669
 20
36.1059
 30
0.0
 10
-25.0656
 20
36.1919
 30
0.0
 10
-25.0656
 20
36.1919
 30
0.0
 10
-24.9493
 20
36.2906
 30
0.0
 10
-24.8276
 20
36.3827
 30
0.0
 10
-24.7061
 20
36.4747
 30
0.0
 10
-24.7061
 20
36.4747
 30
0.0
 10
-24.663
 20
36.5074
 30
0.0
 10
-24.5641
 20
36.5572
 30
0.0
 10
-24.5413
 20
36.6114
 30
0.0
 10
-24.5413
 20
36.6114
 30
0.0
 10
-24.4913
 20
36.7298
 30
0.0
 10
-24.7267
 20
36.8994
 30
0.0
 10
-24.7925
 20
36.9676
 30
0.0
 10
-24.7925
 20
36.9676
 30
0.0
 10
-24.8912
 20
37.07
 30
0.0
 10
-24.9918
 20
37.1706
 30
0.0
 10
-25.0926
 20
37.2711
 30
0.0
 10
-25.0926
 20
37.2711
 30
0.0
 10
-25.1636
 20
37.3419
 30
0.0
 10
-25.4242
 20
37.5299
 30
0.0
 10
-25.3919
 20
37.6399
 30
0.0
 10
-25.3919
 20
37.6399
 30
0.0
 10
-25.3677
 20
37.7222
 30
0.0
 10
-25.3302
 20
37.6582
 30
0.0
 10
-25.2916
 20
37.6138
 30
0.0
 10
-25.2916
 20
37.6138
 30
0.0
 10
-25.2325
 20
37.5457
 30
0.0
 10
-25.182
 20
37.4664
 30
0.0
 10
-25.1283
 20
37.3941
 30
0.0
 10
-25.1283
 20
37.3941
 30
0.0
 10
-25.033
 20
37.266
 30
0.0
 10
-24.9377
 20
37.1378
 30
0.0
 10
-24.8424
 20
37.0096
 30
0.0
 10
-24.8424
 20
37.0096
 30
0.0
 10
-24.7681
 20
36.9097
 30
0.0
 10
-24.7297
 20
36.8104
 30
0.0
 10
-24.6083
 20
36.7791
 30
0.0
 10
-24.6083
 20
36.7791
 30
0.0
 10
-24.4564
 20
36.7399
 30
0.0
 10
-24.2988
 20
36.7266
 30
0.0
 10
-24.143
 20
36.7129
 30
0.0
 10
-24.143
 20
36.7129
 30
0.0
 10
-24.1117
 20
36.7102
 30
0.0
 10
-24.0852
 20
36.7533
 30
0.0
 10
-24.105
 20
36.7793
 30
0.0
 10
-24.105
 20
36.7793
 30
0.0
 10
-24.2314
 20
36.9457
 30
0.0
 10
-24.3506
 20
37.1196
 30
0.0
 10
-24.4993
 20
37.2671
 30
0.0
 10
-24.4993
 20
37.2671
 30
0.0
 10
-24.5725
 20
37.3398
 30
0.0
 10
-24.65
 20
37.4087
 30
0.0
 10
-24.7199
 20
37.4847
 30
0.0
 10
-24.7199
 20
37.4847
 30
0.0
 10
-24.8187
 20
37.5921
 30
0.0
 10
-24.861
 20
37.7019
 30
0.0
 10
-24.9117
 20
37.8354
 30
0.0
 10
-24.9117
 20
37.8354
 30
0.0
 10
-24.9259
 20
37.8168
 30
0.0
 10
-24.9401
 20
37.7982
 30
0.0
 10
-24.9543
 20
37.7795
 30
0.0
 10
-24.9543
 20
37.7795
 30
0.0
 10
-24.879
 20
37.7728
 30
0.0
 10
-24.786
 20
37.7852
 30
0.0
 10
-24.7142
 20
37.7626
 30
0.0
 10
-24.7142
 20
37.7626
 30
0.0
 10
-24.6074
 20
37.7291
 30
0.0
 10
-24.514
 20
37.6082
 30
0.0
 10
-24.437
 20
37.532
 30
0.0
 10
-24.437
 20
37.532
 30
0.0
 10
-24.3101
 20
37.4064
 30
0.0
 10
-24.1866
 20
37.2776
 30
0.0
 10
-24.0604
 20
37.1513
 30
0.0
 10
-24.0604
 20
37.1513
 30
0.0
 10
-23.9368
 20
37.0276
 30
0.0
 10
-23.8215
 20
36.8936
 30
0.0
 10
-23.6942
 20
36.7739
 30
0.0
 10
-23.6942
 20
36.7739
 30
0.0
 10
-23.5914
 20
36.6774
 30
0.0
 10
-23.4725
 20
36.6002
 30
0.0
 10
-23.37
 20
36.5031
 30
0.0
 10
-23.37
 20
36.5031
 30
0.0
 10
-23.2674
 20
36.4059
 30
0.0
 10
-23.1819
 20
36.2956
 30
0.0
 10
-23.1264
 20
36.1652
 30
0.0
 10
-23.1264
 20
36.1652
 30
0.0
 10
-23.0738
 20
36.0414
 30
0.0
 10
-23.0622
 20
35.9081
 30
0.0
 10
-22.9872
 20
35.7939
 30
0.0
 10
-22.9872
 20
35.7939
 30
0.0
 10
-22.9181
 20
35.6887
 30
0.0
 10
-22.8234
 20
35.6018
 30
0.0
 10
-22.7319
 20
35.5166
 30
0.0
 10
-22.7319
 20
35.5166
 30
0.0
 10
-22.6088
 20
35.4022
 30
0.0
 10
-22.4945
 20
35.2766
 30
0.0
 10
-22.3639
 20
35.171
 30
0.0
 10
-22.3639
 20
35.171
 30
0.0
 10
-22.361
 20
35.1941
 30
0.0
 10
-22.358
 20
35.2171
 30
0.0
 10
-22.355
 20
35.2402
 30
0.0
 10
-22.355
 20
35.2402
 30
0.0
 10
-22.4152
 20
35.1958
 30
0.0
 10
-22.4697
 20
35.1354
 30
0.0
 10
-22.5473
 20
35.1245
 30
0.0
 10
-22.5473
 20
35.1245
 30
0.0
 10
-22.6033
 20
35.1166
 30
0.0
 10
-22.5794
 20
35.0316
 30
0.0
 10
-22.5238
 20
35.0394
 30
0.0
 10
-22.5238
 20
35.0394
 30
0.0
 10
-22.4379
 20
35.0515
 30
0.0
 10
-22.3782
 20
35.114
 30
0.0
 10
-22.3105
 20
35.1641
 30
0.0
 10
-22.3105
 20
35.1641
 30
0.0
 10
-22.2901
 20
35.1791
 30
0.0
 10
-22.2773
 20
35.2137
 30
0.0
 10
-22.3016
 20
35.2333
 30
0.0
 10
-22.3016
 20
35.2333
 30
0.0
 10
-22.4321
 20
35.339
 30
0.0
 10
-22.5464
 20
35.4646
 30
0.0
 10
-22.6695
 20
35.579
 30
0.0
 10
-22.6695
 20
35.579
 30
0.0
 10
-22.7991
 20
35.6995
 30
0.0
 10
-22.9292
 20
35.8209
 30
0.0
 10
-22.9813
 20
35.995
 30
0.0
 10
-22.9813
 20
35.995
 30
0.0
 10
-23.0644
 20
36.2722
 30
0.0
 10
-23.1854
 20
36.4694
 30
0.0
 10
-23.411
 20
36.6559
 30
0.0
 10
-23.411
 20
36.6559
 30
0.0
 10
-23.689
 20
36.8856
 30
0.0
 10
-23.9332
 20
37.1469
 30
0.0
 10
-24.1861
 20
37.4043
 30
0.0
 10
-24.1861
 20
37.4043
 30
0.0
 10
-24.315
 20
37.5354
 30
0.0
 10
-24.4457
 20
37.7003
 30
0.0
 10
-24.597
 20
37.8057
 30
0.0
 10
-24.597
 20
37.8057
 30
0.0
 10
-24.6991
 20
37.8768
 30
0.0
 10
-24.837
 20
37.8572
 30
0.0
 10
-24.9543
 20
37.8677
 30
0.0
 10
-24.9543
 20
37.8677
 30
0.0
 10
-24.9812
 20
37.8702
 30
0.0
 10
-25.0065
 20
37.8374
 30
0.0
 10
-24.9968
 20
37.8119
 30
0.0
 10
-24.9968
 20
37.8119
 30
0.0
 10
-24.9203
 20
37.6109
 30
0.0
 10
-24.8509
 20
37.4884
 30
0.0
 10
-24.695
 20
37.3343
 30
0.0
 10
-24.695
 20
37.3343
 30
0.0
 10
-24.5041
 20
37.1457
 30
0.0
 10
-24.3435
 20
36.9485
 30
0.0
 10
-24.1811
 20
36.7347
 30
0.0
 10
-24.1811
 20
36.7347
 30
0.0
 10
-24.1684
 20
36.7569
 30
0.0
 10
-24.1557
 20
36.779
 30
0.0
 10
-24.143
 20
36.8011
 30
0.0
 10
-24.143
 20
36.8011
 30
0.0
 10
-24.3227
 20
36.8169
 30
0.0
 10
-24.5549
 20
36.8051
 30
0.0
 10
-24.6845
 20
36.9443
 30
0.0
 10
-24.6845
 20
36.9443
 30
0.0
 10
-24.7986
 20
37.0667
 30
0.0
 10
-24.8909
 20
37.2218
 30
0.0
 10
-24.9909
 20
37.3562
 30
0.0
 10
-24.9909
 20
37.3562
 30
0.0
 10
-25.0757
 20
37.4704
 30
0.0
 10
-25.1686
 20
37.6579
 30
0.0
 10
-25.2802
 20
37.7452
 30
0.0
 10
-25.2802
 20
37.7452
 30
0.0
 10
-25.3118
 20
37.7699
 30
0.0
 10
-25.3711
 20
37.789
 30
0.0
 10
-25.4107
 20
37.7705
 30
0.0
 10
-25.4107
 20
37.7705
 30
0.0
 10
-25.4583
 20
37.7484
 30
0.0
 10
-25.4812
 20
37.6745
 30
0.0
 10
-25.4881
 20
37.6252
 30
0.0
 10
-25.4881
 20
37.6252
 30
0.0
 10
-25.4996
 20
37.5427
 30
0.0
 10
-25.4635
 20
37.5189
 30
0.0
 10
-25.4059
 20
37.4603
 30
0.0
 10
-25.4059
 20
37.4603
 30
0.0
 10
-25.1692
 20
37.2198
 30
0.0
 10
-24.9096
 20
36.9921
 30
0.0
 10
-24.6925
 20
36.7333
 30
0.0
 10
-24.6925
 20
36.7333
 30
0.0
 10
-24.6296
 20
36.6584
 30
0.0
 10
-24.6159
 20
36.6528
 30
0.0
 10
-24.7009
 20
36.5885
 30
0.0
 10
-24.7009
 20
36.5885
 30
0.0
 10
-24.759
 20
36.5446
 30
0.0
 10
-24.8172
 20
36.5007
 30
0.0
 10
-24.875
 20
36.4564
 30
0.0
 10
-24.875
 20
36.4564
 30
0.0
 10
-24.9934
 20
36.3654
 30
0.0
 10
-25.1109
 20
36.2727
 30
0.0
 10
-25.2217
 20
36.1725
 30
0.0
 10
-25.2217
 20
36.1725
 30
0.0
 10
-25.3056
 20
36.0966
 30
0.0
 10
-25.4015
 20
36.0171
 30
0.0
 10
-25.4576
 20
35.917
 30
0.0
 10
-25.4576
 20
35.917
 30
0.0
 10
-25.5152
 20
35.8143
 30
0.0
 10
-25.5322
 20
35.6951
 30
0.0
 10
-25.574
 20
35.5863
 30
0.0
 10
-25.574
 20
35.5863
 30
0.0
 10
-25.6688
 20
35.3397
 30
0.0
 10
-25.9235
 20
35.1846
 30
0.0
 10
-25.9259
 20
34.9032
 30
0.0
 10
-25.9259
 20
34.9032
 30
0.0
 10
-25.9272
 20
34.7487
 30
0.0
 10
-25.9434
 20
34.5376
 30
0.0
 10
-25.7629
 20
34.5117
 30
0.0
 10
-25.7629
 20
34.5117
 30
0.0
 10
-25.7093
 20
34.504
 30
0.0
 10
-25.6255
 20
34.4904
 30
0.0
 10
-25.578
 20
34.5256
 30
0.0
 10
-25.578
 20
34.5256
 30
0.0
 10
-25.4981
 20
34.5847
 30
0.0
 10
-25.4661
 20
34.8086
 30
0.0
 10
-25.4448
 20
34.901
 30
0.0
 10
-25.4448
 20
34.901
 30
0.0
 10
-25.3743
 20
35.2066
 30
0.0
 10
-25.392
 20
35.5671
 30
0.0
 10
-25.0252
 20
35.6704
 30
0.0
 10
-25.0252
 20
35.6704
 30
0.0
 10
-25.0433
 20
35.6885
 30
0.0
 10
-25.0613
 20
35.7066
 30
0.0
 10
-25.0794
 20
35.7246
 30
0.0
 10
-25.0794
 20
35.7246
 30
0.0
 10
-25.1117
 20
35.4977
 30
0.0
 10
-25.1072
 20
35.3097
 30
0.0
 10
-25.0644
 20
35.0853
 30
0.0
 10
-25.0644
 20
35.0853
 30
0.0
 10
-25.0575
 20
35.0492
 30
0.0
 10
-24.9997
 20
35.0411
 30
0.0
 10
-24.9838
 20
35.0747
 30
0.0
 10
-24.9838
 20
35.0747
 30
0.0
 10
-24.9256
 20
35.1979
 30
0.0
 10
-24.8626
 20
35.3225
 30
0.0
 10
-24.8123
 20
35.4488
 30
0.0
 10
-24.8123
 20
35.4488
 30
0.0
 10
-24.7502
 20
35.6051
 30
0.0
 10
-24.7129
 20
35.7418
 30
0.0
 10
-24.6112
 20
35.8804
 30
0.0
 10
-24.6112
 20
35.8804
 30
0.0
 10
-24.4327
 20
36.1235
 30
0.0
 10
-24.255
 20
36.3493
 30
0.0
 10
-23.9368
 20
36.4016
 30
0.0
 10
-23.9368
 20
36.4016
 30
0.0
 10
-23.7732
 20
36.4284
 30
0.0
 10
-23.4568
 20
36.415
 30
0.0
 10
-23.379
 20
36.2342
 30
0.0
 10
-23.379
 20
36.2342
 30
0.0
 10
-23.3569
 20
36.1826
 30
0.0
 10
-23.3565
 20
36.1063
 30
0.0
 10
-23.3534
 20
36.0509
 30
0.0
 10
-23.3534
 20
36.0509
 30
0.0
 10
-23.3516
 20
36.0187
 30
0.0
 10
-23.3514
 20
35.9864
 30
0.0
 10
-23.3527
 20
35.9542
 30
0.0
 10
-23.3527
 20
35.9542
 30
0.0
 10
-23.312
 20
35.937
 30
0.0
 10
-23.3022
 20
35.9405
 30
0.0
 10
-23.3234
 20
35.9645
 30
0.0
 10
-23.3234
 20
35.9645
 30
0.0
 10
-23.4067
 20
36.1483
 30
0.0
 10
-23.5163
 20
36.0541
 30
0.0
 10
-23.6815
 20
35.9958
 30
0.0
 10
-23.6815
 20
35.9958
 30
0.0
 10
-23.703
 20
35.9882
 30
0.0
 10
-23.7204
 20
35.9654
 30
0.0
 10
-23.7123
 20
35.9416
 30
0.0
 10
-23.7123
 20
35.9416
 30
0.0
 10
-23.6264
 20
35.6875
 30
0.0
 10
-23.4159
 20
35.5456
 30
0.0
 10
-23.2145
 20
35.3744
 30
0.0
 10
-23.2145
 20
35.3744
 30
0.0
 10
-23.0015
 20
35.1934
 30
0.0
 10
-22.8264
 20
35.0867
 30
0.0
 10
-22.5473
 20
35.0394
 30
0.0
 10
-22.5473
 20
35.0394
 30
0.0
 10
-22.4918
 20
35.03
 30
0.0
 10
-22.4679
 20
35.115
 30
0.0
 10
-22.5238
 20
35.1245
 30
0.0
  0
SPLINE
  5
61
330
1F
100
AcDbEntity
  8
_LAYER_1
100
AcDbSpline
210
0.0
220
0.0
230
1.0
 70
    11
 71
     3
 72
   148
 73
   144
 74
     0
 42
0.0000000001
 43
0.0000000001
 12
1.0
 22
0.0
 32
0.0
 13
1.0
 23
0.0
 33
0.0
 40
0.0
 40
0.0
 40
0.0
 40
0.0
 40
0.027027027027027
 40
0.027027027027027
 40
0.027027027027027
 40
0.027027027027027
 40
0.0540540540540541
 40
0.0540540540540541
 40
0.0540540540540541
 40
0.0540540540540541
 40
0.0810810810810811
 40
0.0810810810810811
 40
0.0810810810810811
 40
0.0810810810810811
 40
0.1081081081081081
 40
0.1081081081081081
 40
0.1081081081081081
 40
0.1081081081081081
 40
0.1351351351351351
 40
0.1351351351351351
 40
0.1351351351351351
 40
0.1351351351351351
 40
0.1621621621621622
 40
0.1621621621621622
 40
0.1621621621621622
 40
0.1621621621621622
 40
0.1891891891891892
 40
0.1891891891891892
 40
0.1891891891891892
 40
0.1891891891891892
 40
0.2162162162162162
 40
0.2162162162162162
 40
0.2162162162162162
 40
0.2162162162162162
 40
0.2432432432432433
 40
0.2432432432432433
 40
0.2432432432432433
 40
0.2432432432432433
 40
0.2702702702702703
 40
0.2702702702702703
 40
0.2702702702702703
 40
0.2702702702702703
 40
0.2972972972972973
 40
0.2972972972972973
 40
0.2972972972972973
 40
0.2972972972972973
 40
0.3243243243243243
 40
0.3243243243243243
 40
0.3243243243243243
 40
0.3243243243243243
 40
0.3513513513513514
 40
0.3513513513513514
 40
0.3513513513513514
 40
0.3513513513513514
 40
0.3783783783783784
 40
0.3783783783783784
 40
0.3783783783783784
 40
0.3783783783783784
 40
0.4054054054054054
 40
0.4054054054054054
 40
0.4054054054054054
 40
0.4054054054054054
 40
0.4324324324324325
 40
0.4324324324324325
 40
0.4324324324324325
 40
0.4324324324324325
 40
0.4594594594594595
 40
0.4594594594594595
 40
0.4594594594594595
 40
0.4594594594594595
 40
0.4864864864864865
 40
0.4864864864864865
 40
0.4864864864864865
 40
0.4864864864864865
 40
0.5135135135135135
 40
0.5135135135135135
 40
0.5135135135135135
 40
0.5135135135135135
 40
0.5405405405405406
 40
0.5405405405405406
 40
0.5405405405405406
 40
0.5405405405405406
 40
0.5675675675675675
 40
0.5675675675675675
 40
0.5675675675675675
 40
0.5675675675675675
 40
0.5945945945945946
 40
0.5945945945945946
 40
0.5945945945945946
 40
0.5945945945945946
 40
0.6216216216216216
 40
0.6216216216216216
 40
0.6216216216216216
 40
0.6216216216216216
 40
0.6486486486486487
 40
0.6486486486486487
 40
0.6486486486486487
 40
0.6486486486486487
 40
0.6756756756756757
 40
0.6756756756756757
 40
0.6756756756756757
 40
0.6756756756756757
 40
0.7027027027027027
 40
0.7027027027027027
 40
0.7027027027027027
 40
0.7027027027027027
 40
0.7297297297297297
 40
0.7297297297297297
 40
0.7297297297297297
 40
0.7297297297297297
 40
0.7567567567567568
 40
0.7567567567567568
 40
0.7567567567567568
 40
0.7567567567567568
 40
0.7837837837837838
 40
0.7837837837837838
 40
0.7837837837837838
 40
0.7837837837837838
 40
0.8108108108108109
 40
0.8108108108108109
 40
0.8108108108108109
 40
0.8108108108108109
 40
0.8378378378378378
 40
0.8378378378378378
 40
0.8378378378378378
 40
0.8378378378378378
 40
0.8648648648648649
 40
0.8648648648648649
 40
0.8648648648648649
 40
0.8648648648648649
 40
0.8918918918918919
 40
0.8918918918918919
 40
0.8918918918918919
 40
0.8918918918918919
 40
0.918918918918919
 40
0.918918918918919
 40
0.918918918918919
 40
0.918918918918919
 40
0.9459459459459459
 40
0.9459459459459459
 40
0.9459459459459459
 40
0.9459459459459459
 40
1.0
 40
1.0
 40
1.0
 40
1.0
 10
-14.2645
 20
2.6174
 30
0.0
 10
-14.2642
 20
2.1595
 30
0.0
 10
-14.2591
 20
1.7015
 30
0.0
 10
-14.262
 20
1.2436
 30
0.0
 10
-14.262
 20
1.2436
 30
0.0
 10
-14.2645
 20
0.8424
 30
0.0
 10
-14.3413
 20
0.453
 30
0.0
 10
-14.3428
 20
0.0509
 30
0.0
 10
-14.3428
 20
0.0509
 30
0.0
 10
-14.3442
 20
-0.365
 30
0.0
 10
-14.3318
 20
-0.7808
 30
0.0
 10
-14.3509
 20
-1.1963
 30
0.0
 10
-14.3509
 20
-1.1963
 30
0.0
 10
-14.3605
 20
-1.4064
 30
0.0
 10
-14.3709
 20
-1.6163
 30
0.0
 10
-14.3826
 20
-1.8263
 30
0.0
 10
-14.3826
 20
-1.8263
 30
0.0
 10
-14.3941
 20
-2.0324
 30
0.0
 10
-14.3722
 20
-2.28
 30
0.0
 10
-14.4838
 20
-2.4607
 30
0.0
 10
-14.4838
 20
-2.4607
 30
0.0
 10
-14.4584
 20
-2.4607
 30
0.0
 10
-14.433
 20
-2.4607
 30
0.0
 10
-14.4077
 20
-2.4607
 30
0.0
 10
-14.4077
 20
-2.4607
 30
0.0
 10
-14.5034
 20
-2.3142
 30
0.0
 10
-14.4706
 20
-2.1194
 30
0.0
 10
-14.4658
 20
-1.9526
 30
0.0
 10
-14.4658
 20
-1.9526
 30
0.0
 10
-14.4615
 20
-1.8063
 30
0.0
 10
-14.4572
 20
-1.6599
 30
0.0
 10
-14.4527
 20
-1.5136
 30
0.0
 10
-14.4527
 20
-1.5136
 30
0.0
 10
-14.4434
 20
-1.2062
 30
0.0
 10
-14.4337
 20
-0.8989
 30
0.0
 10
-14.4243
 20
-0.5916
 30
0.0
 10
-14.4243
 20
-0.5916
 30
0.0
 10
-14.4058
 20
0.0199
 30
0.0
 10
-14.3883
 20
0.6314
 30
0.0
 10
-14.3671
 20
1.2428
 30
0.0
 10
-14.3671
 20
1.2428
 30
0.0
 10
-14.3464
 20
1.8393
 30
0.0
 10
-14.3284
 20
2.4359
 30
0.0
 10
-14.3091
 20
3.0325
 30
0.0
 10
-14.3091
 20
3.0325
 30
0.0
 10
-14.2993
 20
3.3383
 30
0.0
 10
-14.2888
 20
3.644
 30
0.0
 10
-14.2788
 20
3.9498
 30
0.0
 10
-14.2788
 20
3.9498
 30
0.0
 10
-14.2684
 20
4.2625
 30
0.0
 10
-14.3119
 20
4.6438
 30
0.0
 10
-14.2154
 20
4.9417
 30
0.0
 10
-14.2154
 20
4.9417
 30
0.0
 10
-14.2438
 20
4.9417
 30
0.0
 10
-14.2721
 20
4.9417
 30
0.0
 10
-14.3005
 20
4.9417
 30
0.0
 10
-14.3005
 20
4.9417
 30
0.0
 10
-14.1707
 20
4.5356
 30
0.0
 10
-14.1481
 20
4.071
 30
0.0
 10
-14.1987
 20
3.6495
 30
0.0
 10
-14.1987
 20
3.6495
 30
0.0
 10
-14.2215
 20
3.4597
 30
0.0
 10
-14.2928
 20
3.2762
 30
0.0
 10
-14.3129
 20
3.0882
 30
0.0
 10
-14.3129
 20
3.0882
 30
0.0
 10
-14.3296
 20
2.9315
 30
0.0
 10
-14.2777
 20
2.7725
 30
0.0
 10
-14.2645
 20
2.6174
 30
0.0
 10
-14.2645
 20
2.6174
 30
0.0
 10
-14.2597
 20
2.5612
 30
0.0
 10
-14.1714
 20
2.5607
 30
0.0
 10
-14.1763
 20
2.6174
 30
0.0
 10
-14.1763
 20
2.6174
 30
0.0
 10
-14.1943
 20
2.828
 30
0.0
 10
-14.2371
 20
3.0035
 30
0.0
 10
-14.1919
 20
3.2148
 30
0.0
 10
-14.1919
 20
3.2148
 30
0.0
 10
-14.1524
 20
3.3994
 30
0.0
 10
-14.1129
 20
3.5802
 30
0.0
 10
-14.0979
 20
3.7689
 30
0.0
 10
-14.0979
 20
3.7689
 30
0.0
 10
-14.0668
 20
4.1601
 30
0.0
 10
-14.0954
 20
4.5894
 30
0.0
 10
-14.2154
 20
4.9651
 30
0.0
 10
-14.2154
 20
4.9651
 30
0.0
 10
-14.2288
 20
5.0071
 30
0.0
 10
-14.2869
 20
5.0069
 30
0.0
 10
-14.3005
 20
4.9651
 30
0.0
 10
-14.3005
 20
4.9651
 30
0.0
 10
-14.3889
 20
4.6922
 30
0.0
 10
-14.3533
 20
4.3661
 30
0.0
 10
-14.3626
 20
4.0811
 30
0.0
 10
-14.3626
 20
4.0811
 30
0.0
 10
-14.3731
 20
3.7606
 30
0.0
 10
-14.3841
 20
3.4402
 30
0.0
 10
-14.3945
 20
3.1197
 30
0.0
 10
-14.3945
 20
3.1197
 30
0.0
 10
-14.4158
 20
2.465
 30
0.0
 10
-14.4356
 20
1.8102
 30
0.0
 10
-14.4583
 20
1.1555
 30
0.0
 10
-14.4583
 20
1.1555
 30
0.0
 10
-14.4805
 20
0.5147
 30
0.0
 10
-14.4982
 20
-0.1263
 30
0.0
 10
-14.5179
 20
-0.7672
 30
0.0
 10
-14.5179
 20
-0.7672
 30
0.0
 10
-14.5278
 20
-1.0892
 30
0.0
 10
-14.5379
 20
-1.4111
 30
0.0
 10
-14.5475
 20
-1.7331
 30
0.0
 10
-14.5475
 20
-1.7331
 30
0.0
 10
-14.5551
 20
-1.9873
 30
0.0
 10
-14.6277
 20
-2.2852
 30
0.0
 10
-14.4838
 20
-2.5052
 30
0.0
 10
-14.4838
 20
-2.5052
 30
0.0
 10
-14.4656
 20
-2.533
 30
0.0
 10
-14.4256
 20
-2.5343
 30
0.0
 10
-14.4077
 20
-2.5052
 30
0.0
 10
-14.4077
 20
-2.5052
 30
0.0
 10
-14.3264
 20
-2.3735
 30
0.0
 10
-14.3219
 20
-2.2831
 30
0.0
 10
-14.3121
 20
-2.1258
 30
0.0
 10
-14.3121
 20
-2.1258
 30
0.0
 10
-14.2987
 20
-1.9102
 30
0.0
 10
-14.2869
 20
-1.6944
 30
0.0
 10
-14.2762
 20
-1.4786
 30
0.0
 10
-14.2762
 20
-1.4786
 30
0.0
 10
-14.2535
 20
-1.023
 30
0.0
 10
-14.2542
 20
-0.57
 30
0.0
 10
-14.2547
 20
-0.114
 30
0.0
 10
-14.2547
 20
-0.114
 30
0.0
 10
-14.2549
 20
0.1227
 30
0.0
 10
-14.2627
 20
0.3608
 30
0.0
 10
-14.2279
 20
0.5954
 30
0.0
 10
-14.2279
 20
0.5954
 30
0.0
 10
-14.1996
 20
0.7854
 30
0.0
 10
-14.1761
 20
0.9653
 30
0.0
 10
-14.1744
 20
1.1582
 30
0.0
 10
-14.1744
 20
1.1582
 30
0.0
 10
-14.1702
 20
1.6445
 30
0.0
 10
-14.176
 20
2.131
 30
0.0
 10
-14.1763
 20
2.6174
 30
0.0
 10
-14.1763
 20
2.6174
 30
0.0
 10
-14.1763
 20
2.6741
 30
0.0
 10
-14.2645
 20
2.6742
 30
0.0
 10
-14.2645
 20
2.6174
 30
0.0
  0
SPLINE
  5
62
330
1F
100
AcDbEntity
  8
_LAYER_1
100
AcDbSpline
210
0.0
220
0.0
230
1.0
 70
    11
 71
     3
 72
    84
 73
    80
 74
     0
 42
0.0000000001
 43
0.0000000001
 12
1.0
 22
0.0
 32
0.0
 13
1.0
 23
0.0
 33
0.0
 40
0.0
 40
0.0
 40
0.0
 40
0.0
 40
0.0476190476190476
 40
0.0476190476190476
 40
0.0476190476190476
 40
0.0476190476190476
 40
0.0952380952380952
 40
0.0952380952380952
 40
0.0952380952380952
 40
0.0952380952380952
 40
0.1428571428571428
 40
0.1428571428571428
 40
0.1428571428571428
 40
0.1428571428571428
 40
0.1904761904761905
 40
0.1904761904761905
 40
0.1904761904761905
 40
0.1904761904761905
 40
0.2380952380952381
 40
0.2380952380952381
 40
0.2380952380952381
 40
0.2380952380952381
 40
0.2857142857142857
 40
0.2857142857142857
 40
0.2857142857142857
 40
0.2857142857142857
 40
0.3333333333333333
 40
0.3333333333333333
 40
0.3333333333333333
 40
0.3333333333333333
 40
0.3809523809523809
 40
0.3809523809523809
 40
0.3809523809523809
 40
0.3809523809523809
 40
0.4285714285714285
 40
0.4285714285714285
 40
0.4285714285714285
 40
0.4285714285714285
 40
0.4761904761904762
 40
0.4761904761904762
 40
0.4761904761904762
 40
0.4761904761904762
 40
0.5238095238095238
 40
0.5238095238095238
 40
0.5238095238095238
 40
0.5238095238095238
 40
0.5714285714285714
 40
0.5714285714285714
 40
0.5714285714285714
 40
0.5714285714285714
 40
0.6190476190476191
 40
0.6190476190476191
 40
0.6190476190476191
 40
0.6190476190476191
 40
0.6666666666666666
 40
0.6666666666666666
 40
0.6666666666666666
 40
0.6666666666666666
 40
0.7142857142857143
 40
0.7142857142857143
 40
0.7142857142857143
 40
0.7142857142857143
 40
0.7619047619047619
 40
0.7619047619047619
 40
0.7619047619047619
 40
0.7619047619047619
 40
0.8095238095238095
 40
0.8095238095238095
 40
0.8095238095238095
 40
0.8095238095238095
 40
0.8571428571428571
 40
0.8571428571428571
 40
0.8571428571428571
 40
0.8571428571428571
 40
0.9047619047619048
 40
0.9047619047619048
 40
0.9047619047619048
 40
0.9047619047619048
 40
1.0
 40
1.0
 40
1.0
 40
1.0
 10
-14.1127
 20
6.6928
 30
0.0
 10
-14.1344
 20
6.5732
 30
0.0
 10
-14.1435
 20
6.4518
 30
0.0
 10
-14.1653
 20
6.3323
 30
0.0
 10
-14.1653
 20
6.3323
 30
0.0
 10
-14.1364
 20
6.3283
 30
0.0
 10
-14.1075
 20
6.3244
 30
0.0
 10
-14.0786
 20
6.3205
 30
0.0
 10
-14.0786
 20
6.3205
 30
0.0
 10
-14.0887
 20
6.4781
 30
0.0
 10
-14.1135
 20
6.6329
 30
0.0
 10
-14.0929
 20
6.7907
 30
0.0
 10
-14.0929
 20
6.7907
 30
0.0
 10
-14.0823
 20
6.8714
 30
0.0
 10
-14.0679
 20
6.9515
 30
0.0
 10
-14.0525
 20
7.0314
 30
0.0
 10
-14.0525
 20
7.0314
 30
0.0
 10
-14.0374
 20
7.1103
 30
0.0
 10
-14.0275
 20
7.1784
 30
0.0
 10
-13.9795
 20
7.2447
 30
0.0
 10
-13.9795
 20
7.2447
 30
0.0
 10
-14.0064
 20
7.2482
 30
0.0
 10
-14.0332
 20
7.2517
 30
0.0
 10
-14.0601
 20
7.2552
 30
0.0
 10
-14.0601
 20
7.2552
 30
0.0
 10
-14.052
 20
7.1976
 30
0.0
 10
-14.0364
 20
7.1342
 30
0.0
 10
-14.0413
 20
7.0763
 30
0.0
 10
-14.0413
 20
7.0763
 30
0.0
 10
-14.0456
 20
7.0254
 30
0.0
 10
-14.0558
 20
6.9743
 30
0.0
 10
-14.065
 20
6.9241
 30
0.0
 10
-14.065
 20
6.9241
 30
0.0
 10
-14.0791
 20
6.8467
 30
0.0
 10
-14.0971
 20
6.77
 30
0.0
 10
-14.1127
 20
6.6928
 30
0.0
 10
-14.1127
 20
6.6928
 30
0.0
 10
-14.1239
 20
6.6374
 30
0.0
 10
-14.0389
 20
6.6137
 30
0.0
 10
-14.0276
 20
6.6694
 30
0.0
 10
-14.0276
 20
6.6694
 30
0.0
 10
-14.0102
 20
6.7559
 30
0.0
 10
-13.99
 20
6.8418
 30
0.0
 10
-13.9749
 20
6.9289
 30
0.0
 10
-13.9749
 20
6.9289
 30
0.0
 10
-13.9657
 20
6.9822
 30
0.0
 10
-13.9515
 20
7.0401
 30
0.0
 10
-13.9509
 20
7.0942
 30
0.0
 10
-13.9509
 20
7.0942
 30
0.0
 10
-13.9503
 20
7.1541
 30
0.0
 10
-13.9667
 20
7.2193
 30
0.0
 10
-13.9751
 20
7.2787
 30
0.0
 10
-13.9751
 20
7.2787
 30
0.0
 10
-13.9809
 20
7.3205
 30
0.0
 10
-14.0364
 20
7.3159
 30
0.0
 10
-14.0557
 20
7.2892
 30
0.0
 10
-14.0557
 20
7.2892
 30
0.0
 10
-14.1047
 20
7.2214
 30
0.0
 10
-14.1184
 20
7.1537
 30
0.0
 10
-14.1341
 20
7.0729
 30
0.0
 10
-14.1341
 20
7.0729
 30
0.0
 10
-14.1503
 20
6.9891
 30
0.0
 10
-14.1655
 20
6.9051
 30
0.0
 10
-14.1771
 20
6.8205
 30
0.0
 10
-14.1771
 20
6.8205
 30
0.0
 10
-14.2003
 20
6.6515
 30
0.0
 10
-14.1776
 20
6.4894
 30
0.0
 10
-14.1668
 20
6.3205
 30
0.0
 10
-14.1668
 20
6.3205
 30
0.0
 10
-14.1639
 20
6.274
 30
0.0
 10
-14.0896
 20
6.257
 30
0.0
 10
-14.0802
 20
6.3088
 30
0.0
 10
-14.0802
 20
6.3088
 30
0.0
 10
-14.0585
 20
6.4284
 30
0.0
 10
-14.0493
 20
6.5498
 30
0.0
 10
-14.0276
 20
6.6694
 30
0.0
 10
-14.0276
 20
6.6694
 30
0.0
 10
-14.0176
 20
6.7249
 30
0.0
 10
-14.1025
 20
6.7486
 30
0.0
 10
-14.1127
 20
6.6928
 30
0.0
  0
SPLINE
  5
63
330
1F
100
AcDbEntity
  8
_LAYER_1
100
AcDbSpline
210
0.0
220
0.0
230
1.0
 70
    11
 71
     3
 72
   104
 73
   100
 74
     0
 42
0.0000000001
 43
0.0000000001
 12
1.0
 22
0.0
 32
0.0
 13
1.0
 23
0.0
 33
0.0
 40
0.0
 40
0.0
 40
0.0
 40
0.0
 40
0.0384615384615385
 40
0.0384615384615385
 40
0.0384615384615385
 40
0.0384615384615385
 40
0.0769230769230769
 40
0.0769230769230769
 40
0.0769230769230769
 40
0.0769230769230769
 40
0.1153846153846154
 40
0.1153846153846154
 40
0.1153846153846154
 40
0.1153846153846154
 40
0.1538461538461539
 40
0.1538461538461539
 40
0.1538461538461539
 40
0.1538461538461539
 40
0.1923076923076923
 40
0.1923076923076923
 40
0.1923076923076923
 40
0.1923076923076923
 40
0.2307692307692308
 40
0.2307692307692308
 40
0.2307692307692308
 40
0.2307692307692308
 40
0.2692307692307692
 40
0.2692307692307692
 40
0.2692307692307692
 40
0.2692307692307692
 40
0.3076923076923077
 40
0.3076923076923077
 40
0.3076923076923077
 40
0.3076923076923077
 40
0.3461538461538461
 40
0.3461538461538461
 40
0.3461538461538461
 40
0.3461538461538461
 40
0.3846153846153846
 40
0.3846153846153846
 40
0.3846153846153846
 40
0.3846153846153846
 40
0.4230769230769231
 40
0.4230769230769231
 40
0.4230769230769231
 40
0.4230769230769231
 40
0.4615384615384616
 40
0.4615384615384616
 40
0.4615384615384616
 40
0.4615384615384616
 40
0.5
 40
0.5
 40
0.5
 40
0.5
 40
0.5384615384615384
 40
0.5384615384615384
 40
0.5384615384615384
 40
0.5384615384615384
 40
0.5769230769230769
 40
0.5769230769230769
 40
0.5769230769230769
 40
0.5769230769230769
 40
0.6153846153846154
 40
0.6153846153846154
 40
0.6153846153846154
 40
0.6153846153846154
 40
0.6538461538461539
 40
0.6538461538461539
 40
0.6538461538461539
 40
0.6538461538461539
 40
0.6923076923076923
 40
0.6923076923076923
 40
0.6923076923076923
 40
0.6923076923076923
 40
0.7307692307692307
 40
0.7307692307692307
 40
0.7307692307692307
 40
0.7307692307692307
 40
0.7692307692307693
 40
0.7692307692307693
 40
0.7692307692307693
 40
0.7692307692307693
 40
0.8076923076923077
 40
0.8076923076923077
 40
0.8076923076923077
 40
0.8076923076923077
 40
0.8461538461538461
 40
0.8461538461538461
 40
0.8461538461538461
 40
0.8461538461538461
 40
0.8846153846153846
 40
0.8846153846153846
 40
0.8846153846153846
 40
0.8846153846153846
 40
0.9230769230769231
 40
0.9230769230769231
 40
0.9230769230769231
 40
0.9230769230769231
 40
1.0
 40
1.0
 40
1.0
 40
1.0
 10
-2.3679
 20
1.0853
 30
0.0
 10
-2.3504
 20
1.0616
 30
0.0
 10
-2.3283
 20
1.0332
 30
0.0
 10
-2.3213
 20
1.0039
 30
0.0
 10
-2.3213
 20
1.0039
 30
0.0
 10
-2.3135
 20
0.9706
 30
0.0
 10
-2.3157
 20
0.9313
 30
0.0
 10
-2.3157
 20
0.8973
 30
0.0
 10
-2.3157
 20
0.8973
 30
0.0
 10
-2.3157
 20
0.8631
 30
0.0
 10
-2.3134
 20
0.8239
 30
0.0
 10
-2.3213
 20
0.7906
 30
0.0
 10
-2.3213
 20
0.7906
 30
0.0
 10
-2.3283
 20
0.7613
 30
0.0
 10
-2.3504
 20
0.7329
 30
0.0
 10
-2.3679
 20
0.7092
 30
0.0
 10
-2.3679
 20
0.7092
 30
0.0
 10
-2.341
 20
0.7057
 30
0.0
 10
-2.3142
 20
0.7021
 30
0.0
 10
-2.2873
 20
0.6986
 30
0.0
 10
-2.2873
 20
0.6986
 30
0.0
 10
-2.2934
 20
0.7414
 30
0.0
 10
-2.2988
 20
0.7842
 30
0.0
 10
-2.3042
 20
0.8269
 30
0.0
 10
-2.3042
 20
0.8269
 30
0.0
 10
-2.3096
 20
0.8701
 30
0.0
 10
-2.3053
 20
0.9125
 30
0.0
 10
-2.3021
 20
0.9557
 30
0.0
 10
-2.3021
 20
0.9557
 30
0.0
 10
-2.2999
 20
0.9842
 30
0.0
 10
-2.2974
 20
1.0127
 30
0.0
 10
-2.2942
 20
1.0411
 30
0.0
 10
-2.2942
 20
1.0411
 30
0.0
 10
-2.293
 20
1.0521
 30
0.0
 10
-2.2917
 20
1.063
 30
0.0
 10
-2.2903
 20
1.0739
 30
0.0
 10
-2.2903
 20
1.0739
 30
0.0
 10
-2.29
 20
1.0762
 30
0.0
 10
-2.2897
 20
1.0785
 30
0.0
 10
-2.2894
 20
1.0809
 30
0.0
 10
-2.2894
 20
1.0809
 30
0.0
 10
-2.2898
 20
1.0776
 30
0.0
 10
-2.2903
 20
1.0741
 30
0.0
 10
-2.2896
 20
1.0794
 30
0.0
 10
-2.2896
 20
1.0794
 30
0.0
 10
-2.2888
 20
1.0849
 30
0.0
 10
-2.2881
 20
1.0904
 30
0.0
 10
-2.2873
 20
1.0958
 30
0.0
 10
-2.2873
 20
1.0958
 30
0.0
 10
-2.284
 20
1.1194
 30
0.0
 10
-2.2931
 20
1.1432
 30
0.0
 10
-2.3181
 20
1.1501
 30
0.0
 10
-2.3181
 20
1.1501
 30
0.0
 10
-2.3388
 20
1.1558
 30
0.0
 10
-2.369
 20
1.143
 30
0.0
 10
-2.3724
 20
1.1193
 30
0.0
 10
-2.3724
 20
1.1193
 30
0.0
 10
-2.3801
 20
1.0649
 30
0.0
 10
-2.3861
 20
1.0105
 30
0.0
 10
-2.3902
 20
0.9557
 30
0.0
 10
-2.3902
 20
0.9557
 30
0.0
 10
-2.3936
 20
0.9109
 30
0.0
 10
-2.3974
 20
0.8675
 30
0.0
 10
-2.3918
 20
0.8229
 30
0.0
 10
-2.3918
 20
0.8229
 30
0.0
 10
-2.3857
 20
0.7736
 30
0.0
 10
-2.3793
 20
0.7244
 30
0.0
 10
-2.3724
 20
0.6752
 30
0.0
 10
-2.3724
 20
0.6752
 30
0.0
 10
-2.37
 20
0.6585
 30
0.0
 10
-2.3509
 20
0.6454
 30
0.0
 10
-2.3357
 20
0.6436
 30
0.0
 10
-2.3357
 20
0.6436
 30
0.0
 10
-2.3168
 20
0.6413
 30
0.0
 10
-2.3027
 20
0.6498
 30
0.0
 10
-2.2918
 20
0.6647
 30
0.0
 10
-2.2918
 20
0.6647
 30
0.0
 10
-2.2691
 20
0.6954
 30
0.0
 10
-2.2466
 20
0.7299
 30
0.0
 10
-2.2363
 20
0.7671
 30
0.0
 10
-2.2363
 20
0.7671
 30
0.0
 10
-2.2251
 20
0.8073
 30
0.0
 10
-2.2275
 20
0.8557
 30
0.0
 10
-2.2275
 20
0.8973
 30
0.0
 10
-2.2275
 20
0.8973
 30
0.0
 10
-2.2275
 20
0.9387
 30
0.0
 10
-2.2251
 20
0.9871
 30
0.0
 10
-2.2363
 20
1.0274
 30
0.0
 10
-2.2363
 20
1.0274
 30
0.0
 10
-2.2466
 20
1.0645
 30
0.0
 10
-2.2691
 20
1.0991
 30
0.0
 10
-2.2918
 20
1.1298
 30
0.0
 10
-2.2918
 20
1.1298
 30
0.0
 10
-2.3059
 20
1.149
 30
0.0
 10
-2.33
 20
1.1586
 30
0.0
 10
-2.3521
 20
1.1456
 30
0.0
 10
-2.3521
 20
1.1456
 30
0.0
 10
-2.3709
 20
1.1346
 30
0.0
 10
-2.3821
 20
1.1046
 30
0.0
 10
-2.3679
 20
1.0853
 30
0.0
  0
SPLINE
  5
64
330
1F
100
AcDbEntity
  8
_LAYER_1
100
AcDbSpline
210
0.0
220
0.0
230
1.0
 70
    11
 71
     3
 72
   100
 73
    96
 74
     0
 42
0.0000000001
 43
0.0000000001
 12
1.0
 22
0.0
 32
0.0
 13
1.0
 23
0.0
 33
0.0
 40
0.0
 40
0.0
 40
0.0
 40
0.0
 40
0.04
 40
0.04
 40
0.04
 40
0.04
 40
0.08
 40
0.08
 40
0.08
 40
0.08
 40
0.12
 40
0.12
 40
0.12
 40
0.12
 40
0.16
 40
0.16
 40
0.16
 40
0.16
 40
0.2
 40
0.2
 40
0.2
 40
0.2
 40
0.24
 40
0.24
 40
0.24
 40
0.24
 40
0.28
 40
0.28
 40
0.28
 40
0.28
 40
0.32
 40
0.32
 40
0.32
 40
0.32
 40
0.36
 40
0.36
 40
0.36
 40
0.36
 40
0.4
 40
0.4
 40
0.4
 40
0.4
 40
0.44
 40
0.44
 40
0.44
 40
0.44
 40
0.48
 40
0.48
 40
0.48
 40
0.48
 40
0.52
 40
0.52
 40
0.52
 40
0.52
 40
0.56
 40
0.56
 40
0.56
 40
0.56
 40
0.6
 40
0.6
 40
0.6
 40
0.6
 40
0.64
 40
0.64
 40
0.64
 40
0.64
 40
0.68
 40
0.68
 40
0.68
 40
0.68
 40
0.72
 40
0.72
 40
0.72
 40
0.72
 40
0.76
 40
0.76
 40
0.76
 40
0.76
 40
0.8
 40
0.8
 40
0.8
 40
0.8
 40
0.84
 40
0.84
 40
0.84
 40
0.84
 40
0.88
 40
0.88
 40
0.88
 40
0.88
 40
0.92
 40
0.92
 40
0.92
 40
0.92
 40
1.0
 40
1.0
 40
1.0
 40
1.0
 10
-4.7443
 20
11.0427
 30
0.0
 10
-5.1055
 20
11.1576
 30
0.0
 10
-5.3975
 20
11.395
 30
0.0
 10
-5.6973
 20
11.6174
 30
0.0
 10
-5.6973
 20
11.6174
 30
0.0
 10
-5.8409
 20
11.724
 30
0.0
 10
-5.9889
 20
11.8173
 30
0.0
 10
-6.1436
 20
11.9068
 30
0.0
 10
-6.1436
 20
11.9068
 30
0.0
 10
-6.3253
 20
12.012
 30
0.0
 10
-6.5365
 20
12.1427
 30
0.0
 10
-6.6484
 20
12.3219
 30
0.0
 10
-6.6484
 20
12.3219
 30
0.0
 10
-6.6572
 20
12.3003
 30
0.0
 10
-6.6659
 20
12.2787
 30
0.0
 10
-6.6747
 20
12.2571
 30
0.0
 10
-6.6747
 20
12.2571
 30
0.0
 10
-6.5254
 20
12.288
 30
0.0
 10
-6.3922
 20
12.1858
 30
0.0
 10
-6.2628
 20
12.1194
 30
0.0
 10
-6.2628
 20
12.1194
 30
0.0
 10
-6.1361
 20
12.0542
 30
0.0
 10
-6.0093
 20
11.9894
 30
0.0
 10
-5.883
 20
11.9235
 30
0.0
 10
-5.883
 20
11.9235
 30
0.0
 10
-5.7628
 20
11.8608
 30
0.0
 10
-5.643
 20
11.7971
 30
0.0
 10
-5.5243
 20
11.7314
 30
0.0
 10
-5.5243
 20
11.7314
 30
0.0
 10
-5.4137
 20
11.6702
 30
0.0
 10
-5.2724
 20
11.6175
 30
0.0
 10
-5.2077
 20
11.5042
 30
0.0
 10
-5.2077
 20
11.5042
 30
0.0
 10
-5.166
 20
11.4312
 30
0.0
 10
-5.1426
 20
11.3492
 30
0.0
 10
-5.0898
 20
11.2825
 30
0.0
 10
-5.0898
 20
11.2825
 30
0.0
 10
-5.0412
 20
11.221
 30
0.0
 10
-4.9709
 20
11.1784
 30
0.0
 10
-4.9069
 20
11.1349
 30
0.0
 10
-4.9069
 20
11.1349
 30
0.0
 10
-4.7641
 20
11.0376
 30
0.0
 10
-4.6379
 20
10.9299
 30
0.0
 10
-4.4673
 20
10.8825
 30
0.0
 10
-4.4673
 20
10.8825
 30
0.0
 10
-4.4125
 20
10.8673
 30
0.0
 10
-4.3892
 20
10.9524
 30
0.0
 10
-4.4438
 20
10.9676
 30
0.0
 10
-4.4438
 20
10.9676
 30
0.0
 10
-4.5036
 20
10.9841
 30
0.0
 10
-4.5405
 20
11.0169
 30
0.0
 10
-4.5941
 20
11.0427
 30
0.0
 10
-4.5941
 20
11.0427
 30
0.0
 10
-4.6488
 20
11.0691
 30
0.0
 10
-4.6922
 20
11.0843
 30
0.0
 10
-4.7411
 20
11.1238
 30
0.0
 10
-4.7411
 20
11.1238
 30
0.0
 10
-4.8049
 20
11.1755
 30
0.0
 10
-4.8757
 20
11.2173
 30
0.0
 10
-4.9417
 20
11.2661
 30
0.0
 10
-4.9417
 20
11.2661
 30
0.0
 10
-5.0967
 20
11.3809
 30
0.0
 10
-5.1043
 20
11.5901
 30
0.0
 10
-5.2742
 20
11.691
 30
0.0
 10
-5.2742
 20
11.691
 30
0.0
 10
-5.5197
 20
11.8368
 30
0.0
 10
-5.7745
 20
11.9673
 30
0.0
 10
-6.0283
 20
12.0979
 30
0.0
 10
-6.0283
 20
12.0979
 30
0.0
 10
-6.1612
 20
12.1663
 30
0.0
 10
-6.2944
 20
12.2343
 30
0.0
 10
-6.4269
 20
12.3033
 30
0.0
 10
-6.4269
 20
12.3033
 30
0.0
 10
-6.5363
 20
12.3602
 30
0.0
 10
-6.5794
 20
12.3667
 30
0.0
 10
-6.6982
 20
12.3422
 30
0.0
 10
-6.6982
 20
12.3422
 30
0.0
 10
-6.7258
 20
12.3365
 30
0.0
 10
-6.7389
 20
12.3004
 30
0.0
 10
-6.7245
 20
12.2774
 30
0.0
 10
-6.7245
 20
12.2774
 30
0.0
 10
-6.6193
 20
12.1089
 30
0.0
 10
-6.4561
 20
12.0034
 30
0.0
 10
-6.2912
 20
11.8946
 30
0.0
 10
-6.2912
 20
11.8946
 30
0.0
 10
-6.1182
 20
11.7805
 30
0.0
 10
-5.937
 20
11.6849
 30
0.0
 10
-5.7693
 20
11.5617
 30
0.0
 10
-5.7693
 20
11.5617
 30
0.0
 10
-5.4526
 20
11.3287
 30
0.0
 10
-5.1482
 20
11.0787
 30
0.0
 10
-4.7678
 20
10.9577
 30
0.0
 10
-4.7678
 20
10.9577
 30
0.0
 10
-4.7135
 20
10.9404
 30
0.0
 10
-4.6903
 20
11.0255
 30
0.0
 10
-4.7443
 20
11.0427
 30
0.0
  0
SPLINE
  5
65
330
1F
100
AcDbEntity
  8
_LAYER_1
100
AcDbSpline
210
0.0
220
0.0
230
1.0
 70
    11
 71
     3
 72
    12
 73
     8
 74
     0
 42
0.0000000001
 43
0.0000000001
 12
1.0
 22
0.0
 32
0.0
 13
1.0
 23
0.0
 33
0.0
 40
0.0
 40
0.0
 40
0.0
 40
0.0
 40
0.3333333333333333
 40
0.3333333333333333
 40
0.3333333333333333
 40
0.3333333333333333
 40
1.0
 40
1.0
 40
1.0
 40
1.0
 10
-4.6058
 20
10.8809
 30
0.0
 10
-4.5491
 20
10.8809
 30
0.0
 10
-4.549
 20
10.9691
 30
0.0
 10
-4.6058
 20
10.9691
 30
0.0
 10
-4.6058
 20
10.9691
 30
0.0
 10
-4.6626
 20
10.9691
 30
0.0
 10
-4.6626
 20
10.8809
 30
0.0
 10
-4.6058
 20
10.8809
 30
0.0
  0
SPLINE
  5
66
330
1F
100
AcDbEntity
  8
_LAYER_1
100
AcDbSpline
210
0.0
220
0.0
230
1.0
 70
    11
 71
     3
 72
   120
 73
   116
 74
     0
 42
0.0000000001
 43
0.0000000001
 12
1.0
 22
0.0
 32
0.0
 13
1.0
 23
0.0
 33
0.0
 40
0.0
 40
0.0
 40
0.0
 40
0.0
 40
0.0333333333333333
 40
0.0333333333333333
 40
0.0333333333333333
 40
0.0333333333333333
 40
0.0666666666666667
 40
0.0666666666666667
 40
0.0666666666666667
 40
0.0666666666666667
 40
0.1
 40
0.1
 40
0.1
 40
0.1
 40
0.1333333333333333
 40
0.1333333333333333
 40
0.1333333333333333
 40
0.1333333333333333
 40
0.1666666666666667
 40
0.1666666666666667
 40
0.1666666666666667
 40
0.1666666666666667
 40
0.2
 40
0.2
 40
0.2
 40
0.2
 40
0.2333333333333333
 40
0.2333333333333333
 40
0.2333333333333333
 40
0.2333333333333333
 40
0.2666666666666667
 40
0.2666666666666667
 40
0.2666666666666667
 40
0.2666666666666667
 40
0.3
 40
0.3
 40
0.3
 40
0.3
 40
0.3333333333333333
 40
0.3333333333333333
 40
0.3333333333333333
 40
0.3333333333333333
 40
0.3666666666666666
 40
0.3666666666666666
 40
0.3666666666666666
 40
0.3666666666666666
 40
0.4
 40
0.4
 40
0.4
 40
0.4
 40
0.4333333333333333
 40
0.4333333333333333
 40
0.4333333333333333
 40
0.4333333333333333
 40
0.4666666666666667
 40
0.4666666666666667
 40
0.4666666666666667
 40
0.4666666666666667
 40
0.5
 40
0.5
 40
0.5
 40
0.5
 40
0.5333333333333333
 40
0.5333333333333333
 40
0.5333333333333333
 40
0.5333333333333333
 40
0.5666666666666667
 40
0.5666666666666667
 40
0.5666666666666667
 40
0.5666666666666667
 40
0.6
 40
0.6
 40
0.6
 40
0.6
 40
0.6333333333333333
 40
0.6333333333333333
 40
0.6333333333333333
 40
0.6333333333333333
 40
0.6666666666666666
 40
0.6666666666666666
 40
0.6666666666666666
 40
0.6666666666666666
 40
0.7
 40
0.7
 40
0.7
 40
0.7
 40
0.7333333333333333
 40
0.7333333333333333
 40
0.7333333333333333
 40
0.7333333333333333
 40
0.7666666666666667
 40
0.7666666666666667
 40
0.7666666666666667
 40
0.7666666666666667
 40
0.8
 40
0.8
 40
0.8
 40
0.8
 40
0.8333333333333334
 40
0.8333333333333334
 40
0.8333333333333334
 40
0.8333333333333334
 40
0.8666666666666667
 40
0.8666666666666667
 40
0.8666666666666667
 40
0.8666666666666667
 40
0.9
 40
0.9
 40
0.9
 40
0.9
 40
0.9333333333333333
 40
0.9333333333333333
 40
0.9333333333333333
 40
0.9333333333333333
 40
1.0
 40
1.0
 40
1.0
 40
1.0
 10
-8.512
 20
5.2319
 30
0.0
 10
-8.6507
 20
5.3269
 30
0.0
 10
-8.6812
 20
5.5302
 30
0.0
 10
-8.7273
 20
5.683
 30
0.0
 10
-8.7273
 20
5.683
 30
0.0
 10
-8.7686
 20
5.8197
 30
0.0
 10
-8.8085
 20
5.9568
 30
0.0
 10
-8.8442
 20
6.095
 30
0.0
 10
-8.8442
 20
6.095
 30
0.0
 10
-8.9179
 20
6.3801
 30
0.0
 10
-8.9754
 20
6.67
 30
0.0
 10
-9.0325
 20
6.9588
 30
0.0
 10
-9.0325
 20
6.9588
 30
0.0
 10
-9.1493
 20
7.5505
 30
0.0
 10
-9.2408
 20
8.1473
 30
0.0
 10
-9.2986
 20
8.7477
 30
0.0
 10
-9.2986
 20
8.7477
 30
0.0
 10
-9.354
 20
9.3221
 30
0.0
 10
-9.4035
 20
9.8978
 30
0.0
 10
-9.4727
 20
10.4708
 30
0.0
 10
-9.4727
 20
10.4708
 30
0.0
 10
-9.5044
 20
10.7338
 30
0.0
 10
-9.5426
 20
10.9948
 30
0.0
 10
-9.6123
 20
11.2508
 30
0.0
 10
-9.6123
 20
11.2508
 30
0.0
 10
-9.6675
 20
11.4536
 30
0.0
 10
-9.9097
 20
11.9629
 30
0.0
 10
-9.7275
 20
12.1257
 30
0.0
 10
-9.7275
 20
12.1257
 30
0.0
 10
-9.7506
 20
12.1287
 30
0.0
 10
-9.7736
 20
12.1317
 30
0.0
 10
-9.7967
 20
12.1347
 30
0.0
 10
-9.7967
 20
12.1347
 30
0.0
 10
-9.6757
 20
11.8657
 30
0.0
 10
-9.6383
 20
11.5336
 30
0.0
 10
-9.5697
 20
11.2471
 30
0.0
 10
-9.5697
 20
11.2471
 30
0.0
 10
-9.5003
 20
10.9576
 30
0.0
 10
-9.4325
 20
10.6677
 30
0.0
 10
-9.3745
 20
10.3756
 30
0.0
 10
-9.3745
 20
10.3756
 30
0.0
 10
-9.2592
 20
9.7953
 30
0.0
 10
-9.1799
 20
9.2066
 30
0.0
 10
-9.096
 20
8.621
 30
0.0
 10
-9.096
 20
8.621
 30
0.0
 10
-9.0115
 20
8.0311
 30
0.0
 10
-8.9321
 20
7.4405
 30
0.0
 10
-8.8512
 20
6.8501
 30
0.0
 10
-8.8512
 20
6.8501
 30
0.0
 10
-8.813
 20
6.5707
 30
0.0
 10
-8.7742
 20
6.2957
 30
0.0
 10
-8.7092
 20
6.0211
 30
0.0
 10
-8.7092
 20
6.0211
 30
0.0
 10
-8.6543
 20
5.7897
 30
0.0
 10
-8.5008
 20
5.4373
 30
0.0
 10
-8.5768
 20
5.2055
 30
0.0
 10
-8.5768
 20
5.2055
 30
0.0
 10
-8.5945
 20
5.1515
 30
0.0
 10
-8.5094
 20
5.1283
 30
0.0
 10
-8.4918
 20
5.1821
 30
0.0
 10
-8.4918
 20
5.1821
 30
0.0
 10
-8.4275
 20
5.3779
 30
0.0
 10
-8.5083
 20
5.5675
 30
0.0
 10
-8.5557
 20
5.7622
 30
0.0
 10
-8.5557
 20
5.7622
 30
0.0
 10
-8.6248
 20
6.0455
 30
0.0
 10
-8.6907
 20
6.3252
 30
0.0
 10
-8.7305
 20
6.6142
 30
0.0
 10
-8.7305
 20
6.6142
 30
0.0
 10
-8.8199
 20
7.2622
 30
0.0
 10
-8.9064
 20
7.9106
 30
0.0
 10
-8.9986
 20
8.5582
 30
0.0
 10
-8.9986
 20
8.5582
 30
0.0
 10
-9.0881
 20
9.1865
 30
0.0
 10
-9.1722
 20
9.8184
 30
0.0
 10
-9.2978
 20
10.4407
 30
0.0
 10
-9.2978
 20
10.4407
 30
0.0
 10
-9.3595
 20
10.7465
 30
0.0
 10
-9.4316
 20
11.0501
 30
0.0
 10
-9.5045
 20
11.3533
 30
0.0
 10
-9.5045
 20
11.3533
 30
0.0
 10
-9.5697
 20
11.6244
 30
0.0
 10
-9.606
 20
11.9245
 30
0.0
 10
-9.7206
 20
12.1792
 30
0.0
 10
-9.7206
 20
12.1792
 30
0.0
 10
-9.7329
 20
12.2067
 30
0.0
 10
-9.7707
 20
12.2052
 30
0.0
 10
-9.7898
 20
12.1881
 30
0.0
 10
-9.7898
 20
12.1881
 30
0.0
 10
-9.9603
 20
12.0358
 30
0.0
 10
-9.8823
 20
11.8878
 30
0.0
 10
-9.8268
 20
11.6795
 30
0.0
 10
-9.8268
 20
11.6795
 30
0.0
 10
-9.7449
 20
11.3727
 30
0.0
 10
-9.6475
 20
11.0748
 30
0.0
 10
-9.5998
 20
10.7598
 30
0.0
 10
-9.5998
 20
10.7598
 30
0.0
 10
-9.4949
 20
10.0667
 30
0.0
 10
-9.4481
 20
9.3634
 30
0.0
 10
-9.3789
 20
8.666
 30
0.0
 10
-9.3789
 20
8.666
 30
0.0
 10
-9.3158
 20
8.0299
 30
0.0
 10
-9.2126
 20
7.3977
 30
0.0
 10
-9.0846
 20
6.7716
 30
0.0
 10
-9.0846
 20
6.7716
 30
0.0
 10
-9.0195
 20
6.4534
 30
0.0
 10
-8.9514
 20
6.1364
 30
0.0
 10
-8.8612
 20
5.8243
 30
0.0
 10
-8.8612
 20
5.8243
 30
0.0
 10
-8.7922
 20
5.5855
 30
0.0
 10
-8.77
 20
5.302
 30
0.0
 10
-8.5566
 20
5.1557
 30
0.0
 10
-8.5566
 20
5.1557
 30
0.0
 10
-8.5096
 20
5.1236
 30
0.0
 10
-8.4654
 20
5.2
 30
0.0
 10
-8.512
 20
5.2319
 30
0.0
  0
SPLINE
  5
67
330
1F
100
AcDbEntity
  8
_LAYER_1
100
AcDbSpline
210
0.0
220
0.0
230
1.0
 70
    11
 71
     3
 72
   200
 73
   196
 74
     0
 42
0.0000000001
 43
0.0000000001
 12
1.0
 22
0.0
 32
0.0
 13
1.0
 23
0.0
 33
0.0
 40
0.0
 40
0.0
 40
0.0
 40
0.0
 40
0.02
 40
0.02
 40
0.02
 40
0.02
 40
0.04
 40
0.04
 40
0.04
 40
0.04
 40
0.06
 40
0.06
 40
0.06
 40
0.06
 40
0.08
 40
0.08
 40
0.08
 40
0.08
 40
0.1
 40
0.1
 40
0.1
 40
0.1
 40
0.12
 40
0.12
 40
0.12
 40
0.12
 40
0.14
 40
0.14
 40
0.14
 40
0.14
 40
0.16
 40
0.16
 40
0.16
 40
0.16
 40
0.18
 40
0.18
 40
0.18
 40
0.18
 40
0.2
 40
0.2
 40
0.2
 40
0.2
 40
0.22
 40
0.22
 40
0.22
 40
0.22
 40
0.24
 40
0.24
 40
0.24
 40
0.24
 40
0.26
 40
0.26
 40
0.26
 40
0.26
 40
0.28
 40
0.28
 40
0.28
 40
0.28
 40
0.3
 40
0.3
 40
0.3
 40
0.3
 40
0.32
 40
0.32
 40
0.32
 40
0.32
 40
0.34
 40
0.34
 40
0.34
 40
0.34
 40
0.36
 40
0.36
 40
0.36
 40
0.36
 40
0.38
 40
0.38
 40
0.38
 40
0.38
 40
0.4
 40
0.4
 40
0.4
 40
0.4
 40
0.42
 40
0.42
 40
0.42
 40
0.42
 40
0.44
 40
0.44
 40
0.44
 40
0.44
 40
0.46
 40
0.46
 40
0.46
 40
0.46
 40
0.48
 40
0.48
 40
0.48
 40
0.48
 40
0.5
 40
0.5
 40
0.5
 40
0.5
 40
0.52
 40
0.52
 40
0.52
 40
0.52
 40
0.54
 40
0.54
 40
0.54
 40
0.54
 40
0.56
 40
0.56
 40
0.56
 40
0.56
 40
0.58
 40
0.58
 40
0.58
 40
0.58
 40
0.6
 40
0.6
 40
0.6
 40
0.6
 40
0.62
 40
0.62
 40
0.62
 40
0.62
 40
0.64
 40
0.64
 40
0.64
 40
0.64
 40
0.66
 40
0.66
 40
0.66
 40
0.66
 40
0.68
 40
0.68
 40
0.68
 40
0.68
 40
0.7
 40
0.7
 40
0.7
 40
0.7
 40
0.72
 40
0.72
 40
0.72
 40
0.72
 40
0.74
 40
0.74
 40
0.74
 40
0.74
 40
0.76
 40
0.76
 40
0.76
 40
0.76
 40
0.78
 40
0.78
 40
0.78
 40
0.78
 40
0.8
 40
0.8
 40
0.8
 40
0.8
 40
0.82
 40
0.82
 40
0.82
 40
0.82
 40
0.84
 40
0.84
 40
0.84
 40
0.84
 40
0.86
 40
0.86
 40
0.86
 40
0.86
 40
0.88
 40
0.88
 40
0.88
 40
0.88
 40
0.9
 40
0.9
 40
0.9
 40
0.9
 40
0.92
 40
0.92
 40
0.92
 40
0.92
 40
0.94
 40
0.94
 40
0.94
 40
0.94
 40
0.96
 40
0.96
 40
0.96
 40
0.96
 40
1.0
 40
1.0
 40
1.0
 40
1.0
 10
-6.6719
 20
9.445
 30
0.0
 10
-6.7676
 20
9.306
 30
0.0
 10
-6.7532
 20
9.2371
 30
0.0
 10
-6.6795
 20
9.0925
 30
0.0
 10
-6.6795
 20
9.0925
 30
0.0
 10
-6.6707
 20
9.1141
 30
0.0
 10
-6.6619
 20
9.1357
 30
0.0
 10
-6.6531
 20
9.1573
 30
0.0
 10
-6.6531
 20
9.1573
 30
0.0
 10
-6.6681
 20
9.1523
 30
0.0
 10
-6.6832
 20
9.1473
 30
0.0
 10
-6.6982
 20
9.1423
 30
0.0
 10
-6.6982
 20
9.1423
 30
0.0
 10
-6.6801
 20
9.132
 30
0.0
 10
-6.662
 20
9.1218
 30
0.0
 10
-6.6439
 20
9.1115
 30
0.0
 10
-6.6439
 20
9.1115
 30
0.0
 10
-6.6761
 20
9.2587
 30
0.0
 10
-6.7516
 20
9.3485
 30
0.0
 10
-6.8672
 20
9.1896
 30
0.0
 10
-6.8672
 20
9.1896
 30
0.0
 10
-6.8399
 20
9.1822
 30
0.0
 10
-6.8125
 20
9.1748
 30
0.0
 10
-6.7851
 20
9.1674
 30
0.0
 10
-6.7851
 20
9.1674
 30
0.0
 10
-6.7677
 20
9.3245
 30
0.0
 10
-6.9223
 20
9.393
 30
0.0
 10
-7.0144
 20
9.5059
 30
0.0
 10
-7.0144
 20
9.5059
 30
0.0
 10
-7.1445
 20
9.6653
 30
0.0
 10
-7.2593
 20
9.8401
 30
0.0
 10
-7.3842
 20
10.0039
 30
0.0
 10
-7.3842
 20
10.0039
 30
0.0
 10
-7.499
 20
10.1545
 30
0.0
 10
-7.6146
 20
10.3045
 30
0.0
 10
-7.7277
 20
10.4563
 30
0.0
 10
-7.7277
 20
10.4563
 30
0.0
 10
-7.8544
 20
10.6264
 30
0.0
 10
-7.9358
 20
10.7788
 30
0.0
 10
-8.003
 20
10.9802
 30
0.0
 10
-8.003
 20
10.9802
 30
0.0
 10
-8.0525
 20
11.1288
 30
0.0
 10
-8.1369
 20
11.2461
 30
0.0
 10
-8.212
 20
11.3821
 30
0.0
 10
-8.212
 20
11.3821
 30
0.0
 10
-8.305
 20
11.5502
 30
0.0
 10
-8.3722
 20
11.7312
 30
0.0
 10
-8.4248
 20
11.9156
 30
0.0
 10
-8.4248
 20
11.9156
 30
0.0
 10
-8.5247
 20
12.2658
 30
0.0
 10
-8.6313
 20
12.6641
 30
0.0
 10
-8.6179
 20
13.0283
 30
0.0
 10
-8.6179
 20
13.0283
 30
0.0
 10
-8.64
 20
13.0156
 30
0.0
 10
-8.6621
 20
13.0029
 30
0.0
 10
-8.6843
 20
12.9902
 30
0.0
 10
-8.6843
 20
12.9902
 30
0.0
 10
-8.5856
 20
12.9267
 30
0.0
 10
-8.5215
 20
12.9014
 30
0.0
 10
-8.4637
 20
12.7795
 30
0.0
 10
-8.4637
 20
12.7795
 30
0.0
 10
-8.4263
 20
12.7005
 30
0.0
 10
-8.4127
 20
12.602
 30
0.0
 10
-8.3912
 20
12.5177
 30
0.0
 10
-8.3912
 20
12.5177
 30
0.0
 10
-8.3517
 20
12.3624
 30
0.0
 10
-8.3097
 20
12.2126
 30
0.0
 10
-8.2419
 20
12.0671
 30
0.0
 10
-8.2419
 20
12.0671
 30
0.0
 10
-8.0776
 20
11.7147
 30
0.0
 10
-7.8915
 20
11.3701
 30
0.0
 10
-7.7067
 20
11.0281
 30
0.0
 10
-7.7067
 20
11.0281
 30
0.0
 10
-7.5285
 20
10.6983
 30
0.0
 10
-7.3555
 20
10.354
 30
0.0
 10
-7.1343
 20
10.0505
 30
0.0
 10
-7.1343
 20
10.0505
 30
0.0
 10
-7.0398
 20
9.9207
 30
0.0
 10
-6.9355
 20
9.7985
 30
0.0
 10
-6.8332
 20
9.6748
 30
0.0
 10
-6.8332
 20
9.6748
 30
0.0
 10
-6.7537
 20
9.5787
 30
0.0
 10
-6.6895
 20
9.4507
 30
0.0
 10
-6.5885
 20
9.3772
 30
0.0
 10
-6.5885
 20
9.3772
 30
0.0
 10
-6.5811
 20
9.4046
 30
0.0
 10
-6.5737
 20
9.432
 30
0.0
 10
-6.5663
 20
9.4593
 30
0.0
 10
-6.5663
 20
9.4593
 30
0.0
 10
-6.5888
 20
9.4618
 30
0.0
 10
-6.6114
 20
9.4644
 30
0.0
 10
-6.6339
 20
9.4669
 30
0.0
 10
-6.6339
 20
9.4669
 30
0.0
 10
-6.6902
 20
9.4731
 30
0.0
 10
-6.6898
 20
9.3848
 30
0.0
 10
-6.6339
 20
9.3787
 30
0.0
 10
-6.6339
 20
9.3787
 30
0.0
 10
-6.6114
 20
9.3762
 30
0.0
 10
-6.5888
 20
9.3737
 30
0.0
 10
-6.5663
 20
9.3711
 30
0.0
 10
-6.5663
 20
9.3711
 30
0.0
 10
-6.518
 20
9.3658
 30
0.0
 10
-6.5131
 20
9.4308
 30
0.0
 10
-6.544
 20
9.4533
 30
0.0
 10
-6.544
 20
9.4533
 30
0.0
 10
-6.5936
 20
9.4894
 30
0.0
 10
-6.6475
 20
9.5864
 30
0.0
 10
-6.6856
 20
9.6335
 30
0.0
 10
-6.6856
 20
9.6335
 30
0.0
 10
-6.7419
 20
9.7033
 30
0.0
 10
-6.7999
 20
9.7716
 30
0.0
 10
-6.8569
 20
9.8407
 30
0.0
 10
-6.8569
 20
9.8407
 30
0.0
 10
-6.9824
 20
9.9928
 30
0.0
 10
-7.1021
 20
10.1474
 30
0.0
 10
-7.2043
 20
10.3163
 30
0.0
 10
-7.2043
 20
10.3163
 30
0.0
 10
-7.4058
 20
10.6498
 30
0.0
 10
-7.5911
 20
10.9941
 30
0.0
 10
-7.7724
 20
11.3388
 30
0.0
 10
-7.7724
 20
11.3388
 30
0.0
 10
-7.9531
 20
11.6823
 30
0.0
 10
-8.1705
 20
12.0349
 30
0.0
 10
-8.2731
 20
12.4107
 30
0.0
 10
-8.2731
 20
12.4107
 30
0.0
 10
-8.314
 20
12.5604
 30
0.0
 10
-8.3318
 20
12.74
 30
0.0
 10
-8.4061
 20
12.8778
 30
0.0
 10
-8.4061
 20
12.8778
 30
0.0
 10
-8.4557
 20
12.9697
 30
0.0
 10
-8.5555
 20
13.0121
 30
0.0
 10
-8.6397
 20
13.0663
 30
0.0
 10
-8.6397
 20
13.0663
 30
0.0
 10
-8.669
 20
13.0852
 30
0.0
 10
-8.7049
 20
13.0601
 30
0.0
 10
-8.7061
 20
13.0283
 30
0.0
 10
-8.7061
 20
13.0283
 30
0.0
 10
-8.7182
 20
12.7002
 30
0.0
 10
-8.6287
 20
12.3671
 30
0.0
 10
-8.5509
 20
12.0489
 30
0.0
 10
-8.5509
 20
12.0489
 30
0.0
 10
-8.5115
 20
11.8877
 30
0.0
 10
-8.4642
 20
11.7284
 30
0.0
 10
-8.4009
 20
11.5748
 30
0.0
 10
-8.4009
 20
11.5748
 30
0.0
 10
-8.3267
 20
11.3944
 30
0.0
 10
-8.2076
 20
11.2406
 30
0.0
 10
-8.1292
 20
11.0645
 30
0.0
 10
-8.1292
 20
11.0645
 30
0.0
 10
-8.0668
 20
10.9241
 30
0.0
 10
-8.0434
 20
10.7688
 30
0.0
 10
-7.9643
 20
10.6355
 30
0.0
 10
-7.9643
 20
10.6355
 30
0.0
 10
-7.8645
 20
10.4672
 30
0.0
 10
-7.7306
 20
10.3135
 30
0.0
 10
-7.6121
 20
10.1581
 30
0.0
 10
-7.6121
 20
10.1581
 30
0.0
 10
-7.4957
 20
10.0055
 30
0.0
 10
-7.3786
 20
9.8535
 30
0.0
 10
-7.2641
 20
9.6995
 30
0.0
 10
-7.2641
 20
9.6995
 30
0.0
 10
-7.1985
 20
9.6113
 30
0.0
 10
-7.1388
 20
9.5158
 30
0.0
 10
-7.0691
 20
9.4309
 30
0.0
 10
-7.0691
 20
9.4309
 30
0.0
 10
-7.0098
 20
9.3588
 30
0.0
 10
-6.8616
 20
9.2728
 30
0.0
 10
-6.8733
 20
9.1674
 30
0.0
 10
-6.8733
 20
9.1674
 30
0.0
 10
-6.8786
 20
9.1191
 30
0.0
 10
-6.8136
 20
9.1142
 30
0.0
 10
-6.7911
 20
9.1451
 30
0.0
 10
-6.7911
 20
9.1451
 30
0.0
 10
-6.7328
 20
9.2252
 30
0.0
 10
-6.7404
 20
9.1404
 30
0.0
 10
-6.729
 20
9.088
 30
0.0
 10
-6.729
 20
9.088
 30
0.0
 10
-6.7241
 20
9.0656
 30
0.0
 10
-6.6965
 20
9.05
 30
0.0
 10
-6.6747
 20
9.0572
 30
0.0
 10
-6.6747
 20
9.0572
 30
0.0
 10
-6.6597
 20
9.0623
 30
0.0
 10
-6.6447
 20
9.0673
 30
0.0
 10
-6.6297
 20
9.0722
 30
0.0
 10
-6.6297
 20
9.0722
 30
0.0
 10
-6.6016
 20
9.0816
 30
0.0
 10
-6.5899
 20
9.1108
 30
0.0
 10
-6.6033
 20
9.137
 30
0.0
 10
-6.6033
 20
9.137
 30
0.0
 10
-6.6401
 20
9.2092
 30
0.0
 10
-6.6423
 20
9.3328
 30
0.0
 10
-6.5958
 20
9.4005
 30
0.0
 10
-6.5958
 20
9.4005
 30
0.0
 10
-6.5636
 20
9.4474
 30
0.0
 10
-6.64
 20
9.4915
 30
0.0
 10
-6.6719
 20
9.445
 30
0.0
  0
SPLINE
  5
68
330
1F
100
AcDbEntity
  8
_LAYER_1
100
AcDbSpline
210
0.0
220
0.0
230
1.0
 70
    11
 71
     3
 72
   124
 73
   120
 74
     0
 42
0.0000000001
 43
0.0000000001
 12
1.0
 22
0.0
 32
0.0
 13
1.0
 23
0.0
 33
0.0
 40
0.0
 40
0.0
 40
0.0
 40
0.0
 40
0.032258064516129
 40
0.032258064516129
 40
0.032258064516129
 40
0.032258064516129
 40
0.0645161290322581
 40
0.0645161290322581
 40
0.0645161290322581
 40
0.0645161290322581
 40
0.0967741935483871
 40
0.0967741935483871
 40
0.0967741935483871
 40
0.0967741935483871
 40
0.1290322580645161
 40
0.1290322580645161
 40
0.1290322580645161
 40
0.1290322580645161
 40
0.1612903225806452
 40
0.1612903225806452
 40
0.1612903225806452
 40
0.1612903225806452
 40
0.1935483870967742
 40
0.1935483870967742
 40
0.1935483870967742
 40
0.1935483870967742
 40
0.2258064516129032
 40
0.2258064516129032
 40
0.2258064516129032
 40
0.2258064516129032
 40
0.2580645161290323
 40
0.2580645161290323
 40
0.2580645161290323
 40
0.2580645161290323
 40
0.2903225806451613
 40
0.2903225806451613
 40
0.2903225806451613
 40
0.2903225806451613
 40
0.3225806451612903
 40
0.3225806451612903
 40
0.3225806451612903
 40
0.3225806451612903
 40
0.3548387096774194
 40
0.3548387096774194
 40
0.3548387096774194
 40
0.3548387096774194
 40
0.3870967741935484
 40
0.3870967741935484
 40
0.3870967741935484
 40
0.3870967741935484
 40
0.4193548387096774
 40
0.4193548387096774
 40
0.4193548387096774
 40
0.4193548387096774
 40
0.4516129032258064
 40
0.4516129032258064
 40
0.4516129032258064
 40
0.4516129032258064
 40
0.4838709677419355
 40
0.4838709677419355
 40
0.4838709677419355
 40
0.4838709677419355
 40
0.5161290322580645
 40
0.5161290322580645
 40
0.5161290322580645
 40
0.5161290322580645
 40
0.5483870967741935
 40
0.5483870967741935
 40
0.5483870967741935
 40
0.5483870967741935
 40
0.5806451612903226
 40
0.5806451612903226
 40
0.5806451612903226
 40
0.5806451612903226
 40
0.6129032258064516
 40
0.6129032258064516
 40
0.6129032258064516
 40
0.6129032258064516
 40
0.6451612903225806
 40
0.6451612903225806
 40
0.6451612903225806
 40
0.6451612903225806
 40
0.6774193548387096
 40
0.6774193548387096
 40
0.6774193548387096
 40
0.6774193548387096
 40
0.7096774193548387
 40
0.7096774193548387
 40
0.7096774193548387
 40
0.7096774193548387
 40
0.7419354838709677
 40
0.7419354838709677
 40
0.7419354838709677
 40
0.7419354838709677
 40
0.7741935483870968
 40
0.7741935483870968
 40
0.7741935483870968
 40
0.7741935483870968
 40
0.8064516129032258
 40
0.8064516129032258
 40
0.8064516129032258
 40
0.8064516129032258
 40
0.8387096774193549
 40
0.8387096774193549
 40
0.8387096774193549
 40
0.8387096774193549
 40
0.8709677419354839
 40
0.8709677419354839
 40
0.8709677419354839
 40
0.8709677419354839
 40
0.9032258064516129
 40
0.9032258064516129
 40
0.9032258064516129
 40
0.9032258064516129
 40
0.9354838709677419
 40
0.9354838709677419
 40
0.9354838709677419
 40
0.9354838709677419
 40
1.0
 40
1.0
 40
1.0
 40
1.0
 10
-7.2787
 20
12.0754
 30
0.0
 10
-7.3666
 20
12.1834
 30
0.0
 10
-7.4565
 20
12.2901
 30
0.0
 10
-7.5382
 20
12.4029
 30
0.0
 10
-7.5382
 20
12.4029
 30
0.0
 10
-7.627
 20
12.5255
 30
0.0
 10
-7.6589
 20
12.6144
 30
0.0
 10
-7.6639
 20
12.7654
 30
0.0
 10
-7.6639
 20
12.7654
 30
0.0
 10
-7.6825
 20
12.7512
 30
0.0
 10
-7.7011
 20
12.737
 30
0.0
 10
-7.7197
 20
12.7228
 30
0.0
 10
-7.7197
 20
12.7228
 30
0.0
 10
-7.6096
 20
12.679
 30
0.0
 10
-7.5232
 20
12.6476
 30
0.0
 10
-7.4448
 20
12.5515
 30
0.0
 10
-7.4448
 20
12.5515
 30
0.0
 10
-7.3948
 20
12.4902
 30
0.0
 10
-7.3531
 20
12.4202
 30
0.0
 10
-7.309
 20
12.3545
 30
0.0
 10
-7.309
 20
12.3545
 30
0.0
 10
-7.2172
 20
12.2176
 30
0.0
 10
-7.1242
 20
12.0837
 30
0.0
 10
-7.0188
 20
11.9569
 30
0.0
 10
-7.0188
 20
11.9569
 30
0.0
 10
-6.7645
 20
11.651
 30
0.0
 10
-6.5063
 20
11.3483
 30
0.0
 10
-6.2481
 20
11.0458
 30
0.0
 10
-6.2481
 20
11.0458
 30
0.0
 10
-5.9973
 20
10.752
 30
0.0
 10
-5.7382
 20
10.4638
 30
0.0
 10
-5.4965
 20
10.1626
 30
0.0
 10
-5.4965
 20
10.1626
 30
0.0
 10
-5.3782
 20
10.0152
 30
0.0
 10
-5.254
 20
9.8754
 30
0.0
 10
-5.1199
 20
9.7421
 30
0.0
 10
-5.1199
 20
9.7421
 30
0.0
 10
-5.0674
 20
9.69
 30
0.0
 10
-4.9954
 20
9.6392
 30
0.0
 10
-4.9525
 20
9.5794
 30
0.0
 10
-4.9525
 20
9.5794
 30
0.0
 10
-4.8857
 20
9.4862
 30
0.0
 10
-4.9335
 20
9.3522
 30
0.0
 10
-4.9488
 20
9.2467
 30
0.0
 10
-4.9488
 20
9.2467
 30
0.0
 10
-4.9242
 20
9.2532
 30
0.0
 10
-4.8997
 20
9.2597
 30
0.0
 10
-4.8751
 20
9.2662
 30
0.0
 10
-4.8751
 20
9.2662
 30
0.0
 10
-5.0778
 20
9.4654
 30
0.0
 10
-5.2945
 20
9.6488
 30
0.0
 10
-5.499
 20
9.8458
 30
0.0
 10
-5.499
 20
9.8458
 30
0.0
 10
-5.7089
 20
10.0481
 30
0.0
 10
-5.8839
 20
10.2852
 30
0.0
 10
-6.0649
 20
10.513
 30
0.0
 10
-6.0649
 20
10.513
 30
0.0
 10
-6.4728
 20
11.0265
 30
0.0
 10
-6.871
 20
11.5475
 30
0.0
 10
-7.2718
 20
12.0665
 30
0.0
 10
-7.2718
 20
12.0665
 30
0.0
 10
-7.3061
 20
12.1108
 30
0.0
 10
-7.3827
 20
12.0669
 30
0.0
 10
-7.348
 20
12.022
 30
0.0
 10
-7.348
 20
12.022
 30
0.0
 10
-6.9567
 20
11.5154
 30
0.0
 10
-6.5679
 20
11.0067
 30
0.0
 10
-6.1703
 20
10.505
 30
0.0
 10
-6.1703
 20
10.505
 30
0.0
 10
-5.982
 20
10.2673
 30
0.0
 10
-5.8
 20
10.0166
 30
0.0
 10
-5.5827
 20
9.8042
 30
0.0
 10
-5.5827
 20
9.8042
 30
0.0
 10
-5.3725
 20
9.5989
 30
0.0
 10
-5.1472
 20
9.4099
 30
0.0
 10
-4.9374
 20
9.2038
 30
0.0
 10
-4.9374
 20
9.2038
 30
0.0
 10
-4.9161
 20
9.1828
 30
0.0
 10
-4.8687
 20
9.189
 30
0.0
 10
-4.8637
 20
9.2232
 30
0.0
 10
-4.8637
 20
9.2232
 30
0.0
 10
-4.8467
 20
9.3406
 30
0.0
 10
-4.7762
 20
9.5049
 30
0.0
 10
-4.8516
 20
9.6079
 30
0.0
 10
-4.8516
 20
9.6079
 30
0.0
 10
-4.962
 20
9.7588
 30
0.0
 10
-5.1409
 20
9.8827
 30
0.0
 10
-5.2667
 20
10.0238
 30
0.0
 10
-5.2667
 20
10.0238
 30
0.0
 10
-5.5662
 20
10.3597
 30
0.0
 10
-5.8489
 20
10.7139
 30
0.0
 10
-6.1414
 20
11.0563
 30
0.0
 10
-6.1414
 20
11.0563
 30
0.0
 10
-6.4281
 20
11.3919
 30
0.0
 10
-6.7201
 20
11.7245
 30
0.0
 10
-6.997
 20
12.0682
 30
0.0
 10
-6.997
 20
12.0682
 30
0.0
 10
-7.1323
 20
12.2362
 30
0.0
 10
-7.2418
 20
12.422
 30
0.0
 10
-7.3687
 20
12.596
 30
0.0
 10
-7.3687
 20
12.596
 30
0.0
 10
-7.4617
 20
12.7236
 30
0.0
 10
-7.5528
 20
12.7509
 30
0.0
 10
-7.6963
 20
12.8079
 30
0.0
 10
-7.6963
 20
12.8079
 30
0.0
 10
-7.7228
 20
12.8184
 30
0.0
 10
-7.753
 20
12.7916
 30
0.0
 10
-7.7521
 20
12.7654
 30
0.0
 10
-7.7521
 20
12.7654
 30
0.0
 10
-7.7469
 20
12.6073
 30
0.0
 10
-7.7409
 20
12.5409
 30
0.0
 10
-7.6497
 20
12.4083
 30
0.0
 10
-7.6497
 20
12.4083
 30
0.0
 10
-7.5549
 20
12.2706
 30
0.0
 10
-7.4465
 20
12.1426
 30
0.0
 10
-7.3411
 20
12.0131
 30
0.0
 10
-7.3411
 20
12.0131
 30
0.0
 10
-7.3053
 20
11.969
 30
0.0
 10
-7.2432
 20
12.0318
 30
0.0
 10
-7.2787
 20
12.0754
 30
0.0
  0
SPLINE
  5
69
330
1F
100
AcDbEntity
  8
_LAYER_1
100
AcDbSpline
210
0.0
220
0.0
230
1.0
 70
    11
 71
     3
 72
   112
 73
   108
 74
     0
 42
0.0000000001
 43
0.0000000001
 12
1.0
 22
0.0
 32
0.0
 13
1.0
 23
0.0
 33
0.0
 40
0.0
 40
0.0
 40
0.0
 40
0.0
 40
0.0357142857142857
 40
0.0357142857142857
 40
0.0357142857142857
 40
0.0357142857142857
 40
0.0714285714285714
 40
0.0714285714285714
 40
0.0714285714285714
 40
0.0714285714285714
 40
0.1071428571428571
 40
0.1071428571428571
 40
0.1071428571428571
 40
0.1071428571428571
 40
0.1428571428571428
 40
0.1428571428571428
 40
0.1428571428571428
 40
0.1428571428571428
 40
0.1785714285714286
 40
0.1785714285714286
 40
0.1785714285714286
 40
0.1785714285714286
 40
0.2142857142857143
 40
0.2142857142857143
 40
0.2142857142857143
 40
0.2142857142857143
 40
0.25
 40
0.25
 40
0.25
 40
0.25
 40
0.2857142857142857
 40
0.2857142857142857
 40
0.2857142857142857
 40
0.2857142857142857
 40
0.3214285714285715
 40
0.3214285714285715
 40
0.3214285714285715
 40
0.3214285714285715
 40
0.3571428571428572
 40
0.3571428571428572
 40
0.3571428571428572
 40
0.3571428571428572
 40
0.3928571428571428
 40
0.3928571428571428
 40
0.3928571428571428
 40
0.3928571428571428
 40
0.4285714285714285
 40
0.4285714285714285
 40
0.4285714285714285
 40
0.4285714285714285
 40
0.4642857142857143
 40
0.4642857142857143
 40
0.4642857142857143
 40
0.4642857142857143
 40
0.5
 40
0.5
 40
0.5
 40
0.5
 40
0.5357142857142857
 40
0.5357142857142857
 40
0.5357142857142857
 40
0.5357142857142857
 40
0.5714285714285714
 40
0.5714285714285714
 40
0.5714285714285714
 40
0.5714285714285714
 40
0.6071428571428571
 40
0.6071428571428571
 40
0.6071428571428571
 40
0.6071428571428571
 40
0.6428571428571429
 40
0.6428571428571429
 40
0.6428571428571429
 40
0.6428571428571429
 40
0.6785714285714286
 40
0.6785714285714286
 40
0.6785714285714286
 40
0.6785714285714286
 40
0.7142857142857143
 40
0.7142857142857143
 40
0.7142857142857143
 40
0.7142857142857143
 40
0.75
 40
0.75
 40
0.75
 40
0.75
 40
0.7857142857142857
 40
0.7857142857142857
 40
0.7857142857142857
 40
0.7857142857142857
 40
0.8214285714285714
 40
0.8214285714285714
 40
0.8214285714285714
 40
0.8214285714285714
 40
0.8571428571428571
 40
0.8571428571428571
 40
0.8571428571428571
 40
0.8571428571428571
 40
0.8928571428571429
 40
0.8928571428571429
 40
0.8928571428571429
 40
0.8928571428571429
 40
0.9285714285714286
 40
0.9285714285714286
 40
0.9285714285714286
 40
0.9285714285714286
 40
1.0
 40
1.0
 40
1.0
 40
1.0
 10
-2.1544
 20
-27.7837
 30
0.0
 10
-2.1891
 20
-28.0864
 30
0.0
 10
-2.7802
 20
-28.1921
 30
0.0
 10
-3.0148
 20
-28.249
 30
0.0
 10
-3.0148
 20
-28.249
 30
0.0
 10
-3.3025
 20
-28.3189
 30
0.0
 10
-3.5952
 20
-28.3657
 30
0.0
 10
-3.8881
 20
-28.4075
 30
0.0
 10
-3.8881
 20
-28.4075
 30
0.0
 10
-4.5444
 20
-28.5013
 30
0.0
 10
-5.2046
 20
-28.5593
 30
0.0
 10
-5.8659
 20
-28.6028
 30
0.0
 10
-5.8659
 20
-28.6028
 30
0.0
 10
-6.9414
 20
-28.6736
 30
0.0
 10
-8.0219
 20
-28.7169
 30
0.0
 10
-9.0999
 20
-28.7212
 30
0.0
 10
-9.0999
 20
-28.7212
 30
0.0
 10
-9.3442
 20
-28.7223
 30
0.0
 10
-9.5925
 20
-28.7349
 30
0.0
 10
-9.8359
 20
-28.7155
 30
0.0
 10
-9.8359
 20
-28.7155
 30
0.0
 10
-9.9387
 20
-28.7072
 30
0.0
 10
-10.2416
 20
-28.7014
 30
0.0
 10
-10.2522
 20
-28.5469
 30
0.0
 10
-10.2522
 20
-28.5469
 30
0.0
 10
-10.2586
 20
-28.455
 30
0.0
 10
-10.1271
 20
-28.4563
 30
0.0
 10
-10.0449
 20
-28.4551
 30
0.0
 10
-10.0449
 20
-28.4551
 30
0.0
 10
-9.8325
 20
-28.4521
 30
0.0
 10
-9.6193
 20
-28.4837
 30
0.0
 10
-9.4059
 20
-28.4842
 30
0.0
 10
-9.4059
 20
-28.4842
 30
0.0
 10
-8.2038
 20
-28.4865
 30
0.0
 10
-6.9942
 20
-28.3767
 30
0.0
 10
-5.8039
 20
-28.216
 30
0.0
 10
-5.8039
 20
-28.216
 30
0.0
 10
-5.1092
 20
-28.1222
 30
0.0
 10
-4.4173
 20
-28.0007
 30
0.0
 10
-3.7355
 20
-27.8369
 30
0.0
 10
-3.7355
 20
-27.8369
 30
0.0
 10
-3.4101
 20
-27.7588
 30
0.0
 10
-3.0868
 20
-27.6716
 30
0.0
 10
-2.7697
 20
-27.5643
 30
0.0
 10
-2.7697
 20
-27.5643
 30
0.0
 10
-2.6389
 20
-27.5201
 30
0.0
 10
-2.4545
 20
-27.404
 30
0.0
 10
-2.3193
 20
-27.3964
 30
0.0
 10
-2.3193
 20
-27.3964
 30
0.0
 10
-2.2447
 20
-27.3921
 30
0.0
 10
-2.2774
 20
-27.3089
 30
0.0
 10
-2.1935
 20
-27.4469
 30
0.0
 10
-2.1935
 20
-27.4469
 30
0.0
 10
-2.1432
 20
-27.5295
 30
0.0
 10
-2.1544
 20
-27.6849
 30
0.0
 10
-2.1544
 20
-27.7837
 30
0.0
 10
-2.1544
 20
-27.7837
 30
0.0
 10
-2.1544
 20
-27.8404
 30
0.0
 10
-2.0662
 20
-27.8405
 30
0.0
 10
-2.0662
 20
-27.7837
 30
0.0
 10
-2.0662
 20
-27.7837
 30
0.0
 10
-2.0662
 20
-27.6532
 30
0.0
 10
-2.0538
 20
-27.2927
 30
0.0
 10
-2.2496
 20
-27.2823
 30
0.0
 10
-2.2496
 20
-27.2823
 30
0.0
 10
-2.3114
 20
-27.279
 30
0.0
 10
-2.3872
 20
-27.3296
 30
0.0
 10
-2.4428
 20
-27.3515
 30
0.0
 10
-2.4428
 20
-27.3515
 30
0.0
 10
-2.6067
 20
-27.416
 30
0.0
 10
-2.7729
 20
-27.4743
 30
0.0
 10
-2.9407
 20
-27.5277
 30
0.0
 10
-2.9407
 20
-27.5277
 30
0.0
 10
-3.658
 20
-27.7561
 30
0.0
 10
-4.402
 20
-27.9064
 30
0.0
 10
-5.144
 20
-28.0286
 30
0.0
 10
-5.144
 20
-28.0286
 30
0.0
 10
-6.5664
 20
-28.263
 30
0.0
 10
-8.0353
 20
-28.4111
 30
0.0
 10
-9.4785
 20
-28.3956
 30
0.0
 10
-9.4785
 20
-28.3956
 30
0.0
 10
-9.6209
 20
-28.3941
 30
0.0
 10
-10.4012
 20
-28.2422
 30
0.0
 10
-10.3429
 20
-28.5563
 30
0.0
 10
-10.3429
 20
-28.5563
 30
0.0
 10
-10.2856
 20
-28.8648
 30
0.0
 10
-9.7442
 20
-28.8094
 30
0.0
 10
-9.514
 20
-28.8094
 30
0.0
 10
-9.514
 20
-28.8094
 30
0.0
 10
-8.3829
 20
-28.8094
 30
0.0
 10
-7.251
 20
-28.7759
 30
0.0
 10
-6.122
 20
-28.7072
 30
0.0
 10
-6.122
 20
-28.7072
 30
0.0
 10
-5.3045
 20
-28.6575
 30
0.0
 10
-4.4879
 20
-28.5892
 30
0.0
 10
-3.678
 20
-28.4649
 30
0.0
 10
-3.678
 20
-28.4649
 30
0.0
 10
-3.3075
 20
-28.408
 30
0.0
 10
-2.9309
 20
-28.3418
 30
0.0
 10
-2.5778
 20
-28.2125
 30
0.0
 10
-2.5778
 20
-28.2125
 30
0.0
 10
-2.3706
 20
-28.1367
 30
0.0
 10
-2.0948
 20
-28.0328
 30
0.0
 10
-2.0662
 20
-27.7837
 30
0.0
 10
-2.0662
 20
-27.7837
 30
0.0
 10
-2.0598
 20
-27.7274
 30
0.0
 10
-2.148
 20
-27.7278
 30
0.0
 10
-2.1544
 20
-27.7837
 30
0.0
  0
SPLINE
  5
6A
330
1F
100
AcDbEntity
  8
_LAYER_1
100
AcDbSpline
210
0.0
220
0.0
230
1.0
 70
    11
 71
     3
 72
   148
 73
   144
 74
     0
 42
0.0000000001
 43
0.0000000001
 12
1.0
 22
0.0
 32
0.0
 13
1.0
 23
0.0
 33
0.0
 40
0.0
 40
0.0
 40
0.0
 40
0.0
 40
0.027027027027027
 40
0.027027027027027
 40
0.027027027027027
 40
0.027027027027027
 40
0.0540540540540541
 40
0.0540540540540541
 40
0.0540540540540541
 40
0.0540540540540541
 40
0.0810810810810811
 40
0.0810810810810811
 40
0.0810810810810811
 40
0.0810810810810811
 40
0.1081081081081081
 40
0.1081081081081081
 40
0.1081081081081081
 40
0.1081081081081081
 40
0.1351351351351351
 40
0.1351351351351351
 40
0.1351351351351351
 40
0.1351351351351351
 40
0.1621621621621622
 40
0.1621621621621622
 40
0.1621621621621622
 40
0.1621621621621622
 40
0.1891891891891892
 40
0.1891891891891892
 40
0.1891891891891892
 40
0.1891891891891892
 40
0.2162162162162162
 40
0.2162162162162162
 40
0.2162162162162162
 40
0.2162162162162162
 40
0.2432432432432433
 40
0.2432432432432433
 40
0.2432432432432433
 40
0.2432432432432433
 40
0.2702702702702703
 40
0.2702702702702703
 40
0.2702702702702703
 40
0.2702702702702703
 40
0.2972972972972973
 40
0.2972972972972973
 40
0.2972972972972973
 40
0.2972972972972973
 40
0.3243243243243243
 40
0.3243243243243243
 40
0.3243243243243243
 40
0.3243243243243243
 40
0.3513513513513514
 40
0.3513513513513514
 40
0.3513513513513514
 40
0.3513513513513514
 40
0.3783783783783784
 40
0.3783783783783784
 40
0.3783783783783784
 40
0.3783783783783784
 40
0.4054054054054054
 40
0.4054054054054054
 40
0.4054054054054054
 40
0.4054054054054054
 40
0.4324324324324325
 40
0.4324324324324325
 40
0.4324324324324325
 40
0.4324324324324325
 40
0.4594594594594595
 40
0.4594594594594595
 40
0.4594594594594595
 40
0.4594594594594595
 40
0.4864864864864865
 40
0.4864864864864865
 40
0.4864864864864865
 40
0.4864864864864865
 40
0.5135135135135135
 40
0.5135135135135135
 40
0.5135135135135135
 40
0.5135135135135135
 40
0.5405405405405406
 40
0.5405405405405406
 40
0.5405405405405406
 40
0.5405405405405406
 40
0.5675675675675675
 40
0.5675675675675675
 40
0.5675675675675675
 40
0.5675675675675675
 40
0.5945945945945946
 40
0.5945945945945946
 40
0.5945945945945946
 40
0.5945945945945946
 40
0.6216216216216216
 40
0.6216216216216216
 40
0.6216216216216216
 40
0.6216216216216216
 40
0.6486486486486487
 40
0.6486486486486487
 40
0.6486486486486487
 40
0.6486486486486487
 40
0.6756756756756757
 40
0.6756756756756757
 40
0.6756756756756757
 40
0.6756756756756757
 40
0.7027027027027027
 40
0.7027027027027027
 40
0.7027027027027027
 40
0.7027027027027027
 40
0.7297297297297297
 40
0.7297297297297297
 40
0.7297297297297297
 40
0.7297297297297297
 40
0.7567567567567568
 40
0.7567567567567568
 40
0.7567567567567568
 40
0.7567567567567568
 40
0.7837837837837838
 40
0.7837837837837838
 40
0.7837837837837838
 40
0.7837837837837838
 40
0.8108108108108109
 40
0.8108108108108109
 40
0.8108108108108109
 40
0.8108108108108109
 40
0.8378378378378378
 40
0.8378378378378378
 40
0.8378378378378378
 40
0.8378378378378378
 40
0.8648648648648649
 40
0.8648648648648649
 40
0.8648648648648649
 40
0.8648648648648649
 40
0.8918918918918919
 40
0.8918918918918919
 40
0.8918918918918919
 40
0.8918918918918919
 40
0.918918918918919
 40
0.918918918918919
 40
0.918918918918919
 40
0.918918918918919
 40
0.9459459459459459
 40
0.9459459459459459
 40
0.9459459459459459
 40
0.9459459459459459
 40
1.0
 40
1.0
 40
1.0
 40
1.0
 10
-13.9124
 20
-7.7173
 30
0.0
 10
-13.9121
 20
-8.1752
 30
0.0
 10
-13.907
 20
-8.6332
 30
0.0
 10
-13.9099
 20
-9.0911
 30
0.0
 10
-13.9099
 20
-9.0911
 30
0.0
 10
-13.9124
 20
-9.4923
 30
0.0
 10
-13.9893
 20
-9.8817
 30
0.0
 10
-13.9907
 20
-10.2838
 30
0.0
 10
-13.9907
 20
-10.2838
 30
0.0
 10
-13.9921
 20
-10.6996
 30
0.0
 10
-13.9797
 20
-11.1155
 30
0.0
 10
-13.9988
 20
-11.531
 30
0.0
 10
-13.9988
 20
-11.531
 30
0.0
 10
-14.0085
 20
-11.741
 30
0.0
 10
-14.0188
 20
-11.951
 30
0.0
 10
-14.0305
 20
-12.1609
 30
0.0
 10
-14.0305
 20
-12.1609
 30
0.0
 10
-14.042
 20
-12.367
 30
0.0
 10
-14.0202
 20
-12.6146
 30
0.0
 10
-14.1318
 20
-12.7953
 30
0.0
 10
-14.1318
 20
-12.7953
 30
0.0
 10
-14.1064
 20
-12.7953
 30
0.0
 10
-14.081
 20
-12.7953
 30
0.0
 10
-14.0556
 20
-12.7953
 30
0.0
 10
-14.0556
 20
-12.7953
 30
0.0
 10
-14.1514
 20
-12.6489
 30
0.0
 10
-14.1185
 20
-12.454
 30
0.0
 10
-14.1137
 20
-12.2873
 30
0.0
 10
-14.1137
 20
-12.2873
 30
0.0
 10
-14.1095
 20
-12.1409
 30
0.0
 10
-14.1051
 20
-11.9946
 30
0.0
 10
-14.1006
 20
-11.8482
 30
0.0
 10
-14.1006
 20
-11.8482
 30
0.0
 10
-14.0913
 20
-11.5409
 30
0.0
 10
-14.0816
 20
-11.2336
 30
0.0
 10
-14.0723
 20
-10.9262
 30
0.0
 10
-14.0723
 20
-10.9262
 30
0.0
 10
-14.0537
 20
-10.3147
 30
0.0
 10
-14.0363
 20
-9.7033
 30
0.0
 10
-14.015
 20
-9.0919
 30
0.0
 10
-14.015
 20
-9.0919
 30
0.0
 10
-13.9943
 20
-8.4953
 30
0.0
 10
-13.9763
 20
-7.8987
 30
0.0
 10
-13.9571
 20
-7.3021
 30
0.0
 10
-13.9571
 20
-7.3021
 30
0.0
 10
-13.9472
 20
-6.9964
 30
0.0
 10
-13.9368
 20
-6.6906
 30
0.0
 10
-13.9267
 20
-6.3849
 30
0.0
 10
-13.9267
 20
-6.3849
 30
0.0
 10
-13.9163
 20
-6.0722
 30
0.0
 10
-13.9598
 20
-5.6909
 30
0.0
 10
-13.8633
 20
-5.393
 30
0.0
 10
-13.8633
 20
-5.393
 30
0.0
 10
-13.8917
 20
-5.393
 30
0.0
 10
-13.92
 20
-5.393
 30
0.0
 10
-13.9484
 20
-5.393
 30
0.0
 10
-13.9484
 20
-5.393
 30
0.0
 10
-13.8186
 20
-5.7991
 30
0.0
 10
-13.796
 20
-6.2636
 30
0.0
 10
-13.8466
 20
-6.6851
 30
0.0
 10
-13.8466
 20
-6.6851
 30
0.0
 10
-13.8694
 20
-6.875
 30
0.0
 10
-13.9407
 20
-7.0584
 30
0.0
 10
-13.9608
 20
-7.2464
 30
0.0
 10
-13.9608
 20
-7.2464
 30
0.0
 10
-13.9775
 20
-7.4032
 30
0.0
 10
-13.9257
 20
-7.5622
 30
0.0
 10
-13.9124
 20
-7.7173
 30
0.0
 10
-13.9124
 20
-7.7173
 30
0.0
 10
-13.9076
 20
-7.7734
 30
0.0
 10
-13.8194
 20
-7.7739
 30
0.0
 10
-13.8242
 20
-7.7173
 30
0.0
 10
-13.8242
 20
-7.7173
 30
0.0
 10
-13.8422
 20
-7.5067
 30
0.0
 10
-13.885
 20
-7.3312
 30
0.0
 10
-13.8398
 20
-7.1198
 30
0.0
 10
-13.8398
 20
-7.1198
 30
0.0
 10
-13.8004
 20
-6.9352
 30
0.0
 10
-13.7608
 20
-6.7545
 30
0.0
 10
-13.7459
 20
-6.5658
 30
0.0
 10
-13.7459
 20
-6.5658
 30
0.0
 10
-13.7148
 20
-6.1745
 30
0.0
 10
-13.7433
 20
-5.7453
 30
0.0
 10
-13.8633
 20
-5.3695
 30
0.0
 10
-13.8633
 20
-5.3695
 30
0.0
 10
-13.8767
 20
-5.3276
 30
0.0
 10
-13.9349
 20
-5.3277
 30
0.0
 10
-13.9484
 20
-5.3695
 30
0.0
 10
-13.9484
 20
-5.3695
 30
0.0
 10
-14.0368
 20
-5.6425
 30
0.0
 10
-14.0013
 20
-5.9686
 30
0.0
 10
-14.0106
 20
-6.2536
 30
0.0
 10
-14.0106
 20
-6.2536
 30
0.0
 10
-14.0211
 20
-6.574
 30
0.0
 10
-14.032
 20
-6.8945
 30
0.0
 10
-14.0424
 20
-7.215
 30
0.0
 10
-14.0424
 20
-7.215
 30
0.0
 10
-14.0637
 20
-7.8697
 30
0.0
 10
-14.0836
 20
-8.5244
 30
0.0
 10
-14.1062
 20
-9.1791
 30
0.0
 10
-14.1062
 20
-9.1791
 30
0.0
 10
-14.1284
 20
-9.82
 30
0.0
 10
-14.1461
 20
-10.4609
 30
0.0
 10
-14.1658
 20
-11.1019
 30
0.0
 10
-14.1658
 20
-11.1019
 30
0.0
 10
-14.1757
 20
-11.4238
 30
0.0
 10
-14.1859
 20
-11.7458
 30
0.0
 10
-14.1954
 20
-12.0677
 30
0.0
 10
-14.1954
 20
-12.0677
 30
0.0
 10
-14.203
 20
-12.322
 30
0.0
 10
-14.2756
 20
-12.6199
 30
0.0
 10
-14.1318
 20
-12.8398
 30
0.0
 10
-14.1318
 20
-12.8398
 30
0.0
 10
-14.1135
 20
-12.8676
 30
0.0
 10
-14.0735
 20
-12.8689
 30
0.0
 10
-14.0556
 20
-12.8398
 30
0.0
 10
-14.0556
 20
-12.8398
 30
0.0
 10
-13.9743
 20
-12.7082
 30
0.0
 10
-13.9698
 20
-12.6178
 30
0.0
 10
-13.96
 20
-12.4604
 30
0.0
 10
-13.96
 20
-12.4604
 30
0.0
 10
-13.9466
 20
-12.2448
 30
0.0
 10
-13.9348
 20
-12.0291
 30
0.0
 10
-13.9241
 20
-11.8133
 30
0.0
 10
-13.9241
 20
-11.8133
 30
0.0
 10
-13.9015
 20
-11.3577
 30
0.0
 10
-13.9021
 20
-10.9046
 30
0.0
 10
-13.9026
 20
-10.4486
 30
0.0
 10
-13.9026
 20
-10.4486
 30
0.0
 10
-13.9029
 20
-10.212
 30
0.0
 10
-13.9107
 20
-9.9738
 30
0.0
 10
-13.8758
 20
-9.7393
 30
0.0
 10
-13.8758
 20
-9.7393
 30
0.0
 10
-13.8476
 20
-9.5492
 30
0.0
 10
-13.824
 20
-9.3693
 30
0.0
 10
-13.8223
 20
-9.1765
 30
0.0
 10
-13.8223
 20
-9.1765
 30
0.0
 10
-13.8181
 20
-8.6901
 30
0.0
 10
-13.8239
 20
-8.2037
 30
0.0
 10
-13.8242
 20
-7.7173
 30
0.0
 10
-13.8242
 20
-7.7173
 30
0.0
 10
-13.8242
 20
-7.6605
 30
0.0
 10
-13.9124
 20
-7.6604
 30
0.0
 10
-13.9124
 20
-7.7173
 30
0.0
  0
SPLINE
  5
6B
330
1F
100
AcDbEntity
  8
_LAYER_1
100
AcDbSpline
210
0.0
220
0.0
230
1.0
 70
    11
 71
     3
 72
   136
 73
   132
 74
     0
 42
0.0000000001
 43
0.0000000001
 12
1.0
 22
0.0
 32
0.0
 13
1.0
 23
0.0
 33
0.0
 40
0.0
 40
0.0
 40
0.0
 40
0.0
 40
0.0294117647058824
 40
0.0294117647058824
 40
0.0294117647058824
 40
0.0294117647058824
 40
0.0588235294117647
 40
0.0588235294117647
 40
0.0588235294117647
 40
0.0588235294117647
 40
0.0882352941176471
 40
0.0882352941176471
 40
0.0882352941176471
 40
0.0882352941176471
 40
0.1176470588235294
 40
0.1176470588235294
 40
0.1176470588235294
 40
0.1176470588235294
 40
0.1470588235294118
 40
0.1470588235294118
 40
0.1470588235294118
 40
0.1470588235294118
 40
0.1764705882352941
 40
0.1764705882352941
 40
0.1764705882352941
 40
0.1764705882352941
 40
0.2058823529411765
 40
0.2058823529411765
 40
0.2058823529411765
 40
0.2058823529411765
 40
0.2352941176470588
 40
0.2352941176470588
 40
0.2352941176470588
 40
0.2352941176470588
 40
0.2647058823529412
 40
0.2647058823529412
 40
0.2647058823529412
 40
0.2647058823529412
 40
0.2941176470588235
 40
0.2941176470588235
 40
0.2941176470588235
 40
0.2941176470588235
 40
0.3235294117647059
 40
0.3235294117647059
 40
0.3235294117647059
 40
0.3235294117647059
 40
0.3529411764705883
 40
0.3529411764705883
 40
0.3529411764705883
 40
0.3529411764705883
 40
0.3823529411764706
 40
0.3823529411764706
 40
0.3823529411764706
 40
0.3823529411764706
 40
0.4117647058823529
 40
0.4117647058823529
 40
0.4117647058823529
 40
0.4117647058823529
 40
0.4411764705882353
 40
0.4411764705882353
 40
0.4411764705882353
 40
0.4411764705882353
 40
0.4705882352941176
 40
0.4705882352941176
 40
0.4705882352941176
 40
0.4705882352941176
 40
0.5
 40
0.5
 40
0.5
 40
0.5
 40
0.5294117647058824
 40
0.5294117647058824
 40
0.5294117647058824
 40
0.5294117647058824
 40
0.5588235294117647
 40
0.5588235294117647
 40
0.5588235294117647
 40
0.5588235294117647
 40
0.5882352941176471
 40
0.5882352941176471
 40
0.5882352941176471
 40
0.5882352941176471
 40
0.6176470588235294
 40
0.6176470588235294
 40
0.6176470588235294
 40
0.6176470588235294
 40
0.6470588235294118
 40
0.6470588235294118
 40
0.6470588235294118
 40
0.6470588235294118
 40
0.6764705882352942
 40
0.6764705882352942
 40
0.6764705882352942
 40
0.6764705882352942
 40
0.7058823529411765
 40
0.7058823529411765
 40
0.7058823529411765
 40
0.7058823529411765
 40
0.7352941176470589
 40
0.7352941176470589
 40
0.7352941176470589
 40
0.7352941176470589
 40
0.7647058823529411
 40
0.7647058823529411
 40
0.7647058823529411
 40
0.7647058823529411
 40
0.7941176470588235
 40
0.7941176470588235
 40
0.7941176470588235
 40
0.7941176470588235
 40
0.8235294117647058
 40
0.8235294117647058
 40
0.8235294117647058
 40
0.8235294117647058
 40
0.8529411764705882
 40
0.8529411764705882
 40
0.8529411764705882
 40
0.8529411764705882
 40
0.8823529411764706
 40
0.8823529411764706
 40
0.8823529411764706
 40
0.8823529411764706
 40
0.9117647058823529
 40
0.9117647058823529
 40
0.9117647058823529
 40
0.9117647058823529
 40
0.9411764705882353
 40
0.9411764705882353
 40
0.9411764705882353
 40
0.9411764705882353
 40
1.0
 40
1.0
 40
1.0
 40
1.0
 10
-14.1651
 20
12.0411
 30
0.0
 10
-14.1729
 20
11.6705
 30
0.0
 10
-14.1487
 20
11.2852
 30
0.0
 10
-14.1904
 20
10.9167
 30
0.0
 10
-14.1904
 20
10.9167
 30
0.0
 10
-14.2065
 20
10.7748
 30
0.0
 10
-14.2607
 20
10.641
 30
0.0
 10
-14.2749
 20
10.4987
 30
0.0
 10
-14.2749
 20
10.4987
 30
0.0
 10
-14.2913
 20
10.3352
 30
0.0
 10
-14.286
 20
10.1674
 30
0.0
 10
-14.2887
 20
10.0032
 30
0.0
 10
-14.2887
 20
10.0032
 30
0.0
 10
-14.294
 20
9.6699
 30
0.0
 10
-14.3151
 20
9.3425
 30
0.0
 10
-14.349
 20
9.0108
 30
0.0
 10
-14.349
 20
9.0108
 30
0.0
 10
-14.3563
 20
8.9391
 30
0.0
 10
-14.3639
 20
8.8675
 30
0.0
 10
-14.3719
 20
8.7959
 30
0.0
 10
-14.3719
 20
8.7959
 30
0.0
 10
-14.3799
 20
8.7248
 30
0.0
 10
-14.4236
 20
8.4268
 30
0.0
 10
-14.449
 20
8.7107
 30
0.0
 10
-14.449
 20
8.7107
 30
0.0
 10
-14.464
 20
8.878
 30
0.0
 10
-14.426
 20
9.0691
 30
0.0
 10
-14.4148
 20
9.2371
 30
0.0
 10
-14.4148
 20
9.2371
 30
0.0
 10
-14.3662
 20
9.9643
 30
0.0
 10
-14.318
 20
10.6914
 30
0.0
 10
-14.2657
 20
11.4182
 30
0.0
 10
-14.2657
 20
11.4182
 30
0.0
 10
-14.2408
 20
11.7628
 30
0.0
 10
-14.2189
 20
12.1076
 30
0.0
 10
-14.1947
 20
12.4522
 30
0.0
 10
-14.1947
 20
12.4522
 30
0.0
 10
-14.1827
 20
12.6233
 30
0.0
 10
-14.1704
 20
12.7945
 30
0.0
 10
-14.1584
 20
12.9656
 30
0.0
 10
-14.1584
 20
12.9656
 30
0.0
 10
-14.1447
 20
13.1596
 30
0.0
 10
-14.1714
 20
13.4555
 30
0.0
 10
-14.0841
 20
13.6311
 30
0.0
 10
-14.0841
 20
13.6311
 30
0.0
 10
-14.1095
 20
13.6311
 30
0.0
 10
-14.1349
 20
13.6311
 30
0.0
 10
-14.1603
 20
13.6311
 30
0.0
 10
-14.1603
 20
13.6311
 30
0.0
 10
-14.0356
 20
13.3449
 30
0.0
 10
-14.0236
 20
12.9818
 30
0.0
 10
-14.0991
 20
12.6828
 30
0.0
 10
-14.0991
 20
12.6828
 30
0.0
 10
-14.1271
 20
12.5722
 30
0.0
 10
-14.1982
 20
12.4677
 30
0.0
 10
-14.2083
 20
12.3544
 30
0.0
 10
-14.2083
 20
12.3544
 30
0.0
 10
-14.2178
 20
12.2484
 30
0.0
 10
-14.1773
 20
12.1451
 30
0.0
 10
-14.1651
 20
12.0411
 30
0.0
 10
-14.1651
 20
12.0411
 30
0.0
 10
-14.1585
 20
11.9854
 30
0.0
 10
-14.0702
 20
11.9847
 30
0.0
 10
-14.0769
 20
12.0411
 30
0.0
 10
-14.0769
 20
12.0411
 30
0.0
 10
-14.0957
 20
12.201
 30
0.0
 10
-14.1225
 20
12.2905
 30
0.0
 10
-14.0753
 20
12.4689
 30
0.0
 10
-14.0753
 20
12.4689
 30
0.0
 10
-14.0364
 20
12.6158
 30
0.0
 10
-13.9871
 20
12.7471
 30
0.0
 10
-13.9731
 20
12.9007
 30
0.0
 10
-13.9731
 20
12.9007
 30
0.0
 10
-13.9499
 20
13.1555
 30
0.0
 10
-13.9814
 20
13.4398
 30
0.0
 10
-14.0841
 20
13.6756
 30
0.0
 10
-14.0841
 20
13.6756
 30
0.0
 10
-14.0971
 20
13.7055
 30
0.0
 10
-14.1465
 20
13.7033
 30
0.0
 10
-14.1603
 20
13.6756
 30
0.0
 10
-14.1603
 20
13.6756
 30
0.0
 10
-14.2361
 20
13.5232
 30
0.0
 10
-14.2201
 20
13.3475
 30
0.0
 10
-14.2316
 20
13.18
 30
0.0
 10
-14.2316
 20
13.18
 30
0.0
 10
-14.2474
 20
12.9516
 30
0.0
 10
-14.2638
 20
12.7233
 30
0.0
 10
-14.2799
 20
12.4949
 30
0.0
 10
-14.2799
 20
12.4949
 30
0.0
 10
-14.3144
 20
12.0056
 30
0.0
 10
-14.3467
 20
11.5163
 30
0.0
 10
-14.3823
 20
11.0271
 30
0.0
 10
-14.3823
 20
11.0271
 30
0.0
 10
-14.4172
 20
10.5476
 30
0.0
 10
-14.4471
 20
10.0677
 30
0.0
 10
-14.4794
 20
9.5881
 30
0.0
 10
-14.4794
 20
9.5881
 30
0.0
 10
-14.4952
 20
9.3541
 30
0.0
 10
-14.5111
 20
9.1202
 30
0.0
 10
-14.5261
 20
8.8862
 30
0.0
 10
-14.5261
 20
8.8862
 30
0.0
 10
-14.5378
 20
8.7044
 30
0.0
 10
-14.5729
 20
8.625
 30
0.0
 10
-14.4567
 20
8.4968
 30
0.0
 10
-14.4567
 20
8.4968
 30
0.0
 10
-14.4409
 20
8.4793
 30
0.0
 10
-14.4103
 20
8.4803
 30
0.0
 10
-14.3944
 20
8.4968
 30
0.0
 10
-14.3944
 20
8.4968
 30
0.0
 10
-14.2416
 20
8.6545
 30
0.0
 10
-14.2703
 20
8.9118
 30
0.0
 10
-14.2498
 20
9.1205
 30
0.0
 10
-14.2498
 20
9.1205
 30
0.0
 10
-14.2181
 20
9.4433
 30
0.0
 10
-14.205
 20
9.7621
 30
0.0
 10
-14.1991
 20
10.0862
 30
0.0
 10
-14.1991
 20
10.0862
 30
0.0
 10
-14.1958
 20
10.2655
 30
0.0
 10
-14.2021
 20
10.4505
 30
0.0
 10
-14.164
 20
10.6264
 30
0.0
 10
-14.164
 20
10.6264
 30
0.0
 10
-14.1359
 20
10.7565
 30
0.0
 10
-14.1065
 20
10.8694
 30
0.0
 10
-14.0988
 20
11.0027
 30
0.0
 10
-14.0988
 20
11.0027
 30
0.0
 10
-14.0789
 20
11.3479
 30
0.0
 10
-14.0842
 20
11.6955
 30
0.0
 10
-14.0769
 20
12.0411
 30
0.0
 10
-14.0769
 20
12.0411
 30
0.0
 10
-14.0757
 20
12.0978
 30
0.0
 10
-14.1639
 20
12.0978
 30
0.0
 10
-14.1651
 20
12.0411
 30
0.0
  0
ENDSEC
  0
SECTION
  2
OBJECTS
  0
DICTIONARY
  5
C
330
0
100
AcDbDictionary
  3
ACAD_GROUP
350
D
  3
ACAD_LAYOUT
350
1A
  3
ACAD_MATERIAL
350
3B
  3
ACAD_MLEADERSTYLE
350
6E
  3
ACAD_MLINESTYLE
350
17
  3
ACAD_PLOTSETTINGS
350
19
  3
ACAD_VISUALSTYLE
350
2A
  3
ACDBVARIABLEDICTIONARY
350
6C
1001
ACAD
1000
TREAT_AS_HARD
1070
     0
  0
DICTIONARY
  5
D
102
{ACAD_REACTORS
330
C
102
}
330
C
100
AcDbDictionary
1001
ACAD
1000
TREAT_AS_HARD
1070
     0
  0
DICTIONARY
  5
1A
102
{ACAD_REACTORS
330
C
102
}
330
C
100
AcDbDictionary
1001
ACAD
1000
TREAT_AS_HARD
1070
     0
  0
DICTIONARY
  5
3B
102
{ACAD_REACTORS
330
C
102
}
330
C
100
AcDbDictionary
  3
BYBLOCK
350
3D
  3
BYLAYER
350
3C
  3
GLOBAL
350
3E
1001
ACAD
1000
TREAT_AS_HARD
1070
     0
  0
DICTIONARY
  5
6E
102
{ACAD_REACTORS
330
C
102
}
330
C
100
AcDbDictionary
1001
ACAD
1000
TREAT_AS_HARD
1070
     0
  0
DICTIONARY
  5
17
102
{ACAD_REACTORS
330
C
102
}
330
C
100
AcDbDictionary
  3
STANDARD
350
18
1001
ACAD
1000
TREAT_AS_HARD
1070
     0
  0
DICTIONARY
  5
19
102
{ACAD_REACTORS
330
C
102
}
330
C
100
AcDbDictionary
1001
ACAD
1000
TREAT_AS_HARD
1070
     0
  0
DICTIONARY
  5
2A
102
{ACAD_REACTORS
330
C
102
}
330
C
100
AcDbDictionary
  3
2DWIREFRAME
350
2F
  3
3D_HIDDEN
350
31
  3
3DWIREFRAME
350
30
  3
BASIC
350
32
  3
BRIGHTEN
350
36
  3
COLORCHANGE
350
3A
  3
CONCEPTUAL
350
34
  3
DIM
350
35
  3
FACEPATTERN
350
39
  3
FLAT
350
2B
  3
FLATWITHEDGES
350
2C
  3
GOURAUD
350
2D
  3
GOURAUDWITHEDGES
350
2E
  3
LINEPATTERN
350
38
  3
REALISTIC
350
33
  3
THICKEN
350
37
1001
ACAD
1000
TREAT_AS_HARD
1070
     0
  0
DICTIONARY
  5
6C
102
{ACAD_REACTORS
330
C
102
}
330
C
100
AcDbDictionary
  3
DIMASSOC
350
6F
  3
HIDETEXT
350
70
1001
ACAD
1000
TREAT_AS_HARD
1070
     0
  0
MATERIAL
  5
3D
102
{ACAD_REACTORS
330
3B
102
}
102
{ACAD_XDICTIONARY
360
73
102
}
330
3B
100
AcDbMaterial
  1
ByBlock
  0
MATERIAL
  5
3C
102
{ACAD_REACTORS
330
3B
102
}
102
{ACAD_XDICTIONARY
360
71
102
}
330
3B
100
AcDbMaterial
  1
ByLayer
  0
MATERIAL
  5
3E
102
{ACAD_REACTORS
330
3B
102
}
102
{ACAD_XDICTIONARY
360
75
102
}
330
3B
100
AcDbMaterial
  1
Global
  0
MLINESTYLE
  5
18
102
{ACAD_REACTORS
330
17
102
}
330
17
100
AcDbMlineStyle
  2
Standard
 70
     0
  3

 62
   256
 51
90.0
 52
90.0
 71
     2
 49
0.5
 62
   256
  6
BYLAYER
 49
-0.5
 62
   256
  6
BYLAYER
  0
ACAD_PROXY_OBJECT
  5
2F
102
{ACAD_REACTORS
330
2A
102
}
330
2A
100
AcDbZombieObject
 90
      499
 91
      501
 93
      436
310
42CC9915DA5C99599C985B595049028333333333333E3BF0000000000000FB0107901411070040501600405405064090741402480A0340
1001
ACAD
1000
AcDbSavedByObjectVersion
1070
     0
  0
ACAD_PROXY_OBJECT
  5
31
102
{ACAD_REACTORS
330
2A
102
}
330
2A
100
AcDbZombieObject
 90
      499
 91
      501
 93
      500
310
424CD108121A5919195B90640502408333333333333E3BF0000000000000FB01079024090700405020000000000001110200405405064090740C02480A0340
1001
ACAD
1000
AcDbSavedByObjectVersion
1070
     0
  0
ACAD_PROXY_OBJECT
  5
30
102
{ACAD_REACTORS
330
2A
102
}
330
2A
100
AcDbZombieObject
 90
      499
 91
      501
 93
      436
310
42CCD915DA5C99599C985B595059028333333333333E3BF0000000000000FB0107901411070040501600405405064090741402480A0340
1001
ACAD
1000
AcDbSavedByObjectVersion
1070
     0
  0
ACAD_PROXY_OBJECT
  5
32
102
{ACAD_REACTORS
330
2A
102
}
330
2A
100
AcDbZombieObject
 90
      499
 91
      501
 93
      388
310
4150985CDA58D07406404333333333333E3BF0000000000000FB0107A41107004050150841D405064090741402480A0350
1001
ACAD
1000
AcDbSavedByObjectVersion
1070
     0
  0
ACAD_PROXY_OBJECT
  5
36
102
{ACAD_REACTORS
330
2A
102
}
330
2A
100
AcDbZombieObject
 90
      499
 91
      501
 93
      428
310
42109C9A59DA1D195B90C409028333333333333E3BF0000000000000FB010790141107004050150841D405064090741402480A029950
1001
ACAD
1000
AcDbSavedByObjectVersion
1070
     0
  0
ACAD_PROXY_OBJECT
  5
3A
102
{ACAD_REACTORS
330
2A
102
}
330
2A
100
AcDbZombieObject
 90
      499
 91
      501
 93
      452
310
42D0DBDB1BDC90DA185B99D95104090240C333333333333E3BF0000000000000FB0108901411070040501508421405064090741402480A0350
1001
ACAD
1000
AcDbSavedByObjectVersion
1070
     0
  0
ACAD_PROXY_OBJECT
  5
34
102
{ACAD_REACTORS
330
2A
102
}
330
2A
100
AcDbZombieObject
 90
      499
 91
      501
 93
      500
310
4290DBDB98D95C1D1D585B10940D028333333333333E3BF0000000000000FB0107902409070040501000000000000111010841D405064090740C02480A0340
1001
ACAD
1000
AcDbSavedByObjectVersion
1070
     0
  0
ACAD_PROXY_OBJECT
  5
35
102
{ACAD_REACTORS
330
2A
102
}
330
2A
100
AcDbZombieObject
 90
      499
 91
      501
 93
      412
310
40D11A5B50B409028333333333333E3BF0000000000000FB010790141107004050150841D405064090741402480A02677FFFFFD0
1001
ACAD
1000
AcDbSavedByObjectVersion
1070
     0
  0
ACAD_PROXY_OBJECT
  5
39
102
{ACAD_REACTORS
330
2A
102
}
330
2A
100
AcDbZombieObject
 90
      499
 91
      501
 93
      444
310
42D19858D95C185D1D195C9B90F409028333333333333E3BF0000000000000FB010790141107004050150841D405064090741402480A0350
1001
ACAD
1000
AcDbSavedByObjectVersion
1070
     0
  0
ACAD_PROXY_OBJECT
  5
2B
102
{ACAD_REACTORS
330
2A
102
}
330
2A
100
AcDbZombieObject
 90
      499
 91
      501
 93
      388
310
41119B185D240901404333333333333E3BF0000000000000F9010740A41107004050150841D405064090741402480A1B50
1001
ACAD
1000
AcDbSavedByObjectVersion
1070
     0
  0
ACAD_PROXY_OBJECT
  5
2C
102
{ACAD_REACTORS
330
2A
102
}
330
2A
100
AcDbZombieObject
 90
      499
 91
      501
 93
      476
310
43519B185D15DA5D1A115919D95CD0140901404333333333333E3BF0000000000000F9010740901411070040501600405405064090741402480A1B50
1001
ACAD
1000
AcDbSavedByObjectVersion
1070
     0
  0
ACAD_PROXY_OBJECT
  5
2D
102
{ACAD_REACTORS
330
2A
102
}
330
2A
100
AcDbZombieObject
 90
      499
 91
      501
 93
      412
310
41D1DBDD5C985D5910240902404333333333333E3BF0000000000000F9010740A411070040501641D405064090741402480A1B50
1001
ACAD
1000
AcDbSavedByObjectVersion
1070
     0
  0
ACAD_PROXY_OBJECT
  5
2E
102
{ACAD_REACTORS
330
2A
102
}
330
2A
100
AcDbZombieObject
 90
      499
 91
      501
 93
      500
310
4411DBDD5C985D5915DA5D1A115919D95CD0340902404333333333333E3BF0000000000000F9010740901411070040501600405405064090741402480A1B50
1001
ACAD
1000
AcDbSavedByObjectVersion
1070
     0
  0
ACAD_PROXY_OBJECT
  5
38
102
{ACAD_REACTORS
330
2A
102
}
330
2A
100
AcDbZombieObject
 90
      499
 91
      501
 93
      444
310
42D31A5B995C185D1D195C9B90E409028333333333333E3BF0000000000000FB010790141107004050750841D405064090741402483A0350
1001
ACAD
1000
AcDbSavedByObjectVersion
1070
     0
  0
ACAD_PROXY_OBJECT
  5
33
102
{ACAD_REACTORS
330
2A
102
}
330
2A
100
AcDbZombieObject
 90
      499
 91
      501
 93
      420
310
425499585B1A5CDD1A58D08409028333333333333E3BF0000000000000FB01079019070040501508421405064090741402480A1B40
1001
ACAD
1000
AcDbSavedByObjectVersion
1070
     0
  0
ACAD_PROXY_OBJECT
  5
37
102
{ACAD_REACTORS
330
2A
102
}
330
2A
100
AcDbZombieObject
 90
      499
 91
      501
 93
      412
310
41D51A1A58DAD95B90D409028333333333333E3BF0000000000000FB010790141107004050150C41D405064090741402480A0350
1001
ACAD
1000
AcDbSavedByObjectVersion
1070
     0
  0
DICTIONARYVAR
  5
6F
102
{ACAD_REACTORS
330
6C
102
}
330
6C
100
DictionaryVariables
280
     0
  1
2
  0
DICTIONARYVAR
  5
70
102
{ACAD_REACTORS
330
6C
102
}
330
6C
100
DictionaryVariables
280
     0
  1
1
  0
DICTIONARY
  5
73
330
3D
100
AcDbDictionary
  3
ACAD_XREC_ROUNDTRIP
360
74
1001
ACAD
1000
TREAT_AS_HARD
1070
     1
  0
DICTIONARY
  5
71
330
3C
100
AcDbDictionary
  3
ACAD_XREC_ROUNDTRIP
360
72
1001
ACAD
1000
TREAT_AS_HARD
1070
     1
  0
DICTIONARY
  5
75
330
3E
100
AcDbDictionary
  3
ACAD_XREC_ROUNDTRIP
360
76
1001
ACAD
1000
TREAT_AS_HARD
1070
     1
  0
XRECORD
  5
74
102
{ACAD_REACTORS
330
73
102
}
330
73
100
AcDbXrecord
102
MATERIAL
148
0.0
149
0.0
149
0.0
 93
        0
 94
      127
282
     0
 72
     1
 77
     1
171
     1
175
     1
179
     1
273
     0
  0
XRECORD
  5
72
102
{ACAD_REACTORS
330
71
102
}
330
71
100
AcDbXrecord
102
MATERIAL
148
0.0
149
0.0
149
0.0
 93
        0
 94
      127
282
     0
 72
     1
 77
     1
171
     1
175
     1
179
     1
273
     0
  0
XRECORD
  5
76
102
{ACAD_REACTORS
330
75
102
}
330
75
100
AcDbXrecord
102
MATERIAL
148
0.0
149
0.0
149
0.0
 93
        0
 94
      127
282
     0
 72
     1
 77
     1
171
     1
175
     1
179
     1
273
     0
  0
ENDSEC
  0
EOF
