  0
SECTION
  2
HEADER
  9
$ACADVER
  1
AC1015
  9
$ACADMAINTVER
 70
    18
  9
$DWGCODEPAGE
  3
ANSI_932
  9
$INSBASE
 10
0.0
 20
0.0
 30
0.0
  9
$EXTMIN
 10
1.000000000000000E+20
 20
1.000000000000000E+20
 30
1.000000000000000E+20
  9
$EXTMAX
 10
-1.000000000000000E+20
 20
-1.000000000000000E+20
 30
-1.000000000000000E+20
  9
$LIMMIN
 10
0.0
 20
0.0
  9
$LIMMAX
 10
12.0
 20
9.0
  9
$ORTHOMODE
 70
     0
  9
$REGENMODE
 70
     1
  9
$FILLMODE
 70
     1
  9
$QTEXTMODE
 70
     0
  9
$MIRRTEXT
 70
     0
  9
$LTSCALE
 40
1.0
  9
$ATTMODE
 70
     1
  9
$TEXTSIZE
 40
0.2
  9
$TRACEWID
 40
0.05
  9
$TEXTSTYLE
  7
Standard
  9
$CLAYER
  8
0
  9
$CELTYPE
  6
ByLayer
  9
$CECOLOR
 62
   256
  9
$CELTSCALE
 40
1.0
  9
$DISPSILH
 70
     0
  9
$DIMSCALE
 40
1.0
  9
$DIMASZ
 40
0.18
  9
$DIMEXO
 40
0.0625
  9
$DIMDLI
 40
0.38
  9
$DIMRND
 40
0.0
  9
$DIMDLE
 40
0.0
  9
$DIMEXE
 40
0.18
  9
$DIMTP
 40
0.0
  9
$DIMTM
 40
0.0
  9
$DIMTXT
 40
0.18
  9
$DIMCEN
 40
0.09
  9
$DIMTSZ
 40
0.0
  9
$DIMTOL
 70
     0
  9
$DIMLIM
 70
     0
  9
$DIMTIH
 70
     1
  9
$DIMTOH
 70
     1
  9
$DIMSE1
 70
     0
  9
$DIMSE2
 70
     0
  9
$DIMTAD
 70
     0
  9
$DIMZIN
 70
     0
  9
$DIMBLK
  1

  9
$DIMASO
 70
     1
  9
$DIMSHO
 70
     1
  9
$DIMPOST
  1

  9
$DIMAPOST
  1

  9
$DIMALT
 70
     0
  9
$DIMALTD
 70
     2
  9
$DIMALTF
 40
25.4
  9
$DIMLFAC
 40
1.0
  9
$DIMTOFL
 70
     0
  9
$DIMTVP
 40
0.0
  9
$DIMTIX
 70
     0
  9
$DIMSOXD
 70
     0
  9
$DIMSAH
 70
     0
  9
$DIMBLK1
  1

  9
$DIMBLK2
  1

  9
$DIMSTYLE
  2
Standard
  9
$DIMCLRD
 70
     0
  9
$DIMCLRE
 70
     0
  9
$DIMCLRT
 70
     0
  9
$DIMTFAC
 40
1.0
  9
$DIMGAP
 40
0.09
  9
$DIMJUST
 70
     0
  9
$DIMSD1
 70
     0
  9
$DIMSD2
 70
     0
  9
$DIMTOLJ
 70
     1
  9
$DIMTZIN
 70
     0
  9
$DIMALTZ
 70
     0
  9
$DIMALTTZ
 70
     0
  9
$DIMUPT
 70
     0
  9
$DIMDEC
 70
     4
  9
$DIMTDEC
 70
     4
  9
$DIMALTU
 70
     2
  9
$DIMALTTD
 70
     2
  9
$DIMTXSTY
  7
Standard
  9
$DIMAUNIT
 70
     0
  9
$DIMADEC
 70
     0
  9
$DIMALTRND
 40
0.0
  9
$DIMAZIN
 70
     0
  9
$DIMDSEP
 70
    46
  9
$DIMATFIT
 70
     3
  9
$DIMFRAC
 70
     0
  9
$DIMLDRBLK
  1

  9
$DIMLUNIT
 70
     2
  9
$DIMLWD
 70
    -2
  9
$DIMLWE
 70
    -2
  9
$DIMTMOVE
 70
     0
  9
$LUNITS
 70
     2
  9
$LUPREC
 70
     4
  9
$SKETCHINC
 40
0.1
  9
$FILLETRAD
 40
0.0
  9
$AUNITS
 70
     0
  9
$AUPREC
 70
     0
  9
$MENU
  1
.
  9
$ELEVATION
 40
0.0
  9
$PELEVATION
 40
0.0
  9
$THICKNESS
 40
0.0
  9
$LIMCHECK
 70
     0
  9
$CHAMFERA
 40
0.0
  9
$CHAMFERB
 40
0.0
  9
$CHAMFERC
 40
0.0
  9
$CHAMFERD
 40
0.0
  9
$SKPOLY
 70
     0
  9
$TDCREATE
 40
2459407.872604167
  9
$TDUCREATE
 40
2459407.497604167
  9
$TDUPDATE
 40
2459407.872604167
  9
$TDUUPDATE
 40
2459407.497604167
  9
$TDINDWG
 40
0.0000000000
  9
$TDUSRTIMER
 40
0.0000000000
  9
$USRTIMER
 70
     1
  9
$ANGBASE
 50
0.0
  9
$ANGDIR
 70
     0
  9
$PDMODE
 70
     0
  9
$PDSIZE
 40
0.0
  9
$PLINEWID
 40
0.0
  9
$SPLFRAME
 70
     0
  9
$SPLINETYPE
 70
     6
  9
$SPLINESEGS
 70
     8
  9
$HANDSEED
  5
27A
  9
$SURFTAB1
 70
     6
  9
$SURFTAB2
 70
     6
  9
$SURFTYPE
 70
     6
  9
$SURFU
 70
     6
  9
$SURFV
 70
     6
  9
$UCSBASE
  2

  9
$UCSNAME
  2

  9
$UCSORG
 10
0.0
 20
0.0
 30
0.0
  9
$UCSXDIR
 10
1.0
 20
0.0
 30
0.0
  9
$UCSYDIR
 10
0.0
 20
1.0
 30
0.0
  9
$UCSORTHOREF
  2

  9
$UCSORTHOVIEW
 70
     0
  9
$UCSORGTOP
 10
0.0
 20
0.0
 30
0.0
  9
$UCSORGBOTTOM
 10
0.0
 20
0.0
 30
0.0
  9
$UCSORGLEFT
 10
0.0
 20
0.0
 30
0.0
  9
$UCSORGRIGHT
 10
0.0
 20
0.0
 30
0.0
  9
$UCSORGFRONT
 10
0.0
 20
0.0
 30
0.0
  9
$UCSORGBACK
 10
0.0
 20
0.0
 30
0.0
  9
$PUCSBASE
  2

  9
$PUCSNAME
  2

  9
$PUCSORG
 10
0.0
 20
0.0
 30
0.0
  9
$PUCSXDIR
 10
1.0
 20
0.0
 30
0.0
  9
$PUCSYDIR
 10
0.0
 20
1.0
 30
0.0
  9
$PUCSORTHOREF
  2

  9
$PUCSORTHOVIEW
 70
     0
  9
$PUCSORGTOP
 10
0.0
 20
0.0
 30
0.0
  9
$PUCSORGBOTTOM
 10
0.0
 20
0.0
 30
0.0
  9
$PUCSORGLEFT
 10
0.0
 20
0.0
 30
0.0
  9
$PUCSORGRIGHT
 10
0.0
 20
0.0
 30
0.0
  9
$PUCSORGFRONT
 10
0.0
 20
0.0
 30
0.0
  9
$PUCSORGBACK
 10
0.0
 20
0.0
 30
0.0
  9
$USERI1
 70
     0
  9
$USERI2
 70
     0
  9
$USERI3
 70
     0
  9
$USERI4
 70
     0
  9
$USERI5
 70
     0
  9
$USERR1
 40
0.0
  9
$USERR2
 40
0.0
  9
$USERR3
 40
0.0
  9
$USERR4
 40
0.0
  9
$USERR5
 40
0.0
  9
$WORLDVIEW
 70
     1
  9
$SHADEDGE
 70
     3
  9
$SHADEDIF
 70
    70
  9
$TILEMODE
 70
     1
  9
$MAXACTVP
 70
    64
  9
$PINSBASE
 10
0.0
 20
0.0
 30
0.0
  9
$PLIMCHECK
 70
     0
  9
$PEXTMIN
 10
1.000000000000000E+20
 20
1.000000000000000E+20
 30
1.000000000000000E+20
  9
$PEXTMAX
 10
-1.000000000000000E+20
 20
-1.000000000000000E+20
 30
-1.000000000000000E+20
  9
$PLIMMIN
 10
0.0
 20
0.0
  9
$PLIMMAX
 10
12.0
 20
9.0
  9
$UNITMODE
 70
     0
  9
$VISRETAIN
 70
     1
  9
$PLINEGEN
 70
     0
  9
$PSLTSCALE
 70
     1
  9
$TREEDEPTH
 70
  3020
  9
$CMLSTYLE
  2
Standard
  9
$CMLJUST
 70
     0
  9
$CMLSCALE
 40
1.0
  9
$PROXYGRAPHICS
 70
     1
  9
$MEASUREMENT
 70
     0
  9
$CELWEIGHT
370
    -1
  9
$ENDCAPS
280
     0
  9
$JOINSTYLE
280
     0
  9
$LWDISPLAY
290
     1
  9
$INSUNITS
 70
     4
  9
$HYPERLINKBASE
  1

  9
$STYLESHEET
  1

  9
$XEDIT
290
     1
  9
$CEPSNTYPE
380
     0
  9
$PSTYLEMODE
290
     1
  9
$FINGERPRINTGUID
  2
{587A35C4-0601-C846-939C-96D77E0A552C}
  9
$VERSIONGUID
  2
{8A313B0B-6214-6146-9F12-B6F01CA4A728}
  9
$EXTNAMES
290
     1
  9
$PSVPSCALE
 40
0.0
  9
$OLESTARTUP
290
     0
  0
ENDSEC
  0
SECTION
  2
CLASSES
  0
CLASS
  1
ACDBDICTIONARYWDFLT
  2
AcDbDictionaryWithDefault
  3
ObjectDBX Classes
 90
        0
280
     0
281
     0
  0
CLASS
  1
MATERIAL
  2
AcDbMaterial
  3
ObjectDBX Classes
 90
     1153
280
     0
281
     0
  0
CLASS
  1
VISUALSTYLE
  2
AcDbVisualStyle
  3
ObjectDBX Classes
 90
     4095
280
     0
281
     0
  0
CLASS
  1
SCALE
  2
AcDbScale
  3
ObjectDBX Classes
 90
     1153
280
     0
281
     0
  0
CLASS
  1
TABLESTYLE
  2
AcDbTableStyle
  3
ObjectDBX Classes
 90
     4095
280
     0
281
     0
  0
CLASS
  1
MLEADERSTYLE
  2
AcDbMLeaderStyle
  3
ACDB_MLEADERSTYLE_CLASS
 90
     4095
280
     0
281
     0
  0
CLASS
  1
ACDBSECTIONVIEWSTYLE
  2
AcDbSectionViewStyle
  3
ObjectDBX Classes
 90
     1025
280
     0
281
     0
  0
CLASS
  1
ACDBDETAILVIEWSTYLE
  2
AcDbDetailViewStyle
  3
ObjectDBX Classes
 90
     1025
280
     0
281
     0
  0
CLASS
  1
DICTIONARYVAR
  2
AcDbDictionaryVar
  3
ObjectDBX Classes
 90
        0
280
     0
281
     0
  0
CLASS
  1
CELLSTYLEMAP
  2
AcDbCellStyleMap
  3
ObjectDBX Classes
 90
     1152
280
     0
281
     0
  0
CLASS
  1
ACDBPLACEHOLDER
  2
AcDbPlaceHolder
  3
ObjectDBX Classes
 90
        0
280
     0
281
     0
  0
CLASS
  1
LAYOUT
  2
AcDbLayout
  3
ObjectDBX Classes
 90
        0
280
     0
281
     0
  0
ENDSEC
  0
SECTION
  2
TABLES
  0
TABLE
  2
VPORT
  5
8
330
0
100
AcDbSymbolTable
 70
     1
  0
VPORT
  5
57
330
8
100
AcDbSymbolTableRecord
100
AcDbViewportTableRecord
  2
*Active
 70
     0
 10
0.0
 20
0.0
 11
1.0
 21
1.0
 12
0.0
 22
0.0
 13
0.0
 23
0.0
 14
1.0
 24
1.0
 15
0.0
 25
0.0
 16
0.0
 26
0.0
 36
1.0
 17
299.9999999249995
 27
-224.9999999437495
 37
0.0
 40
458.999999885249
 41
1.333333333333333
 42
50.0
 43
0.0
 44
0.0
 50
0.0
 51
0.0
 71
     0
 72
   100
 73
     1
 74
     0
 75
     1
 76
     0
 77
     0
 78
     0
281
     0
 65
     1
110
0.0
120
0.0
130
0.0
111
1.0
121
0.0
131
0.0
112
0.0
122
1.0
132
0.0
 79
     0
146
0.0
  0
ENDTAB
  0
TABLE
  2
LTYPE
  5
5
330
0
100
AcDbSymbolTable
 70
     1
  0
LTYPE
  5
5B
330
5
100
AcDbSymbolTableRecord
100
AcDbLinetypeTableRecord
  2
ByBlock
 70
     0
  3

 72
    65
 73
     0
 40
0.0
  0
LTYPE
  5
5C
330
5
100
AcDbSymbolTableRecord
100
AcDbLinetypeTableRecord
  2
ByLayer
 70
     0
  3

 72
    65
 73
     0
 40
0.0
  0
LTYPE
  5
5D
330
5
100
AcDbSymbolTableRecord
100
AcDbLinetypeTableRecord
  2
Continuous
 70
     0
  3
Solid line
 72
    65
 73
     0
 40
0.0
  0
ENDTAB
  0
TABLE
  2
LAYER
  5
2
330
0
100
AcDbSymbolTable
 70
     2
  0
LAYER
  5
54
330
2
100
AcDbSymbolTableRecord
100
AcDbLayerTableRecord
  2
0
 70
     0
 62
     7
  6
Continuous
370
    -3
390
F
  0
LAYER
  5
78
330
2
100
AcDbSymbolTableRecord
100
AcDbLayerTableRecord
  2
レイヤー 1
 70
     0
 62
     7
  6
Continuous
370
     0
390
F
  0
ENDTAB
  0
TABLE
  2
STYLE
  5
3
330
0
100
AcDbSymbolTable
 70
     2
  0
STYLE
  5
55
330
3
100
AcDbSymbolTableRecord
100
AcDbTextStyleTableRecord
  2
Standard
 70
     0
 40
0.0
 41
1.0
 50
0.0
 71
     0
 42
0.2
  3
txt
  4

  0
STYLE
  5
5A
330
3
100
AcDbSymbolTableRecord
100
AcDbTextStyleTableRecord
  2
Annotative
 70
     0
 40
0.0
 41
1.0
 50
0.0
 71
     0
 42
0.2
  3
txt
  4

1001
AcadAnnotative
1000
AnnotativeData
1002
{
1070
     1
1070
     1
1002
}
  0
ENDTAB
  0
TABLE
  2
VIEW
  5
6
330
0
100
AcDbSymbolTable
 70
     0
  0
ENDTAB
  0
TABLE
  2
UCS
  5
7
330
0
100
AcDbSymbolTable
 70
     0
  0
ENDTAB
  0
TABLE
  2
APPID
  5
9
330
0
100
AcDbSymbolTable
 70
     3
  0
APPID
  5
56
330
9
100
AcDbSymbolTableRecord
100
AcDbRegAppTableRecord
  2
ACAD
 70
     0
  0
APPID
  5
5E
330
9
100
AcDbSymbolTableRecord
100
AcDbRegAppTableRecord
  2
AcadAnnotative
 70
     0
  0
APPID
  5
26D
330
9
100
AcDbSymbolTableRecord
100
AcDbRegAppTableRecord
  2
ACAD_MLEADERVER
 70
     0
  0
ENDTAB
  0
TABLE
  2
DIMSTYLE
  5
A
330
0
100
AcDbSymbolTable
 70
     2
100
AcDbDimStyleTable
 71
     0
  0
DIMSTYLE
105
58
330
A
100
AcDbSymbolTableRecord
100
AcDbDimStyleTableRecord
  2
Standard
 70
     0
340
55
  0
DIMSTYLE
105
59
330
A
100
AcDbSymbolTableRecord
100
AcDbDimStyleTableRecord
  2
Annotative
 70
     0
340
55
1001
AcadAnnotative
1000
AnnotativeData
1002
{
1070
     1
1070
     1
1002
}
  0
ENDTAB
  0
TABLE
  2
BLOCK_RECORD
  5
1
330
0
100
AcDbSymbolTable
 70
    21
  0
BLOCK_RECORD
  5
70
330
1
100
AcDbSymbolTableRecord
100
AcDbBlockTableRecord
  2
*Model_Space
340
73
  0
BLOCK_RECORD
  5
6C
330
1
100
AcDbSymbolTableRecord
100
AcDbBlockTableRecord
  2
*Paper_Space
340
6F
  0
BLOCK_RECORD
  5
74
330
1
100
AcDbSymbolTableRecord
100
AcDbBlockTableRecord
  2
*Paper_Space0
340
77
  0
BLOCK_RECORD
  5
A3
330
1
100
AcDbSymbolTableRecord
100
AcDbBlockTableRecord
  2
Block_0
340
0
102
{BLKREFS
331
A4
102
}
  0
BLOCK_RECORD
  5
AE
330
1
100
AcDbSymbolTableRecord
100
AcDbBlockTableRecord
  2
Block_1
340
0
102
{BLKREFS
331
AF
102
}
  0
BLOCK_RECORD
  5
B5
330
1
100
AcDbSymbolTableRecord
100
AcDbBlockTableRecord
  2
Block_2
340
0
102
{BLKREFS
331
B6
102
}
  0
BLOCK_RECORD
  5
BC
330
1
100
AcDbSymbolTableRecord
100
AcDbBlockTableRecord
  2
Block_3
340
0
102
{BLKREFS
331
BD
102
}
  0
BLOCK_RECORD
  5
C3
330
1
100
AcDbSymbolTableRecord
100
AcDbBlockTableRecord
  2
Block_4
340
0
102
{BLKREFS
331
C4
102
}
  0
BLOCK_RECORD
  5
CA
330
1
100
AcDbSymbolTableRecord
100
AcDbBlockTableRecord
  2
Block_5
340
0
102
{BLKREFS
331
CB
102
}
  0
BLOCK_RECORD
  5
D1
330
1
100
AcDbSymbolTableRecord
100
AcDbBlockTableRecord
  2
Block_6
340
0
102
{BLKREFS
331
D2
102
}
  0
BLOCK_RECORD
  5
D9
330
1
100
AcDbSymbolTableRecord
100
AcDbBlockTableRecord
  2
Block_7
340
0
102
{BLKREFS
331
DA
102
}
  0
BLOCK_RECORD
  5
DF
330
1
100
AcDbSymbolTableRecord
100
AcDbBlockTableRecord
  2
Block_8
340
0
102
{BLKREFS
331
E0
102
}
  0
BLOCK_RECORD
  5
E7
330
1
100
AcDbSymbolTableRecord
100
AcDbBlockTableRecord
  2
Block_9
340
0
102
{BLKREFS
331
E8
102
}
  0
BLOCK_RECORD
  5
F5
330
1
100
AcDbSymbolTableRecord
100
AcDbBlockTableRecord
  2
Block_10
340
0
102
{BLKREFS
331
F6
102
}
  0
BLOCK_RECORD
  5
105
330
1
100
AcDbSymbolTableRecord
100
AcDbBlockTableRecord
  2
Block_11
340
0
102
{BLKREFS
331
106
102
}
  0
BLOCK_RECORD
  5
117
330
1
100
AcDbSymbolTableRecord
100
AcDbBlockTableRecord
  2
Block_12
340
0
102
{BLKREFS
331
118
102
}
  0
BLOCK_RECORD
  5
139
330
1
100
AcDbSymbolTableRecord
100
AcDbBlockTableRecord
  2
Block_13
340
0
102
{BLKREFS
331
13A
102
}
  0
BLOCK_RECORD
  5
15B
330
1
100
AcDbSymbolTableRecord
100
AcDbBlockTableRecord
  2
Block_14
340
0
102
{BLKREFS
331
15C
102
}
  0
BLOCK_RECORD
  5
17D
330
1
100
AcDbSymbolTableRecord
100
AcDbBlockTableRecord
  2
Block_15
340
0
102
{BLKREFS
331
17E
102
}
  0
BLOCK_RECORD
  5
19F
330
1
100
AcDbSymbolTableRecord
100
AcDbBlockTableRecord
  2
Block_16
340
0
102
{BLKREFS
331
1A0
102
}
  0
BLOCK_RECORD
  5
1C1
330
1
100
AcDbSymbolTableRecord
100
AcDbBlockTableRecord
  2
Block_17
340
0
102
{BLKREFS
331
1C2
102
}
  0
BLOCK_RECORD
  5
1E3
330
1
100
AcDbSymbolTableRecord
100
AcDbBlockTableRecord
  2
Block_18
340
0
102
{BLKREFS
331
1E4
102
}
  0
BLOCK_RECORD
  5
205
330
1
100
AcDbSymbolTableRecord
100
AcDbBlockTableRecord
  2
Block_19
340
0
102
{BLKREFS
331
206
102
}
  0
ENDTAB
  0
ENDSEC
  0
SECTION
  2
BLOCKS
  0
BLOCK
  5
71
330
70
100
AcDbEntity
  8
0
100
AcDbBlockBegin
  2
*Model_Space
 70
     0
 10
0.0
 20
0.0
 30
0.0
  3
*Model_Space
  1

  0
ENDBLK
  5
72
330
70
100
AcDbEntity
  8
0
100
AcDbBlockEnd
  0
BLOCK
  5
6D
330
6C
100
AcDbEntity
 67
     1
  8
0
100
AcDbBlockBegin
  2
*Paper_Space
 70
     0
 10
0.0
 20
0.0
 30
0.0
  3
*Paper_Space
  1

  0
ENDBLK
  5
6E
330
6C
100
AcDbEntity
 67
     1
  8
0
100
AcDbBlockEnd
  0
BLOCK
  5
75
330
74
100
AcDbEntity
 67
     1
  8
0
100
AcDbBlockBegin
  2
*Paper_Space0
 70
     0
 10
0.0
 20
0.0
 30
0.0
  3
*Paper_Space0
  1

  0
ENDBLK
  5
76
330
74
100
AcDbEntity
 67
     1
  8
0
100
AcDbBlockEnd
  0
BLOCK
  5
A5
330
A3
100
AcDbEntity
  8
0
100
AcDbBlockBegin
  2
Block_0
 70
     0
 10
0.0
 20
0.0
 30
0.0
  3
Block_0
  1

  0
LWPOLYLINE
  5
A7
330
A3
100
AcDbEntity
  8
レイヤー 1
 62
     1
370
    35
100
AcDbPolyline
 90
        4
 70
     1
 43
0.0
 10
386.532124652973
 20
-129.8111772301693
 10
386.532124652973
 20
-125.8112064988837
 10
382.7321083610319
 20
-125.8112064988837
 10
382.7321083610319
 20
-129.8111772301693
  0
LWPOLYLINE
  5
A8
330
A3
100
AcDbEntity
  8
レイヤー 1
 62
     1
370
    35
100
AcDbPolyline
 90
        4
 70
     1
 43
0.0
 10
386.532124652973
 20
-137.8111892482942
 10
386.532124652973
 20
-133.8111832392318
 10
382.7321083610319
 20
-133.8111832392318
 10
382.7321083610319
 20
-137.8111892482942
  0
ENDBLK
  5
A6
330
A3
100
AcDbEntity
  8
0
100
AcDbBlockEnd
  0
BLOCK
  5
B0
330
AE
100
AcDbEntity
  8
0
100
AcDbBlockBegin
  2
Block_1
 70
     0
 10
0.0
 20
0.0
 30
0.0
  3
Block_1
  1

  0
LWPOLYLINE
  5
B2
330
AE
100
AcDbEntity
  8
レイヤー 1
 62
     1
370
    35
100
AcDbPolyline
 90
        4
 70
     1
 43
0.0
 10
340.6501575338242
 20
-373.1217898446827
 10
344.4089005133856
 20
-371.7537192819061
 10
343.1092183966114
 20
-368.1828720134884
 10
339.3504754170499
 20
-369.5509425762657
  0
LWPOLYLINE
  5
B3
330
AE
100
AcDbEntity
  8
レイヤー 1
 62
     1
370
    35
100
AcDbPolyline
 90
        4
 70
     1
 43
0.0
 10
333.1326052741666
 20
-375.8579551016548
 10
336.8913814039954
 20
-374.489872473169
 10
335.5916992872212
 20
-370.9190252047514
 10
331.8329231573924
 20
-372.2871078332377
  0
SPLINE
  5
B4
330
AE
100
AcDbEntity
  8
レイヤー 1
 62
     1
370
    35
100
AcDbSpline
210
0.0
220
0.0
230
1.0
 70
    24
 71
     3
 72
     8
 73
     4
 74
     0
 42
0.0000000001
 43
0.0000000001
 40
0.0
 40
0.0
 40
0.0
 40
0.0
 40
1.0
 40
1.0
 40
1.0
 40
1.0
 10
333.1667753657455
 20
-375.9518366566926
 30
0.0
 10
332.7121394015058
 20
-374.7027346108303
 30
0.0
 10
332.2575034372661
 20
-373.4536325649724
 30
0.0
 10
331.8028674730251
 20
-372.2045305191108
 30
0.0
  0
ENDBLK
  5
B1
330
AE
100
AcDbEntity
  8
0
100
AcDbBlockEnd
  0
BLOCK
  5
B7
330
B5
100
AcDbEntity
  8
0
100
AcDbBlockBegin
  2
Block_2
 70
     0
 10
0.0
 20
0.0
 30
0.0
  3
Block_2
  1

  0
LWPOLYLINE
  5
B9
330
B5
100
AcDbEntity
  8
レイヤー 1
 62
     1
370
    35
100
AcDbPolyline
 90
        4
 70
     1
 43
0.0
 10
156.2228671251783
 20
-312.9191553132948
 10
156.2228671253579
 20
-308.9191845820092
 10
160.0228834173003
 20
-308.9191845821799
 10
160.0228834171207
 20
-312.9191553134654
  0
LWPOLYLINE
  5
BA
330
B5
100
AcDbEntity
  8
レイヤー 1
 62
     1
370
    35
100
AcDbPolyline
 90
        4
 70
     1
 43
0.0
 10
156.2228671248189
 20
-320.9191673314196
 10
156.2228671249986
 20
-316.9191613223572
 10
160.022883416941
 20
-316.9191613225279
 10
160.0228834167613
 20
-320.9191673315904
  0
SPLINE
  5
BB
330
B5
100
AcDbEntity
  8
レイヤー 1
 62
     1
370
    35
100
AcDbSpline
210
0.0
220
0.0
230
1.0
 70
    24
 71
     3
 72
     8
 73
     4
 74
     0
 42
0.0000000001
 43
0.0000000001
 40
0.0
 40
0.0
 40
0.0
 40
0.0
 40
1.0
 40
1.0
 40
1.0
 40
1.0
 10
156.1229604607011
 20
-320.9191673314145
 30
0.0
 10
157.4522270934553
 20
-320.9191673314748
 30
0.0
 10
158.7814937262096
 20
-320.9191673315339
 30
0.0
 10
160.1107603589638
 20
-320.9191673315942
 30
0.0
  0
ENDBLK
  5
B8
330
B5
100
AcDbEntity
  8
0
100
AcDbBlockEnd
  0
BLOCK
  5
BE
330
BC
100
AcDbEntity
  8
0
100
AcDbBlockBegin
  2
Block_3
 70
     0
 10
0.0
 20
0.0
 30
0.0
  3
Block_3
  1

  0
LWPOLYLINE
  5
C0
330
BC
100
AcDbEntity
  8
レイヤー 1
 62
     1
370
    35
100
AcDbPolyline
 90
        4
 70
     1
 43
0.0
 10
202.1048342416258
 20
-373.1217898455156
 10
198.346091262125
 20
-371.7537192825728
 10
199.6457733790597
 20
-368.1828720142117
 10
203.4045163585602
 20
-369.5509425771583
  0
LWPOLYLINE
  5
C1
330
BC
100
AcDbEntity
  8
レイヤー 1
 62
     1
370
    35
100
AcDbPolyline
 90
        4
 70
     1
 43
0.0
 10
209.6223865011606
 20
-375.8579551028258
 10
205.8636103713933
 20
-374.4898724741707
 10
207.163292488328
 20
-370.9190252058134
 10
210.9220686180955
 20
-372.2871078344653
  0
SPLINE
  5
C2
330
BC
100
AcDbEntity
  8
レイヤー 1
 62
     1
370
    35
100
AcDbSpline
210
0.0
220
0.0
230
1.0
 70
    24
 71
     3
 72
     8
 73
     4
 74
     0
 42
0.0000000001
 43
0.0000000001
 40
0.0
 40
0.0
 40
0.0
 40
0.0
 40
1.0
 40
1.0
 40
1.0
 40
1.0
 10
209.5882164095764
 20
-375.9518366578637
 30
0.0
 10
210.0428523738727
 20
-374.7027346120232
 30
0.0
 10
210.4974883381689
 20
-373.4536325661821
 30
0.0
 10
210.9521243024651
 20
-372.2045305203416
 30
0.0
  0
ENDBLK
  5
BF
330
BC
100
AcDbEntity
  8
0
100
AcDbBlockEnd
  0
BLOCK
  5
C5
330
C3
100
AcDbEntity
  8
0
100
AcDbBlockBegin
  2
Block_4
 70
     0
 10
0.0
 20
0.0
 30
0.0
  3
Block_4
  1

  0
LWPOLYLINE
  5
C7
330
C3
100
AcDbEntity
  8
レイヤー 1
 62
     1
370
    35
100
AcDbPolyline
 90
        4
 70
     1
 43
0.0
 10
336.8062018763804
 20
-429.0331218040137
 10
333.0474588968793
 20
-427.6650512410709
 10
334.3471410138139
 20
-424.0942039727104
 10
338.1058839933151
 20
-425.4622745356532
  0
LWPOLYLINE
  5
C8
330
C3
100
AcDbEntity
  8
レイヤー 1
 62
     1
370
    35
100
AcDbPolyline
 90
        4
 70
     1
 43
0.0
 10
344.3237541359148
 20
-431.7692870613207
 10
340.5649780061476
 20
-430.4012044326656
 10
341.8646601230823
 20
-426.8303571643082
 10
345.6234362528495
 20
-428.1984397929634
  0
SPLINE
  5
C9
330
C3
100
AcDbEntity
  8
レイヤー 1
 62
     1
370
    35
100
AcDbSpline
210
0.0
220
0.0
230
1.0
 70
    24
 71
     3
 72
     8
 73
     4
 74
     0
 42
0.0000000001
 43
0.0000000001
 40
0.0
 40
0.0
 40
0.0
 40
0.0
 40
1.0
 40
1.0
 40
1.0
 40
1.0
 10
345.6534919372193
 20
-428.1158624788365
 30
0.0
 10
345.1988559729231
 20
-429.364964524677
 30
0.0
 10
344.7442200086269
 20
-430.6140665705174
 30
0.0
 10
344.2895840443307
 20
-431.8631686163586
 30
0.0
  0
ENDBLK
  5
C6
330
C3
100
AcDbEntity
  8
0
100
AcDbBlockEnd
  0
BLOCK
  5
CC
330
CA
100
AcDbEntity
  8
0
100
AcDbBlockBegin
  2
Block_5
 70
     0
 10
0.0
 20
0.0
 30
0.0
  3
Block_5
  1

  0
LWPOLYLINE
  5
CE
330
CA
100
AcDbEntity
  8
レイヤー 1
 62
     1
370
    35
100
AcDbPolyline
 90
        4
 70
     1
 43
0.0
 10
163.6373697453016
 20
-363.9378017949702
 10
159.8786267658005
 20
-362.5697312320274
 10
161.1783088827352
 20
-358.9988839636669
 10
164.937051862236
 20
-360.3669545266129
  0
LWPOLYLINE
  5
CF
330
CA
100
AcDbEntity
  8
レイヤー 1
 62
     1
370
    35
100
AcDbPolyline
 90
        4
 70
     1
 43
0.0
 10
171.154922004836
 20
-366.6739670522805
 10
167.3961458750688
 20
-365.3058844236253
 10
168.6958279920035
 20
-361.735037155268
 10
172.454604121771
 20
-363.1031197839238
  0
SPLINE
  5
D0
330
CA
100
AcDbEntity
  8
レイヤー 1
 62
     1
370
    35
100
AcDbSpline
210
0.0
220
0.0
230
1.0
 70
    24
 71
     3
 72
     8
 73
     4
 74
     0
 42
0.0000000001
 43
0.0000000001
 40
0.0
 40
0.0
 40
0.0
 40
0.0
 40
1.0
 40
1.0
 40
1.0
 40
1.0
 10
172.4846598061405
 20
-363.0205424697968
 30
0.0
 10
172.0300238418443
 20
-364.2696445156373
 30
0.0
 10
171.5753878775482
 20
-365.5187465614778
 30
0.0
 10
171.120751913252
 20
-366.7678486073183
 30
0.0
  0
ENDBLK
  5
CD
330
CA
100
AcDbEntity
  8
0
100
AcDbBlockEnd
  0
BLOCK
  5
D3
330
D1
100
AcDbEntity
  8
0
100
AcDbBlockBegin
  2
Block_6
 70
     0
 10
0.0
 20
0.0
 30
0.0
  3
Block_6
  1

  0
LWPOLYLINE
  5
D5
330
D1
100
AcDbEntity
  8
レイヤー 1
 62
     1
370
    35
100
AcDbPolyline
 90
        4
 70
     1
 43
0.0
 10
386.532124652973
 20
-117.8111944807588
 10
386.532124652973
 20
-113.8112237494739
 10
382.7321083610319
 20
-113.8112237494739
 10
382.7321083610319
 20
-117.8111944807588
  0
LWPOLYLINE
  5
D6
330
D1
100
AcDbEntity
  8
レイヤー 1
 62
     1
370
    35
100
AcDbPolyline
 90
        4
 70
     1
 43
0.0
 10
386.532124652973
 20
-125.8112064988837
 10
386.532124652973
 20
-121.8112004898213
 10
382.7321083610319
 20
-121.8112004898213
 10
382.7321083610319
 20
-125.8112064988837
  0
SPLINE
  5
D7
330
D1
100
AcDbEntity
  8
レイヤー 1
 62
     1
370
    35
100
AcDbSpline
210
0.0
220
0.0
230
1.0
 70
    24
 71
     3
 72
     8
 73
     4
 74
     0
 42
0.0000000001
 43
0.0000000001
 40
0.0
 40
0.0
 40
0.0
 40
0.0
 40
1.0
 40
1.0
 40
1.0
 40
1.0
 10
386.6320313170921
 20
-125.8112064988837
 30
0.0
 10
385.3027646843391
 20
-125.8112064988837
 30
0.0
 10
383.9734980515816
 20
-125.8112064988837
 30
0.0
 10
382.6442314188287
 20
-125.8112064988837
 30
0.0
  0
LWPOLYLINE
  5
D8
330
D1
100
AcDbEntity
  8
レイヤー 1
 62
     1
370
    35
100
AcDbPolyline
 90
        4
 70
     1
 43
0.0
 10
386.5622849779423
 20
-113.8112237494739
 10
386.5622849779423
 20
-117.8112297585354
 10
382.762268685998
 20
-117.8112297585354
 10
382.762268685998
 20
-113.8112237494739
  0
ENDBLK
  5
D4
330
D1
100
AcDbEntity
  8
0
100
AcDbBlockEnd
  0
BLOCK
  5
DB
330
D9
100
AcDbEntity
  8
0
100
AcDbBlockBegin
  2
Block_7
 70
     0
 10
0.0
 20
0.0
 30
0.0
  3
Block_7
  1

  0
LWPOLYLINE
  5
DD
330
D9
100
AcDbEntity
  8
レイヤー 1
 62
     1
370
    35
100
AcDbPolyline
 90
        4
 70
     1
 43
0.0
 10
340.6823750623981
 20
-61.60896397793683
 10
344.4411180419608
 20
-62.97703454071209
 10
343.1414359251866
 20
-66.5478818091297
 10
339.3826929456238
 20
-65.17981124635446
  0
LWPOLYLINE
  5
DE
330
D9
100
AcDbEntity
  8
レイヤー 1
 62
     1
370
    35
100
AcDbPolyline
 90
        4
 70
     1
 43
0.0
 10
333.1648228027405
 20
-58.8727987209654
 10
336.9235989325693
 20
-60.24088134945111
 10
335.6239168157951
 20
-63.81172861786874
 10
331.8651406859662
 20
-62.44364598938302
  0
ENDBLK
  5
DC
330
D9
100
AcDbEntity
  8
0
100
AcDbBlockEnd
  0
BLOCK
  5
E1
330
DF
100
AcDbEntity
  8
0
100
AcDbBlockBegin
  2
Block_8
 70
     0
 10
0.0
 20
0.0
 30
0.0
  3
Block_8
  1

  0
LWPOLYLINE
  5
E3
330
DF
100
AcDbEntity
  8
レイヤー 1
 62
     1
370
    35
100
AcDbPolyline
 90
        4
 70
     1
 43
0.0
 10
412.3226178341613
 20
-83.13898966274484
 10
412.3226178341613
 20
-79.13901893145925
 10
408.522601542217
 20
-79.13901893145925
 10
408.522601542217
 20
-83.13898966274484
  0
LWPOLYLINE
  5
E4
330
DF
100
AcDbEntity
  8
レイヤー 1
 62
     1
370
    35
100
AcDbPolyline
 90
        4
 70
     1
 43
0.0
 10
412.3226178341613
 20
-91.13900168086974
 10
412.3226178341613
 20
-87.13899567180728
 10
408.522601542217
 20
-87.13899567180728
 10
408.522601542217
 20
-91.13900168086974
  0
SPLINE
  5
E5
330
DF
100
AcDbEntity
  8
レイヤー 1
 62
     1
370
    35
100
AcDbSpline
210
0.0
220
0.0
230
1.0
 70
    24
 71
     3
 72
     8
 73
     4
 74
     0
 42
0.0000000001
 43
0.0000000001
 40
0.0
 40
0.0
 40
0.0
 40
0.0
 40
1.0
 40
1.0
 40
1.0
 40
1.0
 10
412.4225244982772
 20
-91.13900168086974
 30
0.0
 10
411.0932578655236
 20
-91.13900168086974
 30
0.0
 10
409.76399123277
 20
-91.13900168086974
 30
0.0
 10
408.434724600017
 20
-91.13900168086974
 30
0.0
  0
LWPOLYLINE
  5
E6
330
DF
100
AcDbEntity
  8
レイヤー 1
 62
     1
370
    35
100
AcDbPolyline
 90
        4
 70
     1
 43
0.0
 10
412.3527781591268
 20
-79.13901893145925
 10
412.3527781591268
 20
-83.1390249405217
 10
408.5527618671863
 20
-83.1390249405217
 10
408.5527618671863
 20
-79.13901893145925
  0
ENDBLK
  5
E2
330
DF
100
AcDbEntity
  8
0
100
AcDbBlockEnd
  0
BLOCK
  5
E9
330
E7
100
AcDbEntity
  8
0
100
AcDbBlockBegin
  2
Block_9
 70
     0
 10
0.0
 20
0.0
 30
0.0
  3
Block_9
  1

  0
LWPOLYLINE
  5
EB
330
E7
100
AcDbEntity
  8
レイヤー 1
 62
     1
370
    35
100
AcDbPolyline
 90
        4
 70
     1
 43
0.0
 10
366.4728682435852
 20
-26.93675915992281
 10
370.2316112231479
 20
-28.30482972269774
 10
368.9319291063743
 20
-31.87567699111569
 10
365.1731861268115
 20
-30.50760642834011
  0
LWPOLYLINE
  5
EC
330
E7
100
AcDbEntity
  8
レイヤー 1
 62
     1
370
    35
100
AcDbPolyline
 90
        4
 70
     1
 43
0.0
 10
358.9553159839269
 20
-24.20059390295138
 10
362.7140921137563
 20
-25.56867653143709
 10
361.4144099969821
 20
-29.13952379985472
 10
357.6556338671527
 20
-27.771441171369
  0
ENDBLK
  5
EA
330
E7
100
AcDbEntity
  8
0
100
AcDbBlockEnd
  0
BLOCK
  5
F7
330
F5
100
AcDbEntity
  8
0
100
AcDbBlockBegin
  2
Block_10
 70
     0
 10
0.0
 20
0.0
 30
0.0
  3
Block_10
  1

  0
LWPOLYLINE
  5
F9
330
F5
100
AcDbEntity
  8
レイヤー 1
 62
     1
370
    35
100
AcDbPolyline
 90
        4
 70
     0
 43
0.0
 10
50.66931043196351
 20
-17.86316871793264
 10
136.4688152619869
 20
-17.86316872178475
 10
136.4688152434039
 20
-431.7692870632471
 10
123.6521256023527
 20
-431.7692870626721
  0
LINE
  5
FA
330
F5
100
AcDbEntity
  8
レイヤー 1
 62
     1
370
    35
100
AcDbLine
 10
123.6521256023527
 20
-431.7692870626721
 30
0.0
 11
50.66931043196351
 21
-17.86316871793264
 31
0.0
  0
LWPOLYLINE
  5
FB
330
F5
100
AcDbEntity
  8
レイヤー 1
 62
     1
370
    35
100
AcDbPolyline
 90
        4
 70
     1
 43
0.0
 10
60.53270659780996
 20
-50.61213836169539
 10
56.5934695674206
 20
-51.30673213335583
 10
52.58029864757697
 20
-28.54690884998829
 10
56.51953567796343
 20
-27.85231507832753
  0
LWPOLYLINE
  5
FC
330
F5
100
AcDbEntity
  8
レイヤー 1
 62
     1
370
    35
100
AcDbPolyline
 90
        4
 70
     1
 43
0.0
 10
68.55790126319425
 20
-96.12527897967154
 10
64.61866423280425
 20
-96.81987275133263
 10
60.60549331296126
 20
-74.06004946796509
 10
64.54473034335061
 20
-73.36545569630399
  0
LWPOLYLINE
  5
FD
330
F5
100
AcDbEntity
  8
レイヤー 1
 62
     1
370
    35
100
AcDbPolyline
 90
        4
 70
     1
 43
0.0
 10
76.58309592858143
 20
-141.638419597648
 10
72.64385889819206
 20
-142.3330133693088
 10
68.63068797834843
 20
-119.5731900859412
 10
72.56992500873844
 20
-118.8785963142805
  0
LWPOLYLINE
  5
FE
330
F5
100
AcDbEntity
  8
レイヤー 1
 62
     1
370
    35
100
AcDbPolyline
 90
        4
 70
     1
 43
0.0
 10
84.60829059396891
 20
-187.1515602156241
 10
80.66905356357956
 20
-187.8461539872846
 10
76.65588264373592
 20
-165.086330703918
 10
80.59511967412593
 20
-164.3917369322566
  0
LWPOLYLINE
  5
FF
330
F5
100
AcDbEntity
  8
レイヤー 1
 62
     1
370
    35
100
AcDbPolyline
 90
        4
 70
     1
 43
0.0
 10
92.63348525935642
 20
-232.6647008336006
 10
88.69424822896641
 20
-233.3592946052617
 10
84.68107730912342
 20
-210.5994713218945
 10
88.62031433950958
 20
-209.9048775502328
  0
LWPOLYLINE
  5
100
330
F5
100
AcDbEntity
  8
レイヤー 1
 62
     1
370
    35
100
AcDbPolyline
 90
        4
 70
     1
 43
0.0
 10
100.6586799247404
 20
-278.1778414515764
 10
96.71944289435103
 20
-278.8724352232376
 10
92.70627197450705
 20
-256.1126119398704
 10
96.64550900489739
 20
-255.4180181682093
  0
LWPOLYLINE
  5
101
330
F5
100
AcDbEntity
  8
レイヤー 1
 62
     1
370
    35
100
AcDbPolyline
 90
        4
 70
     1
 43
0.0
 10
108.6838745901278
 20
-323.6909820695536
 10
104.7446375597385
 20
-324.3855758412147
 10
100.7314666398945
 20
-301.6257525578475
 10
104.6707036702849
 20
-300.9311587861851
  0
LWPOLYLINE
  5
102
330
F5
100
AcDbEntity
  8
レイヤー 1
 62
     1
370
    35
100
AcDbPolyline
 90
        4
 70
     1
 43
0.0
 10
116.7090692555154
 20
-369.2041226875314
 10
112.7698322251253
 20
-369.898716459193
 10
108.7566613052824
 20
-347.1388931758233
 10
112.6958983356724
 20
-346.4442994041622
  0
LWPOLYLINE
  5
103
330
F5
100
AcDbEntity
  8
レイヤー 1
 62
     1
370
    35
100
AcDbPolyline
 90
        4
 70
     1
 43
0.0
 10
124.7342639209032
 20
-414.7172633055085
 10
120.7950268905132
 20
-415.4118570771701
 10
116.7818559706699
 20
-392.6520337938004
 10
120.7210930010605
 20
-391.9574400221419
  0
LWPOLYLINE
  5
104
330
F5
100
AcDbEntity
  8
レイヤー 1
 62
     1
370
    35
100
AcDbPolyline
 90
        4
 70
     1
 43
0.0
 10
131.4688152456401
 20
-409.7692870685211
 10
136.4688152443915
 20
-409.769287068747
 10
136.4688152465601
 20
-361.4683428812462
 10
122.9546605955344
 20
-361.4683428806392
  0
ENDBLK
  5
F8
330
F5
100
AcDbEntity
  8
0
100
AcDbBlockEnd
  0
BLOCK
  5
107
330
105
100
AcDbEntity
  8
0
100
AcDbBlockBegin
  2
Block_11
 70
     0
 10
0.0
 20
0.0
 30
0.0
  3
Block_11
  1

  0
LWPOLYLINE
  5
109
330
105
100
AcDbEntity
  8
レイヤー 1
 62
     1
370
    35
100
AcDbPolyline
 90
        4
 70
     0
 43
0.0
 10
109.8998296602767
 20
-431.7692870632471
 10
24.10032483025339
 20
-431.7692870593949
 10
24.10032484883635
 20
-17.86316871793264
 10
36.91701448988761
 20
-17.8631687185076
  0
LINE
  5
10A
330
105
100
AcDbEntity
  8
レイヤー 1
 62
     1
370
    35
100
AcDbLine
 10
36.91701448988761
 20
-17.8631687185076
 30
0.0
 11
109.8998296602767
 21
-431.7692870632471
 31
0.0
  0
LWPOLYLINE
  5
10B
330
105
100
AcDbEntity
  8
レイヤー 1
 62
     1
370
    35
100
AcDbPolyline
 90
        4
 70
     1
 43
0.0
 10
100.0364334944303
 20
-399.0203174194856
 10
103.9756705248197
 20
-398.3257236478239
 10
107.9888414446633
 20
-421.0855469311899
 10
104.0496044142765
 20
-421.7801407028522
  0
LWPOLYLINE
  5
10C
330
105
100
AcDbEntity
  8
レイヤー 1
 62
     1
370
    35
100
AcDbPolyline
 90
        4
 70
     1
 43
0.0
 10
92.01123882904603
 20
-353.5071768015086
 10
95.95047585943603
 20
-352.8125830298468
 10
99.96364677927903
 20
-375.5724063132128
 10
96.02440974888967
 20
-376.2670000848751
  0
LWPOLYLINE
  5
10D
330
105
100
AcDbEntity
  8
レイヤー 1
 62
     1
370
    35
100
AcDbPolyline
 90
        4
 70
     1
 43
0.0
 10
83.98604416365886
 20
-307.9940361835308
 10
87.92528119404822
 20
-307.2994424118704
 10
91.93845211389216
 20
-330.0592656952382
 10
87.99921508350186
 20
-330.7538594668987
  0
LWPOLYLINE
  5
10E
330
105
100
AcDbEntity
  8
レイヤー 1
 62
     1
370
    35
100
AcDbPolyline
 90
        4
 70
     1
 43
0.0
 10
75.96084949827137
 20
-262.4808955655549
 10
79.90008652866072
 20
-261.7863017938939
 10
83.91325744850435
 20
-284.5461250772611
 10
79.97402041811437
 20
-285.2407188489221
  0
LWPOLYLINE
  5
10F
330
105
100
AcDbEntity
  8
レイヤー 1
 62
     1
370
    35
100
AcDbPolyline
 90
        4
 70
     1
 43
0.0
 10
67.93565483288387
 20
-216.9677549475785
 10
71.87489186327418
 20
-216.2731611759174
 10
75.88806278311686
 20
-239.0329844592852
 10
71.94882575273071
 20
-239.7275782309463
  0
LWPOLYLINE
  5
110
330
105
100
AcDbEntity
  8
レイヤー 1
 62
     1
370
    35
100
AcDbPolyline
 90
        4
 70
     1
 43
0.0
 10
59.9104601674999
 20
-171.4546143296026
 10
63.84969719788927
 20
-170.7600205579415
 10
67.86286811773354
 20
-193.5198438413087
 10
63.9236310873429
 20
-194.2144376129698
  0
LWPOLYLINE
  5
111
330
105
100
AcDbEntity
  8
レイヤー 1
 62
     1
370
    35
100
AcDbPolyline
 90
        4
 70
     1
 43
0.0
 10
51.88526550211241
 20
-125.9414737116255
 10
55.82450253250176
 20
-125.2468799399644
 10
59.83767345234539
 20
-148.0067032233316
 10
55.8984364219554
 20
-148.701296994994
  0
LWPOLYLINE
  5
112
330
105
100
AcDbEntity
  8
レイヤー 1
 62
     1
370
    35
100
AcDbPolyline
 90
        4
 70
     1
 43
0.0
 10
43.86007083672491
 20
-80.42833309364841
 10
47.79930786711491
 20
-79.73373932198732
 10
51.8124787869579
 20
-102.4935626053558
 10
47.87324175656791
 20
-103.1881563770169
  0
LWPOLYLINE
  5
113
330
105
100
AcDbEntity
  8
レイヤー 1
 62
     1
370
    35
100
AcDbPolyline
 90
        4
 70
     1
 43
0.0
 10
35.8348761713371
 20
-34.9151924756713
 10
39.77411320172742
 20
-34.22059870401021
 10
43.7872841215704
 20
-56.98042198737742
 10
39.84804709118009
 20
-57.67501575903851
  0
LWPOLYLINE
  5
114
330
105
100
AcDbEntity
  8
レイヤー 1
 62
     1
370
    35
100
AcDbPolyline
 90
        4
 70
     1
 43
0.0
 10
29.10032484660021
 20
-39.86316871265736
 10
24.10032484784878
 20
-39.86316871243277
 10
24.10032484568016
 20
-88.1641128999329
 10
37.61447949670588
 20
-88.16411290053995
  0
ENDBLK
  5
108
330
105
100
AcDbEntity
  8
0
100
AcDbBlockEnd
  0
BLOCK
  5
119
330
117
100
AcDbEntity
  8
0
100
AcDbBlockBegin
  2
Block_12
 70
     0
 10
0.0
 20
0.0
 30
0.0
  3
Block_12
  1

  0
LWPOLYLINE
  5
11B
330
117
100
AcDbEntity
  8
レイヤー 1
 62
     1
370
    35
100
AcDbPolyline
 90
       16
 70
     1
 43
0.0
 10
455.3525038637157
 20
-25.60894426471455
 10
451.552487475777
 20
-25.60894426471455
 10
451.552487475777
 20
-29.608950374826
 10
455.3525038637157
 20
-29.608950374826
 10
455.3525038637157
 20
-93.60897758104767
 10
451.552487475777
 20
-93.60897758104767
 10
451.552487475777
 20
-97.60894841338192
 10
455.3525038637157
 20
-97.60894841338192
 10
455.3525038637157
 20
-101.6089545234924
 10
451.552487475777
 20
-101.6089545234924
 10
451.552487475777
 20
-105.6089606336032
 10
465.4524258056349
 20
-105.6089606336032
 10
465.4524258056349
 20
-17.60896732227046
 10
451.552487475777
 20
-17.60896732227046
 10
451.552487475777
 20
-21.60893815460311
 10
455.3525038637157
 20
-21.60893815460311
  0
LINE
  5
11C
330
117
100
AcDbEntity
  8
レイヤー 1
 62
     1
370
    35
100
AcDbLine
 10
455.4359358081395
 20
-29.62179148593357
 30
0.0
 11
462.9738444173661
 21
-29.62179148593357
 31
0.0
  0
LINE
  5
11D
330
117
100
AcDbEntity
  8
レイヤー 1
 62
     1
370
    35
100
AcDbLine
 10
455.4359358081395
 20
-34.18973454034728
 30
0.0
 11
462.9738444173661
 21
-34.18973454034728
 31
0.0
  0
LINE
  5
11E
330
117
100
AcDbEntity
  8
レイヤー 1
 62
     1
370
    35
100
AcDbLine
 10
455.4359358081395
 20
-38.75767759476004
 30
0.0
 11
462.9738444173661
 21
-38.75767759476004
 31
0.0
  0
LINE
  5
11F
330
117
100
AcDbEntity
  8
レイヤー 1
 62
     1
370
    35
100
AcDbLine
 10
455.4359358081395
 20
-43.3256559269516
 30
0.0
 11
462.9738444173661
 21
-43.3256559269516
 31
0.0
  0
LINE
  5
120
330
117
100
AcDbEntity
  8
レイヤー 1
 62
     1
370
    35
100
AcDbLine
 10
455.4359358081395
 20
-47.89359898136596
 30
0.0
 11
462.9738444173661
 21
-47.89359898136596
 31
0.0
  0
LINE
  5
121
330
117
100
AcDbEntity
  8
レイヤー 1
 62
     1
370
    35
100
AcDbLine
 10
455.4359358081395
 20
-52.46154203577903
 30
0.0
 11
462.9738444173661
 21
-52.46154203577903
 31
0.0
  0
LINE
  5
122
330
117
100
AcDbEntity
  8
レイヤー 1
 62
     1
370
    35
100
AcDbLine
 10
455.4359358081395
 20
-57.02948509019275
 30
0.0
 11
462.9738444173661
 21
-57.02948509019275
 31
0.0
  0
LINE
  5
123
330
117
100
AcDbEntity
  8
レイヤー 1
 62
     1
370
    35
100
AcDbLine
 10
455.5060680303436
 20
-61.59742814460647
 30
0.0
 11
463.0439766395709
 21
-61.59742814460647
 31
0.0
  0
LINE
  5
124
330
117
100
AcDbEntity
  8
レイヤー 1
 62
     1
370
    35
100
AcDbLine
 10
457.8980071964124
 20
-31.90574537425102
 30
0.0
 11
465.435915805639
 21
-31.90574537425102
 31
0.0
  0
LINE
  5
125
330
117
100
AcDbEntity
  8
レイヤー 1
 62
     1
370
    35
100
AcDbLine
 10
457.8980071964124
 20
-36.47372370644291
 30
0.0
 11
465.435915805639
 21
-36.47372370644291
 31
0.0
  0
LINE
  5
126
330
117
100
AcDbEntity
  8
レイヤー 1
 62
     1
370
    35
100
AcDbLine
 10
457.8980071964124
 20
-41.04166676085662
 30
0.0
 11
465.435915805639
 21
-41.04166676085662
 31
0.0
  0
LINE
  5
127
330
117
100
AcDbEntity
  8
レイヤー 1
 62
     1
370
    35
100
AcDbLine
 10
457.8980071964124
 20
-45.6096098152697
 30
0.0
 11
465.435915805639
 21
-45.6096098152697
 31
0.0
  0
LINE
  5
128
330
117
100
AcDbEntity
  8
レイヤー 1
 62
     1
370
    35
100
AcDbLine
 10
457.8980071964124
 20
-50.17758814746094
 30
0.0
 11
465.435915805639
 21
-50.17758814746094
 31
0.0
  0
LINE
  5
129
330
117
100
AcDbEntity
  8
レイヤー 1
 62
     1
370
    35
100
AcDbLine
 10
457.8980071964124
 20
-54.74553120187465
 30
0.0
 11
465.435915805639
 21
-54.74553120187465
 31
0.0
  0
LINE
  5
12A
330
117
100
AcDbEntity
  8
レイヤー 1
 62
     1
370
    35
100
AcDbLine
 10
457.8980071964124
 20
-59.31350953406653
 30
0.0
 11
465.435915805639
 21
-59.31350953406653
 31
0.0
  0
LINE
  5
12B
330
117
100
AcDbEntity
  8
レイヤー 1
 62
     1
370
    35
100
AcDbLine
 10
455.4359358081395
 20
-66.16540647679771
 30
0.0
 11
462.9738444173661
 21
-66.16540647679771
 31
0.0
  0
LINE
  5
12C
330
117
100
AcDbEntity
  8
レイヤー 1
 62
     1
370
    35
100
AcDbLine
 10
455.5060680303436
 20
-70.73334953121079
 30
0.0
 11
463.0439766395709
 21
-70.73334953121079
 31
0.0
  0
LINE
  5
12D
330
117
100
AcDbEntity
  8
レイヤー 1
 62
     1
370
    35
100
AcDbLine
 10
457.8980071964124
 20
-63.88141731070209
 30
0.0
 11
465.435915805639
 21
-63.88141731070209
 31
0.0
  0
LINE
  5
12E
330
117
100
AcDbEntity
  8
レイヤー 1
 62
     1
370
    35
100
AcDbLine
 10
457.8980071964124
 20
-68.44939564289333
 30
0.0
 11
465.435915805639
 21
-68.44939564289333
 31
0.0
  0
LINE
  5
12F
330
117
100
AcDbEntity
  8
レイヤー 1
 62
     1
370
    35
100
AcDbLine
 10
455.5060680303436
 20
-75.30129258562515
 30
0.0
 11
463.0439766395709
 21
-75.30129258562515
 31
0.0
  0
LINE
  5
130
330
117
100
AcDbEntity
  8
レイヤー 1
 62
     1
370
    35
100
AcDbLine
 10
455.5060680303436
 20
-79.86923564003823
 30
0.0
 11
463.0439766395709
 21
-79.86923564003823
 31
0.0
  0
LINE
  5
131
330
117
100
AcDbEntity
  8
レイヤー 1
 62
     1
370
    35
100
AcDbLine
 10
455.5060680303436
 20
-84.43721397222946
 30
0.0
 11
463.0439766395709
 21
-84.43721397222946
 31
0.0
  0
LINE
  5
132
330
117
100
AcDbEntity
  8
レイヤー 1
 62
     1
370
    35
100
AcDbLine
 10
455.5060680303436
 20
-89.0051570266432
 30
0.0
 11
463.0439766395709
 21
-89.0051570266432
 31
0.0
  0
LINE
  5
133
330
117
100
AcDbEntity
  8
レイヤー 1
 62
     1
370
    35
100
AcDbLine
 10
455.5060680303436
 20
-93.5731000810569
 30
0.0
 11
463.0439766395709
 21
-93.5731000810569
 31
0.0
  0
LINE
  5
134
330
117
100
AcDbEntity
  8
レイヤー 1
 62
     1
370
    35
100
AcDbLine
 10
457.9681394186172
 20
-73.01730341952889
 30
0.0
 11
465.5060480278438
 21
-73.01730341952889
 31
0.0
  0
LINE
  5
135
330
117
100
AcDbEntity
  8
レイヤー 1
 62
     1
370
    35
100
AcDbLine
 10
457.9681394186172
 20
-77.58528175172013
 30
0.0
 11
465.5060480278438
 21
-77.58528175172013
 31
0.0
  0
LINE
  5
136
330
117
100
AcDbEntity
  8
レイヤー 1
 62
     1
370
    35
100
AcDbLine
 10
457.9681394186172
 20
-82.15326008391135
 30
0.0
 11
465.5060480278438
 21
-82.15326008391135
 31
0.0
  0
LINE
  5
137
330
117
100
AcDbEntity
  8
レイヤー 1
 62
     1
370
    35
100
AcDbLine
 10
457.9681394186172
 20
-86.72116786054756
 30
0.0
 11
465.5060480278438
 21
-86.72116786054756
 31
0.0
  0
LINE
  5
138
330
117
100
AcDbEntity
  8
レイヤー 1
 62
     1
370
    35
100
AcDbLine
 10
457.9681394186172
 20
-91.2891461927388
 30
0.0
 11
465.5060480278438
 21
-91.2891461927388
 31
0.0
  0
ENDBLK
  5
11A
330
117
100
AcDbEntity
  8
0
100
AcDbBlockEnd
  0
BLOCK
  5
13B
330
139
100
AcDbEntity
  8
0
100
AcDbBlockBegin
  2
Block_13
 70
     0
 10
0.0
 20
0.0
 30
0.0
  3
Block_13
  1

  0
LWPOLYLINE
  5
13D
330
139
100
AcDbEntity
  8
レイヤー 1
 62
     1
370
    35
100
AcDbPolyline
 90
       16
 70
     1
 43
0.0
 10
455.3525038637157
 20
-118.9398506290642
 10
451.552487475777
 20
-118.9398506290642
 10
451.552487475777
 20
-122.9398567391756
 10
455.3525038637157
 20
-122.9398567391756
 10
455.3525038637157
 20
-186.9398839453973
 10
451.552487475777
 20
-186.9398839453973
 10
451.552487475777
 20
-190.9398547777312
 10
455.3525038637157
 20
-190.9398547777312
 10
455.3525038637157
 20
-194.939860887842
 10
451.552487475777
 20
-194.939860887842
 10
451.552487475777
 20
-198.9398669979529
 10
465.4524258056349
 20
-198.9398669979529
 10
465.4524258056349
 20
-110.9398736866201
 10
451.552487475777
 20
-110.9398736866201
 10
451.552487475777
 20
-114.9398445189527
 10
455.3525038637157
 20
-114.9398445189527
  0
LINE
  5
13E
330
139
100
AcDbEntity
  8
レイヤー 1
 62
     1
370
    35
100
AcDbLine
 10
455.4359358081395
 20
-122.9526978502832
 30
0.0
 11
462.9738444173661
 21
-122.9526978502832
 31
0.0
  0
LINE
  5
13F
330
139
100
AcDbEntity
  8
レイヤー 1
 62
     1
370
    35
100
AcDbLine
 10
455.4359358081395
 20
-127.5206409046969
 30
0.0
 11
462.9738444173661
 21
-127.5206409046969
 31
0.0
  0
LINE
  5
140
330
139
100
AcDbEntity
  8
レイヤー 1
 62
     1
370
    35
100
AcDbLine
 10
455.4359358081395
 20
-132.08858395911
 30
0.0
 11
462.9738444173661
 21
-132.08858395911
 31
0.0
  0
LINE
  5
141
330
139
100
AcDbEntity
  8
レイヤー 1
 62
     1
370
    35
100
AcDbLine
 10
455.4359358081395
 20
-136.6565622913012
 30
0.0
 11
462.9738444173661
 21
-136.6565622913012
 31
0.0
  0
LINE
  5
142
330
139
100
AcDbEntity
  8
レイヤー 1
 62
     1
370
    35
100
AcDbLine
 10
455.4359358081395
 20
-141.2245053457156
 30
0.0
 11
462.9738444173661
 21
-141.2245053457156
 31
0.0
  0
LINE
  5
143
330
139
100
AcDbEntity
  8
レイヤー 1
 62
     1
370
    35
100
AcDbLine
 10
455.4359358081395
 20
-145.7924484001287
 30
0.0
 11
462.9738444173661
 21
-145.7924484001287
 31
0.0
  0
LINE
  5
144
330
139
100
AcDbEntity
  8
レイヤー 1
 62
     1
370
    35
100
AcDbLine
 10
455.4359358081395
 20
-150.3603914545424
 30
0.0
 11
462.9738444173661
 21
-150.3603914545424
 31
0.0
  0
LINE
  5
145
330
139
100
AcDbEntity
  8
レイヤー 1
 62
     1
370
    35
100
AcDbLine
 10
455.5060680303436
 20
-154.9283345089561
 30
0.0
 11
463.0439766395709
 21
-154.9283345089561
 31
0.0
  0
LINE
  5
146
330
139
100
AcDbEntity
  8
レイヤー 1
 62
     1
370
    35
100
AcDbLine
 10
457.8980071964124
 20
-125.2366517386007
 30
0.0
 11
465.435915805639
 21
-125.2366517386007
 31
0.0
  0
LINE
  5
147
330
139
100
AcDbEntity
  8
レイヤー 1
 62
     1
370
    35
100
AcDbLine
 10
457.8980071964124
 20
-129.8046300707925
 30
0.0
 11
465.435915805639
 21
-129.8046300707925
 31
0.0
  0
LINE
  5
148
330
139
100
AcDbEntity
  8
レイヤー 1
 62
     1
370
    35
100
AcDbLine
 10
457.8980071964124
 20
-134.3725731252063
 30
0.0
 11
465.435915805639
 21
-134.3725731252063
 31
0.0
  0
LINE
  5
149
330
139
100
AcDbEntity
  8
レイヤー 1
 62
     1
370
    35
100
AcDbLine
 10
457.8980071964124
 20
-138.9405161796193
 30
0.0
 11
465.435915805639
 21
-138.9405161796193
 31
0.0
  0
LINE
  5
14A
330
139
100
AcDbEntity
  8
レイヤー 1
 62
     1
370
    35
100
AcDbLine
 10
457.8980071964124
 20
-143.5084945118106
 30
0.0
 11
465.435915805639
 21
-143.5084945118106
 31
0.0
  0
LINE
  5
14B
330
139
100
AcDbEntity
  8
レイヤー 1
 62
     1
370
    35
100
AcDbLine
 10
457.8980071964124
 20
-148.0764375662243
 30
0.0
 11
465.435915805639
 21
-148.0764375662243
 31
0.0
  0
LINE
  5
14C
330
139
100
AcDbEntity
  8
レイヤー 1
 62
     1
370
    35
100
AcDbLine
 10
457.8980071964124
 20
-152.6444158984162
 30
0.0
 11
465.435915805639
 21
-152.6444158984162
 31
0.0
  0
LINE
  5
14D
330
139
100
AcDbEntity
  8
レイヤー 1
 62
     1
370
    35
100
AcDbLine
 10
455.4359358081395
 20
-159.4963128411473
 30
0.0
 11
462.9738444173661
 21
-159.4963128411473
 31
0.0
  0
LINE
  5
14E
330
139
100
AcDbEntity
  8
レイヤー 1
 62
     1
370
    35
100
AcDbLine
 10
455.5060680303436
 20
-164.0642558955604
 30
0.0
 11
463.0439766395709
 21
-164.0642558955604
 31
0.0
  0
LINE
  5
14F
330
139
100
AcDbEntity
  8
レイヤー 1
 62
     1
370
    35
100
AcDbLine
 10
457.8980071964124
 20
-157.2123236750517
 30
0.0
 11
465.435915805639
 21
-157.2123236750517
 31
0.0
  0
LINE
  5
150
330
139
100
AcDbEntity
  8
レイヤー 1
 62
     1
370
    35
100
AcDbLine
 10
457.8980071964124
 20
-161.780302007243
 30
0.0
 11
465.435915805639
 21
-161.780302007243
 31
0.0
  0
LINE
  5
151
330
139
100
AcDbEntity
  8
レイヤー 1
 62
     1
370
    35
100
AcDbLine
 10
455.5060680303436
 20
-168.6321989499748
 30
0.0
 11
463.0439766395709
 21
-168.6321989499748
 31
0.0
  0
LINE
  5
152
330
139
100
AcDbEntity
  8
レイヤー 1
 62
     1
370
    35
100
AcDbLine
 10
455.5060680303436
 20
-173.2001420043879
 30
0.0
 11
463.0439766395709
 21
-173.2001420043879
 31
0.0
  0
LINE
  5
153
330
139
100
AcDbEntity
  8
レイヤー 1
 62
     1
370
    35
100
AcDbLine
 10
455.5060680303436
 20
-177.7681203365791
 30
0.0
 11
463.0439766395709
 21
-177.7681203365791
 31
0.0
  0
LINE
  5
154
330
139
100
AcDbEntity
  8
レイヤー 1
 62
     1
370
    35
100
AcDbLine
 10
455.5060680303436
 20
-182.3360633909928
 30
0.0
 11
463.0439766395709
 21
-182.3360633909928
 31
0.0
  0
LINE
  5
155
330
139
100
AcDbEntity
  8
レイヤー 1
 62
     1
370
    35
100
AcDbLine
 10
455.5060680303436
 20
-186.9040064454065
 30
0.0
 11
463.0439766395709
 21
-186.9040064454065
 31
0.0
  0
LINE
  5
156
330
139
100
AcDbEntity
  8
レイヤー 1
 62
     1
370
    35
100
AcDbLine
 10
457.9681394186172
 20
-166.3482097838785
 30
0.0
 11
465.5060480278438
 21
-166.3482097838785
 31
0.0
  0
LINE
  5
157
330
139
100
AcDbEntity
  8
レイヤー 1
 62
     1
370
    35
100
AcDbLine
 10
457.9681394186172
 20
-170.9161881160698
 30
0.0
 11
465.5060480278438
 21
-170.9161881160698
 31
0.0
  0
LINE
  5
158
330
139
100
AcDbEntity
  8
レイヤー 1
 62
     1
370
    35
100
AcDbLine
 10
457.9681394186172
 20
-175.484166448261
 30
0.0
 11
465.5060480278438
 21
-175.484166448261
 31
0.0
  0
LINE
  5
159
330
139
100
AcDbEntity
  8
レイヤー 1
 62
     1
370
    35
100
AcDbLine
 10
457.9681394186172
 20
-180.0520742248975
 30
0.0
 11
465.5060480278438
 21
-180.0520742248975
 31
0.0
  0
LINE
  5
15A
330
139
100
AcDbEntity
  8
レイヤー 1
 62
     1
370
    35
100
AcDbLine
 10
457.9681394186172
 20
-184.6200525570884
 30
0.0
 11
465.5060480278438
 21
-184.6200525570884
 31
0.0
  0
ENDBLK
  5
13C
330
139
100
AcDbEntity
  8
0
100
AcDbBlockEnd
  0
BLOCK
  5
15D
330
15B
100
AcDbEntity
  8
0
100
AcDbBlockBegin
  2
Block_14
 70
     0
 10
0.0
 20
0.0
 30
0.0
  3
Block_14
  1

  0
LWPOLYLINE
  5
15F
330
15B
100
AcDbEntity
  8
レイヤー 1
 62
     1
370
    35
100
AcDbPolyline
 90
       16
 70
     1
 43
0.0
 10
455.3525038637157
 20
-212.2707569934139
 10
451.552487475777
 20
-212.2707569934139
 10
451.552487475777
 20
-216.2707631035253
 10
455.3525038637157
 20
-216.2707631035253
 10
455.3525038637157
 20
-280.270790309747
 10
451.552487475777
 20
-280.270790309747
 10
451.552487475777
 20
-284.2707611420809
 10
455.3525038637157
 20
-284.2707611420809
 10
455.3525038637157
 20
-288.2707672521917
 10
451.552487475777
 20
-288.2707672521917
 10
451.552487475777
 20
-292.2707733623025
 10
465.4524258056349
 20
-292.2707733623025
 10
465.4524258056349
 20
-204.2707800509698
 10
451.552487475777
 20
-204.2707800509698
 10
451.552487475777
 20
-208.2707508833024
 10
455.3525038637157
 20
-208.2707508833024
  0
LINE
  5
160
330
15B
100
AcDbEntity
  8
レイヤー 1
 62
     1
370
    35
100
AcDbLine
 10
455.4359358081395
 20
-216.2836042146329
 30
0.0
 11
462.9738444173661
 21
-216.2836042146329
 31
0.0
  0
LINE
  5
161
330
15B
100
AcDbEntity
  8
レイヤー 1
 62
     1
370
    35
100
AcDbLine
 10
455.4359358081395
 20
-220.8515472690466
 30
0.0
 11
462.9738444173661
 21
-220.8515472690466
 31
0.0
  0
LINE
  5
162
330
15B
100
AcDbEntity
  8
レイヤー 1
 62
     1
370
    35
100
AcDbLine
 10
455.4359358081395
 20
-225.4194903234597
 30
0.0
 11
462.9738444173661
 21
-225.4194903234597
 31
0.0
  0
LINE
  5
163
330
15B
100
AcDbEntity
  8
レイヤー 1
 62
     1
370
    35
100
AcDbLine
 10
455.4359358081395
 20
-229.9874686556509
 30
0.0
 11
462.9738444173661
 21
-229.9874686556509
 31
0.0
  0
LINE
  5
164
330
15B
100
AcDbEntity
  8
レイヤー 1
 62
     1
370
    35
100
AcDbLine
 10
455.4359358081395
 20
-234.5554117100653
 30
0.0
 11
462.9738444173661
 21
-234.5554117100653
 31
0.0
  0
LINE
  5
165
330
15B
100
AcDbEntity
  8
レイヤー 1
 62
     1
370
    35
100
AcDbLine
 10
455.4359358081395
 20
-239.1233547644784
 30
0.0
 11
462.9738444173661
 21
-239.1233547644784
 31
0.0
  0
LINE
  5
166
330
15B
100
AcDbEntity
  8
レイヤー 1
 62
     1
370
    35
100
AcDbLine
 10
455.4359358081395
 20
-243.6912978188921
 30
0.0
 11
462.9738444173661
 21
-243.6912978188921
 31
0.0
  0
LINE
  5
167
330
15B
100
AcDbEntity
  8
レイヤー 1
 62
     1
370
    35
100
AcDbLine
 10
455.5060680303436
 20
-248.2592408733058
 30
0.0
 11
463.0439766395709
 21
-248.2592408733058
 31
0.0
  0
LINE
  5
168
330
15B
100
AcDbEntity
  8
レイヤー 1
 62
     1
370
    35
100
AcDbLine
 10
457.8980071964124
 20
-218.5675581029503
 30
0.0
 11
465.435915805639
 21
-218.5675581029503
 31
0.0
  0
LINE
  5
169
330
15B
100
AcDbEntity
  8
レイヤー 1
 62
     1
370
    35
100
AcDbLine
 10
457.8980071964124
 20
-223.1355364351422
 30
0.0
 11
465.435915805639
 21
-223.1355364351422
 31
0.0
  0
LINE
  5
16A
330
15B
100
AcDbEntity
  8
レイヤー 1
 62
     1
370
    35
100
AcDbLine
 10
457.8980071964124
 20
-227.703479489556
 30
0.0
 11
465.435915805639
 21
-227.703479489556
 31
0.0
  0
LINE
  5
16B
330
15B
100
AcDbEntity
  8
レイヤー 1
 62
     1
370
    35
100
AcDbLine
 10
457.8980071964124
 20
-232.271422543969
 30
0.0
 11
465.435915805639
 21
-232.271422543969
 31
0.0
  0
LINE
  5
16C
330
15B
100
AcDbEntity
  8
レイヤー 1
 62
     1
370
    35
100
AcDbLine
 10
457.8980071964124
 20
-236.8394008761602
 30
0.0
 11
465.435915805639
 21
-236.8394008761602
 31
0.0
  0
LINE
  5
16D
330
15B
100
AcDbEntity
  8
レイヤー 1
 62
     1
370
    35
100
AcDbLine
 10
457.8980071964124
 20
-241.407343930574
 30
0.0
 11
465.435915805639
 21
-241.407343930574
 31
0.0
  0
LINE
  5
16E
330
15B
100
AcDbEntity
  8
レイヤー 1
 62
     1
370
    35
100
AcDbLine
 10
457.8980071964124
 20
-245.9753222627659
 30
0.0
 11
465.435915805639
 21
-245.9753222627659
 31
0.0
  0
LINE
  5
16F
330
15B
100
AcDbEntity
  8
レイヤー 1
 62
     1
370
    35
100
AcDbLine
 10
455.4359358081395
 20
-252.827219205497
 30
0.0
 11
462.9738444173661
 21
-252.827219205497
 31
0.0
  0
LINE
  5
170
330
15B
100
AcDbEntity
  8
レイヤー 1
 62
     1
370
    35
100
AcDbLine
 10
455.5060680303436
 20
-257.3951622599101
 30
0.0
 11
463.0439766395709
 21
-257.3951622599101
 31
0.0
  0
LINE
  5
171
330
15B
100
AcDbEntity
  8
レイヤー 1
 62
     1
370
    35
100
AcDbLine
 10
457.8980071964124
 20
-250.5432300394014
 30
0.0
 11
465.435915805639
 21
-250.5432300394014
 31
0.0
  0
LINE
  5
172
330
15B
100
AcDbEntity
  8
レイヤー 1
 62
     1
370
    35
100
AcDbLine
 10
457.8980071964124
 20
-255.1112083715926
 30
0.0
 11
465.435915805639
 21
-255.1112083715926
 31
0.0
  0
LINE
  5
173
330
15B
100
AcDbEntity
  8
レイヤー 1
 62
     1
370
    35
100
AcDbLine
 10
455.5060680303436
 20
-261.9631053143245
 30
0.0
 11
463.0439766395709
 21
-261.9631053143245
 31
0.0
  0
LINE
  5
174
330
15B
100
AcDbEntity
  8
レイヤー 1
 62
     1
370
    35
100
AcDbLine
 10
455.5060680303436
 20
-266.5310483687375
 30
0.0
 11
463.0439766395709
 21
-266.5310483687375
 31
0.0
  0
LINE
  5
175
330
15B
100
AcDbEntity
  8
レイヤー 1
 62
     1
370
    35
100
AcDbLine
 10
455.5060680303436
 20
-271.0990267009288
 30
0.0
 11
463.0439766395709
 21
-271.0990267009288
 31
0.0
  0
LINE
  5
176
330
15B
100
AcDbEntity
  8
レイヤー 1
 62
     1
370
    35
100
AcDbLine
 10
455.5060680303436
 20
-275.6669697553425
 30
0.0
 11
463.0439766395709
 21
-275.6669697553425
 31
0.0
  0
LINE
  5
177
330
15B
100
AcDbEntity
  8
レイヤー 1
 62
     1
370
    35
100
AcDbLine
 10
455.5060680303436
 20
-280.2349128097562
 30
0.0
 11
463.0439766395709
 21
-280.2349128097562
 31
0.0
  0
LINE
  5
178
330
15B
100
AcDbEntity
  8
レイヤー 1
 62
     1
370
    35
100
AcDbLine
 10
457.9681394186172
 20
-259.6791161482282
 30
0.0
 11
465.5060480278438
 21
-259.6791161482282
 31
0.0
  0
LINE
  5
179
330
15B
100
AcDbEntity
  8
レイヤー 1
 62
     1
370
    35
100
AcDbLine
 10
457.9681394186172
 20
-264.2470944804194
 30
0.0
 11
465.5060480278438
 21
-264.2470944804194
 31
0.0
  0
LINE
  5
17A
330
15B
100
AcDbEntity
  8
レイヤー 1
 62
     1
370
    35
100
AcDbLine
 10
457.9681394186172
 20
-268.8150728126107
 30
0.0
 11
465.5060480278438
 21
-268.8150728126107
 31
0.0
  0
LINE
  5
17B
330
15B
100
AcDbEntity
  8
レイヤー 1
 62
     1
370
    35
100
AcDbLine
 10
457.9681394186172
 20
-273.3829805892469
 30
0.0
 11
465.5060480278438
 21
-273.3829805892469
 31
0.0
  0
LINE
  5
17C
330
15B
100
AcDbEntity
  8
レイヤー 1
 62
     1
370
    35
100
AcDbLine
 10
457.9681394186172
 20
-277.9509589214381
 30
0.0
 11
465.5060480278438
 21
-277.9509589214381
 31
0.0
  0
ENDBLK
  5
15E
330
15B
100
AcDbEntity
  8
0
100
AcDbBlockEnd
  0
BLOCK
  5
17F
330
17D
100
AcDbEntity
  8
0
100
AcDbBlockBegin
  2
Block_15
 70
     0
 10
0.0
 20
0.0
 30
0.0
  3
Block_15
  1

  0
LWPOLYLINE
  5
181
330
17D
100
AcDbEntity
  8
レイヤー 1
 62
     1
370
    35
100
AcDbPolyline
 90
       16
 70
     1
 43
0.0
 10
455.3525038637157
 20
-305.6016633577639
 10
451.552487475777
 20
-305.6016633577639
 10
451.552487475777
 20
-309.6016694678747
 10
455.3525038637157
 20
-309.6016694678747
 10
455.3525038637157
 20
-373.6016966740963
 10
451.552487475777
 20
-373.6016966740963
 10
451.552487475777
 20
-377.6016675064296
 10
455.3525038637157
 20
-377.6016675064296
 10
455.3525038637157
 20
-381.6016736165405
 10
451.552487475777
 20
-381.6016736165405
 10
451.552487475777
 20
-385.6016797266519
 10
465.4524258056349
 20
-385.6016797266519
 10
465.4524258056349
 20
-297.6016864153191
 10
451.552487475777
 20
-297.6016864153191
 10
451.552487475777
 20
-301.6016572476518
 10
455.3525038637157
 20
-301.6016572476518
  0
LINE
  5
182
330
17D
100
AcDbEntity
  8
レイヤー 1
 62
     1
370
    35
100
AcDbLine
 10
455.4359358081395
 20
-309.6145105789828
 30
0.0
 11
462.9738444173661
 21
-309.6145105789828
 31
0.0
  0
LINE
  5
183
330
17D
100
AcDbEntity
  8
レイヤー 1
 62
     1
370
    35
100
AcDbLine
 10
455.4359358081395
 20
-314.182453633396
 30
0.0
 11
462.9738444173661
 21
-314.182453633396
 31
0.0
  0
LINE
  5
184
330
17D
100
AcDbEntity
  8
レイヤー 1
 62
     1
370
    35
100
AcDbLine
 10
455.4359358081395
 20
-318.750396687809
 30
0.0
 11
462.9738444173661
 21
-318.750396687809
 31
0.0
  0
LINE
  5
185
330
17D
100
AcDbEntity
  8
レイヤー 1
 62
     1
370
    35
100
AcDbLine
 10
455.4359358081395
 20
-323.3183750200002
 30
0.0
 11
462.9738444173661
 21
-323.3183750200002
 31
0.0
  0
LINE
  5
186
330
17D
100
AcDbEntity
  8
レイヤー 1
 62
     1
370
    35
100
AcDbLine
 10
455.4359358081395
 20
-327.8863180744146
 30
0.0
 11
462.9738444173661
 21
-327.8863180744146
 31
0.0
  0
LINE
  5
187
330
17D
100
AcDbEntity
  8
レイヤー 1
 62
     1
370
    35
100
AcDbLine
 10
455.4359358081395
 20
-332.4542611288277
 30
0.0
 11
462.9738444173661
 21
-332.4542611288277
 31
0.0
  0
LINE
  5
188
330
17D
100
AcDbEntity
  8
レイヤー 1
 62
     1
370
    35
100
AcDbLine
 10
455.4359358081395
 20
-337.022204183242
 30
0.0
 11
462.9738444173661
 21
-337.022204183242
 31
0.0
  0
LINE
  5
189
330
17D
100
AcDbEntity
  8
レイヤー 1
 62
     1
370
    35
100
AcDbLine
 10
455.5060680303436
 20
-341.5901472376551
 30
0.0
 11
463.0439766395709
 21
-341.5901472376551
 31
0.0
  0
LINE
  5
18A
330
17D
100
AcDbEntity
  8
レイヤー 1
 62
     1
370
    35
100
AcDbLine
 10
457.8980071964124
 20
-311.8984644672997
 30
0.0
 11
465.435915805639
 21
-311.8984644672997
 31
0.0
  0
LINE
  5
18B
330
17D
100
AcDbEntity
  8
レイヤー 1
 62
     1
370
    35
100
AcDbLine
 10
457.8980071964124
 20
-316.4664427994922
 30
0.0
 11
465.435915805639
 21
-316.4664427994922
 31
0.0
  0
LINE
  5
18C
330
17D
100
AcDbEntity
  8
レイヤー 1
 62
     1
370
    35
100
AcDbLine
 10
457.8980071964124
 20
-321.0343858539053
 30
0.0
 11
465.435915805639
 21
-321.0343858539053
 31
0.0
  0
LINE
  5
18D
330
17D
100
AcDbEntity
  8
レイヤー 1
 62
     1
370
    35
100
AcDbLine
 10
457.8980071964124
 20
-325.6023289083183
 30
0.0
 11
465.435915805639
 21
-325.6023289083183
 31
0.0
  0
LINE
  5
18E
330
17D
100
AcDbEntity
  8
レイヤー 1
 62
     1
370
    35
100
AcDbLine
 10
457.8980071964124
 20
-330.1703072405096
 30
0.0
 11
465.435915805639
 21
-330.1703072405096
 31
0.0
  0
LINE
  5
18F
330
17D
100
AcDbEntity
  8
レイヤー 1
 62
     1
370
    35
100
AcDbLine
 10
457.8980071964124
 20
-334.738250294924
 30
0.0
 11
465.435915805639
 21
-334.738250294924
 31
0.0
  0
LINE
  5
190
330
17D
100
AcDbEntity
  8
レイヤー 1
 62
     1
370
    35
100
AcDbLine
 10
457.8980071964124
 20
-339.3062286271152
 30
0.0
 11
465.435915805639
 21
-339.3062286271152
 31
0.0
  0
LINE
  5
191
330
17D
100
AcDbEntity
  8
レイヤー 1
 62
     1
370
    35
100
AcDbLine
 10
455.4359358081395
 20
-346.1581255698464
 30
0.0
 11
462.9738444173661
 21
-346.1581255698464
 31
0.0
  0
LINE
  5
192
330
17D
100
AcDbEntity
  8
レイヤー 1
 62
     1
370
    35
100
AcDbLine
 10
455.5060680303436
 20
-350.7260686242594
 30
0.0
 11
463.0439766395709
 21
-350.7260686242594
 31
0.0
  0
LINE
  5
193
330
17D
100
AcDbEntity
  8
レイヤー 1
 62
     1
370
    35
100
AcDbLine
 10
457.8980071964124
 20
-343.8741364037514
 30
0.0
 11
465.435915805639
 21
-343.8741364037514
 31
0.0
  0
LINE
  5
194
330
17D
100
AcDbEntity
  8
レイヤー 1
 62
     1
370
    35
100
AcDbLine
 10
457.8980071964124
 20
-348.4421147359427
 30
0.0
 11
465.435915805639
 21
-348.4421147359427
 31
0.0
  0
LINE
  5
195
330
17D
100
AcDbEntity
  8
レイヤー 1
 62
     1
370
    35
100
AcDbLine
 10
455.5060680303436
 20
-355.2940116786731
 30
0.0
 11
463.0439766395709
 21
-355.2940116786731
 31
0.0
  0
LINE
  5
196
330
17D
100
AcDbEntity
  8
レイヤー 1
 62
     1
370
    35
100
AcDbLine
 10
455.5060680303436
 20
-359.8619547330869
 30
0.0
 11
463.0439766395709
 21
-359.8619547330869
 31
0.0
  0
LINE
  5
197
330
17D
100
AcDbEntity
  8
レイヤー 1
 62
     1
370
    35
100
AcDbLine
 10
455.5060680303436
 20
-364.4299330652781
 30
0.0
 11
463.0439766395709
 21
-364.4299330652781
 31
0.0
  0
LINE
  5
198
330
17D
100
AcDbEntity
  8
レイヤー 1
 62
     1
370
    35
100
AcDbLine
 10
455.5060680303436
 20
-368.9978761196912
 30
0.0
 11
463.0439766395709
 21
-368.9978761196912
 31
0.0
  0
LINE
  5
199
330
17D
100
AcDbEntity
  8
レイヤー 1
 62
     1
370
    35
100
AcDbLine
 10
455.5060680303436
 20
-373.5658191741049
 30
0.0
 11
463.0439766395709
 21
-373.5658191741049
 31
0.0
  0
LINE
  5
19A
330
17D
100
AcDbEntity
  8
レイヤー 1
 62
     1
370
    35
100
AcDbLine
 10
457.9681394186172
 20
-353.0100225125776
 30
0.0
 11
465.5060480278438
 21
-353.0100225125776
 31
0.0
  0
LINE
  5
19B
330
17D
100
AcDbEntity
  8
レイヤー 1
 62
     1
370
    35
100
AcDbLine
 10
457.9681394186172
 20
-357.5780008447688
 30
0.0
 11
465.5060480278438
 21
-357.5780008447688
 31
0.0
  0
LINE
  5
19C
330
17D
100
AcDbEntity
  8
レイヤー 1
 62
     1
370
    35
100
AcDbLine
 10
457.9681394186172
 20
-362.14597917696
 30
0.0
 11
465.5060480278438
 21
-362.14597917696
 31
0.0
  0
LINE
  5
19D
330
17D
100
AcDbEntity
  8
レイヤー 1
 62
     1
370
    35
100
AcDbLine
 10
457.9681394186172
 20
-366.7138869535962
 30
0.0
 11
465.5060480278438
 21
-366.7138869535962
 31
0.0
  0
LINE
  5
19E
330
17D
100
AcDbEntity
  8
レイヤー 1
 62
     1
370
    35
100
AcDbLine
 10
457.9681394186172
 20
-371.2818652857874
 30
0.0
 11
465.5060480278438
 21
-371.2818652857874
 31
0.0
  0
ENDBLK
  5
180
330
17D
100
AcDbEntity
  8
0
100
AcDbBlockEnd
  0
BLOCK
  5
1A1
330
19F
100
AcDbEntity
  8
0
100
AcDbBlockBegin
  2
Block_16
 70
     0
 10
0.0
 20
0.0
 30
0.0
  3
Block_16
  1

  0
LWPOLYLINE
  5
1A3
330
19F
100
AcDbEntity
  8
レイヤー 1
 62
     1
370
    35
100
AcDbPolyline
 90
       16
 70
     1
 43
0.0
 10
476.3295345880181
 20
-25.60894426471455
 10
472.5295182000756
 20
-25.60894426471455
 10
472.5295182000756
 20
-29.608950374826
 10
476.3295345880181
 20
-29.608950374826
 10
476.3295345880181
 20
-93.60897758104767
 10
472.5295182000756
 20
-93.60897758104767
 10
472.5295182000756
 20
-97.60894841338192
 10
476.3295345880181
 20
-97.60894841338192
 10
476.3295345880181
 20
-101.6089545234924
 10
472.5295182000756
 20
-101.6089545234924
 10
472.5295182000756
 20
-105.6089606336032
 10
486.4294565299336
 20
-105.6089606336032
 10
486.4294565299336
 20
-17.60896732227046
 10
472.5295182000756
 20
-17.60896732227046
 10
472.5295182000756
 20
-21.60893815460311
 10
476.3295345880181
 20
-21.60893815460311
  0
LINE
  5
1A4
330
19F
100
AcDbEntity
  8
レイヤー 1
 62
     1
370
    35
100
AcDbLine
 10
476.4129665324381
 20
-29.62179148593357
 30
0.0
 11
483.9508751416647
 21
-29.62179148593357
 31
0.0
  0
LINE
  5
1A5
330
19F
100
AcDbEntity
  8
レイヤー 1
 62
     1
370
    35
100
AcDbLine
 10
476.4129665324381
 20
-34.18973454034728
 30
0.0
 11
483.9508751416647
 21
-34.18973454034728
 31
0.0
  0
LINE
  5
1A6
330
19F
100
AcDbEntity
  8
レイヤー 1
 62
     1
370
    35
100
AcDbLine
 10
476.4129665324381
 20
-38.75767759476004
 30
0.0
 11
483.9508751416647
 21
-38.75767759476004
 31
0.0
  0
LINE
  5
1A7
330
19F
100
AcDbEntity
  8
レイヤー 1
 62
     1
370
    35
100
AcDbLine
 10
476.4129665324381
 20
-43.3256559269516
 30
0.0
 11
483.9508751416647
 21
-43.3256559269516
 31
0.0
  0
LINE
  5
1A8
330
19F
100
AcDbEntity
  8
レイヤー 1
 62
     1
370
    35
100
AcDbLine
 10
476.4129665324381
 20
-47.89359898136596
 30
0.0
 11
483.9508751416647
 21
-47.89359898136596
 31
0.0
  0
LINE
  5
1A9
330
19F
100
AcDbEntity
  8
レイヤー 1
 62
     1
370
    35
100
AcDbLine
 10
476.4129665324381
 20
-52.46154203577903
 30
0.0
 11
483.9508751416647
 21
-52.46154203577903
 31
0.0
  0
LINE
  5
1AA
330
19F
100
AcDbEntity
  8
レイヤー 1
 62
     1
370
    35
100
AcDbLine
 10
476.4129665324381
 20
-57.02948509019275
 30
0.0
 11
483.9508751416647
 21
-57.02948509019275
 31
0.0
  0
LINE
  5
1AB
330
19F
100
AcDbEntity
  8
レイヤー 1
 62
     1
370
    35
100
AcDbLine
 10
476.4830987546423
 20
-61.59742814460647
 30
0.0
 11
484.0210073638695
 21
-61.59742814460647
 31
0.0
  0
LINE
  5
1AC
330
19F
100
AcDbEntity
  8
レイヤー 1
 62
     1
370
    35
100
AcDbLine
 10
478.875037920711
 20
-31.90574537425102
 30
0.0
 11
486.4129465299376
 21
-31.90574537425102
 31
0.0
  0
LINE
  5
1AD
330
19F
100
AcDbEntity
  8
レイヤー 1
 62
     1
370
    35
100
AcDbLine
 10
478.875037920711
 20
-36.47372370644291
 30
0.0
 11
486.4129465299376
 21
-36.47372370644291
 31
0.0
  0
LINE
  5
1AE
330
19F
100
AcDbEntity
  8
レイヤー 1
 62
     1
370
    35
100
AcDbLine
 10
478.875037920711
 20
-41.04166676085662
 30
0.0
 11
486.4129465299376
 21
-41.04166676085662
 31
0.0
  0
LINE
  5
1AF
330
19F
100
AcDbEntity
  8
レイヤー 1
 62
     1
370
    35
100
AcDbLine
 10
478.875037920711
 20
-45.6096098152697
 30
0.0
 11
486.4129465299376
 21
-45.6096098152697
 31
0.0
  0
LINE
  5
1B0
330
19F
100
AcDbEntity
  8
レイヤー 1
 62
     1
370
    35
100
AcDbLine
 10
478.875037920711
 20
-50.17758814746094
 30
0.0
 11
486.4129465299376
 21
-50.17758814746094
 31
0.0
  0
LINE
  5
1B1
330
19F
100
AcDbEntity
  8
レイヤー 1
 62
     1
370
    35
100
AcDbLine
 10
478.875037920711
 20
-54.74553120187465
 30
0.0
 11
486.4129465299376
 21
-54.74553120187465
 31
0.0
  0
LINE
  5
1B2
330
19F
100
AcDbEntity
  8
レイヤー 1
 62
     1
370
    35
100
AcDbLine
 10
478.875037920711
 20
-59.31350953406653
 30
0.0
 11
486.4129465299376
 21
-59.31350953406653
 31
0.0
  0
LINE
  5
1B3
330
19F
100
AcDbEntity
  8
レイヤー 1
 62
     1
370
    35
100
AcDbLine
 10
476.4129665324381
 20
-66.16540647679771
 30
0.0
 11
483.9508751416647
 21
-66.16540647679771
 31
0.0
  0
LINE
  5
1B4
330
19F
100
AcDbEntity
  8
レイヤー 1
 62
     1
370
    35
100
AcDbLine
 10
476.4830987546423
 20
-70.73334953121079
 30
0.0
 11
484.0210073638695
 21
-70.73334953121079
 31
0.0
  0
LINE
  5
1B5
330
19F
100
AcDbEntity
  8
レイヤー 1
 62
     1
370
    35
100
AcDbLine
 10
478.875037920711
 20
-63.88141731070209
 30
0.0
 11
486.4129465299376
 21
-63.88141731070209
 31
0.0
  0
LINE
  5
1B6
330
19F
100
AcDbEntity
  8
レイヤー 1
 62
     1
370
    35
100
AcDbLine
 10
478.875037920711
 20
-68.44939564289333
 30
0.0
 11
486.4129465299376
 21
-68.44939564289333
 31
0.0
  0
LINE
  5
1B7
330
19F
100
AcDbEntity
  8
レイヤー 1
 62
     1
370
    35
100
AcDbLine
 10
476.4830987546423
 20
-75.30129258562515
 30
0.0
 11
484.0210073638695
 21
-75.30129258562515
 31
0.0
  0
LINE
  5
1B8
330
19F
100
AcDbEntity
  8
レイヤー 1
 62
     1
370
    35
100
AcDbLine
 10
476.4830987546423
 20
-79.86923564003823
 30
0.0
 11
484.0210073638695
 21
-79.86923564003823
 31
0.0
  0
LINE
  5
1B9
330
19F
100
AcDbEntity
  8
レイヤー 1
 62
     1
370
    35
100
AcDbLine
 10
476.4830987546423
 20
-84.43721397222946
 30
0.0
 11
484.0210073638695
 21
-84.43721397222946
 31
0.0
  0
LINE
  5
1BA
330
19F
100
AcDbEntity
  8
レイヤー 1
 62
     1
370
    35
100
AcDbLine
 10
476.4830987546423
 20
-89.0051570266432
 30
0.0
 11
484.0210073638695
 21
-89.0051570266432
 31
0.0
  0
LINE
  5
1BB
330
19F
100
AcDbEntity
  8
レイヤー 1
 62
     1
370
    35
100
AcDbLine
 10
476.4830987546423
 20
-93.5731000810569
 30
0.0
 11
484.0210073638695
 21
-93.5731000810569
 31
0.0
  0
LINE
  5
1BC
330
19F
100
AcDbEntity
  8
レイヤー 1
 62
     1
370
    35
100
AcDbLine
 10
478.9451701429197
 20
-73.01730341952889
 30
0.0
 11
486.4830787521424
 21
-73.01730341952889
 31
0.0
  0
LINE
  5
1BD
330
19F
100
AcDbEntity
  8
レイヤー 1
 62
     1
370
    35
100
AcDbLine
 10
478.9451701429197
 20
-77.58528175172013
 30
0.0
 11
486.4830787521424
 21
-77.58528175172013
 31
0.0
  0
LINE
  5
1BE
330
19F
100
AcDbEntity
  8
レイヤー 1
 62
     1
370
    35
100
AcDbLine
 10
478.9451701429197
 20
-82.15326008391135
 30
0.0
 11
486.4830787521424
 21
-82.15326008391135
 31
0.0
  0
LINE
  5
1BF
330
19F
100
AcDbEntity
  8
レイヤー 1
 62
     1
370
    35
100
AcDbLine
 10
478.9451701429197
 20
-86.72116786054756
 30
0.0
 11
486.4830787521424
 21
-86.72116786054756
 31
0.0
  0
LINE
  5
1C0
330
19F
100
AcDbEntity
  8
レイヤー 1
 62
     1
370
    35
100
AcDbLine
 10
478.9451701429197
 20
-91.2891461927388
 30
0.0
 11
486.4830787521424
 21
-91.2891461927388
 31
0.0
  0
ENDBLK
  5
1A2
330
19F
100
AcDbEntity
  8
0
100
AcDbBlockEnd
  0
BLOCK
  5
1C3
330
1C1
100
AcDbEntity
  8
0
100
AcDbBlockBegin
  2
Block_17
 70
     0
 10
0.0
 20
0.0
 30
0.0
  3
Block_17
  1

  0
LWPOLYLINE
  5
1C5
330
1C1
100
AcDbEntity
  8
レイヤー 1
 62
     1
370
    35
100
AcDbPolyline
 90
       16
 70
     1
 43
0.0
 10
476.3295345880181
 20
-118.9398506290642
 10
472.5295182000756
 20
-118.9398506290642
 10
472.5295182000756
 20
-122.9398567391756
 10
476.3295345880181
 20
-122.9398567391756
 10
476.3295345880181
 20
-186.9398839453973
 10
472.5295182000756
 20
-186.9398839453973
 10
472.5295182000756
 20
-190.9398547777312
 10
476.3295345880181
 20
-190.9398547777312
 10
476.3295345880181
 20
-194.939860887842
 10
472.5295182000756
 20
-194.939860887842
 10
472.5295182000756
 20
-198.9398669979529
 10
486.4294565299336
 20
-198.9398669979529
 10
486.4294565299336
 20
-110.9398736866201
 10
472.5295182000756
 20
-110.9398736866201
 10
472.5295182000756
 20
-114.9398445189527
 10
476.3295345880181
 20
-114.9398445189527
  0
LINE
  5
1C6
330
1C1
100
AcDbEntity
  8
レイヤー 1
 62
     1
370
    35
100
AcDbLine
 10
476.4129665324381
 20
-122.9526978502832
 30
0.0
 11
483.9508751416647
 21
-122.9526978502832
 31
0.0
  0
LINE
  5
1C7
330
1C1
100
AcDbEntity
  8
レイヤー 1
 62
     1
370
    35
100
AcDbLine
 10
476.4129665324381
 20
-127.5206409046969
 30
0.0
 11
483.9508751416647
 21
-127.5206409046969
 31
0.0
  0
LINE
  5
1C8
330
1C1
100
AcDbEntity
  8
レイヤー 1
 62
     1
370
    35
100
AcDbLine
 10
476.4129665324381
 20
-132.08858395911
 30
0.0
 11
483.9508751416647
 21
-132.08858395911
 31
0.0
  0
LINE
  5
1C9
330
1C1
100
AcDbEntity
  8
レイヤー 1
 62
     1
370
    35
100
AcDbLine
 10
476.4129665324381
 20
-136.6565622913012
 30
0.0
 11
483.9508751416647
 21
-136.6565622913012
 31
0.0
  0
LINE
  5
1CA
330
1C1
100
AcDbEntity
  8
レイヤー 1
 62
     1
370
    35
100
AcDbLine
 10
476.4129665324381
 20
-141.2245053457156
 30
0.0
 11
483.9508751416647
 21
-141.2245053457156
 31
0.0
  0
LINE
  5
1CB
330
1C1
100
AcDbEntity
  8
レイヤー 1
 62
     1
370
    35
100
AcDbLine
 10
476.4129665324381
 20
-145.7924484001287
 30
0.0
 11
483.9508751416647
 21
-145.7924484001287
 31
0.0
  0
LINE
  5
1CC
330
1C1
100
AcDbEntity
  8
レイヤー 1
 62
     1
370
    35
100
AcDbLine
 10
476.4129665324381
 20
-150.3603914545424
 30
0.0
 11
483.9508751416647
 21
-150.3603914545424
 31
0.0
  0
LINE
  5
1CD
330
1C1
100
AcDbEntity
  8
レイヤー 1
 62
     1
370
    35
100
AcDbLine
 10
476.4830987546423
 20
-154.9283345089561
 30
0.0
 11
484.0210073638695
 21
-154.9283345089561
 31
0.0
  0
LINE
  5
1CE
330
1C1
100
AcDbEntity
  8
レイヤー 1
 62
     1
370
    35
100
AcDbLine
 10
478.875037920711
 20
-125.2366517386007
 30
0.0
 11
486.4129465299376
 21
-125.2366517386007
 31
0.0
  0
LINE
  5
1CF
330
1C1
100
AcDbEntity
  8
レイヤー 1
 62
     1
370
    35
100
AcDbLine
 10
478.875037920711
 20
-129.8046300707925
 30
0.0
 11
486.4129465299376
 21
-129.8046300707925
 31
0.0
  0
LINE
  5
1D0
330
1C1
100
AcDbEntity
  8
レイヤー 1
 62
     1
370
    35
100
AcDbLine
 10
478.875037920711
 20
-134.3725731252063
 30
0.0
 11
486.4129465299376
 21
-134.3725731252063
 31
0.0
  0
LINE
  5
1D1
330
1C1
100
AcDbEntity
  8
レイヤー 1
 62
     1
370
    35
100
AcDbLine
 10
478.875037920711
 20
-138.9405161796193
 30
0.0
 11
486.4129465299376
 21
-138.9405161796193
 31
0.0
  0
LINE
  5
1D2
330
1C1
100
AcDbEntity
  8
レイヤー 1
 62
     1
370
    35
100
AcDbLine
 10
478.875037920711
 20
-143.5084945118106
 30
0.0
 11
486.4129465299376
 21
-143.5084945118106
 31
0.0
  0
LINE
  5
1D3
330
1C1
100
AcDbEntity
  8
レイヤー 1
 62
     1
370
    35
100
AcDbLine
 10
478.875037920711
 20
-148.0764375662243
 30
0.0
 11
486.4129465299376
 21
-148.0764375662243
 31
0.0
  0
LINE
  5
1D4
330
1C1
100
AcDbEntity
  8
レイヤー 1
 62
     1
370
    35
100
AcDbLine
 10
478.875037920711
 20
-152.6444158984162
 30
0.0
 11
486.4129465299376
 21
-152.6444158984162
 31
0.0
  0
LINE
  5
1D5
330
1C1
100
AcDbEntity
  8
レイヤー 1
 62
     1
370
    35
100
AcDbLine
 10
476.4129665324381
 20
-159.4963128411473
 30
0.0
 11
483.9508751416647
 21
-159.4963128411473
 31
0.0
  0
LINE
  5
1D6
330
1C1
100
AcDbEntity
  8
レイヤー 1
 62
     1
370
    35
100
AcDbLine
 10
476.4830987546423
 20
-164.0642558955604
 30
0.0
 11
484.0210073638695
 21
-164.0642558955604
 31
0.0
  0
LINE
  5
1D7
330
1C1
100
AcDbEntity
  8
レイヤー 1
 62
     1
370
    35
100
AcDbLine
 10
478.875037920711
 20
-157.2123236750517
 30
0.0
 11
486.4129465299376
 21
-157.2123236750517
 31
0.0
  0
LINE
  5
1D8
330
1C1
100
AcDbEntity
  8
レイヤー 1
 62
     1
370
    35
100
AcDbLine
 10
478.875037920711
 20
-161.780302007243
 30
0.0
 11
486.4129465299376
 21
-161.780302007243
 31
0.0
  0
LINE
  5
1D9
330
1C1
100
AcDbEntity
  8
レイヤー 1
 62
     1
370
    35
100
AcDbLine
 10
476.4830987546423
 20
-168.6321989499748
 30
0.0
 11
484.0210073638695
 21
-168.6321989499748
 31
0.0
  0
LINE
  5
1DA
330
1C1
100
AcDbEntity
  8
レイヤー 1
 62
     1
370
    35
100
AcDbLine
 10
476.4830987546423
 20
-173.2001420043879
 30
0.0
 11
484.0210073638695
 21
-173.2001420043879
 31
0.0
  0
LINE
  5
1DB
330
1C1
100
AcDbEntity
  8
レイヤー 1
 62
     1
370
    35
100
AcDbLine
 10
476.4830987546423
 20
-177.7681203365791
 30
0.0
 11
484.0210073638695
 21
-177.7681203365791
 31
0.0
  0
LINE
  5
1DC
330
1C1
100
AcDbEntity
  8
レイヤー 1
 62
     1
370
    35
100
AcDbLine
 10
476.4830987546423
 20
-182.3360633909928
 30
0.0
 11
484.0210073638695
 21
-182.3360633909928
 31
0.0
  0
LINE
  5
1DD
330
1C1
100
AcDbEntity
  8
レイヤー 1
 62
     1
370
    35
100
AcDbLine
 10
476.4830987546423
 20
-186.9040064454065
 30
0.0
 11
484.0210073638695
 21
-186.9040064454065
 31
0.0
  0
LINE
  5
1DE
330
1C1
100
AcDbEntity
  8
レイヤー 1
 62
     1
370
    35
100
AcDbLine
 10
478.9451701429197
 20
-166.3482097838785
 30
0.0
 11
486.4830787521424
 21
-166.3482097838785
 31
0.0
  0
LINE
  5
1DF
330
1C1
100
AcDbEntity
  8
レイヤー 1
 62
     1
370
    35
100
AcDbLine
 10
478.9451701429197
 20
-170.9161881160698
 30
0.0
 11
486.4830787521424
 21
-170.9161881160698
 31
0.0
  0
LINE
  5
1E0
330
1C1
100
AcDbEntity
  8
レイヤー 1
 62
     1
370
    35
100
AcDbLine
 10
478.9451701429197
 20
-175.484166448261
 30
0.0
 11
486.4830787521424
 21
-175.484166448261
 31
0.0
  0
LINE
  5
1E1
330
1C1
100
AcDbEntity
  8
レイヤー 1
 62
     1
370
    35
100
AcDbLine
 10
478.9451701429197
 20
-180.0520742248975
 30
0.0
 11
486.4830787521424
 21
-180.0520742248975
 31
0.0
  0
LINE
  5
1E2
330
1C1
100
AcDbEntity
  8
レイヤー 1
 62
     1
370
    35
100
AcDbLine
 10
478.9451701429197
 20
-184.6200525570884
 30
0.0
 11
486.4830787521424
 21
-184.6200525570884
 31
0.0
  0
ENDBLK
  5
1C4
330
1C1
100
AcDbEntity
  8
0
100
AcDbBlockEnd
  0
BLOCK
  5
1E5
330
1E3
100
AcDbEntity
  8
0
100
AcDbBlockBegin
  2
Block_18
 70
     0
 10
0.0
 20
0.0
 30
0.0
  3
Block_18
  1

  0
LWPOLYLINE
  5
1E7
330
1E3
100
AcDbEntity
  8
レイヤー 1
 62
     1
370
    35
100
AcDbPolyline
 90
       16
 70
     1
 43
0.0
 10
476.3295345880181
 20
-212.2707569934139
 10
472.5295182000756
 20
-212.2707569934139
 10
472.5295182000756
 20
-216.2707631035253
 10
476.3295345880181
 20
-216.2707631035253
 10
476.3295345880181
 20
-280.270790309747
 10
472.5295182000756
 20
-280.270790309747
 10
472.5295182000756
 20
-284.2707611420809
 10
476.3295345880181
 20
-284.2707611420809
 10
476.3295345880181
 20
-288.2707672521917
 10
472.5295182000756
 20
-288.2707672521917
 10
472.5295182000756
 20
-292.2707733623025
 10
486.4294565299336
 20
-292.2707733623025
 10
486.4294565299336
 20
-204.2707800509698
 10
472.5295182000756
 20
-204.2707800509698
 10
472.5295182000756
 20
-208.2707508833024
 10
476.3295345880181
 20
-208.2707508833024
  0
LINE
  5
1E8
330
1E3
100
AcDbEntity
  8
レイヤー 1
 62
     1
370
    35
100
AcDbLine
 10
476.4129665324381
 20
-216.2836042146329
 30
0.0
 11
483.9508751416647
 21
-216.2836042146329
 31
0.0
  0
LINE
  5
1E9
330
1E3
100
AcDbEntity
  8
レイヤー 1
 62
     1
370
    35
100
AcDbLine
 10
476.4129665324381
 20
-220.8515472690466
 30
0.0
 11
483.9508751416647
 21
-220.8515472690466
 31
0.0
  0
LINE
  5
1EA
330
1E3
100
AcDbEntity
  8
レイヤー 1
 62
     1
370
    35
100
AcDbLine
 10
476.4129665324381
 20
-225.4194903234597
 30
0.0
 11
483.9508751416647
 21
-225.4194903234597
 31
0.0
  0
LINE
  5
1EB
330
1E3
100
AcDbEntity
  8
レイヤー 1
 62
     1
370
    35
100
AcDbLine
 10
476.4129665324381
 20
-229.9874686556509
 30
0.0
 11
483.9508751416647
 21
-229.9874686556509
 31
0.0
  0
LINE
  5
1EC
330
1E3
100
AcDbEntity
  8
レイヤー 1
 62
     1
370
    35
100
AcDbLine
 10
476.4129665324381
 20
-234.5554117100653
 30
0.0
 11
483.9508751416647
 21
-234.5554117100653
 31
0.0
  0
LINE
  5
1ED
330
1E3
100
AcDbEntity
  8
レイヤー 1
 62
     1
370
    35
100
AcDbLine
 10
476.4129665324381
 20
-239.1233547644784
 30
0.0
 11
483.9508751416647
 21
-239.1233547644784
 31
0.0
  0
LINE
  5
1EE
330
1E3
100
AcDbEntity
  8
レイヤー 1
 62
     1
370
    35
100
AcDbLine
 10
476.4129665324381
 20
-243.6912978188921
 30
0.0
 11
483.9508751416647
 21
-243.6912978188921
 31
0.0
  0
LINE
  5
1EF
330
1E3
100
AcDbEntity
  8
レイヤー 1
 62
     1
370
    35
100
AcDbLine
 10
476.4830987546423
 20
-248.2592408733058
 30
0.0
 11
484.0210073638695
 21
-248.2592408733058
 31
0.0
  0
LINE
  5
1F0
330
1E3
100
AcDbEntity
  8
レイヤー 1
 62
     1
370
    35
100
AcDbLine
 10
478.875037920711
 20
-218.5675581029503
 30
0.0
 11
486.4129465299376
 21
-218.5675581029503
 31
0.0
  0
LINE
  5
1F1
330
1E3
100
AcDbEntity
  8
レイヤー 1
 62
     1
370
    35
100
AcDbLine
 10
478.875037920711
 20
-223.1355364351422
 30
0.0
 11
486.4129465299376
 21
-223.1355364351422
 31
0.0
  0
LINE
  5
1F2
330
1E3
100
AcDbEntity
  8
レイヤー 1
 62
     1
370
    35
100
AcDbLine
 10
478.875037920711
 20
-227.703479489556
 30
0.0
 11
486.4129465299376
 21
-227.703479489556
 31
0.0
  0
LINE
  5
1F3
330
1E3
100
AcDbEntity
  8
レイヤー 1
 62
     1
370
    35
100
AcDbLine
 10
478.875037920711
 20
-232.271422543969
 30
0.0
 11
486.4129465299376
 21
-232.271422543969
 31
0.0
  0
LINE
  5
1F4
330
1E3
100
AcDbEntity
  8
レイヤー 1
 62
     1
370
    35
100
AcDbLine
 10
478.875037920711
 20
-236.8394008761602
 30
0.0
 11
486.4129465299376
 21
-236.8394008761602
 31
0.0
  0
LINE
  5
1F5
330
1E3
100
AcDbEntity
  8
レイヤー 1
 62
     1
370
    35
100
AcDbLine
 10
478.875037920711
 20
-241.407343930574
 30
0.0
 11
486.4129465299376
 21
-241.407343930574
 31
0.0
  0
LINE
  5
1F6
330
1E3
100
AcDbEntity
  8
レイヤー 1
 62
     1
370
    35
100
AcDbLine
 10
478.875037920711
 20
-245.9753222627659
 30
0.0
 11
486.4129465299376
 21
-245.9753222627659
 31
0.0
  0
LINE
  5
1F7
330
1E3
100
AcDbEntity
  8
レイヤー 1
 62
     1
370
    35
100
AcDbLine
 10
476.4129665324381
 20
-252.827219205497
 30
0.0
 11
483.9508751416647
 21
-252.827219205497
 31
0.0
  0
LINE
  5
1F8
330
1E3
100
AcDbEntity
  8
レイヤー 1
 62
     1
370
    35
100
AcDbLine
 10
476.4830987546423
 20
-257.3951622599101
 30
0.0
 11
484.0210073638695
 21
-257.3951622599101
 31
0.0
  0
LINE
  5
1F9
330
1E3
100
AcDbEntity
  8
レイヤー 1
 62
     1
370
    35
100
AcDbLine
 10
478.875037920711
 20
-250.5432300394014
 30
0.0
 11
486.4129465299376
 21
-250.5432300394014
 31
0.0
  0
LINE
  5
1FA
330
1E3
100
AcDbEntity
  8
レイヤー 1
 62
     1
370
    35
100
AcDbLine
 10
478.875037920711
 20
-255.1112083715926
 30
0.0
 11
486.4129465299376
 21
-255.1112083715926
 31
0.0
  0
LINE
  5
1FB
330
1E3
100
AcDbEntity
  8
レイヤー 1
 62
     1
370
    35
100
AcDbLine
 10
476.4830987546423
 20
-261.9631053143245
 30
0.0
 11
484.0210073638695
 21
-261.9631053143245
 31
0.0
  0
LINE
  5
1FC
330
1E3
100
AcDbEntity
  8
レイヤー 1
 62
     1
370
    35
100
AcDbLine
 10
476.4830987546423
 20
-266.5310483687375
 30
0.0
 11
484.0210073638695
 21
-266.5310483687375
 31
0.0
  0
LINE
  5
1FD
330
1E3
100
AcDbEntity
  8
レイヤー 1
 62
     1
370
    35
100
AcDbLine
 10
476.4830987546423
 20
-271.0990267009288
 30
0.0
 11
484.0210073638695
 21
-271.0990267009288
 31
0.0
  0
LINE
  5
1FE
330
1E3
100
AcDbEntity
  8
レイヤー 1
 62
     1
370
    35
100
AcDbLine
 10
476.4830987546423
 20
-275.6669697553425
 30
0.0
 11
484.0210073638695
 21
-275.6669697553425
 31
0.0
  0
LINE
  5
1FF
330
1E3
100
AcDbEntity
  8
レイヤー 1
 62
     1
370
    35
100
AcDbLine
 10
476.4830987546423
 20
-280.2349128097562
 30
0.0
 11
484.0210073638695
 21
-280.2349128097562
 31
0.0
  0
LINE
  5
200
330
1E3
100
AcDbEntity
  8
レイヤー 1
 62
     1
370
    35
100
AcDbLine
 10
478.9451701429197
 20
-259.6791161482282
 30
0.0
 11
486.4830787521424
 21
-259.6791161482282
 31
0.0
  0
LINE
  5
201
330
1E3
100
AcDbEntity
  8
レイヤー 1
 62
     1
370
    35
100
AcDbLine
 10
478.9451701429197
 20
-264.2470944804194
 30
0.0
 11
486.4830787521424
 21
-264.2470944804194
 31
0.0
  0
LINE
  5
202
330
1E3
100
AcDbEntity
  8
レイヤー 1
 62
     1
370
    35
100
AcDbLine
 10
478.9451701429197
 20
-268.8150728126107
 30
0.0
 11
486.4830787521424
 21
-268.8150728126107
 31
0.0
  0
LINE
  5
203
330
1E3
100
AcDbEntity
  8
レイヤー 1
 62
     1
370
    35
100
AcDbLine
 10
478.9451701429197
 20
-273.3829805892469
 30
0.0
 11
486.4830787521424
 21
-273.3829805892469
 31
0.0
  0
LINE
  5
204
330
1E3
100
AcDbEntity
  8
レイヤー 1
 62
     1
370
    35
100
AcDbLine
 10
478.9451701429197
 20
-277.9509589214381
 30
0.0
 11
486.4830787521424
 21
-277.9509589214381
 31
0.0
  0
ENDBLK
  5
1E6
330
1E3
100
AcDbEntity
  8
0
100
AcDbBlockEnd
  0
BLOCK
  5
207
330
205
100
AcDbEntity
  8
0
100
AcDbBlockBegin
  2
Block_19
 70
     0
 10
0.0
 20
0.0
 30
0.0
  3
Block_19
  1

  0
LWPOLYLINE
  5
209
330
205
100
AcDbEntity
  8
レイヤー 1
 62
     1
370
    35
100
AcDbPolyline
 90
       16
 70
     1
 43
0.0
 10
476.3295345880181
 20
-305.6016633577639
 10
472.5295182000756
 20
-305.6016633577639
 10
472.5295182000756
 20
-309.6016694678747
 10
476.3295345880181
 20
-309.6016694678747
 10
476.3295345880181
 20
-373.6016966740963
 10
472.5295182000756
 20
-373.6016966740963
 10
472.5295182000756
 20
-377.6016675064296
 10
476.3295345880181
 20
-377.6016675064296
 10
476.3295345880181
 20
-381.6016736165405
 10
472.5295182000756
 20
-381.6016736165405
 10
472.5295182000756
 20
-385.6016797266519
 10
486.4294565299336
 20
-385.6016797266519
 10
486.4294565299336
 20
-297.6016864153191
 10
472.5295182000756
 20
-297.6016864153191
 10
472.5295182000756
 20
-301.6016572476518
 10
476.3295345880181
 20
-301.6016572476518
  0
LINE
  5
20A
330
205
100
AcDbEntity
  8
レイヤー 1
 62
     1
370
    35
100
AcDbLine
 10
476.4129665324381
 20
-309.6145105789828
 30
0.0
 11
483.9508751416647
 21
-309.6145105789828
 31
0.0
  0
LINE
  5
20B
330
205
100
AcDbEntity
  8
レイヤー 1
 62
     1
370
    35
100
AcDbLine
 10
476.4129665324381
 20
-314.182453633396
 30
0.0
 11
483.9508751416647
 21
-314.182453633396
 31
0.0
  0
LINE
  5
20C
330
205
100
AcDbEntity
  8
レイヤー 1
 62
     1
370
    35
100
AcDbLine
 10
476.4129665324381
 20
-318.750396687809
 30
0.0
 11
483.9508751416647
 21
-318.750396687809
 31
0.0
  0
LINE
  5
20D
330
205
100
AcDbEntity
  8
レイヤー 1
 62
     1
370
    35
100
AcDbLine
 10
476.4129665324381
 20
-323.3183750200002
 30
0.0
 11
483.9508751416647
 21
-323.3183750200002
 31
0.0
  0
LINE
  5
20E
330
205
100
AcDbEntity
  8
レイヤー 1
 62
     1
370
    35
100
AcDbLine
 10
476.4129665324381
 20
-327.8863180744146
 30
0.0
 11
483.9508751416647
 21
-327.8863180744146
 31
0.0
  0
LINE
  5
20F
330
205
100
AcDbEntity
  8
レイヤー 1
 62
     1
370
    35
100
AcDbLine
 10
476.4129665324381
 20
-332.4542611288277
 30
0.0
 11
483.9508751416647
 21
-332.4542611288277
 31
0.0
  0
LINE
  5
210
330
205
100
AcDbEntity
  8
レイヤー 1
 62
     1
370
    35
100
AcDbLine
 10
476.4129665324381
 20
-337.022204183242
 30
0.0
 11
483.9508751416647
 21
-337.022204183242
 31
0.0
  0
LINE
  5
211
330
205
100
AcDbEntity
  8
レイヤー 1
 62
     1
370
    35
100
AcDbLine
 10
476.4830987546423
 20
-341.5901472376551
 30
0.0
 11
484.0210073638695
 21
-341.5901472376551
 31
0.0
  0
LINE
  5
212
330
205
100
AcDbEntity
  8
レイヤー 1
 62
     1
370
    35
100
AcDbLine
 10
478.875037920711
 20
-311.8984644672997
 30
0.0
 11
486.4129465299376
 21
-311.8984644672997
 31
0.0
  0
LINE
  5
213
330
205
100
AcDbEntity
  8
レイヤー 1
 62
     1
370
    35
100
AcDbLine
 10
478.875037920711
 20
-316.4664427994922
 30
0.0
 11
486.4129465299376
 21
-316.4664427994922
 31
0.0
  0
LINE
  5
214
330
205
100
AcDbEntity
  8
レイヤー 1
 62
     1
370
    35
100
AcDbLine
 10
478.875037920711
 20
-321.0343858539053
 30
0.0
 11
486.4129465299376
 21
-321.0343858539053
 31
0.0
  0
LINE
  5
215
330
205
100
AcDbEntity
  8
レイヤー 1
 62
     1
370
    35
100
AcDbLine
 10
478.875037920711
 20
-325.6023289083183
 30
0.0
 11
486.4129465299376
 21
-325.6023289083183
 31
0.0
  0
LINE
  5
216
330
205
100
AcDbEntity
  8
レイヤー 1
 62
     1
370
    35
100
AcDbLine
 10
478.875037920711
 20
-330.1703072405096
 30
0.0
 11
486.4129465299376
 21
-330.1703072405096
 31
0.0
  0
LINE
  5
217
330
205
100
AcDbEntity
  8
レイヤー 1
 62
     1
370
    35
100
AcDbLine
 10
478.875037920711
 20
-334.738250294924
 30
0.0
 11
486.4129465299376
 21
-334.738250294924
 31
0.0
  0
LINE
  5
218
330
205
100
AcDbEntity
  8
レイヤー 1
 62
     1
370
    35
100
AcDbLine
 10
478.875037920711
 20
-339.3062286271152
 30
0.0
 11
486.4129465299376
 21
-339.3062286271152
 31
0.0
  0
LINE
  5
219
330
205
100
AcDbEntity
  8
レイヤー 1
 62
     1
370
    35
100
AcDbLine
 10
476.4129665324381
 20
-346.1581255698464
 30
0.0
 11
483.9508751416647
 21
-346.1581255698464
 31
0.0
  0
LINE
  5
21A
330
205
100
AcDbEntity
  8
レイヤー 1
 62
     1
370
    35
100
AcDbLine
 10
476.4830987546423
 20
-350.7260686242594
 30
0.0
 11
484.0210073638695
 21
-350.7260686242594
 31
0.0
  0
LINE
  5
21B
330
205
100
AcDbEntity
  8
レイヤー 1
 62
     1
370
    35
100
AcDbLine
 10
478.875037920711
 20
-343.8741364037514
 30
0.0
 11
486.4129465299376
 21
-343.8741364037514
 31
0.0
  0
LINE
  5
21C
330
205
100
AcDbEntity
  8
レイヤー 1
 62
     1
370
    35
100
AcDbLine
 10
478.875037920711
 20
-348.4421147359427
 30
0.0
 11
486.4129465299376
 21
-348.4421147359427
 31
0.0
  0
LINE
  5
21D
330
205
100
AcDbEntity
  8
レイヤー 1
 62
     1
370
    35
100
AcDbLine
 10
476.4830987546423
 20
-355.2940116786731
 30
0.0
 11
484.0210073638695
 21
-355.2940116786731
 31
0.0
  0
LINE
  5
21E
330
205
100
AcDbEntity
  8
レイヤー 1
 62
     1
370
    35
100
AcDbLine
 10
476.4830987546423
 20
-359.8619547330869
 30
0.0
 11
484.0210073638695
 21
-359.8619547330869
 31
0.0
  0
LINE
  5
21F
330
205
100
AcDbEntity
  8
レイヤー 1
 62
     1
370
    35
100
AcDbLine
 10
476.4830987546423
 20
-364.4299330652781
 30
0.0
 11
484.0210073638695
 21
-364.4299330652781
 31
0.0
  0
LINE
  5
220
330
205
100
AcDbEntity
  8
レイヤー 1
 62
     1
370
    35
100
AcDbLine
 10
476.4830987546423
 20
-368.9978761196912
 30
0.0
 11
484.0210073638695
 21
-368.9978761196912
 31
0.0
  0
LINE
  5
221
330
205
100
AcDbEntity
  8
レイヤー 1
 62
     1
370
    35
100
AcDbLine
 10
476.4830987546423
 20
-373.5658191741049
 30
0.0
 11
484.0210073638695
 21
-373.5658191741049
 31
0.0
  0
LINE
  5
222
330
205
100
AcDbEntity
  8
レイヤー 1
 62
     1
370
    35
100
AcDbLine
 10
478.9451701429197
 20
-353.0100225125776
 30
0.0
 11
486.4830787521424
 21
-353.0100225125776
 31
0.0
  0
LINE
  5
223
330
205
100
AcDbEntity
  8
レイヤー 1
 62
     1
370
    35
100
AcDbLine
 10
478.9451701429197
 20
-357.5780008447688
 30
0.0
 11
486.4830787521424
 21
-357.5780008447688
 31
0.0
  0
LINE
  5
224
330
205
100
AcDbEntity
  8
レイヤー 1
 62
     1
370
    35
100
AcDbLine
 10
478.9451701429197
 20
-362.14597917696
 30
0.0
 11
486.4830787521424
 21
-362.14597917696
 31
0.0
  0
LINE
  5
225
330
205
100
AcDbEntity
  8
レイヤー 1
 62
     1
370
    35
100
AcDbLine
 10
478.9451701429197
 20
-366.7138869535962
 30
0.0
 11
486.4830787521424
 21
-366.7138869535962
 31
0.0
  0
LINE
  5
226
330
205
100
AcDbEntity
  8
レイヤー 1
 62
     1
370
    35
100
AcDbLine
 10
478.9451701429197
 20
-371.2818652857874
 30
0.0
 11
486.4830787521424
 21
-371.2818652857874
 31
0.0
  0
ENDBLK
  5
208
330
205
100
AcDbEntity
  8
0
100
AcDbBlockEnd
  0
ENDSEC
  0
SECTION
  2
ENTITIES
  0
SPLINE
  5
79
330
70
100
AcDbEntity
  8
レイヤー 1
100
AcDbSpline
210
0.0
220
0.0
230
1.0
 70
     9
 71
     3
 72
    53
 73
    49
 74
     0
 42
0.0000000001
 43
0.0000000001
 40
0.0
 40
0.0
 40
0.0
 40
0.0
 40
1.0
 40
1.0
 40
1.0
 40
2.0
 40
2.0
 40
2.0
 40
3.0
 40
3.0
 40
3.0
 40
4.0
 40
4.0
 40
4.0
 40
5.0
 40
5.0
 40
5.0
 40
6.0
 40
6.0
 40
6.0
 40
7.0
 40
7.0
 40
7.0
 40
8.0
 40
8.0
 40
8.0
 40
9.0
 40
9.0
 40
9.0
 40
10.0
 40
10.0
 40
10.0
 40
11.0
 40
11.0
 40
11.0
 40
12.0
 40
12.0
 40
12.0
 40
13.0
 40
13.0
 40
13.0
 40
14.0
 40
14.0
 40
14.0
 40
15.0
 40
15.0
 40
15.0
 40
16.0
 40
16.0
 40
16.0
 40
16.0
 10
292.6100787887399
 20
-264.4472605065138
 30
0.0
 10
292.6100787887399
 20
-261.4666920250055
 30
0.0
 10
292.0477901101806
 20
-258.5186673624697
 30
0.0
 10
290.9506865876046
 20
-255.7473727652872
 30
0.0
 10
289.7620150354313
 20
-252.7447772568302
 30
0.0
 10
287.9711458056412
 20
-250.0182903598762
 30
0.0
 10
285.6877344398499
 20
-247.7347762241302
 30
0.0
 10
283.4041860474509
 20
-245.4511250617771
 30
0.0
 10
280.677630637194
 20
-243.6601188053811
 30
0.0
 10
277.6748981021317
 20
-242.4713444832538
 30
0.0
 10
274.9034664783421
 20
-241.3741381907233
 30
0.0
 10
271.9553047892004
 20
-240.8117761407435
 30
0.0
 10
268.9745992810857
 20
-240.8117761407435
 30
0.0
 10
265.9940307995768
 20
-240.8117761407435
 30
0.0
 10
263.0460061370417
 20
-241.3741039340719
 30
0.0
 10
260.2747115398586
 20
-242.471207456648
 30
0.0
 10
257.2721160314022
 20
-243.6598742226534
 30
0.0
 10
254.5456291344482
 20
-245.4507139819583
 30
0.0
 10
252.2621149987019
 20
-247.7341253477499
 30
0.0
 10
249.9785012115501
 20
-250.0176737401486
 30
0.0
 10
248.1874918366045
 20
-252.744263407057
 30
0.0
 10
246.9987175144773
 20
-255.7469616854684
 30
0.0
 10
245.9014769652947
 20
-258.5183933092567
 30
0.0
 10
245.3391227747799
 20
-261.4665549983984
 30
0.0
 10
245.3391227747799
 20
-264.4472605065138
 30
0.0
 10
245.3391227747799
 20
-267.4278248022846
 30
0.0
 10
245.9014427086432
 20
-270.3758536505578
 30
0.0
 10
246.9985462312199
 20
-273.1471482477415
 30
0.0
 10
248.1872208566898
 20
-276.1497437561973
 30
0.0
 10
249.9780527565302
 20
-278.8762306531513
 30
0.0
 10
252.261498378974
 20
-281.1597447888972
 30
0.0
 10
254.545046771372
 20
-283.443361694599
 30
0.0
 10
257.2716021816289
 20
-285.2343679509949
 30
0.0
 10
260.2743380953348
 20
-286.4231765297737
 30
0.0
 10
263.0457320838293
 20
-287.5203791441469
 30
0.0
 10
265.993893772971
 20
-288.0827400141679
 30
0.0
 10
268.9745992810857
 20
-288.0827400141679
 30
0.0
 10
271.955171436321
 20
-288.0827400141679
 30
0.0
 10
274.9031924251298
 20
-287.5204170789556
 30
0.0
 10
277.6744870223128
 20
-286.4233135563795
 30
0.0
 10
280.6770825307692
 20
-285.2346420042079
 30
0.0
 10
283.4035694277233
 20
-283.4438070310692
 30
0.0
 10
285.6870835634705
 20
-281.1603614086262
 30
0.0
 10
287.9707347258224
 20
-278.8768472728789
 30
0.0
 10
289.7617409822183
 20
-276.1502536405798
 30
0.0
 10
290.9505153043457
 20
-273.1475593275591
 30
0.0
 10
292.0477257781832
 20
-270.3761277037708
 30
0.0
 10
292.6100787887399
 20
-267.4279660146291
 30
0.0
 10
292.6100787887399
 20
-264.4472605065138
 30
0.0
  0
HATCH
  5
7A
330
70
100
AcDbEntity
  8
レイヤー 1
 62
    18
100
AcDbHatch
 10
0.0
 20
0.0
 30
0.0
210
0.0
220
0.0
230
1.0
  2
SOLID
 70
     1
 71
     1
 91
        1
 92
        1
 93
        1
 72
     4
 94
        3
 73
     0
 74
     0
 95
       53
 96
       49
 40
0.0
 40
0.0
 40
0.0
 40
0.0
 40
1.0
 40
1.0
 40
1.0
 40
2.0
 40
2.0
 40
2.0
 40
3.0
 40
3.0
 40
3.0
 40
4.0
 40
4.0
 40
4.0
 40
5.0
 40
5.0
 40
5.0
 40
6.0
 40
6.0
 40
6.0
 40
7.0
 40
7.0
 40
7.0
 40
8.0
 40
8.0
 40
8.0
 40
9.0
 40
9.0
 40
9.0
 40
10.0
 40
10.0
 40
10.0
 40
11.0
 40
11.0
 40
11.0
 40
12.0
 40
12.0
 40
12.0
 40
13.0
 40
13.0
 40
13.0
 40
14.0
 40
14.0
 40
14.0
 40
15.0
 40
15.0
 40
15.0
 40
16.0
 40
16.0
 40
16.0
 40
16.0
 10
292.6100787887399
 20
-264.4472605065138
 10
292.6100787887399
 20
-261.4666920250055
 10
292.0477901101806
 20
-258.5186673624697
 10
290.9506865876046
 20
-255.7473727652872
 10
289.7620150354313
 20
-252.7447772568302
 10
287.9711458056412
 20
-250.0182903598762
 10
285.6877344398499
 20
-247.7347762241302
 10
283.4041860474509
 20
-245.4511250617771
 10
280.677630637194
 20
-243.6601188053811
 10
277.6748981021317
 20
-242.4713444832538
 10
274.9034664783421
 20
-241.3741381907233
 10
271.9553047892004
 20
-240.8117761407435
 10
268.9745992810857
 20
-240.8117761407435
 10
265.9940307995768
 20
-240.8117761407435
 10
263.0460061370417
 20
-241.3741039340719
 10
260.2747115398586
 20
-242.471207456648
 10
257.2721160314022
 20
-243.6598742226534
 10
254.5456291344482
 20
-245.4507139819583
 10
252.2621149987019
 20
-247.7341253477499
 10
249.9785012115501
 20
-250.0176737401486
 10
248.1874918366045
 20
-252.744263407057
 10
246.9987175144773
 20
-255.7469616854684
 10
245.9014769652947
 20
-258.5183933092567
 10
245.3391227747799
 20
-261.4665549983984
 10
245.3391227747799
 20
-264.4472605065138
 10
245.3391227747799
 20
-267.4278248022846
 10
245.9014427086432
 20
-270.3758536505578
 10
246.9985462312199
 20
-273.1471482477415
 10
248.1872208566898
 20
-276.1497437561973
 10
249.9780527565302
 20
-278.8762306531513
 10
252.261498378974
 20
-281.1597447888972
 10
254.545046771372
 20
-283.443361694599
 10
257.2716021816289
 20
-285.2343679509949
 10
260.2743380953348
 20
-286.4231765297737
 10
263.0457320838293
 20
-287.5203791441469
 10
265.993893772971
 20
-288.0827400141679
 10
268.9745992810857
 20
-288.0827400141679
 10
271.955171436321
 20
-288.0827400141679
 10
274.9031924251298
 20
-287.5204170789556
 10
277.6744870223128
 20
-286.4233135563795
 10
280.6770825307692
 20
-285.2346420042079
 10
283.4035694277233
 20
-283.4438070310692
 10
285.6870835634705
 20
-281.1603614086262
 10
287.9707347258224
 20
-278.8768472728789
 10
289.7617409822183
 20
-276.1502536405798
 10
290.9505153043457
 20
-273.1475593275591
 10
292.0477257781832
 20
-270.3761277037708
 10
292.6100787887399
 20
-267.4279660146291
 10
292.6100787887399
 20
-264.4472605065138
 97
        1
330
79
 75
     2
 76
     1
 98
        1
 10
0.0
 20
0.0
  0
SPLINE
  5
7B
330
70
100
AcDbEntity
  8
レイヤー 1
 62
     1
370
    35
100
AcDbSpline
210
0.0
220
0.0
230
1.0
 70
     9
 71
     3
 72
    17
 73
    13
 74
     0
 42
0.0000000001
 43
0.0000000001
 40
0.0
 40
0.0
 40
0.0
 40
0.0
 40
1.0
 40
1.0
 40
1.0
 40
2.0
 40
2.0
 40
2.0
 40
3.0
 40
3.0
 40
3.0
 40
4.0
 40
4.0
 40
4.0
 40
4.0
 10
268.9010803493403
 20
-252.8189997644698
 30
0.0
 10
268.07265231492
 20
-252.8189997644698
 30
0.0
 10
267.4010692764976
 20
-253.4905475251149
 30
0.0
 10
267.4010692764976
 20
-254.3189755595355
 30
0.0
 10
267.4010692764976
 20
-255.1474035939561
 30
0.0
 10
268.07265231492
 20
-255.8189866323782
 30
0.0
 10
268.9010803493403
 20
-255.8189866323782
 30
0.0
 10
269.7295083837608
 20
-255.8189866323782
 30
0.0
 10
270.401056144406
 20
-255.1474035939561
 30
0.0
 10
270.401056144406
 20
-254.3189755595355
 30
0.0
 10
270.401056144406
 20
-253.4905475251149
 30
0.0
 10
269.7295083837608
 20
-252.8189997644698
 30
0.0
 10
268.9010803493403
 20
-252.8189997644698
 30
0.0
  0
SPLINE
  5
7C
330
70
100
AcDbEntity
  8
レイヤー 1
 62
     1
370
    35
100
AcDbSpline
210
0.0
220
0.0
230
1.0
 70
     9
 71
     3
 72
    17
 73
    13
 74
     0
 42
0.0000000001
 43
0.0000000001
 40
0.0
 40
0.0
 40
0.0
 40
0.0
 40
1.0
 40
1.0
 40
1.0
 40
2.0
 40
2.0
 40
2.0
 40
3.0
 40
3.0
 40
3.0
 40
4.0
 40
4.0
 40
4.0
 40
4.0
 10
277.8080526620604
 20
-268.0765281344095
 30
0.0
 10
276.9796559765719
 20
-268.0765281344095
 30
0.0
 10
276.3080729381499
 20
-268.7481154691953
 30
0.0
 10
276.3080729381499
 20
-269.576508225839
 30
0.0
 10
276.3080729381499
 20
-270.4049362602596
 30
0.0
 10
276.9796559765719
 20
-271.0765192986816
 30
0.0
 10
277.8080526620604
 20
-271.0765192986816
 30
0.0
 10
278.6364767676363
 20
-271.0765192986816
 30
0.0
 10
279.3080637727966
 20
-270.4049362602596
 30
0.0
 10
279.3080637727966
 20
-269.576508225839
 30
0.0
 10
279.3080637727966
 20
-268.7481154691953
 30
0.0
 10
278.6364767676363
 20
-268.0765281344095
 30
0.0
 10
277.8080526620604
 20
-268.0765281344095
 30
0.0
  0
SPLINE
  5
7D
330
70
100
AcDbEntity
  8
レイヤー 1
 62
     1
370
    35
100
AcDbSpline
210
0.0
220
0.0
230
1.0
 70
    11
 71
     3
 72
    17
 73
    13
 74
     0
 42
0.0000000001
 43
0.0000000001
 40
0.0
 40
0.0
 40
0.0
 40
0.0
 40
1.0
 40
1.0
 40
1.0
 40
2.0
 40
2.0
 40
2.0
 40
3.0
 40
3.0
 40
3.0
 40
4.0
 40
4.0
 40
4.0
 40
4.0
 10
260.1411497394914
 20
-268.161446039718
 30
0.0
 10
259.3127217050708
 20
-268.161446039718
 30
0.0
 10
258.6411386666487
 20
-268.83302907814
 30
0.0
 10
258.6411386666487
 20
-269.6614218347838
 30
0.0
 10
258.6411386666487
 20
-270.4898498692044
 30
0.0
 10
259.3127217050708
 20
-271.1614329076264
 30
0.0
 10
260.1411497394914
 20
-271.1614329076264
 30
0.0
 10
260.969577773912
 20
-271.1614329076264
 30
0.0
 10
261.641160812334
 20
-270.4898498692044
 30
0.0
 10
261.641160812334
 20
-269.6614218347838
 30
0.0
 10
261.641160812334
 20
-268.83302907814
 30
0.0
 10
260.969577773912
 20
-268.161446039718
 30
0.0
 10
260.1411497394914
 20
-268.161446039718
 30
0.0
  0
SPLINE
  5
7E
330
70
100
AcDbEntity
  8
レイヤー 1
 62
     1
370
    35
100
AcDbSpline
210
0.0
220
0.0
230
1.0
 70
     9
 71
     3
 72
    17
 73
    13
 74
     0
 42
0.0000000001
 43
0.0000000001
 40
0.0
 40
0.0
 40
0.0
 40
0.0
 40
1.0
 40
1.0
 40
1.0
 40
2.0
 40
2.0
 40
2.0
 40
3.0
 40
3.0
 40
3.0
 40
4.0
 40
4.0
 40
4.0
 40
4.0
 10
168.7719898482906
 20
-310.3924524874715
 30
0.0
 10
167.8883520930566
 20
-310.3924524874715
 30
0.0
 10
167.1720026897195
 20
-311.1088030247515
 30
0.0
 10
167.1720026897195
 20
-311.9924407799857
 30
0.0
 10
167.1720026897195
 20
-312.8761138129969
 30
0.0
 10
167.8883520930566
 20
-313.5924290725
 30
0.0
 10
168.7719898482906
 20
-313.5924290725
 30
0.0
 10
169.6556628813018
 20
-313.5924290725
 30
0.0
 10
170.3720134185817
 20
-312.8761138129969
 30
0.0
 10
170.3720134185817
 20
-311.9924407799857
 30
0.0
 10
170.3720134185817
 20
-311.1088030247515
 30
0.0
 10
169.6556628813018
 20
-310.3924524874715
 30
0.0
 10
168.7719898482906
 20
-310.3924524874715
 30
0.0
  0
SPLINE
  5
7F
330
70
100
AcDbEntity
  8
レイヤー 1
 62
     1
370
    35
100
AcDbSpline
210
0.0
220
0.0
230
1.0
 70
     9
 71
     3
 72
    17
 73
    13
 74
     0
 42
0.0000000001
 43
0.0000000001
 40
0.0
 40
0.0
 40
0.0
 40
0.0
 40
1.0
 40
1.0
 40
1.0
 40
2.0
 40
2.0
 40
2.0
 40
3.0
 40
3.0
 40
3.0
 40
4.0
 40
4.0
 40
4.0
 40
4.0
 10
161.8375078029818
 20
-300.1191725708441
 30
0.0
 10
160.5120511701303
 20
-300.1191725708441
 30
0.0
 10
159.4375253642104
 20
-301.1937016110401
 30
0.0
 10
159.4375253642104
 20
-302.5191582438915
 30
0.0
 10
159.4375253642104
 20
-303.8446501545199
 30
0.0
 10
160.5120511701303
 20
-304.9191759604398
 30
0.0
 10
161.8375078029818
 20
-304.9191759604398
 30
0.0
 10
163.1629997136101
 20
-304.9191759604398
 30
0.0
 10
164.23752551953
 20
-303.8446501545199
 30
0.0
 10
164.23752551953
 20
-302.5191582438915
 30
0.0
 10
164.23752551953
 20
-301.1937016110401
 30
0.0
 10
163.1629997136101
 20
-300.1191725708441
 30
0.0
 10
161.8375078029818
 20
-300.1191725708441
 30
0.0
  0
ELLIPSE
  5
80
330
70
100
AcDbEntity
  8
レイヤー 1
 62
     1
370
    35
100
AcDbEllipse
 10
376.569306762724
 20
-302.5191662547667
 30
0.0
 11
0.4133893779665722
 21
2.364140191132666
 31
0.0
210
0.0
220
0.0
230
1.0
 40
0.9999911240848394
 41
0.0
 42
6.283185307179586
  0
LWPOLYLINE
  5
81
330
70
100
AcDbEntity
  8
レイヤー 1
 62
     1
370
    35
100
AcDbPolyline
 90
        4
 70
     1
 43
0.0
 10
222.9129543524338
 20
-125.3520104029222
 10
226.6717304822626
 20
-123.9839277744364
 10
225.3720604311988
 20
-120.4131136562855
 10
221.61328430137
 20
-121.7811962847712
  0
LWPOLYLINE
  5
82
330
70
100
AcDbEntity
  8
レイヤー 1
 62
     1
370
    35
100
AcDbPolyline
 90
        4
 70
     1
 43
0.0
 10
215.3954352430423
 20
-128.0881635941831
 10
219.154178222605
 20
-126.7200930314075
 10
217.8545081715412
 20
-123.1492789132566
 10
214.0957651919788
 20
-124.5173494760325
  0
LWPOLYLINE
  5
83
330
70
100
AcDbEntity
  8
レイヤー 1
 62
     1
370
    35
100
AcDbPolyline
 90
        4
 70
     1
 43
0.0
 10
322.9701791002949
 20
-126.7200222429138
 10
326.7289220798576
 20
-128.0880928056894
 10
328.0285947730582
 20
-124.5172714283284
 10
324.2698517934954
 20
-123.1492008655528
  0
LWPOLYLINE
  5
84
330
70
100
AcDbEntity
  8
レイヤー 1
 62
     1
370
    35
100
AcDbPolyline
 90
        4
 70
     1
 43
0.0
 10
315.4526268406373
 20
-123.9838569859427
 10
319.2114076577952
 20
-125.3519413204764
 10
320.5110803509958
 20
-121.7811199431161
 10
316.7522995338379
 20
-120.4130356085823
  0
LWPOLYLINE
  5
85
330
70
100
AcDbEntity
  8
レイヤー 1
 62
     1
370
    35
100
AcDbPolyline
 90
        4
 70
     1
 43
0.0
 10
314.9023682569293
 20
-189.5900206704597
 10
318.661144386758
 20
-188.221938041975
 10
317.361474335693
 20
-184.6511239238237
 10
313.6026982058642
 20
-186.0192065523101
  0
LWPOLYLINE
  5
86
330
70
100
AcDbEntity
  8
レイヤー 1
 62
     1
370
    35
100
AcDbPolyline
 90
        4
 70
     1
 43
0.0
 10
307.3848535175416
 20
-192.3261722711695
 10
311.1435921270992
 20
-190.9581032989457
 10
309.8439220760354
 20
-187.3872891807948
 10
306.0851834664765
 20
-188.7553581530186
  0
LWPOLYLINE
  5
87
330
70
100
AcDbEntity
  8
レイヤー 1
 62
     1
370
    35
100
AcDbPolyline
 90
        4
 70
     1
 43
0.0
 10
226.2652941826873
 20
-190.9579493268532
 10
230.0240703125161
 20
-192.3260319553376
 10
231.3237403635799
 20
-188.7552178371876
 10
227.5649642337515
 20
-187.3871352087023
  0
LWPOLYLINE
  5
88
330
70
100
AcDbEntity
  8
レイヤー 1
 62
     1
370
    35
100
AcDbPolyline
 90
        4
 70
     1
 43
0.0
 10
218.7477750732958
 20
-188.2217961355919
 10
222.5065535948127
 20
-189.5898796345799
 10
223.8062236458764
 20
-186.0190655164302
 10
220.0474451243596
 20
-184.650982017441
  0
LWPOLYLINE
  5
89
330
70
100
AcDbEntity
  8
レイヤー 1
 62
     1
370
    35
100
AcDbPolyline
 90
        4
 70
     1
 43
0.0
 10
357.5488419766376
 20
-154.9398703422865
 10
357.5488419766376
 20
-150.9398996110009
 10
353.7488256846933
 20
-150.9398996110009
 10
353.7488256846933
 20
-154.9398703422865
  0
LWPOLYLINE
  5
8A
330
70
100
AcDbEntity
  8
レイヤー 1
 62
     1
370
    35
100
AcDbPolyline
 90
        4
 70
     1
 43
0.0
 10
357.5488419766376
 20
-162.9398823604117
 10
357.5488419766376
 20
-158.9398763513489
 10
353.7488256846933
 20
-158.9398763513489
 10
353.7488256846933
 20
-162.9398823604117
  0
LWPOLYLINE
  5
8B
330
70
100
AcDbEntity
  8
レイヤー 1
 62
     1
370
    35
100
AcDbPolyline
 90
        4
 70
     1
 43
0.0
 10
188.3755329592736
 20
-154.9398703422865
 10
188.3755329592736
 20
-150.9398996110009
 10
184.5755166673312
 20
-150.9398996110009
 10
184.5755166673312
 20
-154.9398703422865
  0
LWPOLYLINE
  5
8C
330
70
100
AcDbEntity
  8
レイヤー 1
 62
     1
370
    35
100
AcDbPolyline
 90
        4
 70
     1
 43
0.0
 10
188.3755329592736
 20
-162.9398823604117
 10
188.3755329592736
 20
-158.9398763513489
 10
184.5755166673312
 20
-158.9398763513489
 10
184.5755166673312
 20
-162.9398823604117
  0
LWPOLYLINE
  5
8D
330
70
100
AcDbEntity
  8
レイヤー 1
 62
     1
370
    35
100
AcDbPolyline
 90
        4
 70
     1
 43
0.0
 10
280.3649467235393
 20
-218.8657420447353
 10
280.3649467235393
 20
-214.8657713134497
 10
276.5649304315969
 20
-214.8657713134497
 10
276.5649304315969
 20
-218.8657420447353
  0
LWPOLYLINE
  5
8E
330
70
100
AcDbEntity
  8
レイヤー 1
 62
     1
370
    35
100
AcDbPolyline
 90
        4
 70
     1
 43
0.0
 10
280.3649467235393
 20
-226.8657540628602
 10
280.3649467235393
 20
-222.8657480537977
 10
276.5649304315969
 20
-222.8657480537977
 10
276.5649304315969
 20
-226.8657540628602
  0
LWPOLYLINE
  5
8F
330
70
100
AcDbEntity
  8
レイヤー 1
 62
     1
370
    35
100
AcDbPolyline
 90
        4
 70
     1
 43
0.0
 10
260.8439888882271
 20
-219.177809258996
 10
260.8439888882271
 20
-215.1778385277104
 10
257.0439725962847
 20
-215.1778385277104
 10
257.0439725962847
 20
-219.177809258996
  0
LWPOLYLINE
  5
90
330
70
100
AcDbEntity
  8
レイヤー 1
 62
     1
370
    35
100
AcDbPolyline
 90
        4
 70
     1
 43
0.0
 10
260.8439888882271
 20
-227.1778212771209
 10
260.8439888882271
 20
-223.1778152680585
 10
257.0439725962847
 20
-223.1778152680585
 10
257.0439725962847
 20
-227.1778212771209
  0
LWPOLYLINE
  5
91
330
70
100
AcDbEntity
  8
レイヤー 1
 62
     1
370
    35
100
AcDbPolyline
 90
        4
 70
     1
 43
0.0
 10
264.3309149103793
 20
-226.9972343372836
 10
264.3309149103793
 20
-222.5183677848824
 10
272.990198022796
 20
-222.5183677848824
 10
272.990198022796
 20
-226.9972343372836
  0
LWPOLYLINE
  5
92
330
70
100
AcDbEntity
  8
レイヤー 1
 62
     1
370
    35
100
AcDbPolyline
 90
        4
 70
     1
 43
0.0
 10
323.7408078391518
 20
-152.4189556843781
 10
323.7408078391518
 20
-147.9400891319766
 10
332.3997381737996
 20
-147.9400891319766
 10
332.3997381737996
 20
-152.4189556843781
  0
SPLINE
  5
93
330
70
100
AcDbEntity
  8
レイヤー 1
 62
     1
370
    35
100
AcDbSpline
210
0.0
220
0.0
230
1.0
 70
    11
 71
     3
 72
    17
 73
    13
 74
     0
 42
0.0000000001
 43
0.0000000001
 40
0.0
 40
0.0
 40
0.0
 40
0.0
 40
1.0
 40
1.0
 40
1.0
 40
2.0
 40
2.0
 40
2.0
 40
3.0
 40
3.0
 40
3.0
 40
4.0
 40
4.0
 40
4.0
 40
4.0
 10
299.3781162384736
 20
-167.7221907106268
 30
0.0
 10
299.3781162384736
 20
-168.1544845884869
 30
0.0
 10
299.7281423406548
 20
-168.5052868017597
 30
0.0
 10
300.1608242740606
 20
-168.5052868017597
 30
0.0
 10
300.5931181519208
 20
-168.5052868017597
 30
0.0
 10
300.9435323096476
 20
-168.1544845884869
 30
0.0
 10
300.9435323096476
 20
-167.7221907106268
 30
0.0
 10
300.9435323096476
 20
-167.2898968327666
 30
0.0
 10
300.5931181519208
 20
-166.9394826750401
 30
0.0
 10
300.1608242740606
 20
-166.9394826750401
 30
0.0
 10
299.7281423406548
 20
-166.9394826750401
 30
0.0
 10
299.3781162384736
 20
-167.2898968327666
 30
0.0
 10
299.3781162384736
 20
-167.7221907106268
 30
0.0
  0
LWPOLYLINE
  5
94
330
70
100
AcDbEntity
  8
レイヤー 1
 62
     1
370
    35
100
AcDbPolyline
 90
        4
 70
     1
 43
0.0
 10
217.3837271939504
 20
-148.0663835731996
 10
217.3837271939504
 20
-152.5452501256006
 10
208.7247968593026
 20
-152.5452501256006
 10
208.7247968593026
 20
-148.0663835731996
  0
SPLINE
  5
95
330
70
100
AcDbEntity
  8
レイヤー 1
 62
     1
370
    35
100
AcDbSpline
210
0.0
220
0.0
230
1.0
 70
    11
 71
     3
 72
    17
 73
    13
 74
     0
 42
0.0000000001
 43
0.0000000001
 40
0.0
 40
0.0
 40
0.0
 40
0.0
 40
1.0
 40
1.0
 40
1.0
 40
2.0
 40
2.0
 40
2.0
 40
3.0
 40
3.0
 40
3.0
 40
4.0
 40
4.0
 40
4.0
 40
4.0
 10
294.3448241446613
 20
-226.2855404665516
 30
0.0
 10
294.3448241446613
 20
-226.7178343444117
 30
0.0
 10
294.6952383023882
 20
-227.0682485021386
 30
0.0
 10
295.127920235794
 20
-227.0682485021386
 30
0.0
 10
295.5602141136542
 20
-227.0682485021386
 30
0.0
 10
295.9102402158354
 20
-226.7178343444117
 30
0.0
 10
295.9102402158354
 20
-226.2855404665516
 30
0.0
 10
295.9102402158354
 20
-225.8532465886914
 30
0.0
 10
295.5602141136542
 20
-225.5028324309646
 30
0.0
 10
295.127920235794
 20
-225.5028324309646
 30
0.0
 10
294.6952383023882
 20
-225.5028324309646
 30
0.0
 10
294.3448241446613
 20
-225.8532465886914
 30
0.0
 10
294.3448241446613
 20
-226.2855404665516
 30
0.0
  0
SPLINE
  5
96
330
70
100
AcDbEntity
  8
レイヤー 1
 62
     1
370
    35
100
AcDbSpline
210
0.0
220
0.0
230
1.0
 70
    11
 71
     3
 72
    17
 73
    13
 74
     0
 42
0.0000000001
 43
0.0000000001
 40
0.0
 40
0.0
 40
0.0
 40
0.0
 40
1.0
 40
1.0
 40
1.0
 40
2.0
 40
2.0
 40
2.0
 40
3.0
 40
3.0
 40
3.0
 40
4.0
 40
4.0
 40
4.0
 40
4.0
 10
236.520105727939
 20
-167.7221907106268
 30
0.0
 10
236.520105727939
 20
-168.1544845884869
 30
0.0
 10
236.8705198945175
 20
-168.5052868017597
 30
0.0
 10
237.3028137832981
 20
-168.5052868017597
 30
0.0
 10
237.735107672079
 20
-168.5052868017597
 30
0.0
 10
238.0855218386578
 20
-168.1544845884869
 30
0.0
 10
238.0855218386578
 20
-167.7221907106268
 30
0.0
 10
238.0855218386578
 20
-167.2898968327666
 30
0.0
 10
237.735107672079
 20
-166.9394826750401
 30
0.0
 10
237.3028137832981
 20
-166.9394826750401
 30
0.0
 10
236.8705198945175
 20
-166.9394826750401
 30
0.0
 10
236.520105727939
 20
-167.2898968327666
 30
0.0
 10
236.520105727939
 20
-167.7221907106268
 30
0.0
  0
SPLINE
  5
97
330
70
100
AcDbEntity
  8
レイヤー 1
 62
     1
370
    35
100
AcDbSpline
210
0.0
220
0.0
230
1.0
 70
    11
 71
     3
 72
    17
 73
    13
 74
     0
 42
0.0000000001
 43
0.0000000001
 40
0.0
 40
0.0
 40
0.0
 40
0.0
 40
1.0
 40
1.0
 40
1.0
 40
2.0
 40
2.0
 40
2.0
 40
3.0
 40
3.0
 40
3.0
 40
4.0
 40
4.0
 40
4.0
 40
4.0
 10
237.2316908795159
 20
-226.3100056048163
 30
0.0
 10
237.2316908795159
 20
-226.7422994826765
 30
0.0
 10
237.5821050372428
 20
-227.093101695949
 30
0.0
 10
238.0143989151029
 20
-227.093101695949
 30
0.0
 10
238.4466927929631
 20
-227.093101695949
 30
0.0
 10
238.79710695069
 20
-226.7422994826765
 30
0.0
 10
238.79710695069
 20
-226.3100056048163
 30
0.0
 10
238.79710695069
 20
-225.8777117269562
 30
0.0
 10
238.4466927929631
 20
-225.5272975692293
 30
0.0
 10
238.0143989151029
 20
-225.5272975692293
 30
0.0
 10
237.5821050372428
 20
-225.5272975692293
 30
0.0
 10
237.2316908795159
 20
-225.8777117269562
 30
0.0
 10
237.2316908795159
 20
-226.3100056048163
 30
0.0
  0
CIRCLE
  5
98
330
70
100
AcDbEntity
  8
レイヤー 1
 62
     1
370
    35
100
AcDbCircle
 10
178.999176115151
 20
-287.8421725262766
 30
0.0
 40
1.600008466486432
  0
CIRCLE
  5
99
330
70
100
AcDbEntity
  8
レイヤー 1
 62
     1
370
    35
100
AcDbCircle
 10
168.772007487179
 20
-311.9924407799857
 30
0.0
 40
1.599994730650347
  0
SPLINE
  5
9A
330
70
100
AcDbEntity
  8
レイヤー 1
 62
     1
370
    35
100
AcDbSpline
210
0.0
220
0.0
230
1.0
 70
    11
 71
     3
 72
    17
 73
    13
 74
     0
 42
0.0000000001
 43
0.0000000001
 40
0.0
 40
0.0
 40
0.0
 40
0.0
 40
1.0
 40
1.0
 40
1.0
 40
2.0
 40
2.0
 40
2.0
 40
3.0
 40
3.0
 40
3.0
 40
4.0
 40
4.0
 40
4.0
 40
4.0
 10
197.8948882719702
 20
-341.1153392036654
 30
0.0
 10
198.5197282560292
 20
-340.4904992196064
 30
0.0
 10
198.5197282560292
 20
-339.4774273010075
 30
0.0
 10
197.8948882719702
 20
-338.8525873169485
 30
0.0
 10
197.2700482879115
 20
-338.2277826106664
 30
0.0
 10
196.2570116470893
 20
-338.2277826106664
 30
0.0
 10
195.6321716630306
 20
-338.8525873169485
 30
0.0
 10
195.0073316789713
 20
-339.4774273010075
 30
0.0
 10
195.0073316789713
 20
-340.4904992196064
 30
0.0
 10
195.6321716630306
 20
-341.1153392036654
 30
0.0
 10
196.2570116470893
 20
-341.7401791877244
 30
0.0
 10
197.2700482879115
 20
-341.7401791877244
 30
0.0
 10
197.8948882719702
 20
-341.1153392036654
 30
0.0
  0
LINE
  5
9B
330
70
100
AcDbEntity
  8
レイヤー 1
 62
     1
370
    35
100
AcDbLine
 10
216.126372806846
 20
-329.8252511583662
 30
0.0
 11
216.1272900290452
 21
-329.8243339361674
 31
0.0
  0
CIRCLE
  5
9C
330
70
100
AcDbEntity
  8
レイヤー 1
 62
     1
370
    35
100
AcDbCircle
 10
222.0957254323332
 20
-331.6340826575278
 30
0.0
 40
1.500002947308128
  0
CIRCLE
  5
9D
330
70
100
AcDbEntity
  8
レイヤー 1
 62
     1
370
    35
100
AcDbCircle
 10
359.4076693083267
 20
-287.8421725262766
 30
0.0
 40
1.599996014103906
  0
CIRCLE
  5
9E
330
70
100
AcDbEntity
  8
レイヤー 1
 62
     1
370
    35
100
AcDbCircle
 10
369.6348319460751
 20
-311.9924407799857
 30
0.0
 40
1.599982258083738
  0
SPLINE
  5
9F
330
70
100
AcDbEntity
  8
レイヤー 1
 62
     1
370
    35
100
AcDbSpline
210
0.0
220
0.0
230
1.0
 70
    11
 71
     3
 72
    17
 73
    13
 74
     0
 42
0.0000000001
 43
0.0000000001
 40
0.0
 40
0.0
 40
0.0
 40
0.0
 40
1.0
 40
1.0
 40
1.0
 40
2.0
 40
2.0
 40
2.0
 40
3.0
 40
3.0
 40
3.0
 40
4.0
 40
4.0
 40
4.0
 40
4.0
 10
340.5119335223958
 20
-341.1153392036654
 30
0.0
 10
339.8870935383369
 20
-340.4904992196064
 30
0.0
 10
339.8870935383369
 20
-339.4774273010075
 30
0.0
 10
340.5119335223958
 20
-338.8525873169485
 30
0.0
 10
341.1367735064549
 20
-338.2277826106664
 30
0.0
 10
342.1498454250537
 20
-338.2277826106664
 30
0.0
 10
342.7746854091126
 20
-338.8525873169485
 30
0.0
 10
343.3995253931716
 20
-339.4774273010075
 30
0.0
 10
343.3995253931716
 20
-340.4904992196064
 30
0.0
 10
342.7746854091126
 20
-341.1153392036654
 30
0.0
 10
342.1498454250537
 20
-341.7401791877244
 30
0.0
 10
341.1367735064549
 20
-341.7401791877244
 30
0.0
 10
340.5119335223958
 20
-341.1153392036654
 30
0.0
  0
LINE
  5
A0
330
70
100
AcDbEntity
  8
レイヤー 1
 62
     1
370
    35
100
AcDbLine
 10
322.2804489875197
 20
-329.8252511583662
 30
0.0
 11
322.279531765321
 21
-329.8243339361674
 31
0.0
  0
SPLINE
  5
A1
330
70
100
AcDbEntity
  8
レイヤー 1
 62
     1
370
    35
100
AcDbSpline
210
0.0
220
0.0
230
1.0
 70
     9
 71
     3
 72
    17
 73
    13
 74
     0
 42
0.0000000001
 43
0.0000000001
 40
0.0
 40
0.0
 40
0.0
 40
0.0
 40
1.0
 40
1.0
 40
1.0
 40
2.0
 40
2.0
 40
2.0
 40
3.0
 40
3.0
 40
3.0
 40
4.0
 40
4.0
 40
4.0
 40
4.0
 10
315.2504748749221
 20
-332.6947455296037
 30
0.0
 10
314.6646825151475
 20
-332.1089580445484
 30
0.0
 10
314.6646825151475
 20
-331.1592097354452
 30
0.0
 10
315.2504748749221
 20
-330.5734197854519
 30
0.0
 10
315.8362574852581
 20
-329.9876347653345
 30
0.0
 10
316.7860057943614
 20
-329.9876347653345
 30
0.0
 10
317.3717580016397
 20
-330.5734197854519
 30
0.0
 10
317.9575454866951
 20
-331.1592097354452
 30
0.0
 10
317.9575454866951
 20
-332.1089580445484
 30
0.0
 10
317.3717580016397
 20
-332.6947455296037
 30
0.0
 10
316.7860057943614
 20
-333.280533014659
 30
0.0
 10
315.8362574852581
 20
-333.280533014659
 30
0.0
 10
315.2504748749221
 20
-332.6947455296037
 30
0.0
  0
SPLINE
  5
A2
330
70
100
AcDbEntity
  8
レイヤー 1
 62
     1
370
    35
100
AcDbSpline
210
0.0
220
0.0
230
1.0
 70
    24
 71
     3
 72
     8
 73
     4
 74
     0
 42
0.0000000001
 43
0.0000000001
 40
0.0
 40
0.0
 40
0.0
 40
0.0
 40
1.0
 40
1.0
 40
1.0
 40
1.0
 10
357.6487486407535
 20
-162.9398823604117
 30
0.0
 10
356.3194820079999
 20
-162.9398823604117
 30
0.0
 10
354.9902153752463
 20
-162.9398823604117
 30
0.0
 10
353.6609487424934
 20
-162.9398823604117
 30
0.0
  0
INSERT
  5
A4
330
70
100
AcDbEntity
  8
レイヤー 1
100
AcDbBlockReference
  2
Block_0
 10
0.0
 20
0.0
 30
0.0
  0
LWPOLYLINE
  5
A9
330
70
100
AcDbEntity
  8
レイヤー 1
 62
     1
370
    35
100
AcDbPolyline
 90
        4
 70
     1
 43
0.0
 10
386.532124652973
 20
-300.9191725651099
 10
386.532124652973
 20
-296.9192018338243
 10
382.7321083610319
 20
-296.9192018338243
 10
382.7321083610319
 20
-300.9191725651099
  0
LWPOLYLINE
  5
AA
330
70
100
AcDbEntity
  8
レイヤー 1
 62
     1
370
    35
100
AcDbPolyline
 90
        4
 70
     1
 43
0.0
 10
386.532124652973
 20
-308.9191845832348
 10
386.532124652973
 20
-304.9191785741724
 10
382.7321083610319
 20
-304.9191785741724
 10
382.7321083610319
 20
-308.9191845832348
  0
LWPOLYLINE
  5
AB
330
70
100
AcDbEntity
  8
レイヤー 1
 62
     1
370
    35
100
AcDbPolyline
 90
        4
 70
     1
 43
0.0
 10
386.532124652973
 20
-312.9191553145204
 10
386.532124652973
 20
-308.9191845832348
 10
382.7321083610319
 20
-308.9191845832348
 10
382.7321083610319
 20
-312.9191553145204
  0
LWPOLYLINE
  5
AC
330
70
100
AcDbEntity
  8
レイヤー 1
 62
     1
370
    35
100
AcDbPolyline
 90
        4
 70
     1
 43
0.0
 10
386.532124652973
 20
-320.9191673326453
 10
386.532124652973
 20
-316.9191613235828
 10
382.7321083610319
 20
-316.9191613235828
 10
382.7321083610319
 20
-320.9191673326453
  0
SPLINE
  5
AD
330
70
100
AcDbEntity
  8
レイヤー 1
 62
     1
370
    35
100
AcDbSpline
210
0.0
220
0.0
230
1.0
 70
    24
 71
     3
 72
     8
 73
     4
 74
     0
 42
0.0000000001
 43
0.0000000001
 40
0.0
 40
0.0
 40
0.0
 40
0.0
 40
1.0
 40
1.0
 40
1.0
 40
1.0
 10
386.6320313170921
 20
-320.9191673326453
 30
0.0
 10
385.3027646843391
 20
-320.9191673326453
 30
0.0
 10
383.9734980515816
 20
-320.9191673326453
 30
0.0
 10
382.6442314188287
 20
-320.9191673326453
 30
0.0
  0
INSERT
  5
AF
330
70
100
AcDbEntity
  8
レイヤー 1
100
AcDbBlockReference
  2
Block_1
 10
0.0
 20
0.0
 30
0.0
  0
INSERT
  5
B6
330
70
100
AcDbEntity
  8
レイヤー 1
100
AcDbBlockReference
  2
Block_2
 10
0.0
 20
0.0
 30
0.0
  0
INSERT
  5
BD
330
70
100
AcDbEntity
  8
レイヤー 1
100
AcDbBlockReference
  2
Block_3
 10
0.0
 20
0.0
 30
0.0
  0
INSERT
  5
C4
330
70
100
AcDbEntity
  8
レイヤー 1
100
AcDbBlockReference
  2
Block_4
 10
0.0
 20
0.0
 30
0.0
  0
INSERT
  5
CB
330
70
100
AcDbEntity
  8
レイヤー 1
100
AcDbBlockReference
  2
Block_5
 10
0.0
 20
0.0
 30
0.0
  0
INSERT
  5
D2
330
70
100
AcDbEntity
  8
レイヤー 1
100
AcDbBlockReference
  2
Block_6
 10
0.0
 20
0.0
 30
0.0
  0
INSERT
  5
DA
330
70
100
AcDbEntity
  8
レイヤー 1
100
AcDbBlockReference
  2
Block_7
 10
0.0
 20
0.0
 30
0.0
  0
INSERT
  5
E0
330
70
100
AcDbEntity
  8
レイヤー 1
100
AcDbBlockReference
  2
Block_8
 10
0.0
 20
0.0
 30
0.0
  0
INSERT
  5
E8
330
70
100
AcDbEntity
  8
レイヤー 1
100
AcDbBlockReference
  2
Block_9
 10
0.0
 20
0.0
 30
0.0
  0
ELLIPSE
  5
ED
330
70
100
AcDbEntity
  8
レイヤー 1
 62
     1
370
    35
100
AcDbEllipse
 10
269.2034029711893
 20
-264.0944916295858
 30
0.0
 11
5.257475870324613
 21
1.43450354484223
 31
0.0
210
0.0
220
0.0
230
1.0
 40
0.9999968135727641
 41
0.0
 42
6.283185307179586
  0
SPLINE
  5
EE
330
70
100
AcDbEntity
  8
レイヤー 1
 62
     1
370
    35
100
AcDbSpline
210
0.0
220
0.0
230
1.0
 70
     9
 71
     3
 72
    53
 73
    49
 74
     0
 42
0.0000000001
 43
0.0000000001
 40
0.0
 40
0.0
 40
0.0
 40
0.0
 40
1.0
 40
1.0
 40
1.0
 40
2.0
 40
2.0
 40
2.0
 40
3.0
 40
3.0
 40
3.0
 40
4.0
 40
4.0
 40
4.0
 40
5.0
 40
5.0
 40
5.0
 40
6.0
 40
6.0
 40
6.0
 40
7.0
 40
7.0
 40
7.0
 40
8.0
 40
8.0
 40
8.0
 40
9.0
 40
9.0
 40
9.0
 40
10.0
 40
10.0
 40
10.0
 40
11.0
 40
11.0
 40
11.0
 40
12.0
 40
12.0
 40
12.0
 40
13.0
 40
13.0
 40
13.0
 40
14.0
 40
14.0
 40
14.0
 40
15.0
 40
15.0
 40
15.0
 40
16.0
 40
16.0
 40
16.0
 40
16.0
 10
496.1649962070569
 20
-419.0469601808679
 30
0.0
 10
496.1649962070569
 20
-416.0663916993584
 30
0.0
 10
495.6027075284967
 20
-413.1183670368226
 30
0.0
 10
494.5056040059212
 20
-410.3470724396395
 30
0.0
 10
493.3169324537484
 20
-407.3444769311818
 30
0.0
 10
491.5260632239582
 20
-404.6179900342291
 30
0.0
 10
489.2426518581666
 20
-402.3344758984812
 30
0.0
 10
486.9591034657672
 20
-400.0508247361301
 30
0.0
 10
484.2325480555103
 20
-398.2598184797328
 30
0.0
 10
481.2298155204493
 20
-397.0710441576074
 30
0.0
 10
478.4583838966585
 20
-395.9738378650763
 30
0.0
 10
475.5102222075187
 20
-395.4114758150952
 30
0.0
 10
472.5295166994008
 20
-395.4114758150952
 30
0.0
 10
469.5489482178951
 20
-395.4114758150952
 30
0.0
 10
466.6009235553594
 20
-395.9738036084242
 30
0.0
 10
463.8296289581756
 20
-397.0709071309996
 30
0.0
 10
460.8270334497185
 20
-398.2595738970051
 30
0.0
 10
458.1005465527652
 20
-400.0504136563105
 30
0.0
 10
455.817032417018
 20
-402.3338250221021
 30
0.0
 10
453.5334186298671
 20
-404.6173734145015
 30
0.0
 10
451.742409254921
 20
-407.3439630814105
 30
0.0
 10
450.5536349327955
 20
-410.34666135982
 30
0.0
 10
449.4563943836129
 20
-413.1180929836109
 30
0.0
 10
448.8940401930975
 20
-416.0662546727507
 30
0.0
 10
448.8940401930975
 20
-419.0469601808679
 30
0.0
 10
448.8940401930975
 20
-422.0275244766376
 30
0.0
 10
449.4563601269608
 20
-424.9755533249101
 30
0.0
 10
450.5534636495363
 20
-427.7468479220932
 30
0.0
 10
451.7421382750068
 20
-430.7494434305502
 30
0.0
 10
453.5329701748472
 20
-433.4759303275036
 30
0.0
 10
455.8164157972909
 20
-435.7594444632509
 30
0.0
 10
458.0999641896897
 20
-438.0430613689505
 30
0.0
 10
460.8265195999472
 20
-439.8340676253479
 30
0.0
 10
463.8292555136531
 20
-441.0228762041254
 30
0.0
 10
466.6006495021476
 20
-442.1200788184998
 30
0.0
 10
469.5488111912873
 20
-442.6824396885202
 30
0.0
 10
472.5295166994008
 20
-442.6824396885202
 30
0.0
 10
475.510088854636
 20
-442.6824396885202
 30
0.0
 10
478.4581098434467
 20
-442.1201167533086
 30
0.0
 10
481.2294044406298
 20
-441.0230132307331
 30
0.0
 10
484.2319999490869
 20
-439.8343416785595
 30
0.0
 10
486.9584868460402
 20
-438.0435067054222
 30
0.0
 10
489.2420009817875
 20
-435.7600610829784
 30
0.0
 10
491.5256521441387
 20
-433.4765469472312
 30
0.0
 10
493.3166584005366
 20
-430.749953314934
 30
0.0
 10
494.505432722662
 20
-427.7472590019127
 30
0.0
 10
495.602643196499
 20
-424.975827378125
 30
0.0
 10
496.1649962070569
 20
-422.027665688982
 30
0.0
 10
496.1649962070569
 20
-419.0469601808679
 30
0.0
  0
SPLINE
  5
EF
330
70
100
AcDbEntity
  8
レイヤー 1
 62
     1
370
    35
100
AcDbSpline
210
0.0
220
0.0
230
1.0
 70
     9
 71
     3
 72
    17
 73
    13
 74
     0
 42
0.0000000001
 43
0.0000000001
 40
0.0
 40
0.0
 40
0.0
 40
0.0
 40
1.0
 40
1.0
 40
1.0
 40
2.0
 40
2.0
 40
2.0
 40
3.0
 40
3.0
 40
3.0
 40
4.0
 40
4.0
 40
4.0
 40
4.0
 10
472.4559977676573
 20
-407.4186994388226
 30
0.0
 10
471.627569733236
 20
-407.4186994388226
 30
0.0
 10
470.9559866948133
 20
-408.0902471994672
 30
0.0
 10
470.9559866948133
 20
-408.9186752338891
 30
0.0
 10
470.9559866948133
 20
-409.747103268311
 30
0.0
 10
471.627569733236
 20
-410.4186863067298
 30
0.0
 10
472.4559977676573
 20
-410.4186863067298
 30
0.0
 10
473.2844258020791
 20
-410.4186863067298
 30
0.0
 10
473.9559735627243
 20
-409.747103268311
 30
0.0
 10
473.9559735627243
 20
-408.9186752338891
 30
0.0
 10
473.9559735627243
 20
-408.0902471994672
 30
0.0
 10
473.2844258020791
 20
-407.4186994388226
 30
0.0
 10
472.4559977676573
 20
-407.4186994388226
 30
0.0
  0
SPLINE
  5
F0
330
70
100
AcDbEntity
  8
レイヤー 1
 62
     1
370
    35
100
AcDbSpline
210
0.0
220
0.0
230
1.0
 70
     9
 71
     3
 72
    17
 73
    13
 74
     0
 42
0.0000000001
 43
0.0000000001
 40
0.0
 40
0.0
 40
0.0
 40
0.0
 40
1.0
 40
1.0
 40
1.0
 40
2.0
 40
2.0
 40
2.0
 40
3.0
 40
3.0
 40
3.0
 40
4.0
 40
4.0
 40
4.0
 40
4.0
 10
481.3629700803767
 20
-422.6762278087618
 30
0.0
 10
480.534573394889
 20
-422.6762278087618
 30
0.0
 10
479.8629903564669
 20
-423.3478151435482
 30
0.0
 10
479.8629903564669
 20
-424.1762079001926
 30
0.0
 10
479.8629903564669
 20
-425.0046359346137
 30
0.0
 10
480.534573394889
 20
-425.6762189730332
 30
0.0
 10
481.3629700803767
 20
-425.6762189730332
 30
0.0
 10
482.1913941859546
 20
-425.6762189730332
 30
0.0
 10
482.862981191113
 20
-425.0046359346137
 30
0.0
 10
482.862981191113
 20
-424.1762079001926
 30
0.0
 10
482.862981191113
 20
-423.3478151435482
 30
0.0
 10
482.1913941859546
 20
-422.6762278087618
 30
0.0
 10
481.3629700803767
 20
-422.6762278087618
 30
0.0
  0
SPLINE
  5
F1
330
70
100
AcDbEntity
  8
レイヤー 1
 62
     1
370
    35
100
AcDbSpline
210
0.0
220
0.0
230
1.0
 70
     9
 71
     3
 72
    17
 73
    13
 74
     0
 42
0.0000000001
 43
0.0000000001
 40
0.0
 40
0.0
 40
0.0
 40
0.0
 40
1.0
 40
1.0
 40
1.0
 40
2.0
 40
2.0
 40
2.0
 40
3.0
 40
3.0
 40
3.0
 40
4.0
 40
4.0
 40
4.0
 40
4.0
 10
463.6960671578084
 20
-422.7611457140709
 30
0.0
 10
462.8676391233865
 20
-422.7611457140709
 30
0.0
 10
462.1960560849677
 20
-423.4327287524936
 30
0.0
 10
462.1960560849677
 20
-424.2611215091373
 30
0.0
 10
462.1960560849677
 20
-425.0895495435592
 30
0.0
 10
462.8676391233865
 20
-425.761132581978
 30
0.0
 10
463.6960671578084
 20
-425.761132581978
 30
0.0
 10
464.5244951922296
 20
-425.761132581978
 30
0.0
 10
465.1960782306523
 20
-425.0895495435592
 30
0.0
 10
465.1960782306523
 20
-424.2611215091373
 30
0.0
 10
465.1960782306523
 20
-423.4327287524936
 30
0.0
 10
464.5244951922296
 20
-422.7611457140709
 30
0.0
 10
463.6960671578084
 20
-422.7611457140709
 30
0.0
  0
ELLIPSE
  5
F2
330
70
100
AcDbEntity
  8
レイヤー 1
 62
     1
370
    35
100
AcDbEllipse
 10
472.7583203895064
 20
-418.694191303939
 30
0.0
 11
5.257475878150483
 21
1.434503516164668
 31
0.0
210
0.0
220
0.0
230
1.0
 40
0.9999968135723575
 41
0.0
 42
6.283185307179586
  0
LWPOLYLINE
  5
F3
330
70
100
AcDbEntity
  8
レイヤー 1
 62
     1
370
    35
100
AcDbPolyline
 90
       40
 70
     0
 43
0.0
 10
156.1229635162563
 20
-431.8631686163586
 10
156.1229635162563
 20
-411.1160345685921
 10
152.1229574061455
 20
-411.1160345685921
 10
152.1229574061455
 20
-388.0051081433929
 10
156.1229635162563
 20
-388.0051081433929
 10
156.1229635162563
 20
-364.8941778996666
 10
152.1229574061455
 20
-364.8941778996666
 10
152.1229574061455
 20
-341.783282933721
 10
156.1229635162563
 20
-341.783282933721
 10
156.1229635162563
 20
-318.6723526899966
 10
152.1229574061455
 20
-318.6723526899966
 10
152.1229574061455
 20
-295.5614224462722
 10
156.1229635162563
 20
-295.5614224462722
 10
156.1229635162563
 20
-272.4505274803247
 10
156.1229635162563
 20
-272.4505274803247
 10
152.1229574061455
 20
-272.4505274803247
 10
152.1229574061455
 20
-249.3395972366003
 10
156.1229635162563
 20
-249.3395972366003
 10
156.1229635162563
 20
-248.9723653237722
 10
156.1229635162563
 20
-225.8614350800472
 10
152.1229574061455
 20
-225.8614350800472
 10
152.1229574061455
 20
-202.7505048363231
 10
156.1229635162563
 20
-202.7505048363231
 10
156.1229635162563
 20
-179.6396060518511
 10
152.1229574061455
 20
-179.6396060518511
 10
152.1229574061455
 20
-156.5286796266512
 10
156.1229635162563
 20
-156.5286796266512
 10
156.1229635162563
 20
-133.4177493829268
 10
152.1229574061455
 20
-133.4177493829268
 10
152.1229574061455
 20
-110.3068544169793
 10
156.1229635162563
 20
-110.3068544169793
 10
156.1229635162563
 20
-87.19592417325529
 10
152.1229574061455
 20
-87.19592417325529
 10
152.1229574061455
 20
-64.08499392953058
 10
156.1229635162563
 20
-64.08499392953058
 10
156.1229635162563
 20
-40.97409896358308
 10
156.1229635162563
 20
-40.97409896358308
 10
152.1229574061455
 20
-40.97409896358308
 10
152.1229574061455
 20
-17.8631687198587
 10
156.1229635162563
 20
-17.8631687198587
  0
LWPOLYLINE
  5
F4
330
70
100
AcDbEntity
  8
レイヤー 1
 62
     1
370
    35
100
AcDbPolyline
 90
       44
 70
     0
 43
0.0
 10
156.1229604607011
 20
-17.8631687198587
 10
412.1229603967012
 20
-17.8631687198587
 10
412.4225245168647
 20
-17.86316871976918
 10
416.4225306269761
 20
-17.86316871994853
 10
416.4225306259391
 20
-40.97409896367291
 10
412.4225245158276
 20
-40.97409896349389
 10
412.4225245158276
 20
-40.97409896349389
 10
412.4225245147907
 20
-64.08499392944107
 10
416.4225306249015
 20
-64.08499392962042
 10
416.4225306238645
 20
-87.1959241733448
 10
412.4225245137536
 20
-87.19592417316546
 10
412.4225245127161
 20
-110.3068544168898
 10
416.4225306228275
 20
-110.3068544170695
 10
416.4225306217867
 20
-133.4177493830167
 10
412.4225245116759
 20
-133.4177493828373
 10
412.4225245106383
 20
-156.5286796265617
 10
416.4225306207497
 20
-156.5286796267411
 10
416.4225306197121
 20
-179.639606051941
 10
412.4225245096012
 20
-179.6396060517616
 10
412.4225245085643
 20
-202.7505048362336
 10
416.4225306186751
 20
-202.7505048364126
 10
416.4225306176381
 20
-225.861435080137
 10
412.4225245075266
 20
-225.861435079958
 10
412.4225245064897
 20
-248.9723653236824
 10
412.4225245064724
 20
-249.3395972365105
 10
416.4225306165831
 20
-249.3395972366902
 10
416.4225306155461
 20
-272.4505274804146
 10
412.4225245054347
 20
-272.4505274802349
 10
412.4225245054347
 20
-272.4505274802349
 10
412.4225245043978
 20
-295.5614224461824
 10
416.4225306145085
 20
-295.561422446362
 10
416.4225306134715
 20
-318.6723526900864
 10
412.4225245033608
 20
-318.6723526899068
 10
412.4225245023231
 20
-341.7832829336311
 10
416.4225306124307
 20
-341.7832829338108
 10
416.4225306113937
 20
-364.8941778997583
 10
412.4225245012829
 20
-364.8941778995787
 10
412.4225245002453
 20
-388.0051081433043
 10
416.4225306103567
 20
-388.0051081434846
 10
416.4225306093197
 20
-411.1160345686839
 10
412.4225244992083
 20
-411.1160345685042
 10
412.4225244982772
 20
-431.86316861627
 10
412.1229603967012
 20
-431.8631686163586
 10
156.1229604607011
 20
-431.8631686163586
  0
INSERT
  5
F6
330
70
100
AcDbEntity
  8
レイヤー 1
100
AcDbBlockReference
  2
Block_10
 10
0.0
 20
0.0
 30
0.0
  0
INSERT
  5
106
330
70
100
AcDbEntity
  8
レイヤー 1
100
AcDbBlockReference
  2
Block_11
 10
0.0
 20
0.0
 30
0.0
  0
LWPOLYLINE
  5
115
330
70
100
AcDbEntity
  8
レイヤー 1
 62
     1
370
    35
100
AcDbPolyline
 90
       16
 70
     1
 43
0.0
 10
430.8375919055836
 20
-223.5773316005868
 10
427.037575517645
 20
-223.5773328424127
 10
427.0375768248238
 20
-227.5773329076899
 10
430.837593212763
 20
-227.5773316658644
 10
430.8376452084465
 20
-386.6853365598001
 10
427.0376288205079
 20
-386.685337801627
 10
427.0376301276765
 20
-390.6853086339609
 10
430.8376465156158
 20
-390.6853073921334
 10
430.8376478227984
 20
-394.6853135022448
 10
427.0376314348591
 20
-394.6853147440717
 10
427.0376327420424
 20
-398.6853208541825
 10
440.9375710718972
 20
-398.6853163117529
 10
440.9375112331486
 20
-215.5773456158514
 10
427.03757290329
 20
-215.5773501582801
 10
427.0375742104585
 20
-219.5773208895657
 10
430.8375905983972
 20
-219.5773196477394
  0
LWPOLYLINE
  5
116
330
70
100
AcDbEntity
  8
レイヤー 1
 62
     1
370
    35
100
AcDbPolyline
 90
       16
 70
     1
 43
0.0
 10
430.8375272056986
 20
-25.59417320778382
 10
427.0375108177561
 20
-25.59417444960975
 10
427.0375121249387
 20
-29.59418045867188
 10
430.8375285128773
 20
-29.59417921684596
 10
430.8375840358944
 20
-199.4959037711717
 10
427.0375676479558
 20
-199.4959050129977
 10
427.0375689551243
 20
-203.4958757442829
 10
430.8375853430637
 20
-203.495874502457
 10
430.8375866502463
 20
-207.4958805115195
 10
427.037570262307
 20
-207.4958817533457
 10
427.0375715694896
 20
-211.4958877624078
 10
440.937509899345
 20
-211.4958832199785
 10
440.9374465332629
 20
-17.59419390704635
 10
427.0375082034043
 20
-17.59419844947503
 10
427.0375095105767
 20
-21.59416928180831
 10
430.8375258985153
 20
-21.59416803998239
  0
INSERT
  5
118
330
70
100
AcDbEntity
  8
レイヤー 1
100
AcDbBlockReference
  2
Block_12
 10
0.0
 20
0.0
 30
0.0
  0
INSERT
  5
13A
330
70
100
AcDbEntity
  8
レイヤー 1
100
AcDbBlockReference
  2
Block_13
 10
0.0
 20
0.0
 30
0.0
  0
INSERT
  5
15C
330
70
100
AcDbEntity
  8
レイヤー 1
100
AcDbBlockReference
  2
Block_14
 10
0.0
 20
0.0
 30
0.0
  0
INSERT
  5
17E
330
70
100
AcDbEntity
  8
レイヤー 1
100
AcDbBlockReference
  2
Block_15
 10
0.0
 20
0.0
 30
0.0
  0
INSERT
  5
1A0
330
70
100
AcDbEntity
  8
レイヤー 1
100
AcDbBlockReference
  2
Block_16
 10
0.0
 20
0.0
 30
0.0
  0
INSERT
  5
1C2
330
70
100
AcDbEntity
  8
レイヤー 1
100
AcDbBlockReference
  2
Block_17
 10
0.0
 20
0.0
 30
0.0
  0
INSERT
  5
1E4
330
70
100
AcDbEntity
  8
レイヤー 1
100
AcDbBlockReference
  2
Block_18
 10
0.0
 20
0.0
 30
0.0
  0
INSERT
  5
206
330
70
100
AcDbEntity
  8
レイヤー 1
100
AcDbBlockReference
  2
Block_19
 10
0.0
 20
0.0
 30
0.0
  0
ENDSEC
  0
SECTION
  2
OBJECTS
  0
DICTIONARY
  5
C
330
0
100
AcDbDictionary
281
     1
  3
ACAD_COLOR
350
63
  3
ACAD_DETAILVIEWSTYLE
350
6A
  3
ACAD_GROUP
350
D
  3
ACAD_LAYOUT
350
62
  3
ACAD_MATERIAL
350
10
  3
ACAD_MLEADERSTYLE
350
66
  3
ACAD_MLINESTYLE
350
5F
  3
ACAD_PLOTSETTINGS
350
61
  3
ACAD_PLOTSTYLENAME
350
E
  3
ACAD_SCALELIST
350
42
  3
ACAD_SECTIONVIEWSTYLE
350
68
  3
ACAD_TABLESTYLE
350
64
  3
ACAD_VISUALSTYLE
350
29
  3
ACDB_RECOMPOSE_DATA
350
238
  3
AcDbVariableDictionary
350
227
  0
DICTIONARY
  5
63
102
{ACAD_REACTORS
330
C
102
}
330
C
100
AcDbDictionary
281
     1
  0
DICTIONARY
  5
6A
102
{ACAD_REACTORS
330
C
102
}
330
C
100
AcDbDictionary
281
     1
  3
Imperial24
350
6B
  0
DICTIONARY
  5
D
102
{ACAD_REACTORS
330
C
102
}
330
C
100
AcDbDictionary
281
     1
  0
DICTIONARY
  5
62
102
{ACAD_REACTORS
330
C
102
}
330
C
100
AcDbDictionary
281
     1
  3
Layout1
350
6F
  3
Layout2
350
77
  3
Model
350
73
  0
DICTIONARY
  5
10
102
{ACAD_REACTORS
330
C
102
}
330
C
100
AcDbDictionary
281
     1
  3
ByBlock
350
19
  3
ByLayer
350
11
  3
Global
350
21
  0
DICTIONARY
  5
66
102
{ACAD_REACTORS
330
C
102
}
330
C
100
AcDbDictionary
281
     1
  3
Standard
350
67
  0
DICTIONARY
  5
5F
102
{ACAD_REACTORS
330
C
102
}
330
C
100
AcDbDictionary
281
     1
  3
Standard
350
60
  0
DICTIONARY
  5
61
102
{ACAD_REACTORS
330
C
102
}
330
C
100
AcDbDictionary
281
     1
  0
ACDBDICTIONARYWDFLT
  5
E
102
{ACAD_REACTORS
330
C
102
}
330
C
100
AcDbDictionary
281
     1
  3
Normal
350
F
100
AcDbDictionaryWithDefault
340
F
  0
DICTIONARY
  5
42
102
{ACAD_REACTORS
330
C
102
}
330
C
100
AcDbDictionary
281
     1
  3
A0
350
43
  3
A1
350
44
  3
A2
350
45
  3
A3
350
46
  3
A4
350
47
  3
A5
350
48
  3
A6
350
49
  3
A7
350
4A
  3
A8
350
4B
  3
A9
350
4C
  3
B0
350
4D
  3
B1
350
4E
  3
B2
350
4F
  3
B3
350
50
  3
B4
350
51
  3
B5
350
52
  3
B6
350
53
  0
DICTIONARY
  5
68
102
{ACAD_REACTORS
330
C
102
}
330
C
100
AcDbDictionary
281
     1
  3
Imperial24
350
69
  0
DICTIONARY
  5
64
102
{ACAD_REACTORS
330
C
102
}
330
C
100
AcDbDictionary
281
     1
  3
Standard
350
65
  0
DICTIONARY
  5
29
102
{ACAD_REACTORS
330
C
102
}
330
C
100
AcDbDictionary
281
     1
  3
2dWireframe
350
2F
  3
Basic
350
2E
  3
Brighten
350
35
  3
ColorChange
350
39
  3
Conceptual
350
32
  3
Dim
350
34
  3
EdgeColorOff
350
41
  3
Facepattern
350
38
  3
Flat
350
2A
  3
FlatWithEdges
350
2B
  3
Gouraud
350
2C
  3
GouraudWithEdges
350
2D
  3
Hidden
350
31
  3
JitterOff
350
3F
  3
Linepattern
350
37
  3
OverhangOff
350
40
  3
Realistic
350
33
  3
Shaded
350
3E
  3
Shaded with edges
350
3D
  3
Shades of Gray
350
3A
  3
Sketchy
350
3B
  3
Thicken
350
36
  3
Wireframe
350
30
  3
X-Ray
350
3C
  0
XRECORD
  5
238
102
{ACAD_REACTORS
330
C
102
}
330
C
100
AcDbXrecord
280
     1
 90
        1
330
65
  0
DICTIONARY
  5
227
102
{ACAD_REACTORS
330
C
102
}
330
C
100
AcDbDictionary
281
     1
  3
CANNOSCALE
350
22D
  3
CMLEADERSTYLE
350
229
  3
CTABLESTYLE
350
228
  3
CVIEWDETAILSTYLE
350
22A
  3
CVIEWSECTIONSTYLE
350
22B
  3
DIMASSOC
350
234
  3
HIDETEXT
350
233
  3
INDEXCTL
350
232
  3
LAYEREVAL
350
22F
  3
LAYERNOTIFY
350
230
  3
LIGHTINGUNITS
350
22E
  3
MSLTSCALE
350
22C
  3
SORTENTS
350
231
  3
XCLIPFRAME
350
235
  0
ACDBDETAILVIEWSTYLE
  5
6B
102
{ACAD_XDICTIONARY
360
272
102
}
102
{ACAD_REACTORS
330
6A
102
}
330
6A
100
AcDbModelDocViewStyle
 70
     0
  3
Imperial24
290
     0
100
AcDbDetailViewStyle
 70
     0
 71
     0
 90
        3
 71
     1
340
55
 40
0.24
340
0
 40
0.24
300

 40
0.36
280
     3
 71
     2
340
5D
 90
       25
 71
     3
340
55
 40
0.24
 90
        1
 40
0.75
 90
        1
300
%<\AcVar ViewType \f "%tc1">% %<\AcVar ViewDetailId>%\PSCALE %<\AcVar ViewScale \f "%sn">%
 71
     4
340
5D
 90
       25
340
5D
 90
       25
280
     0
  0
LAYOUT
  5
6F
102
{ACAD_XDICTIONARY
360
274
102
}
102
{ACAD_REACTORS
330
62
102
}
330
62
100
AcDbPlotSettings
  1

  2

  4

  6

 40
0.0
 41
0.0
 42
0.0
 43
0.0
 44
0.0
 45
0.0
 46
0.0
 47
0.0
 48
0.0
 49
0.0
140
0.0
141
0.0
142
1.0
143
1.0
 70
   688
 72
     0
 73
     0
 74
     5
  7

 75
    16
147
1.0
148
0.0
149
0.0
100
AcDbLayout
  1
Layout1
 70
     1
 71
     1
 10
0.0
 20
0.0
 11
12.0
 21
9.0
 12
0.0
 22
0.0
 32
0.0
 14
0.0
 24
0.0
 34
0.0
 15
0.0
 25
0.0
 35
0.0
146
0.0
 13
0.0
 23
0.0
 33
0.0
 16
1.0
 26
0.0
 36
0.0
 17
0.0
 27
1.0
 37
0.0
 76
     0
330
6C
  0
LAYOUT
  5
77
102
{ACAD_XDICTIONARY
360
278
102
}
102
{ACAD_REACTORS
330
62
102
}
330
62
100
AcDbPlotSettings
  1

  2

  4

  6

 40
0.0
 41
0.0
 42
0.0
 43
0.0
 44
0.0
 45
0.0
 46
0.0
 47
0.0
 48
0.0
 49
0.0
140
0.0
141
0.0
142
1.0
143
1.0
 70
   688
 72
     0
 73
     0
 74
     5
  7

 75
    16
147
1.0
148
0.0
149
0.0
100
AcDbLayout
  1
Layout2
 70
     1
 71
     2
 10
0.0
 20
0.0
 11
12.0
 21
9.0
 12
0.0
 22
0.0
 32
0.0
 14
0.0
 24
0.0
 34
0.0
 15
0.0
 25
0.0
 35
0.0
146
0.0
 13
0.0
 23
0.0
 33
0.0
 16
1.0
 26
0.0
 36
0.0
 17
0.0
 27
1.0
 37
0.0
 76
     0
330
74
  0
LAYOUT
  5
73
102
{ACAD_XDICTIONARY
360
276
102
}
102
{ACAD_REACTORS
330
62
102
}
330
62
100
AcDbPlotSettings
  1

  2

  4

  6

 40
0.0
 41
0.0
 42
0.0
 43
0.0
 44
0.0
 45
0.0
 46
0.0
 47
0.0
 48
0.0
 49
0.0
140
0.0
141
0.0
142
1.0
143
1.0
 70
  1712
 72
     0
 73
     0
 74
     0
  7

 75
     0
147
1.0
148
0.0
149
0.0
100
AcDbLayout
  1
Model
 70
     1
 71
     0
 10
0.0
 20
0.0
 11
12.0
 21
9.0
 12
0.0
 22
0.0
 32
0.0
 14
0.0
 24
0.0
 34
0.0
 15
0.0
 25
0.0
 35
0.0
146
0.0
 13
0.0
 23
0.0
 33
0.0
 16
1.0
 26
0.0
 36
0.0
 17
0.0
 27
1.0
 37
0.0
 76
     0
330
70
  0
MATERIAL
  5
19
102
{ACAD_XDICTIONARY
360
1A
102
}
102
{ACAD_REACTORS
330
10
102
}
330
10
100
AcDbMaterial
  1
ByBlock
 72
     0
 43
0.0208333333333333
 43
0.0
 43
0.0
 43
0.0
 43
0.0
 43
0.0208333333333333
 43
0.0
 43
0.0
 43
0.0
 43
0.0
 43
1.0
 43
0.0
 43
0.0
 43
0.0
 43
0.0
 43
1.0
 77
     0
 47
0.0208333333333333
 47
0.0
 47
0.0
 47
0.0
 47
0.0
 47
0.0208333333333333
 47
0.0
 47
0.0
 47
0.0
 47
0.0
 47
1.0
 47
0.0
 47
0.0
 47
0.0
 47
0.0
 47
1.0
171
     0
 49
0.0208333333333333
 49
0.0
 49
0.0
 49
0.0
 49
0.0
 49
0.0208333333333333
 49
0.0
 49
0.0
 49
0.0
 49
0.0
 49
1.0
 49
0.0
 49
0.0
 49
0.0
 49
0.0
 49
1.0
175
     0
142
0.0208333333333333
142
0.0
142
0.0
142
0.0
142
0.0
142
0.0208333333333333
142
0.0
142
0.0
142
0.0
142
0.0
142
1.0
142
0.0
142
0.0
142
0.0
142
0.0
142
1.0
179
     0
144
0.0208333333333333
144
0.0
144
0.0
144
0.0
144
0.0
144
0.0208333333333333
144
0.0
144
0.0
144
0.0
144
0.0
144
1.0
144
0.0
144
0.0
144
0.0
144
0.0
144
1.0
147
0.0208333333333333
147
0.0
147
0.0
147
0.0
147
0.0
147
0.0208333333333333
147
0.0
147
0.0
147
0.0
147
0.0
147
1.0
147
0.0
147
0.0
147
0.0
147
0.0
147
1.0
  0
MATERIAL
  5
11
102
{ACAD_XDICTIONARY
360
12
102
}
102
{ACAD_REACTORS
330
10
102
}
330
10
100
AcDbMaterial
  1
ByLayer
 72
     0
 43
0.0208333333333333
 43
0.0
 43
0.0
 43
0.0
 43
0.0
 43
0.0208333333333333
 43
0.0
 43
0.0
 43
0.0
 43
0.0
 43
1.0
 43
0.0
 43
0.0
 43
0.0
 43
0.0
 43
1.0
 77
     0
 47
0.0208333333333333
 47
0.0
 47
0.0
 47
0.0
 47
0.0
 47
0.0208333333333333
 47
0.0
 47
0.0
 47
0.0
 47
0.0
 47
1.0
 47
0.0
 47
0.0
 47
0.0
 47
0.0
 47
1.0
171
     0
 49
0.0208333333333333
 49
0.0
 49
0.0
 49
0.0
 49
0.0
 49
0.0208333333333333
 49
0.0
 49
0.0
 49
0.0
 49
0.0
 49
1.0
 49
0.0
 49
0.0
 49
0.0
 49
0.0
 49
1.0
175
     0
142
0.0208333333333333
142
0.0
142
0.0
142
0.0
142
0.0
142
0.0208333333333333
142
0.0
142
0.0
142
0.0
142
0.0
142
1.0
142
0.0
142
0.0
142
0.0
142
0.0
142
1.0
179
     0
144
0.0208333333333333
144
0.0
144
0.0
144
0.0
144
0.0
144
0.0208333333333333
144
0.0
144
0.0
144
0.0
144
0.0
144
1.0
144
0.0
144
0.0
144
0.0
144
0.0
144
1.0
147
0.0208333333333333
147
0.0
147
0.0
147
0.0
147
0.0
147
0.0208333333333333
147
0.0
147
0.0
147
0.0
147
0.0
147
1.0
147
0.0
147
0.0
147
0.0
147
0.0
147
1.0
  0
MATERIAL
  5
21
102
{ACAD_XDICTIONARY
360
22
102
}
102
{ACAD_REACTORS
330
10
102
}
330
10
100
AcDbMaterial
  1
Global
 72
     0
 43
0.0208333333333333
 43
0.0
 43
0.0
 43
0.0
 43
0.0
 43
0.0208333333333333
 43
0.0
 43
0.0
 43
0.0
 43
0.0
 43
1.0
 43
0.0
 43
0.0
 43
0.0
 43
0.0
 43
1.0
 77
     0
 47
0.0208333333333333
 47
0.0
 47
0.0
 47
0.0
 47
0.0
 47
0.0208333333333333
 47
0.0
 47
0.0
 47
0.0
 47
0.0
 47
1.0
 47
0.0
 47
0.0
 47
0.0
 47
0.0
 47
1.0
171
     0
 49
0.0208333333333333
 49
0.0
 49
0.0
 49
0.0
 49
0.0
 49
0.0208333333333333
 49
0.0
 49
0.0
 49
0.0
 49
0.0
 49
1.0
 49
0.0
 49
0.0
 49
0.0
 49
0.0
 49
1.0
175
     0
142
0.0208333333333333
142
0.0
142
0.0
142
0.0
142
0.0
142
0.0208333333333333
142
0.0
142
0.0
142
0.0
142
0.0
142
1.0
142
0.0
142
0.0
142
0.0
142
0.0
142
1.0
179
     0
144
0.0208333333333333
144
0.0
144
0.0
144
0.0
144
0.0
144
0.0208333333333333
144
0.0
144
0.0
144
0.0
144
0.0
144
1.0
144
0.0
144
0.0
144
0.0
144
0.0
144
1.0
147
0.0208333333333333
147
0.0
147
0.0
147
0.0
147
0.0
147
0.0208333333333333
147
0.0
147
0.0
147
0.0
147
0.0
147
1.0
147
0.0
147
0.0
147
0.0
147
0.0
147
1.0
  0
MLEADERSTYLE
  5
67
102
{ACAD_XDICTIONARY
360
26E
102
}
102
{ACAD_REACTORS
330
66
102
}
330
66
100
AcDbMLeaderStyle
170
     2
171
     1
172
     0
 90
        2
 40
0.0
 41
0.0
173
     1
 91
-1056964608
340
5B
 92
       -2
290
     1
 42
0.09
291
     1
 43
0.36
  3
Standard
 44
0.18
300

342
55
174
     1
178
     6
175
     1
176
     0
 93
-1056964608
 45
0.18
292
     0
297
     0
 46
0.18
 94
-1056964608
 47
1.0
 49
1.0
140
1.0
293
     1
141
0.0
294
     1
177
     0
142
1.0
295
     0
296
     0
143
0.125
1001
ACAD_MLEADERVER
1070
     2
  0
MLINESTYLE
  5
60
102
{ACAD_REACTORS
330
5F
102
}
330
5F
100
AcDbMlineStyle
  2
STANDARD
 70
     0
  3

 62
   256
 51
90.0
 52
90.0
 71
     2
 49
0.5
 62
   256
  6
BYLAYER
 49
-0.5
 62
   256
  6
BYLAYER
  0
ACDBPLACEHOLDER
  5
F
102
{ACAD_REACTORS
330
E
102
}
330
E
  0
SCALE
  5
43
102
{ACAD_REACTORS
330
42
102
}
330
42
100
AcDbScale
 70
     0
300
1:1
140
1.0
141
1.0
290
     1
  0
SCALE
  5
44
102
{ACAD_REACTORS
330
42
102
}
330
42
100
AcDbScale
 70
     0
300
1/128" = 1'-0"
140
0.0078125
141
12.0
290
     0
  0
SCALE
  5
45
102
{ACAD_REACTORS
330
42
102
}
330
42
100
AcDbScale
 70
     0
300
1/64" = 1'-0"
140
0.015625
141
12.0
290
     0
  0
SCALE
  5
46
102
{ACAD_REACTORS
330
42
102
}
330
42
100
AcDbScale
 70
     0
300
1/32" = 1'-0"
140
0.03125
141
12.0
290
     0
  0
SCALE
  5
47
102
{ACAD_REACTORS
330
42
102
}
330
42
100
AcDbScale
 70
     0
300
1/16" = 1'-0"
140
0.0625
141
12.0
290
     0
  0
SCALE
  5
48
102
{ACAD_REACTORS
330
42
102
}
330
42
100
AcDbScale
 70
     0
300
3/32" = 1'-0"
140
0.09375
141
12.0
290
     0
  0
SCALE
  5
49
102
{ACAD_REACTORS
330
42
102
}
330
42
100
AcDbScale
 70
     0
300
1/8" = 1'-0"
140
0.125
141
12.0
290
     0
  0
SCALE
  5
4A
102
{ACAD_REACTORS
330
42
102
}
330
42
100
AcDbScale
 70
     0
300
3/16" = 1'-0"
140
0.1875
141
12.0
290
     0
  0
SCALE
  5
4B
102
{ACAD_REACTORS
330
42
102
}
330
42
100
AcDbScale
 70
     0
300
1/4" = 1'-0"
140
0.25
141
12.0
290
     0
  0
SCALE
  5
4C
102
{ACAD_REACTORS
330
42
102
}
330
42
100
AcDbScale
 70
     0
300
3/8" = 1'-0"
140
0.375
141
12.0
290
     0
  0
SCALE
  5
4D
102
{ACAD_REACTORS
330
42
102
}
330
42
100
AcDbScale
 70
     0
300
1/2" = 1'-0"
140
0.5
141
12.0
290
     0
  0
SCALE
  5
4E
102
{ACAD_REACTORS
330
42
102
}
330
42
100
AcDbScale
 70
     0
300
3/4" = 1'-0"
140
0.75
141
12.0
290
     0
  0
SCALE
  5
4F
102
{ACAD_REACTORS
330
42
102
}
330
42
100
AcDbScale
 70
     0
300
1" = 1'-0"
140
1.0
141
12.0
290
     0
  0
SCALE
  5
50
102
{ACAD_REACTORS
330
42
102
}
330
42
100
AcDbScale
 70
     0
300
1-1/2" = 1'-0"
140
1.5
141
12.0
290
     0
  0
SCALE
  5
51
102
{ACAD_REACTORS
330
42
102
}
330
42
100
AcDbScale
 70
     0
300
3" = 1'-0"
140
3.0
141
12.0
290
     0
  0
SCALE
  5
52
102
{ACAD_REACTORS
330
42
102
}
330
42
100
AcDbScale
 70
     0
300
6" = 1'-0"
140
6.0
141
12.0
290
     0
  0
SCALE
  5
53
102
{ACAD_REACTORS
330
42
102
}
330
42
100
AcDbScale
 70
     0
300
1'-0" = 1'-0"
140
12.0
141
12.0
290
     0
  0
ACDBSECTIONVIEWSTYLE
  5
69
102
{ACAD_XDICTIONARY
360
270
102
}
102
{ACAD_REACTORS
330
68
102
}
330
68
100
AcDbModelDocViewStyle
 70
     0
  3
Imperial24
290
     0
100
AcDbSectionViewStyle
 70
     0
 71
     0
 90
       78
 71
     1
340
55
 40
0.24
340
0
340
0
 40
0.24
300
I, O, Q, S, X, Z
 40
0.48
 90
        3
 40
0.18
 90
        1
 71
     2
340
5D
 90
       25
340
5D
 90
       50
 40
0.24
 40
0.0
 40
0.24
 71
     3
340
55
 40
0.24
 90
        1
 40
0.75
 90
        1
300
%<\AcVar ViewType \f "%tc1">% %<\AcVar ViewSectionStartId>%-%<\AcVar ViewSectionEndId>%\PSCALE %<\AcVar ViewScale \f "%sn">%
 71
     4
300
ANSI31
 40
1.0
 90
        0
290
     0
290
     0
 90
        6
 40
0.0
 40
1.570796326794896
 40
0.2617993877991494
 40
1.308996938995747
 40
-0.2617993877991494
 40
1.832595714594046
  0
TABLESTYLE
  5
65
102
{ACAD_XDICTIONARY
360
236
102
}
102
{ACAD_REACTORS
330
64
102
}
330
64
100
AcDbTableStyle
  3
Standard
 70
     0
 71
     0
 40
0.06
 41
0.06
280
     0
281
     0
  7
Standard
140
0.18
170
     2
 62
     0
 63
     7
283
     0
274
    -2
284
     1
 64
     0
275
    -2
285
     1
 65
     0
276
    -2
286
     1
 66
     0
277
    -2
287
     1
 67
     0
278
    -2
288
     1
 68
     0
279
    -2
289
     1
 69
     0
  7
Standard
140
0.25
170
     5
 62
     0
 63
     7
283
     0
274
    -2
284
     1
 64
     0
275
    -2
285
     1
 65
     0
276
    -2
286
     1
 66
     0
277
    -2
287
     1
 67
     0
278
    -2
288
     1
 68
     0
279
    -2
289
     1
 69
     0
  7
Standard
140
0.18
170
     5
 62
     0
 63
     7
283
     0
274
    -2
284
     1
 64
     0
275
    -2
285
     1
 65
     0
276
    -2
286
     1
 66
     0
277
    -2
287
     1
 67
     0
278
    -2
288
     1
 68
     0
279
    -2
289
     1
 69
     0
  0
VISUALSTYLE
  5
2F
102
{ACAD_XDICTIONARY
360
246
102
}
102
{ACAD_REACTORS
330
29
102
}
330
29
100
AcDbVisualStyle
  2
2dWireframe
 70
     4
 71
     0
 72
     2
 73
     0
 90
        0
 40
-0.6
 41
-30.0
 62
     5
 63
     7
 74
     1
 91
        4
 64
     7
 65
   257
 75
     1
175
     1
 42
1.0
 92
        0
 66
   257
 43
1.0
 76
     1
 77
     6
 78
     2
 67
     7
 79
     5
170
     0
171
     0
290
     0
174
     0
 93
        1
 44
0.0
173
     0
291
     0
 45
0.0
1001
ACAD
1000
AcDbSavedByObjectVersion
1070
     0
  0
VISUALSTYLE
  5
2E
102
{ACAD_XDICTIONARY
360
244
102
}
102
{ACAD_REACTORS
330
29
102
}
330
29
100
AcDbVisualStyle
  2
Basic
 70
     7
 71
     1
 72
     0
 73
     1
 90
        0
 40
-0.6
 41
-30.0
 62
     5
 63
     7
 74
     0
 91
        4
 64
     7
 65
   257
 75
     1
175
     1
 42
1.0
 92
        8
 66
     7
 43
1.0
 76
     1
 77
     6
 78
     2
 67
     7
 79
     5
170
     0
171
     0
290
     0
174
     0
 93
        1
 44
0.0
173
     0
291
     1
 45
0.0
1001
ACAD
1000
AcDbSavedByObjectVersion
1070
     0
  0
VISUALSTYLE
  5
35
102
{ACAD_XDICTIONARY
360
252
102
}
102
{ACAD_REACTORS
330
29
102
}
330
29
100
AcDbVisualStyle
  2
Brighten
 70
    12
 71
     2
 72
     2
 73
     0
 90
        0
 40
-0.6
 41
-30.0
 62
     5
 63
     7
 74
     1
 91
        4
 64
     7
 65
   257
 75
     1
175
     1
 42
1.0
 92
        8
 66
     7
 43
1.0
 76
     1
 77
     6
 78
     2
 67
     7
 79
     5
170
     0
171
     0
290
     0
174
     0
 93
        1
 44
50.0
173
     0
291
     1
 45
0.0
1001
ACAD
1000
AcDbSavedByObjectVersion
1070
     0
  0
VISUALSTYLE
  5
39
102
{ACAD_XDICTIONARY
360
25A
102
}
102
{ACAD_REACTORS
330
29
102
}
330
29
100
AcDbVisualStyle
  2
ColorChange
 70
    16
 71
     2
 72
     2
 73
     3
 90
        0
 40
-0.6
 41
-30.0
 62
     5
 63
     8
 74
     1
 91
        4
 64
     7
 65
   257
 75
     1
175
     1
 42
1.0
 92
        8
 66
     8
 43
1.0
 76
     1
 77
     6
 78
     2
 67
     7
 79
     5
170
     0
171
     0
290
     0
174
     0
 93
        1
 44
0.0
173
     0
291
     1
 45
0.0
1001
ACAD
1000
AcDbSavedByObjectVersion
1070
     0
  0
VISUALSTYLE
  5
32
102
{ACAD_XDICTIONARY
360
24C
102
}
102
{ACAD_REACTORS
330
29
102
}
330
29
100
AcDbVisualStyle
  2
Conceptual
 70
     9
 71
     3
 72
     2
 73
     0
 90
        0
 40
-0.6
 41
-30.0
 62
     5
 63
     7
 74
     2
 91
        2
 64
     7
 65
   257
 75
     1
175
     1
 42
179.0
 92
        8
 66
     7
 43
1.0
 76
     1
 77
     6
 78
     2
 67
     7
 79
     3
170
     0
171
     0
290
     0
174
     0
 93
        1
 44
0.0
173
     0
291
     0
 45
0.0
1001
ACAD
1000
AcDbSavedByObjectVersion
1070
     0
  0
VISUALSTYLE
  5
34
102
{ACAD_XDICTIONARY
360
250
102
}
102
{ACAD_REACTORS
330
29
102
}
330
29
100
AcDbVisualStyle
  2
Dim
 70
    11
 71
     2
 72
     2
 73
     0
 90
        0
 40
-0.6
 41
-30.0
 62
     5
 63
     7
 74
     1
 91
        4
 64
     7
 65
   257
 75
     1
175
     1
 42
1.0
 92
        8
 66
     7
 43
1.0
 76
     1
 77
     6
 78
     2
 67
     7
 79
     5
170
     0
171
     0
290
     0
174
     0
 93
        1
 44
-50.0
173
     0
291
     1
 45
0.0
1001
ACAD
1000
AcDbSavedByObjectVersion
1070
     0
  0
VISUALSTYLE
  5
41
102
{ACAD_XDICTIONARY
360
26A
102
}
102
{ACAD_REACTORS
330
29
102
}
330
29
100
AcDbVisualStyle
  2
EdgeColorOff
 70
    22
 71
     2
 72
     2
 73
     0
 90
        0
 40
-0.6
 41
-30.0
 62
     5
 63
     7
 74
     1
 91
        4
 64
     7
 65
   257
 75
     1
175
     1
 42
1.0
 92
        8
 66
     7
 43
1.0
 76
     1
 77
     6
 78
     2
 67
     7
 79
     5
170
     0
171
     0
290
     0
174
     0
 93
        1
 44
0.0
173
     0
291
     1
 45
0.0
1001
ACAD
1000
AcDbSavedByObjectVersion
1070
     0
  0
VISUALSTYLE
  5
38
102
{ACAD_XDICTIONARY
360
258
102
}
102
{ACAD_REACTORS
330
29
102
}
330
29
100
AcDbVisualStyle
  2
Facepattern
 70
    15
 71
     2
 72
     2
 73
     0
 90
        0
 40
-0.6
 41
-30.0
 62
     5
 63
     7
 74
     1
 91
        4
 64
     7
 65
   257
 75
     1
175
     1
 42
1.0
 92
        8
 66
     7
 43
1.0
 76
     1
 77
     6
 78
     2
 67
     7
 79
     5
170
     0
171
     0
290
     0
174
     0
 93
        1
 44
0.0
173
     0
291
     1
 45
0.0
1001
ACAD
1000
AcDbSavedByObjectVersion
1070
     0
  0
VISUALSTYLE
  5
2A
102
{ACAD_XDICTIONARY
360
23C
102
}
102
{ACAD_REACTORS
330
29
102
}
330
29
100
AcDbVisualStyle
  2
Flat
 70
     0
 71
     2
 72
     1
 73
     1
 90
        2
 40
-0.6
 41
30.0
 62
     5
 63
     7
 74
     0
 91
        0
 64
     7
 65
   257
 75
     1
175
     1
 42
1.0
 92
        8
 66
     7
 43
1.0
 76
     1
 77
     6
 78
     2
 67
     7
 79
     5
170
     0
171
     0
290
     0
174
     0
 93
       13
 44
0.0
173
     0
291
     1
 45
0.0
1001
ACAD
1000
AcDbSavedByObjectVersion
1070
     0
  0
VISUALSTYLE
  5
2B
102
{ACAD_XDICTIONARY
360
23E
102
}
102
{ACAD_REACTORS
330
29
102
}
330
29
100
AcDbVisualStyle
  2
FlatWithEdges
 70
     1
 71
     2
 72
     1
 73
     1
 90
        2
 40
-0.6
 41
30.0
 62
     5
 63
     7
 74
     1
 91
        0
 64
     7
 65
   257
 75
     1
175
     1
 42
1.0
 92
        0
 66
   257
 43
1.0
 76
     1
 77
     6
 78
     2
 67
     7
 79
     5
170
     0
171
     0
290
     0
174
     0
 93
       13
 44
0.0
173
     0
291
     1
 45
0.0
1001
ACAD
1000
AcDbSavedByObjectVersion
1070
     0
  0
VISUALSTYLE
  5
2C
102
{ACAD_XDICTIONARY
360
240
102
}
102
{ACAD_REACTORS
330
29
102
}
330
29
100
AcDbVisualStyle
  2
Gouraud
 70
     2
 71
     2
 72
     2
 73
     1
 90
        2
 40
-0.6
 41
30.0
 62
     5
 63
     7
 74
     0
 91
        0
 64
     7
 65
   257
 75
     1
175
     1
 42
1.0
 92
        0
 66
     7
 43
1.0
 76
     1
 77
     6
 78
     2
 67
     7
 79
     5
170
     0
171
     0
290
     0
174
     0
 93
       13
 44
0.0
173
     0
291
     1
 45
0.0
1001
ACAD
1000
AcDbSavedByObjectVersion
1070
     0
  0
VISUALSTYLE
  5
2D
102
{ACAD_XDICTIONARY
360
242
102
}
102
{ACAD_REACTORS
330
29
102
}
330
29
100
AcDbVisualStyle
  2
GouraudWithEdges
 70
     3
 71
     2
 72
     2
 73
     1
 90
        2
 40
-0.6
 41
30.0
 62
     5
 63
     7
 74
     1
 91
        0
 64
     7
 65
   257
 75
     1
175
     1
 42
1.0
 92
        0
 66
   257
 43
1.0
 76
     1
 77
     6
 78
     2
 67
     7
 79
     5
170
     0
171
     0
290
     0
174
     0
 93
       13
 44
0.0
173
     0
291
     1
 45
0.0
1001
ACAD
1000
AcDbSavedByObjectVersion
1070
     0
  0
VISUALSTYLE
  5
31
102
{ACAD_XDICTIONARY
360
24A
102
}
102
{ACAD_REACTORS
330
29
102
}
330
29
100
AcDbVisualStyle
  2
Hidden
 70
     6
 71
     1
 72
     2
 73
     2
 90
        0
 40
-0.6
 41
-30.0
 62
     5
 63
     7
 74
     2
 91
        2
 64
     7
 65
   257
 75
     2
175
     1
 42
40.0
 92
        0
 66
   257
 43
1.0
 76
     1
 77
     6
 78
     2
 67
     7
 79
     3
170
     0
171
     0
290
     0
174
     0
 93
        1
 44
0.0
173
     0
291
     0
 45
0.0
1001
ACAD
1000
AcDbSavedByObjectVersion
1070
     0
  0
VISUALSTYLE
  5
3F
102
{ACAD_XDICTIONARY
360
266
102
}
102
{ACAD_REACTORS
330
29
102
}
330
29
100
AcDbVisualStyle
  2
JitterOff
 70
    20
 71
     2
 72
     2
 73
     0
 90
        0
 40
-0.6
 41
-30.0
 62
     5
 63
     7
 74
     1
 91
        4
 64
     7
 65
   257
 75
     1
175
     1
 42
1.0
 92
       10
 66
     7
 43
1.0
 76
     1
 77
     6
 78
     2
 67
     7
 79
     5
170
     0
171
     0
290
     0
174
     0
 93
        1
 44
0.0
173
     0
291
     1
 45
0.0
1001
ACAD
1000
AcDbSavedByObjectVersion
1070
     0
  0
VISUALSTYLE
  5
37
102
{ACAD_XDICTIONARY
360
256
102
}
102
{ACAD_REACTORS
330
29
102
}
330
29
100
AcDbVisualStyle
  2
Linepattern
 70
    14
 71
     2
 72
     2
 73
     0
 90
        0
 40
-0.6
 41
-30.0
 62
     5
 63
     7
 74
     1
 91
        4
 64
     7
 65
   257
 75
     7
175
     7
 42
1.0
 92
        8
 66
     7
 43
1.0
 76
     1
 77
     6
 78
     2
 67
     7
 79
     5
170
     0
171
     0
290
     0
174
     0
 93
        1
 44
0.0
173
     0
291
     1
 45
0.0
1001
ACAD
1000
AcDbSavedByObjectVersion
1070
     0
  0
VISUALSTYLE
  5
40
102
{ACAD_XDICTIONARY
360
268
102
}
102
{ACAD_REACTORS
330
29
102
}
330
29
100
AcDbVisualStyle
  2
OverhangOff
 70
    21
 71
     2
 72
     2
 73
     0
 90
        0
 40
-0.6
 41
-30.0
 62
     5
 63
     7
 74
     1
 91
        4
 64
     7
 65
   257
 75
     1
175
     1
 42
1.0
 92
        9
 66
     7
 43
1.0
 76
     1
 77
     6
 78
     2
 67
     7
 79
     5
170
     0
171
     0
290
     0
174
     0
 93
        1
 44
0.0
173
     0
291
     1
 45
0.0
1001
ACAD
1000
AcDbSavedByObjectVersion
1070
     0
  0
VISUALSTYLE
  5
33
102
{ACAD_XDICTIONARY
360
24E
102
}
102
{ACAD_REACTORS
330
29
102
}
330
29
100
AcDbVisualStyle
  2
Realistic
 70
     8
 71
     2
 72
     3
 73
     0
 90
        2
 40
-0.6
 41
30.0
 62
     5
 63
     7
 74
     0
 91
        0
 64
     7
 65
   257
 75
     1
175
     1
 42
1.0
 92
        8
 66
   257
 43
1.0
 76
     1
 77
     6
 78
     2
 67
     7
 79
     3
170
     0
171
     0
290
     0
174
     0
 93
       13
 44
0.0
173
     0
291
     0
 45
0.0
1001
ACAD
1000
AcDbSavedByObjectVersion
1070
     0
  0
VISUALSTYLE
  5
3E
102
{ACAD_XDICTIONARY
360
264
102
}
102
{ACAD_REACTORS
330
29
102
}
330
29
100
AcDbVisualStyle
  2
Shaded
 70
    27
 71
     2
 72
     2
 73
     1
 90
        2
 40
-0.6
 41
30.0
 62
     5
 63
     7
 74
     0
 91
        4
 64
     7
 65
   257
 75
     1
175
     1
 42
1.0
 92
        8
 66
   257
 43
1.0
 76
     1
 77
     6
 78
     2
 67
     8
 79
     3
170
     0
171
     0
290
     0
174
     0
 93
        5
 44
0.0
173
     0
291
     0
 45
0.0
1001
ACAD
1000
AcDbSavedByObjectVersion
1070
     0
  0
VISUALSTYLE
  5
3D
102
{ACAD_XDICTIONARY
360
262
102
}
102
{ACAD_REACTORS
330
29
102
}
330
29
100
AcDbVisualStyle
  2
Shaded with edges
 70
    26
 71
     2
 72
     2
 73
     1
 90
        2
 40
-0.6
 41
30.0
 62
     5
 63
     7
 74
     1
 91
        2
 64
     7
 65
   257
 75
     2
175
     1
 42
1.0
 92
        8
 66
   257
 43
1.0
 76
     1
 77
     6
 78
     2
 67
     7
 79
     3
170
     0
171
     0
290
     0
174
     0
 93
        5
 44
0.0
173
     0
291
     0
 45
0.0
1001
ACAD
1000
AcDbSavedByObjectVersion
1070
     0
  0
VISUALSTYLE
  5
3A
102
{ACAD_XDICTIONARY
360
25C
102
}
102
{ACAD_REACTORS
330
29
102
}
330
29
100
AcDbVisualStyle
  2
Shades of Gray
 70
    23
 71
     2
 72
     2
 73
     3
 90
        0
 40
-0.6
 41
-30.0
 62
     5
 63
     7
 74
     2
 91
        2
 64
     7
 65
     7
 75
     1
175
     1
 42
40.0
 92
        8
 66
     7
 43
1.0
 76
     1
 77
     6
 78
     2
 67
     7
 79
     3
170
     0
171
     0
290
     0
174
     0
 93
        1
 44
0.0
173
     0
291
     0
 45
0.0
1001
ACAD
1000
AcDbSavedByObjectVersion
1070
     0
  0
VISUALSTYLE
  5
3B
102
{ACAD_XDICTIONARY
360
25E
102
}
102
{ACAD_REACTORS
330
29
102
}
330
29
100
AcDbVisualStyle
  2
Sketchy
 70
    24
 71
     1
 72
     2
 73
     2
 90
        0
 40
-0.6
 41
-30.0
 62
     5
 63
     7
 74
     2
 91
        2
 64
     7
 65
     7
 75
     1
175
     1
 42
40.0
 92
       11
 66
     7
 43
1.0
 76
     1
 77
     6
 78
     2
 67
     7
 79
     6
170
     0
171
     0
290
     0
174
     0
 93
        1
 44
0.0
173
     0
291
     0
 45
0.0
1001
ACAD
1000
AcDbSavedByObjectVersion
1070
     0
  0
VISUALSTYLE
  5
36
102
{ACAD_XDICTIONARY
360
254
102
}
102
{ACAD_REACTORS
330
29
102
}
330
29
100
AcDbVisualStyle
  2
Thicken
 70
    13
 71
     2
 72
     2
 73
     0
 90
        0
 40
-0.6
 41
-30.0
 62
     5
 63
     7
 74
     1
 91
        4
 64
     7
 65
   257
 75
     1
175
     1
 42
1.0
 92
       12
 66
     7
 43
1.0
 76
     1
 77
     6
 78
     2
 67
     7
 79
     5
170
     0
171
     0
290
     0
174
     0
 93
        1
 44
0.0
173
     0
291
     1
 45
0.0
1001
ACAD
1000
AcDbSavedByObjectVersion
1070
     0
  0
VISUALSTYLE
  5
30
102
{ACAD_XDICTIONARY
360
248
102
}
102
{ACAD_REACTORS
330
29
102
}
330
29
100
AcDbVisualStyle
  2
Wireframe
 70
     5
 71
     0
 72
     2
 73
     0
 90
        0
 40
-0.6
 41
-30.0
 62
     5
 63
     7
 74
     1
 91
        4
 64
     7
 65
   257
 75
     1
175
     1
 42
1.0
 92
        0
 66
   257
 43
1.0
 76
     1
 77
     6
 78
     2
 67
     7
 79
     3
170
     0
171
     0
290
     0
174
     0
 93
        1
 44
0.0
173
     0
291
     0
 45
0.0
1001
ACAD
1000
AcDbSavedByObjectVersion
1070
     0
  0
VISUALSTYLE
  5
3C
102
{ACAD_XDICTIONARY
360
260
102
}
102
{ACAD_REACTORS
330
29
102
}
330
29
100
AcDbVisualStyle
  2
X-Ray
 70
    25
 71
     2
 72
     2
 73
     1
 90
        1
 40
0.5
 41
-30.0
 62
     5
 63
     7
 74
     1
 91
        0
 64
     7
 65
   257
 75
     1
175
     1
 42
1.0
 92
        8
 66
     7
 43
1.0
 76
     1
 77
     6
 78
     2
 67
     7
 79
     3
170
     0
171
     0
290
     0
174
     0
 93
       13
 44
0.0
173
     0
291
     0
 45
0.0
1001
ACAD
1000
AcDbSavedByObjectVersion
1070
     0
  0
DICTIONARYVAR
  5
22D
102
{ACAD_REACTORS
330
227
102
}
330
227
100
DictionaryVariables
280
     0
  1
1:1
  0
DICTIONARYVAR
  5
229
102
{ACAD_REACTORS
330
227
102
}
330
227
100
DictionaryVariables
280
     0
  1
STANDARD
  0
DICTIONARYVAR
  5
228
102
{ACAD_REACTORS
330
227
102
}
330
227
100
DictionaryVariables
280
     0
  1
STANDARD
  0
DICTIONARYVAR
  5
22A
102
{ACAD_REACTORS
330
227
102
}
330
227
100
DictionaryVariables
280
     0
  1
Imperial24
  0
DICTIONARYVAR
  5
22B
102
{ACAD_REACTORS
330
227
102
}
330
227
100
DictionaryVariables
280
     0
  1
Imperial24
  0
DICTIONARYVAR
  5
234
102
{ACAD_REACTORS
330
227
102
}
330
227
100
DictionaryVariables
280
     0
  1
2
  0
DICTIONARYVAR
  5
233
102
{ACAD_REACTORS
330
227
102
}
330
227
100
DictionaryVariables
280
     0
  1
1
  0
DICTIONARYVAR
  5
232
102
{ACAD_REACTORS
330
227
102
}
330
227
100
DictionaryVariables
280
     0
  1
0
  0
DICTIONARYVAR
  5
22F
102
{ACAD_REACTORS
330
227
102
}
330
227
100
DictionaryVariables
280
     0
  1
0
  0
DICTIONARYVAR
  5
230
102
{ACAD_REACTORS
330
227
102
}
330
227
100
DictionaryVariables
280
     0
  1
0
  0
DICTIONARYVAR
  5
22E
102
{ACAD_REACTORS
330
227
102
}
330
227
100
DictionaryVariables
280
     0
  1
2
  0
DICTIONARYVAR
  5
22C
102
{ACAD_REACTORS
330
227
102
}
330
227
100
DictionaryVariables
280
     0
  1
1
  0
DICTIONARYVAR
  5
231
102
{ACAD_REACTORS
330
227
102
}
330
227
100
DictionaryVariables
280
     0
  1
127
  0
DICTIONARYVAR
  5
235
102
{ACAD_REACTORS
330
227
102
}
330
227
100
DictionaryVariables
280
     0
  1
2
  0
DICTIONARY
  5
272
330
6B
100
AcDbDictionary
280
     1
281
     1
  3
ACAD_XREC_ROUNDTRIP
360
273
  0
DICTIONARY
  5
274
330
6F
100
AcDbDictionary
280
     1
281
     1
  3
ACAD_XREC_ROUNDTRIP
360
275
  0
DICTIONARY
  5
278
330
77
100
AcDbDictionary
280
     1
281
     1
  3
ACAD_XREC_ROUNDTRIP
360
279
  0
DICTIONARY
  5
276
330
73
100
AcDbDictionary
280
     1
281
     1
  3
ACAD_XREC_ROUNDTRIP
360
277
  0
DICTIONARY
  5
1A
330
19
100
AcDbDictionary
280
     1
281
     1
  3
ACAD_XREC_ROUNDTRIP
360
23A
  3
BUMPTILE
360
1C
  3
DIFFUSETILE
360
1B
  3
OPACITYTILE
360
1F
  3
REFLECTIONTILE
360
1E
  3
REFRACTIONTILE
360
20
  3
SPECULARTILE
360
1D
  0
DICTIONARY
  5
12
330
11
100
AcDbDictionary
280
     1
281
     1
  3
ACAD_XREC_ROUNDTRIP
360
239
  3
BUMPTILE
360
14
  3
DIFFUSETILE
360
13
  3
OPACITYTILE
360
17
  3
REFLECTIONTILE
360
16
  3
REFRACTIONTILE
360
18
  3
SPECULARTILE
360
15
  0
DICTIONARY
  5
22
330
21
100
AcDbDictionary
280
     1
281
     1
  3
ACAD_XREC_ROUNDTRIP
360
23B
  3
BUMPTILE
360
24
  3
DIFFUSETILE
360
23
  3
OPACITYTILE
360
27
  3
REFLECTIONTILE
360
26
  3
REFRACTIONTILE
360
28
  3
SPECULARTILE
360
25
  0
DICTIONARY
  5
26E
330
67
100
AcDbDictionary
280
     1
281
     1
  3
ACAD_XREC_ROUNDTRIP
360
26F
  0
DICTIONARY
  5
270
330
69
100
AcDbDictionary
280
     1
281
     1
  3
ACAD_XREC_ROUNDTRIP
360
271
  0
DICTIONARY
  5
236
330
65
100
AcDbDictionary
280
     1
281
     1
  3
ACAD_ROUNDTRIP_2008_TABLESTYLE_CELLSTYLEMAP
360
237
  3
ACAD_XREC_ROUNDTRIP
360
26C
  0
DICTIONARY
  5
246
330
2F
100
AcDbDictionary
280
     1
281
     1
  3
ACAD_XREC_ROUNDTRIP
360
247
  0
DICTIONARY
  5
244
330
2E
100
AcDbDictionary
280
     1
281
     1
  3
ACAD_XREC_ROUNDTRIP
360
245
  0
DICTIONARY
  5
252
330
35
100
AcDbDictionary
280
     1
281
     1
  3
ACAD_XREC_ROUNDTRIP
360
253
  0
DICTIONARY
  5
25A
330
39
100
AcDbDictionary
280
     1
281
     1
  3
ACAD_XREC_ROUNDTRIP
360
25B
  0
DICTIONARY
  5
24C
330
32
100
AcDbDictionary
280
     1
281
     1
  3
ACAD_XREC_ROUNDTRIP
360
24D
  0
DICTIONARY
  5
250
330
34
100
AcDbDictionary
280
     1
281
     1
  3
ACAD_XREC_ROUNDTRIP
360
251
  0
DICTIONARY
  5
26A
330
41
100
AcDbDictionary
280
     1
281
     1
  3
ACAD_XREC_ROUNDTRIP
360
26B
  0
DICTIONARY
  5
258
330
38
100
AcDbDictionary
280
     1
281
     1
  3
ACAD_XREC_ROUNDTRIP
360
259
  0
DICTIONARY
  5
23C
330
2A
100
AcDbDictionary
280
     1
281
     1
  3
ACAD_XREC_ROUNDTRIP
360
23D
  0
DICTIONARY
  5
23E
330
2B
100
AcDbDictionary
280
     1
281
     1
  3
ACAD_XREC_ROUNDTRIP
360
23F
  0
DICTIONARY
  5
240
330
2C
100
AcDbDictionary
280
     1
281
     1
  3
ACAD_XREC_ROUNDTRIP
360
241
  0
DICTIONARY
  5
242
330
2D
100
AcDbDictionary
280
     1
281
     1
  3
ACAD_XREC_ROUNDTRIP
360
243
  0
DICTIONARY
  5
24A
330
31
100
AcDbDictionary
280
     1
281
     1
  3
ACAD_XREC_ROUNDTRIP
360
24B
  0
DICTIONARY
  5
266
330
3F
100
AcDbDictionary
280
     1
281
     1
  3
ACAD_XREC_ROUNDTRIP
360
267
  0
DICTIONARY
  5
256
330
37
100
AcDbDictionary
280
     1
281
     1
  3
ACAD_XREC_ROUNDTRIP
360
257
  0
DICTIONARY
  5
268
330
40
100
AcDbDictionary
280
     1
281
     1
  3
ACAD_XREC_ROUNDTRIP
360
269
  0
DICTIONARY
  5
24E
330
33
100
AcDbDictionary
280
     1
281
     1
  3
ACAD_XREC_ROUNDTRIP
360
24F
  0
DICTIONARY
  5
264
330
3E
100
AcDbDictionary
280
     1
281
     1
  3
ACAD_XREC_ROUNDTRIP
360
265
  0
DICTIONARY
  5
262
330
3D
100
AcDbDictionary
280
     1
281
     1
  3
ACAD_XREC_ROUNDTRIP
360
263
  0
DICTIONARY
  5
25C
330
3A
100
AcDbDictionary
280
     1
281
     1
  3
ACAD_XREC_ROUNDTRIP
360
25D
  0
DICTIONARY
  5
25E
330
3B
100
AcDbDictionary
280
     1
281
     1
  3
ACAD_XREC_ROUNDTRIP
360
25F
  0
DICTIONARY
  5
254
330
36
100
AcDbDictionary
280
     1
281
     1
  3
ACAD_XREC_ROUNDTRIP
360
255
  0
DICTIONARY
  5
248
330
30
100
AcDbDictionary
280
     1
281
     1
  3
ACAD_XREC_ROUNDTRIP
360
249
  0
DICTIONARY
  5
260
330
3C
100
AcDbDictionary
280
     1
281
     1
  3
ACAD_XREC_ROUNDTRIP
360
261
  0
XRECORD
  5
273
102
{ACAD_REACTORS
330
272
102
}
330
272
100
AcDbXrecord
280
     1
102
DISPLAYNAME
  1
Imperial24
102
FLAGS
 90
        0
  0
XRECORD
  5
275
102
{ACAD_REACTORS
330
274
102
}
330
274
100
AcDbXrecord
280
     1
102
SHADEPLOT
 70
     0
102
SHADEPLOTRESLEVEL
 70
     2
102
SHADEPLOTCUSTOMDPI
 70
   300
  0
XRECORD
  5
279
102
{ACAD_REACTORS
330
278
102
}
330
278
100
AcDbXrecord
280
     1
102
SHADEPLOT
 70
     0
102
SHADEPLOTRESLEVEL
 70
     2
102
SHADEPLOTCUSTOMDPI
 70
   300
  0
XRECORD
  5
277
102
{ACAD_REACTORS
330
276
102
}
330
276
100
AcDbXrecord
280
     1
102
SHADEPLOT
 70
     0
102
SHADEPLOTRESLEVEL
 70
     2
102
SHADEPLOTCUSTOMDPI
 70
   300
  0
XRECORD
  5
23A
102
{ACAD_REACTORS
330
1A
102
}
330
1A
100
AcDbXrecord
280
     1
102
MATERIAL
148
0.0
149
0.0
149
0.0
 93
        0
 94
      127
282
     0
 72
     0
 77
     0
171
     0
175
     0
179
     0
273
     0
  0
XRECORD
  5
1C
102
{ACAD_REACTORS
330
1A
102
}
330
1A
100
AcDbXrecord
280
     1
270
     1
271
     1
  0
XRECORD
  5
1B
102
{ACAD_REACTORS
330
1A
102
}
330
1A
100
AcDbXrecord
280
     1
270
     1
271
     1
  0
XRECORD
  5
1F
102
{ACAD_REACTORS
330
1A
102
}
330
1A
100
AcDbXrecord
280
     1
270
     1
271
     1
  0
XRECORD
  5
1E
102
{ACAD_REACTORS
330
1A
102
}
330
1A
100
AcDbXrecord
280
     1
270
     1
271
     1
  0
XRECORD
  5
20
102
{ACAD_REACTORS
330
1A
102
}
330
1A
100
AcDbXrecord
280
     1
270
     1
271
     1
  0
XRECORD
  5
1D
102
{ACAD_REACTORS
330
1A
102
}
330
1A
100
AcDbXrecord
280
     1
270
     1
271
     1
  0
XRECORD
  5
239
102
{ACAD_REACTORS
330
12
102
}
330
12
100
AcDbXrecord
280
     1
102
MATERIAL
148
0.0
149
0.0
149
0.0
 93
        0
 94
      127
282
     0
 72
     0
 77
     0
171
     0
175
     0
179
     0
273
     0
  0
XRECORD
  5
14
102
{ACAD_REACTORS
330
12
102
}
330
12
100
AcDbXrecord
280
     1
270
     1
271
     1
  0
XRECORD
  5
13
102
{ACAD_REACTORS
330
12
102
}
330
12
100
AcDbXrecord
280
     1
270
     1
271
     1
  0
XRECORD
  5
17
102
{ACAD_REACTORS
330
12
102
}
330
12
100
AcDbXrecord
280
     1
270
     1
271
     1
  0
XRECORD
  5
16
102
{ACAD_REACTORS
330
12
102
}
330
12
100
AcDbXrecord
280
     1
270
     1
271
     1
  0
XRECORD
  5
18
102
{ACAD_REACTORS
330
12
102
}
330
12
100
AcDbXrecord
280
     1
270
     1
271
     1
  0
XRECORD
  5
15
102
{ACAD_REACTORS
330
12
102
}
330
12
100
AcDbXrecord
280
     1
270
     1
271
     1
  0
XRECORD
  5
23B
102
{ACAD_REACTORS
330
22
102
}
330
22
100
AcDbXrecord
280
     1
102
MATERIAL
148
0.0
149
0.0
149
0.0
 93
        0
 94
      127
282
     0
 72
     0
 77
     0
171
     0
175
     0
179
     0
273
     0
  0
XRECORD
  5
24
102
{ACAD_REACTORS
330
22
102
}
330
22
100
AcDbXrecord
280
     1
270
     1
271
     1
  0
XRECORD
  5
23
102
{ACAD_REACTORS
330
22
102
}
330
22
100
AcDbXrecord
280
     1
270
     1
271
     1
  0
XRECORD
  5
27
102
{ACAD_REACTORS
330
22
102
}
330
22
100
AcDbXrecord
280
     1
270
     1
271
     1
  0
XRECORD
  5
26
102
{ACAD_REACTORS
330
22
102
}
330
22
100
AcDbXrecord
280
     1
270
     1
271
     1
  0
XRECORD
  5
28
102
{ACAD_REACTORS
330
22
102
}
330
22
100
AcDbXrecord
280
     1
270
     1
271
     1
  0
XRECORD
  5
25
102
{ACAD_REACTORS
330
22
102
}
330
22
100
AcDbXrecord
280
     1
270
     1
271
     1
  0
XRECORD
  5
26F
102
{ACAD_REACTORS
330
26E
102
}
330
26E
100
AcDbXrecord
280
     1
102
ACAD_ROUNDTRIP_2012_MLEADER_STYLE
298
     1
  0
XRECORD
  5
271
102
{ACAD_REACTORS
330
270
102
}
330
270
100
AcDbXrecord
280
     1
102
DISPLAYNAME
  1
Imperial24
102
FLAGS
 90
        0
  0
CELLSTYLEMAP
  5
237
102
{ACAD_REACTORS
330
236
102
}
330
236
100
AcDbCellStyleMap
 90
        3
300
CELLSTYLE
  1
TABLEFORMAT_BEGIN
 90
        5
170
     1
 91
        0
 92
    32768
 62
   257
 93
        1
300
CONTENTFORMAT
  1
CONTENTFORMAT_BEGIN
 90
        0
 91
        0
 92
      512
 93
        0
300

 40
0.0
140
1.0
 94
        5
 62
     0
340
55
144
0.25
309
CONTENTFORMAT_END
171
     0
 94
        0
309
TABLEFORMAT_END
  1
CELLSTYLE_BEGIN
 90
        1
 91
        1
300
_TITLE
309
CELLSTYLE_END
300
CELLSTYLE
  1
TABLEFORMAT_BEGIN
 90
        5
170
     1
 91
        0
 92
        0
 62
   257
 93
        1
300
CONTENTFORMAT
  1
CONTENTFORMAT_BEGIN
 90
        0
 91
        0
 92
      512
 93
        0
300

 40
0.0
140
1.0
 94
        5
 62
     0
340
55
144
0.18
309
CONTENTFORMAT_END
171
     0
 94
        0
309
TABLEFORMAT_END
  1
CELLSTYLE_BEGIN
 90
        2
 91
        1
300
_HEADER
309
CELLSTYLE_END
300
CELLSTYLE
  1
TABLEFORMAT_BEGIN
 90
        5
170
     1
 91
        0
 92
        0
 62
   257
 93
        1
300
CONTENTFORMAT
  1
CONTENTFORMAT_BEGIN
 90
        0
 91
        0
 92
      512
 93
        0
300

 40
0.0
140
1.0
 94
        2
 62
     0
340
55
144
0.18
309
CONTENTFORMAT_END
171
     0
 94
        0
309
TABLEFORMAT_END
  1
CELLSTYLE_BEGIN
 90
        3
 91
        2
300
_DATA
309
CELLSTYLE_END
  0
XRECORD
  5
26C
102
{ACAD_REACTORS
330
236
102
}
330
236
100
AcDbXrecord
280
     1
102
ACAD_ROUNDTRIP_PRE2007_TABLESTYLE
 90
      512
 91
        0
  1

 92
      512
 93
        0
  2

 94
      512
 95
        0
  3

  0
XRECORD
  5
247
102
{ACAD_REACTORS
330
246
102
}
330
246
100
AcDbXrecord
280
     1
102
RTVSPost2010Prop28
280
     1
102
RTVSPost2010PropOp28
 70
     1
102
RTVSPost2010Prop29
280
     1
102
RTVSPost2010PropOp29
 70
     1
102
RTVSPost2010Prop30
280
     0
102
RTVSPost2010PropOp30
 70
     1
102
RTVSPost2010Prop31
280
     0
102
RTVSPost2010PropOp31
 70
     1
102
RTVSPost2010Prop32
280
     0
102
RTVSPost2010PropOp32
 70
     1
102
RTVSPost2010Prop33
280
     0
102
RTVSPost2010PropOp33
 70
     1
102
RTVSPost2010Prop34
280
     0
102
RTVSPost2010PropOp34
 70
     1
102
RTVSPost2010Prop35
280
     0
102
RTVSPost2010PropOp35
 70
     1
102
RTVSPost2010Prop36
280
     0
102
RTVSPost2010PropOp36
 70
     1
102
RTVSPost2010Prop37
 90
       50
102
RTVSPost2010PropOp37
 70
     1
102
RTVSPost2010Prop38
140
0.0
102
RTVSPost2010PropOp38
 70
     1
102
RTVSPost2010Prop39
140
1.0
102
RTVSPost2010PropOp39
 70
     1
102
RTVSPost2010Prop40
 90
        0
102
RTVSPost2010PropOp40
 70
     1
102
RTVSPost2010Prop41ColorIndex
 90
       18
102
RTVSPost2010Prop41ColorRGB
 90
        0
102
RTVSPost2010PropOp41
 70
     1
102
RTVSPost2010Prop42
 90
       50
102
RTVSPost2010PropOp42
 70
     1
102
RTVSPost2010Prop43
 90
        3
102
RTVSPost2010PropOp43
 70
     1
102
RTVSPost2010Prop44ColorIndex
 90
        5
102
RTVSPost2010Prop44ColorRGB
 90
      255
102
RTVSPost2010PropOp44
 70
     1
102
RTVSPost2010Prop45
280
     0
102
RTVSPost2010PropOp45
 70
     1
102
RTVSPost2010Prop46
 90
       50
102
RTVSPost2010PropOp46
 70
     1
102
RTVSPost2010Prop47
 90
       50
102
RTVSPost2010PropOp47
 70
     1
102
RTVSPost2010Prop48
 90
       50
102
RTVSPost2010PropOp48
 70
     1
102
RTVSPost2010Prop49
280
     0
102
RTVSPost2010PropOp49
 70
     1
102
RTVSPost2010Prop50
 90
       50
102
RTVSPost2010PropOp50
 70
     1
102
RTVSPost2010Prop51ColorIndex
 90
      256
102
RTVSPost2010Prop51ColorRGB
 90
-16777216
102
RTVSPost2010PropOp51
 70
     0
102
RTVSPost2010Prop52
140
1.0
102
RTVSPost2010PropOp52
 70
     0
102
RTVSPost2010Prop53
 90
        2
102
RTVSPost2010PropOp53
 70
     1
102
RTVSPost2010Prop54
  1
strokes_ogs.tif
102
RTVSPost2010PropOp54
 70
     1
102
RTVSPost2010Prop55
280
     0
102
RTVSPost2010PropOp55
 70
     1
102
RTVSPost2010Prop56
140
1.0
102
RTVSPost2010PropOp56
 70
     1
102
RTVSPost2010Prop57
140
1.0
102
RTVSPost2010PropOp57
 70
     1
102
RTVSPropertyOp0
 70
     1
102
RTVSPropertyOp1
 70
     1
102
RTVSPropertyOp2
 70
     1
102
RTVSPropertyOp3
 70
     1
102
RTVSPropertyOp4
 70
     1
102
RTVSPropertyOp5
 70
     1
102
RTVSPropertyOp6
 70
     1
102
RTVSPropertyOp7
 70
     1
102
RTVSPropertyOp8
 70
     1
102
RTVSPropertyOp9
 70
     1
102
RTVSPropertyOp10
 70
     1
102
RTVSPropertyOp11
 70
     1
102
RTVSPropertyOp12
 70
     1
102
RTVSPropertyOp13
 70
     1
102
RTVSPropertyOp14
 70
     1
102
RTVSPropertyOp15
 70
     1
102
RTVSPropertyOp16
 70
     1
102
RTVSPropertyOp17
 70
     1
102
RTVSPropertyOp18
 70
     1
102
RTVSPropertyOp19
 70
     1
102
RTVSPropertyOp20
 70
     1
102
RTVSPropertyOp21
 70
     1
102
RTVSPropertyOp22
 70
     1
102
RTVSPropertyOp23
 70
     1
102
RTVSPropertyOp24
 70
     1
102
RTVSPropertyOp25
 70
     1
102
RTVSPropertyOp26
 70
     1
102
RTVSPropertyOp27
 70
     1
102
RTVSPropertyOp28
 70
     1
102
RTVSPropertyOp29
 70
     1
102
RTVSPropertyOp30
 70
     1
102
RTVSPropertyOp31
 70
     1
102
RTVSPropertyOp32
 70
     1
102
RTVSPropertyOp33
 70
     1
102
RTVSPropertyOp34
 70
     1
102
RTVSPropertyOp35
 70
     1
102
RTVSPropertyOp36
 70
     1
102
RTVSPropertyOp37
 70
     1
102
RTVSPropertyOp38
 70
     1
102
RTVSPropertyOp39
 70
     1
102
RTVSPropertyOp40
 70
     1
102
RTVSPropertyOp41
 70
     1
102
RTVSPropertyOp42
 70
     1
102
RTVSPropertyOp43
 70
     1
102
RTVSPropertyOp44
 70
     1
102
RTVSPropertyOp45
 70
     1
102
RTVSPropertyOp46
 70
     1
102
RTVSPropertyOp47
 70
     1
102
RTVSPropertyOp48
 70
     1
102
RTVSPropertyOp49
 70
     1
102
RTVSPropertyOp50
 70
     1
102
RTVSPropertyOp51
 70
     0
102
RTVSPropertyOp52
 70
     0
102
RTVSPropertyOp53
 70
     1
102
RTVSPropertyOp54
 70
     1
102
RTVSPropertyOp55
 70
     1
102
RTVSPropertyOp56
 70
     1
102
RTVSPropertyOp57
 70
     1
102
RTVSPropertyOp58
 70
     1
102
RTVSPropertyOp59
 70
     1
102
RTVSPropertyOp60
 70
     1
102
RTVSPropertyOp61
 70
     1
102
RTVSPropertyOp62
 70
     1
  0
XRECORD
  5
245
102
{ACAD_REACTORS
330
244
102
}
330
244
100
AcDbXrecord
280
     1
102
RTVSPost2010Prop28
280
     0
102
RTVSPost2010PropOp28
 70
     1
102
RTVSPost2010Prop29
280
     1
102
RTVSPost2010PropOp29
 70
     1
102
RTVSPost2010Prop30
280
     1
102
RTVSPost2010PropOp30
 70
     1
102
RTVSPost2010Prop31
280
     0
102
RTVSPost2010PropOp31
 70
     1
102
RTVSPost2010Prop32
280
     0
102
RTVSPost2010PropOp32
 70
     1
102
RTVSPost2010Prop33
280
     0
102
RTVSPost2010PropOp33
 70
     1
102
RTVSPost2010Prop34
280
     0
102
RTVSPost2010PropOp34
 70
     1
102
RTVSPost2010Prop35
280
     0
102
RTVSPost2010PropOp35
 70
     1
102
RTVSPost2010Prop36
280
     0
102
RTVSPost2010PropOp36
 70
     1
102
RTVSPost2010Prop37
 90
       50
102
RTVSPost2010PropOp37
 70
     1
102
RTVSPost2010Prop38
140
0.0
102
RTVSPost2010PropOp38
 70
     1
102
RTVSPost2010Prop39
140
1.0
102
RTVSPost2010PropOp39
 70
     1
102
RTVSPost2010Prop40
 90
        0
102
RTVSPost2010PropOp40
 70
     1
102
RTVSPost2010Prop41ColorIndex
 90
       18
102
RTVSPost2010Prop41ColorRGB
 90
        0
102
RTVSPost2010PropOp41
 70
     1
102
RTVSPost2010Prop42
 90
       50
102
RTVSPost2010PropOp42
 70
     1
102
RTVSPost2010Prop43
 90
        3
102
RTVSPost2010PropOp43
 70
     1
102
RTVSPost2010Prop44ColorIndex
 90
        5
102
RTVSPost2010Prop44ColorRGB
 90
      255
102
RTVSPost2010PropOp44
 70
     1
102
RTVSPost2010Prop45
280
     0
102
RTVSPost2010PropOp45
 70
     1
102
RTVSPost2010Prop46
 90
       50
102
RTVSPost2010PropOp46
 70
     1
102
RTVSPost2010Prop47
 90
       50
102
RTVSPost2010PropOp47
 70
     1
102
RTVSPost2010Prop48
 90
       50
102
RTVSPost2010PropOp48
 70
     1
102
RTVSPost2010Prop49
280
     0
102
RTVSPost2010PropOp49
 70
     1
102
RTVSPost2010Prop50
 90
       50
102
RTVSPost2010PropOp50
 70
     1
102
RTVSPost2010Prop51ColorIndex
 90
      256
102
RTVSPost2010Prop51ColorRGB
 90
-16777216
102
RTVSPost2010PropOp51
 70
     0
102
RTVSPost2010Prop52
140
1.0
102
RTVSPost2010PropOp52
 70
     0
102
RTVSPost2010Prop53
 90
        2
102
RTVSPost2010PropOp53
 70
     1
102
RTVSPost2010Prop54
  1
strokes_ogs.tif
102
RTVSPost2010PropOp54
 70
     1
102
RTVSPost2010Prop55
280
     0
102
RTVSPost2010PropOp55
 70
     1
102
RTVSPost2010Prop56
140
1.0
102
RTVSPost2010PropOp56
 70
     1
102
RTVSPost2010Prop57
140
1.0
102
RTVSPost2010PropOp57
 70
     1
102
RTVSPropertyOp0
 70
     1
102
RTVSPropertyOp1
 70
     1
102
RTVSPropertyOp2
 70
     1
102
RTVSPropertyOp3
 70
     1
102
RTVSPropertyOp4
 70
     1
102
RTVSPropertyOp5
 70
     1
102
RTVSPropertyOp6
 70
     1
102
RTVSPropertyOp7
 70
     1
102
RTVSPropertyOp8
 70
     1
102
RTVSPropertyOp9
 70
     1
102
RTVSPropertyOp10
 70
     1
102
RTVSPropertyOp11
 70
     1
102
RTVSPropertyOp12
 70
     1
102
RTVSPropertyOp13
 70
     1
102
RTVSPropertyOp14
 70
     1
102
RTVSPropertyOp15
 70
     1
102
RTVSPropertyOp16
 70
     1
102
RTVSPropertyOp17
 70
     1
102
RTVSPropertyOp18
 70
     1
102
RTVSPropertyOp19
 70
     1
102
RTVSPropertyOp20
 70
     1
102
RTVSPropertyOp21
 70
     1
102
RTVSPropertyOp22
 70
     1
102
RTVSPropertyOp23
 70
     1
102
RTVSPropertyOp24
 70
     1
102
RTVSPropertyOp25
 70
     1
102
RTVSPropertyOp26
 70
     1
102
RTVSPropertyOp27
 70
     1
102
RTVSPropertyOp28
 70
     1
102
RTVSPropertyOp29
 70
     1
102
RTVSPropertyOp30
 70
     1
102
RTVSPropertyOp31
 70
     1
102
RTVSPropertyOp32
 70
     1
102
RTVSPropertyOp33
 70
     1
102
RTVSPropertyOp34
 70
     1
102
RTVSPropertyOp35
 70
     1
102
RTVSPropertyOp36
 70
     1
102
RTVSPropertyOp37
 70
     1
102
RTVSPropertyOp38
 70
     1
102
RTVSPropertyOp39
 70
     1
102
RTVSPropertyOp40
 70
     1
102
RTVSPropertyOp41
 70
     1
102
RTVSPropertyOp42
 70
     1
102
RTVSPropertyOp43
 70
     1
102
RTVSPropertyOp44
 70
     1
102
RTVSPropertyOp45
 70
     1
102
RTVSPropertyOp46
 70
     1
102
RTVSPropertyOp47
 70
     1
102
RTVSPropertyOp48
 70
     1
102
RTVSPropertyOp49
 70
     1
102
RTVSPropertyOp50
 70
     1
102
RTVSPropertyOp51
 70
     0
102
RTVSPropertyOp52
 70
     0
102
RTVSPropertyOp53
 70
     1
102
RTVSPropertyOp54
 70
     1
102
RTVSPropertyOp55
 70
     1
102
RTVSPropertyOp56
 70
     1
102
RTVSPropertyOp57
 70
     1
102
RTVSPropertyOp58
 70
     1
102
RTVSPropertyOp59
 70
     1
102
RTVSPropertyOp60
 70
     1
102
RTVSPropertyOp61
 70
     1
102
RTVSPropertyOp62
 70
     1
  0
XRECORD
  5
253
102
{ACAD_REACTORS
330
252
102
}
330
252
100
AcDbXrecord
280
     1
102
RTVSPost2010Prop28
280
     0
102
RTVSPost2010PropOp28
 70
     1
102
RTVSPost2010Prop29
280
     1
102
RTVSPost2010PropOp29
 70
     1
102
RTVSPost2010Prop30
280
     1
102
RTVSPost2010PropOp30
 70
     1
102
RTVSPost2010Prop31
280
     0
102
RTVSPost2010PropOp31
 70
     1
102
RTVSPost2010Prop32
280
     0
102
RTVSPost2010PropOp32
 70
     1
102
RTVSPost2010Prop33
280
     0
102
RTVSPost2010PropOp33
 70
     1
102
RTVSPost2010Prop34
280
     0
102
RTVSPost2010PropOp34
 70
     1
102
RTVSPost2010Prop35
280
     0
102
RTVSPost2010PropOp35
 70
     1
102
RTVSPost2010Prop36
280
     0
102
RTVSPost2010PropOp36
 70
     1
102
RTVSPost2010Prop37
 90
       50
102
RTVSPost2010PropOp37
 70
     1
102
RTVSPost2010Prop38
140
0.0
102
RTVSPost2010PropOp38
 70
     1
102
RTVSPost2010Prop39
140
1.0
102
RTVSPost2010PropOp39
 70
     1
102
RTVSPost2010Prop40
 90
        0
102
RTVSPost2010PropOp40
 70
     1
102
RTVSPost2010Prop41ColorIndex
 90
       18
102
RTVSPost2010Prop41ColorRGB
 90
        0
102
RTVSPost2010PropOp41
 70
     1
102
RTVSPost2010Prop42
 90
       50
102
RTVSPost2010PropOp42
 70
     1
102
RTVSPost2010Prop43
 90
        3
102
RTVSPost2010PropOp43
 70
     1
102
RTVSPost2010Prop44ColorIndex
 90
        5
102
RTVSPost2010Prop44ColorRGB
 90
      255
102
RTVSPost2010PropOp44
 70
     1
102
RTVSPost2010Prop45
280
     0
102
RTVSPost2010PropOp45
 70
     1
102
RTVSPost2010Prop46
 90
       50
102
RTVSPost2010PropOp46
 70
     1
102
RTVSPost2010Prop47
 90
       50
102
RTVSPost2010PropOp47
 70
     1
102
RTVSPost2010Prop48
 90
       50
102
RTVSPost2010PropOp48
 70
     1
102
RTVSPost2010Prop49
280
     0
102
RTVSPost2010PropOp49
 70
     1
102
RTVSPost2010Prop50
 90
       50
102
RTVSPost2010PropOp50
 70
     1
102
RTVSPost2010Prop51ColorIndex
 90
      256
102
RTVSPost2010Prop51ColorRGB
 90
-16777216
102
RTVSPost2010PropOp51
 70
     0
102
RTVSPost2010Prop52
140
1.0
102
RTVSPost2010PropOp52
 70
     0
102
RTVSPost2010Prop53
 90
        2
102
RTVSPost2010PropOp53
 70
     1
102
RTVSPost2010Prop54
  1
strokes_ogs.tif
102
RTVSPost2010PropOp54
 70
     1
102
RTVSPost2010Prop55
280
     0
102
RTVSPost2010PropOp55
 70
     1
102
RTVSPost2010Prop56
140
1.0
102
RTVSPost2010PropOp56
 70
     1
102
RTVSPost2010Prop57
140
1.0
102
RTVSPost2010PropOp57
 70
     1
102
RTVSPropertyOp0
 70
     1
102
RTVSPropertyOp1
 70
     1
102
RTVSPropertyOp2
 70
     1
102
RTVSPropertyOp3
 70
     1
102
RTVSPropertyOp4
 70
     1
102
RTVSPropertyOp5
 70
     1
102
RTVSPropertyOp6
 70
     1
102
RTVSPropertyOp7
 70
     1
102
RTVSPropertyOp8
 70
     1
102
RTVSPropertyOp9
 70
     1
102
RTVSPropertyOp10
 70
     1
102
RTVSPropertyOp11
 70
     1
102
RTVSPropertyOp12
 70
     1
102
RTVSPropertyOp13
 70
     1
102
RTVSPropertyOp14
 70
     1
102
RTVSPropertyOp15
 70
     1
102
RTVSPropertyOp16
 70
     1
102
RTVSPropertyOp17
 70
     1
102
RTVSPropertyOp18
 70
     1
102
RTVSPropertyOp19
 70
     1
102
RTVSPropertyOp20
 70
     1
102
RTVSPropertyOp21
 70
     1
102
RTVSPropertyOp22
 70
     1
102
RTVSPropertyOp23
 70
     1
102
RTVSPropertyOp24
 70
     1
102
RTVSPropertyOp25
 70
     1
102
RTVSPropertyOp26
 70
     1
102
RTVSPropertyOp27
 70
     1
102
RTVSPropertyOp28
 70
     1
102
RTVSPropertyOp29
 70
     1
102
RTVSPropertyOp30
 70
     1
102
RTVSPropertyOp31
 70
     1
102
RTVSPropertyOp32
 70
     1
102
RTVSPropertyOp33
 70
     1
102
RTVSPropertyOp34
 70
     1
102
RTVSPropertyOp35
 70
     1
102
RTVSPropertyOp36
 70
     1
102
RTVSPropertyOp37
 70
     1
102
RTVSPropertyOp38
 70
     1
102
RTVSPropertyOp39
 70
     1
102
RTVSPropertyOp40
 70
     1
102
RTVSPropertyOp41
 70
     1
102
RTVSPropertyOp42
 70
     1
102
RTVSPropertyOp43
 70
     1
102
RTVSPropertyOp44
 70
     1
102
RTVSPropertyOp45
 70
     1
102
RTVSPropertyOp46
 70
     1
102
RTVSPropertyOp47
 70
     1
102
RTVSPropertyOp48
 70
     1
102
RTVSPropertyOp49
 70
     1
102
RTVSPropertyOp50
 70
     1
102
RTVSPropertyOp51
 70
     0
102
RTVSPropertyOp52
 70
     0
102
RTVSPropertyOp53
 70
     1
102
RTVSPropertyOp54
 70
     1
102
RTVSPropertyOp55
 70
     1
102
RTVSPropertyOp56
 70
     1
102
RTVSPropertyOp57
 70
     1
102
RTVSPropertyOp58
 70
     1
102
RTVSPropertyOp59
 70
     1
102
RTVSPropertyOp60
 70
     1
102
RTVSPropertyOp61
 70
     1
102
RTVSPropertyOp62
 70
     1
  0
XRECORD
  5
25B
102
{ACAD_REACTORS
330
25A
102
}
330
25A
100
AcDbXrecord
280
     1
102
RTVSPost2010Prop28
280
     0
102
RTVSPost2010PropOp28
 70
     1
102
RTVSPost2010Prop29
280
     1
102
RTVSPost2010PropOp29
 70
     1
102
RTVSPost2010Prop30
280
     1
102
RTVSPost2010PropOp30
 70
     1
102
RTVSPost2010Prop31
280
     0
102
RTVSPost2010PropOp31
 70
     1
102
RTVSPost2010Prop32
280
     0
102
RTVSPost2010PropOp32
 70
     1
102
RTVSPost2010Prop33
280
     0
102
RTVSPost2010PropOp33
 70
     1
102
RTVSPost2010Prop34
280
     0
102
RTVSPost2010PropOp34
 70
     1
102
RTVSPost2010Prop35
280
     0
102
RTVSPost2010PropOp35
 70
     1
102
RTVSPost2010Prop36
280
     0
102
RTVSPost2010PropOp36
 70
     1
102
RTVSPost2010Prop37
 90
       50
102
RTVSPost2010PropOp37
 70
     1
102
RTVSPost2010Prop38
140
0.0
102
RTVSPost2010PropOp38
 70
     1
102
RTVSPost2010Prop39
140
1.0
102
RTVSPost2010PropOp39
 70
     1
102
RTVSPost2010Prop40
 90
        0
102
RTVSPost2010PropOp40
 70
     1
102
RTVSPost2010Prop41ColorIndex
 90
       18
102
RTVSPost2010Prop41ColorRGB
 90
        0
102
RTVSPost2010PropOp41
 70
     1
102
RTVSPost2010Prop42
 90
       50
102
RTVSPost2010PropOp42
 70
     1
102
RTVSPost2010Prop43
 90
        3
102
RTVSPost2010PropOp43
 70
     1
102
RTVSPost2010Prop44ColorIndex
 90
        5
102
RTVSPost2010Prop44ColorRGB
 90
      255
102
RTVSPost2010PropOp44
 70
     1
102
RTVSPost2010Prop45
280
     0
102
RTVSPost2010PropOp45
 70
     1
102
RTVSPost2010Prop46
 90
       50
102
RTVSPost2010PropOp46
 70
     1
102
RTVSPost2010Prop47
 90
       50
102
RTVSPost2010PropOp47
 70
     1
102
RTVSPost2010Prop48
 90
       50
102
RTVSPost2010PropOp48
 70
     1
102
RTVSPost2010Prop49
280
     0
102
RTVSPost2010PropOp49
 70
     1
102
RTVSPost2010Prop50
 90
       50
102
RTVSPost2010PropOp50
 70
     1
102
RTVSPost2010Prop51ColorIndex
 90
      256
102
RTVSPost2010Prop51ColorRGB
 90
-16777216
102
RTVSPost2010PropOp51
 70
     0
102
RTVSPost2010Prop52
140
1.0
102
RTVSPost2010PropOp52
 70
     0
102
RTVSPost2010Prop53
 90
        2
102
RTVSPost2010PropOp53
 70
     1
102
RTVSPost2010Prop54
  1
strokes_ogs.tif
102
RTVSPost2010PropOp54
 70
     1
102
RTVSPost2010Prop55
280
     0
102
RTVSPost2010PropOp55
 70
     1
102
RTVSPost2010Prop56
140
1.0
102
RTVSPost2010PropOp56
 70
     1
102
RTVSPost2010Prop57
140
1.0
102
RTVSPost2010PropOp57
 70
     1
102
RTVSPropertyOp0
 70
     1
102
RTVSPropertyOp1
 70
     1
102
RTVSPropertyOp2
 70
     1
102
RTVSPropertyOp3
 70
     1
102
RTVSPropertyOp4
 70
     1
102
RTVSPropertyOp5
 70
     1
102
RTVSPropertyOp6
 70
     1
102
RTVSPropertyOp7
 70
     1
102
RTVSPropertyOp8
 70
     1
102
RTVSPropertyOp9
 70
     1
102
RTVSPropertyOp10
 70
     1
102
RTVSPropertyOp11
 70
     1
102
RTVSPropertyOp12
 70
     1
102
RTVSPropertyOp13
 70
     1
102
RTVSPropertyOp14
 70
     1
102
RTVSPropertyOp15
 70
     1
102
RTVSPropertyOp16
 70
     1
102
RTVSPropertyOp17
 70
     1
102
RTVSPropertyOp18
 70
     1
102
RTVSPropertyOp19
 70
     1
102
RTVSPropertyOp20
 70
     1
102
RTVSPropertyOp21
 70
     1
102
RTVSPropertyOp22
 70
     1
102
RTVSPropertyOp23
 70
     1
102
RTVSPropertyOp24
 70
     1
102
RTVSPropertyOp25
 70
     1
102
RTVSPropertyOp26
 70
     1
102
RTVSPropertyOp27
 70
     1
102
RTVSPropertyOp28
 70
     1
102
RTVSPropertyOp29
 70
     1
102
RTVSPropertyOp30
 70
     1
102
RTVSPropertyOp31
 70
     1
102
RTVSPropertyOp32
 70
     1
102
RTVSPropertyOp33
 70
     1
102
RTVSPropertyOp34
 70
     1
102
RTVSPropertyOp35
 70
     1
102
RTVSPropertyOp36
 70
     1
102
RTVSPropertyOp37
 70
     1
102
RTVSPropertyOp38
 70
     1
102
RTVSPropertyOp39
 70
     1
102
RTVSPropertyOp40
 70
     1
102
RTVSPropertyOp41
 70
     1
102
RTVSPropertyOp42
 70
     1
102
RTVSPropertyOp43
 70
     1
102
RTVSPropertyOp44
 70
     1
102
RTVSPropertyOp45
 70
     1
102
RTVSPropertyOp46
 70
     1
102
RTVSPropertyOp47
 70
     1
102
RTVSPropertyOp48
 70
     1
102
RTVSPropertyOp49
 70
     1
102
RTVSPropertyOp50
 70
     1
102
RTVSPropertyOp51
 70
     0
102
RTVSPropertyOp52
 70
     0
102
RTVSPropertyOp53
 70
     1
102
RTVSPropertyOp54
 70
     1
102
RTVSPropertyOp55
 70
     1
102
RTVSPropertyOp56
 70
     1
102
RTVSPropertyOp57
 70
     1
102
RTVSPropertyOp58
 70
     1
102
RTVSPropertyOp59
 70
     1
102
RTVSPropertyOp60
 70
     1
102
RTVSPropertyOp61
 70
     1
102
RTVSPropertyOp62
 70
     1
  0
XRECORD
  5
24D
102
{ACAD_REACTORS
330
24C
102
}
330
24C
100
AcDbXrecord
280
     1
102
RTVSPost2010Prop28
280
     0
102
RTVSPost2010PropOp28
 70
     1
102
RTVSPost2010Prop29
280
     1
102
RTVSPost2010PropOp29
 70
     1
102
RTVSPost2010Prop30
280
     1
102
RTVSPost2010PropOp30
 70
     1
102
RTVSPost2010Prop31
280
     0
102
RTVSPost2010PropOp31
 70
     1
102
RTVSPost2010Prop32
280
     0
102
RTVSPost2010PropOp32
 70
     1
102
RTVSPost2010Prop33
280
     0
102
RTVSPost2010PropOp33
 70
     1
102
RTVSPost2010Prop34
280
     0
102
RTVSPost2010PropOp34
 70
     1
102
RTVSPost2010Prop35
280
     0
102
RTVSPost2010PropOp35
 70
     1
102
RTVSPost2010Prop36
280
     0
102
RTVSPost2010PropOp36
 70
     1
102
RTVSPost2010Prop37
 90
       50
102
RTVSPost2010PropOp37
 70
     1
102
RTVSPost2010Prop38
140
0.0
102
RTVSPost2010PropOp38
 70
     1
102
RTVSPost2010Prop39
140
1.0
102
RTVSPost2010PropOp39
 70
     1
102
RTVSPost2010Prop40
 90
        0
102
RTVSPost2010PropOp40
 70
     1
102
RTVSPost2010Prop41ColorIndex
 90
       18
102
RTVSPost2010Prop41ColorRGB
 90
        0
102
RTVSPost2010PropOp41
 70
     1
102
RTVSPost2010Prop42
 90
       50
102
RTVSPost2010PropOp42
 70
     1
102
RTVSPost2010Prop43
 90
        3
102
RTVSPost2010PropOp43
 70
     1
102
RTVSPost2010Prop44ColorIndex
 90
        5
102
RTVSPost2010Prop44ColorRGB
 90
      255
102
RTVSPost2010PropOp44
 70
     1
102
RTVSPost2010Prop45
280
     0
102
RTVSPost2010PropOp45
 70
     1
102
RTVSPost2010Prop46
 90
       50
102
RTVSPost2010PropOp46
 70
     1
102
RTVSPost2010Prop47
 90
       50
102
RTVSPost2010PropOp47
 70
     1
102
RTVSPost2010Prop48
 90
       50
102
RTVSPost2010PropOp48
 70
     1
102
RTVSPost2010Prop49
280
     0
102
RTVSPost2010PropOp49
 70
     1
102
RTVSPost2010Prop50
 90
       50
102
RTVSPost2010PropOp50
 70
     1
102
RTVSPost2010Prop51ColorIndex
 90
      256
102
RTVSPost2010Prop51ColorRGB
 90
-16777216
102
RTVSPost2010PropOp51
 70
     0
102
RTVSPost2010Prop52
140
1.0
102
RTVSPost2010PropOp52
 70
     0
102
RTVSPost2010Prop53
 90
        2
102
RTVSPost2010PropOp53
 70
     1
102
RTVSPost2010Prop54
  1
strokes_ogs.tif
102
RTVSPost2010PropOp54
 70
     1
102
RTVSPost2010Prop55
280
     0
102
RTVSPost2010PropOp55
 70
     1
102
RTVSPost2010Prop56
140
1.0
102
RTVSPost2010PropOp56
 70
     1
102
RTVSPost2010Prop57
140
1.0
102
RTVSPost2010PropOp57
 70
     1
102
RTVSPropertyOp0
 70
     1
102
RTVSPropertyOp1
 70
     1
102
RTVSPropertyOp2
 70
     1
102
RTVSPropertyOp3
 70
     1
102
RTVSPropertyOp4
 70
     1
102
RTVSPropertyOp5
 70
     1
102
RTVSPropertyOp6
 70
     1
102
RTVSPropertyOp7
 70
     1
102
RTVSPropertyOp8
 70
     1
102
RTVSPropertyOp9
 70
     1
102
RTVSPropertyOp10
 70
     1
102
RTVSPropertyOp11
 70
     1
102
RTVSPropertyOp12
 70
     1
102
RTVSPropertyOp13
 70
     1
102
RTVSPropertyOp14
 70
     1
102
RTVSPropertyOp15
 70
     1
102
RTVSPropertyOp16
 70
     1
102
RTVSPropertyOp17
 70
     1
102
RTVSPropertyOp18
 70
     1
102
RTVSPropertyOp19
 70
     1
102
RTVSPropertyOp20
 70
     1
102
RTVSPropertyOp21
 70
     1
102
RTVSPropertyOp22
 70
     1
102
RTVSPropertyOp23
 70
     1
102
RTVSPropertyOp24
 70
     1
102
RTVSPropertyOp25
 70
     1
102
RTVSPropertyOp26
 70
     1
102
RTVSPropertyOp27
 70
     1
102
RTVSPropertyOp28
 70
     1
102
RTVSPropertyOp29
 70
     1
102
RTVSPropertyOp30
 70
     1
102
RTVSPropertyOp31
 70
     1
102
RTVSPropertyOp32
 70
     1
102
RTVSPropertyOp33
 70
     1
102
RTVSPropertyOp34
 70
     1
102
RTVSPropertyOp35
 70
     1
102
RTVSPropertyOp36
 70
     1
102
RTVSPropertyOp37
 70
     1
102
RTVSPropertyOp38
 70
     1
102
RTVSPropertyOp39
 70
     1
102
RTVSPropertyOp40
 70
     1
102
RTVSPropertyOp41
 70
     1
102
RTVSPropertyOp42
 70
     1
102
RTVSPropertyOp43
 70
     1
102
RTVSPropertyOp44
 70
     1
102
RTVSPropertyOp45
 70
     1
102
RTVSPropertyOp46
 70
     1
102
RTVSPropertyOp47
 70
     1
102
RTVSPropertyOp48
 70
     1
102
RTVSPropertyOp49
 70
     1
102
RTVSPropertyOp50
 70
     1
102
RTVSPropertyOp51
 70
     0
102
RTVSPropertyOp52
 70
     0
102
RTVSPropertyOp53
 70
     1
102
RTVSPropertyOp54
 70
     1
102
RTVSPropertyOp55
 70
     1
102
RTVSPropertyOp56
 70
     1
102
RTVSPropertyOp57
 70
     1
102
RTVSPropertyOp58
 70
     1
102
RTVSPropertyOp59
 70
     1
102
RTVSPropertyOp60
 70
     1
102
RTVSPropertyOp61
 70
     1
102
RTVSPropertyOp62
 70
     1
  0
XRECORD
  5
251
102
{ACAD_REACTORS
330
250
102
}
330
250
100
AcDbXrecord
280
     1
102
RTVSPost2010Prop28
280
     0
102
RTVSPost2010PropOp28
 70
     1
102
RTVSPost2010Prop29
280
     1
102
RTVSPost2010PropOp29
 70
     1
102
RTVSPost2010Prop30
280
     1
102
RTVSPost2010PropOp30
 70
     1
102
RTVSPost2010Prop31
280
     0
102
RTVSPost2010PropOp31
 70
     1
102
RTVSPost2010Prop32
280
     0
102
RTVSPost2010PropOp32
 70
     1
102
RTVSPost2010Prop33
280
     0
102
RTVSPost2010PropOp33
 70
     1
102
RTVSPost2010Prop34
280
     0
102
RTVSPost2010PropOp34
 70
     1
102
RTVSPost2010Prop35
280
     0
102
RTVSPost2010PropOp35
 70
     1
102
RTVSPost2010Prop36
280
     0
102
RTVSPost2010PropOp36
 70
     1
102
RTVSPost2010Prop37
 90
       50
102
RTVSPost2010PropOp37
 70
     1
102
RTVSPost2010Prop38
140
0.0
102
RTVSPost2010PropOp38
 70
     1
102
RTVSPost2010Prop39
140
1.0
102
RTVSPost2010PropOp39
 70
     1
102
RTVSPost2010Prop40
 90
        0
102
RTVSPost2010PropOp40
 70
     1
102
RTVSPost2010Prop41ColorIndex
 90
       18
102
RTVSPost2010Prop41ColorRGB
 90
        0
102
RTVSPost2010PropOp41
 70
     1
102
RTVSPost2010Prop42
 90
       50
102
RTVSPost2010PropOp42
 70
     1
102
RTVSPost2010Prop43
 90
        3
102
RTVSPost2010PropOp43
 70
     1
102
RTVSPost2010Prop44ColorIndex
 90
        5
102
RTVSPost2010Prop44ColorRGB
 90
      255
102
RTVSPost2010PropOp44
 70
     1
102
RTVSPost2010Prop45
280
     0
102
RTVSPost2010PropOp45
 70
     1
102
RTVSPost2010Prop46
 90
       50
102
RTVSPost2010PropOp46
 70
     1
102
RTVSPost2010Prop47
 90
       50
102
RTVSPost2010PropOp47
 70
     1
102
RTVSPost2010Prop48
 90
       50
102
RTVSPost2010PropOp48
 70
     1
102
RTVSPost2010Prop49
280
     0
102
RTVSPost2010PropOp49
 70
     1
102
RTVSPost2010Prop50
 90
       50
102
RTVSPost2010PropOp50
 70
     1
102
RTVSPost2010Prop51ColorIndex
 90
      256
102
RTVSPost2010Prop51ColorRGB
 90
-16777216
102
RTVSPost2010PropOp51
 70
     0
102
RTVSPost2010Prop52
140
1.0
102
RTVSPost2010PropOp52
 70
     0
102
RTVSPost2010Prop53
 90
        2
102
RTVSPost2010PropOp53
 70
     1
102
RTVSPost2010Prop54
  1
strokes_ogs.tif
102
RTVSPost2010PropOp54
 70
     1
102
RTVSPost2010Prop55
280
     0
102
RTVSPost2010PropOp55
 70
     1
102
RTVSPost2010Prop56
140
1.0
102
RTVSPost2010PropOp56
 70
     1
102
RTVSPost2010Prop57
140
1.0
102
RTVSPost2010PropOp57
 70
     1
102
RTVSPropertyOp0
 70
     1
102
RTVSPropertyOp1
 70
     1
102
RTVSPropertyOp2
 70
     1
102
RTVSPropertyOp3
 70
     1
102
RTVSPropertyOp4
 70
     1
102
RTVSPropertyOp5
 70
     1
102
RTVSPropertyOp6
 70
     1
102
RTVSPropertyOp7
 70
     1
102
RTVSPropertyOp8
 70
     1
102
RTVSPropertyOp9
 70
     1
102
RTVSPropertyOp10
 70
     1
102
RTVSPropertyOp11
 70
     1
102
RTVSPropertyOp12
 70
     1
102
RTVSPropertyOp13
 70
     1
102
RTVSPropertyOp14
 70
     1
102
RTVSPropertyOp15
 70
     1
102
RTVSPropertyOp16
 70
     1
102
RTVSPropertyOp17
 70
     1
102
RTVSPropertyOp18
 70
     1
102
RTVSPropertyOp19
 70
     1
102
RTVSPropertyOp20
 70
     1
102
RTVSPropertyOp21
 70
     1
102
RTVSPropertyOp22
 70
     1
102
RTVSPropertyOp23
 70
     1
102
RTVSPropertyOp24
 70
     1
102
RTVSPropertyOp25
 70
     1
102
RTVSPropertyOp26
 70
     1
102
RTVSPropertyOp27
 70
     1
102
RTVSPropertyOp28
 70
     1
102
RTVSPropertyOp29
 70
     1
102
RTVSPropertyOp30
 70
     1
102
RTVSPropertyOp31
 70
     1
102
RTVSPropertyOp32
 70
     1
102
RTVSPropertyOp33
 70
     1
102
RTVSPropertyOp34
 70
     1
102
RTVSPropertyOp35
 70
     1
102
RTVSPropertyOp36
 70
     1
102
RTVSPropertyOp37
 70
     1
102
RTVSPropertyOp38
 70
     1
102
RTVSPropertyOp39
 70
     1
102
RTVSPropertyOp40
 70
     1
102
RTVSPropertyOp41
 70
     1
102
RTVSPropertyOp42
 70
     1
102
RTVSPropertyOp43
 70
     1
102
RTVSPropertyOp44
 70
     1
102
RTVSPropertyOp45
 70
     1
102
RTVSPropertyOp46
 70
     1
102
RTVSPropertyOp47
 70
     1
102
RTVSPropertyOp48
 70
     1
102
RTVSPropertyOp49
 70
     1
102
RTVSPropertyOp50
 70
     1
102
RTVSPropertyOp51
 70
     0
102
RTVSPropertyOp52
 70
     0
102
RTVSPropertyOp53
 70
     1
102
RTVSPropertyOp54
 70
     1
102
RTVSPropertyOp55
 70
     1
102
RTVSPropertyOp56
 70
     1
102
RTVSPropertyOp57
 70
     1
102
RTVSPropertyOp58
 70
     1
102
RTVSPropertyOp59
 70
     1
102
RTVSPropertyOp60
 70
     1
102
RTVSPropertyOp61
 70
     1
102
RTVSPropertyOp62
 70
     1
  0
XRECORD
  5
26B
102
{ACAD_REACTORS
330
26A
102
}
330
26A
100
AcDbXrecord
280
     1
102
RTVSPost2010Prop28
280
     0
102
RTVSPost2010PropOp28
 70
     0
102
RTVSPost2010Prop29
280
     1
102
RTVSPost2010PropOp29
 70
     0
102
RTVSPost2010Prop30
280
     1
102
RTVSPost2010PropOp30
 70
     0
102
RTVSPost2010Prop31
280
     0
102
RTVSPost2010PropOp31
 70
     0
102
RTVSPost2010Prop32
280
     0
102
RTVSPost2010PropOp32
 70
     0
102
RTVSPost2010Prop33
280
     0
102
RTVSPost2010PropOp33
 70
     0
102
RTVSPost2010Prop34
280
     0
102
RTVSPost2010PropOp34
 70
     0
102
RTVSPost2010Prop35
280
     0
102
RTVSPost2010PropOp35
 70
     0
102
RTVSPost2010Prop36
280
     0
102
RTVSPost2010PropOp36
 70
     0
102
RTVSPost2010Prop37
 90
       50
102
RTVSPost2010PropOp37
 70
     0
102
RTVSPost2010Prop38
140
0.0
102
RTVSPost2010PropOp38
 70
     0
102
RTVSPost2010Prop39
140
1.0
102
RTVSPost2010PropOp39
 70
     0
102
RTVSPost2010Prop40
 90
        0
102
RTVSPost2010PropOp40
 70
     0
102
RTVSPost2010Prop41ColorIndex
 90
       18
102
RTVSPost2010Prop41ColorRGB
 90
        0
102
RTVSPost2010PropOp41
 70
     0
102
RTVSPost2010Prop42
 90
       50
102
RTVSPost2010PropOp42
 70
     0
102
RTVSPost2010Prop43
 90
        3
102
RTVSPost2010PropOp43
 70
     0
102
RTVSPost2010Prop44ColorIndex
 90
        5
102
RTVSPost2010Prop44ColorRGB
 90
      255
102
RTVSPost2010PropOp44
 70
     0
102
RTVSPost2010Prop45
280
     0
102
RTVSPost2010PropOp45
 70
     0
102
RTVSPost2010Prop46
 90
       50
102
RTVSPost2010PropOp46
 70
     0
102
RTVSPost2010Prop47
 90
       50
102
RTVSPost2010PropOp47
 70
     0
102
RTVSPost2010Prop48
 90
       50
102
RTVSPost2010PropOp48
 70
     0
102
RTVSPost2010Prop49
280
     0
102
RTVSPost2010PropOp49
 70
     0
102
RTVSPost2010Prop50
 90
       50
102
RTVSPost2010PropOp50
 70
     0
102
RTVSPost2010Prop51ColorIndex
 90
      256
102
RTVSPost2010Prop51ColorRGB
 90
-16777216
102
RTVSPost2010PropOp51
 70
     0
102
RTVSPost2010Prop52
140
1.0
102
RTVSPost2010PropOp52
 70
     0
102
RTVSPost2010Prop53
 90
        2
102
RTVSPost2010PropOp53
 70
     0
102
RTVSPost2010Prop54
  1
strokes_ogs.tif
102
RTVSPost2010PropOp54
 70
     0
102
RTVSPost2010Prop55
280
     0
102
RTVSPost2010PropOp55
 70
     0
102
RTVSPost2010Prop56
140
1.0
102
RTVSPost2010PropOp56
 70
     0
102
RTVSPost2010Prop57
140
1.0
102
RTVSPost2010PropOp57
 70
     0
102
RTVSPropertyOp0
 70
     0
102
RTVSPropertyOp1
 70
     0
102
RTVSPropertyOp2
 70
     0
102
RTVSPropertyOp3
 70
     0
102
RTVSPropertyOp4
 70
     0
102
RTVSPropertyOp5
 70
     0
102
RTVSPropertyOp6
 70
     0
102
RTVSPropertyOp7
 70
     0
102
RTVSPropertyOp8
 70
     0
102
RTVSPropertyOp9
 70
     0
102
RTVSPropertyOp10
 70
     0
102
RTVSPropertyOp11
 70
     0
102
RTVSPropertyOp12
 70
     0
102
RTVSPropertyOp13
 70
     0
102
RTVSPropertyOp14
 70
     2
102
RTVSPropertyOp15
 70
     0
102
RTVSPropertyOp16
 70
     0
102
RTVSPropertyOp17
 70
     0
102
RTVSPropertyOp18
 70
     0
102
RTVSPropertyOp19
 70
     0
102
RTVSPropertyOp20
 70
     0
102
RTVSPropertyOp21
 70
     0
102
RTVSPropertyOp22
 70
     0
102
RTVSPropertyOp23
 70
     0
102
RTVSPropertyOp24
 70
     0
102
RTVSPropertyOp25
 70
     0
102
RTVSPropertyOp26
 70
     0
102
RTVSPropertyOp27
 70
     0
102
RTVSPropertyOp28
 70
     0
102
RTVSPropertyOp29
 70
     0
102
RTVSPropertyOp30
 70
     0
102
RTVSPropertyOp31
 70
     0
102
RTVSPropertyOp32
 70
     0
102
RTVSPropertyOp33
 70
     0
102
RTVSPropertyOp34
 70
     0
102
RTVSPropertyOp35
 70
     0
102
RTVSPropertyOp36
 70
     0
102
RTVSPropertyOp37
 70
     0
102
RTVSPropertyOp38
 70
     0
102
RTVSPropertyOp39
 70
     0
102
RTVSPropertyOp40
 70
     0
102
RTVSPropertyOp41
 70
     0
102
RTVSPropertyOp42
 70
     0
102
RTVSPropertyOp43
 70
     0
102
RTVSPropertyOp44
 70
     0
102
RTVSPropertyOp45
 70
     0
102
RTVSPropertyOp46
 70
     0
102
RTVSPropertyOp47
 70
     0
102
RTVSPropertyOp48
 70
     0
102
RTVSPropertyOp49
 70
     0
102
RTVSPropertyOp50
 70
     0
102
RTVSPropertyOp51
 70
     0
102
RTVSPropertyOp52
 70
     0
102
RTVSPropertyOp53
 70
     0
102
RTVSPropertyOp54
 70
     0
102
RTVSPropertyOp55
 70
     0
102
RTVSPropertyOp56
 70
     0
102
RTVSPropertyOp57
 70
     0
102
RTVSPropertyOp58
 70
     0
102
RTVSPropertyOp59
 70
     0
102
RTVSPropertyOp60
 70
     0
102
RTVSPropertyOp61
 70
     0
102
RTVSPropertyOp62
 70
     0
  0
XRECORD
  5
259
102
{ACAD_REACTORS
330
258
102
}
330
258
100
AcDbXrecord
280
     1
102
RTVSPost2010Prop28
280
     0
102
RTVSPost2010PropOp28
 70
     1
102
RTVSPost2010Prop29
280
     1
102
RTVSPost2010PropOp29
 70
     1
102
RTVSPost2010Prop30
280
     1
102
RTVSPost2010PropOp30
 70
     1
102
RTVSPost2010Prop31
280
     0
102
RTVSPost2010PropOp31
 70
     1
102
RTVSPost2010Prop32
280
     0
102
RTVSPost2010PropOp32
 70
     1
102
RTVSPost2010Prop33
280
     0
102
RTVSPost2010PropOp33
 70
     1
102
RTVSPost2010Prop34
280
     0
102
RTVSPost2010PropOp34
 70
     1
102
RTVSPost2010Prop35
280
     0
102
RTVSPost2010PropOp35
 70
     1
102
RTVSPost2010Prop36
280
     0
102
RTVSPost2010PropOp36
 70
     1
102
RTVSPost2010Prop37
 90
       50
102
RTVSPost2010PropOp37
 70
     1
102
RTVSPost2010Prop38
140
0.0
102
RTVSPost2010PropOp38
 70
     1
102
RTVSPost2010Prop39
140
1.0
102
RTVSPost2010PropOp39
 70
     1
102
RTVSPost2010Prop40
 90
        0
102
RTVSPost2010PropOp40
 70
     1
102
RTVSPost2010Prop41ColorIndex
 90
       18
102
RTVSPost2010Prop41ColorRGB
 90
        0
102
RTVSPost2010PropOp41
 70
     1
102
RTVSPost2010Prop42
 90
       50
102
RTVSPost2010PropOp42
 70
     1
102
RTVSPost2010Prop43
 90
        3
102
RTVSPost2010PropOp43
 70
     1
102
RTVSPost2010Prop44ColorIndex
 90
        5
102
RTVSPost2010Prop44ColorRGB
 90
      255
102
RTVSPost2010PropOp44
 70
     1
102
RTVSPost2010Prop45
280
     0
102
RTVSPost2010PropOp45
 70
     1
102
RTVSPost2010Prop46
 90
       50
102
RTVSPost2010PropOp46
 70
     1
102
RTVSPost2010Prop47
 90
       50
102
RTVSPost2010PropOp47
 70
     1
102
RTVSPost2010Prop48
 90
       50
102
RTVSPost2010PropOp48
 70
     1
102
RTVSPost2010Prop49
280
     0
102
RTVSPost2010PropOp49
 70
     1
102
RTVSPost2010Prop50
 90
       50
102
RTVSPost2010PropOp50
 70
     1
102
RTVSPost2010Prop51ColorIndex
 90
      256
102
RTVSPost2010Prop51ColorRGB
 90
-16777216
102
RTVSPost2010PropOp51
 70
     0
102
RTVSPost2010Prop52
140
1.0
102
RTVSPost2010PropOp52
 70
     0
102
RTVSPost2010Prop53
 90
        2
102
RTVSPost2010PropOp53
 70
     1
102
RTVSPost2010Prop54
  1
strokes_ogs.tif
102
RTVSPost2010PropOp54
 70
     1
102
RTVSPost2010Prop55
280
     0
102
RTVSPost2010PropOp55
 70
     1
102
RTVSPost2010Prop56
140
1.0
102
RTVSPost2010PropOp56
 70
     1
102
RTVSPost2010Prop57
140
1.0
102
RTVSPost2010PropOp57
 70
     1
102
RTVSPropertyOp0
 70
     1
102
RTVSPropertyOp1
 70
     1
102
RTVSPropertyOp2
 70
     1
102
RTVSPropertyOp3
 70
     1
102
RTVSPropertyOp4
 70
     1
102
RTVSPropertyOp5
 70
     1
102
RTVSPropertyOp6
 70
     1
102
RTVSPropertyOp7
 70
     1
102
RTVSPropertyOp8
 70
     1
102
RTVSPropertyOp9
 70
     1
102
RTVSPropertyOp10
 70
     1
102
RTVSPropertyOp11
 70
     1
102
RTVSPropertyOp12
 70
     1
102
RTVSPropertyOp13
 70
     1
102
RTVSPropertyOp14
 70
     1
102
RTVSPropertyOp15
 70
     1
102
RTVSPropertyOp16
 70
     1
102
RTVSPropertyOp17
 70
     1
102
RTVSPropertyOp18
 70
     1
102
RTVSPropertyOp19
 70
     1
102
RTVSPropertyOp20
 70
     1
102
RTVSPropertyOp21
 70
     1
102
RTVSPropertyOp22
 70
     1
102
RTVSPropertyOp23
 70
     1
102
RTVSPropertyOp24
 70
     1
102
RTVSPropertyOp25
 70
     1
102
RTVSPropertyOp26
 70
     1
102
RTVSPropertyOp27
 70
     1
102
RTVSPropertyOp28
 70
     1
102
RTVSPropertyOp29
 70
     1
102
RTVSPropertyOp30
 70
     1
102
RTVSPropertyOp31
 70
     1
102
RTVSPropertyOp32
 70
     1
102
RTVSPropertyOp33
 70
     1
102
RTVSPropertyOp34
 70
     1
102
RTVSPropertyOp35
 70
     1
102
RTVSPropertyOp36
 70
     1
102
RTVSPropertyOp37
 70
     1
102
RTVSPropertyOp38
 70
     1
102
RTVSPropertyOp39
 70
     1
102
RTVSPropertyOp40
 70
     1
102
RTVSPropertyOp41
 70
     1
102
RTVSPropertyOp42
 70
     1
102
RTVSPropertyOp43
 70
     1
102
RTVSPropertyOp44
 70
     1
102
RTVSPropertyOp45
 70
     1
102
RTVSPropertyOp46
 70
     1
102
RTVSPropertyOp47
 70
     1
102
RTVSPropertyOp48
 70
     1
102
RTVSPropertyOp49
 70
     1
102
RTVSPropertyOp50
 70
     1
102
RTVSPropertyOp51
 70
     0
102
RTVSPropertyOp52
 70
     0
102
RTVSPropertyOp53
 70
     1
102
RTVSPropertyOp54
 70
     1
102
RTVSPropertyOp55
 70
     1
102
RTVSPropertyOp56
 70
     1
102
RTVSPropertyOp57
 70
     1
102
RTVSPropertyOp58
 70
     1
102
RTVSPropertyOp59
 70
     1
102
RTVSPropertyOp60
 70
     1
102
RTVSPropertyOp61
 70
     1
102
RTVSPropertyOp62
 70
     1
  0
XRECORD
  5
23D
102
{ACAD_REACTORS
330
23C
102
}
330
23C
100
AcDbXrecord
280
     1
102
RTVSPost2010Prop28
280
     0
102
RTVSPost2010PropOp28
 70
     1
102
RTVSPost2010Prop29
280
     1
102
RTVSPost2010PropOp29
 70
     1
102
RTVSPost2010Prop30
280
     1
102
RTVSPost2010PropOp30
 70
     1
102
RTVSPost2010Prop31
280
     0
102
RTVSPost2010PropOp31
 70
     1
102
RTVSPost2010Prop32
280
     0
102
RTVSPost2010PropOp32
 70
     1
102
RTVSPost2010Prop33
280
     0
102
RTVSPost2010PropOp33
 70
     1
102
RTVSPost2010Prop34
280
     0
102
RTVSPost2010PropOp34
 70
     1
102
RTVSPost2010Prop35
280
     0
102
RTVSPost2010PropOp35
 70
     1
102
RTVSPost2010Prop36
280
     0
102
RTVSPost2010PropOp36
 70
     1
102
RTVSPost2010Prop37
 90
       50
102
RTVSPost2010PropOp37
 70
     1
102
RTVSPost2010Prop38
140
0.0
102
RTVSPost2010PropOp38
 70
     1
102
RTVSPost2010Prop39
140
1.0
102
RTVSPost2010PropOp39
 70
     1
102
RTVSPost2010Prop40
 90
        0
102
RTVSPost2010PropOp40
 70
     1
102
RTVSPost2010Prop41ColorIndex
 90
       18
102
RTVSPost2010Prop41ColorRGB
 90
        0
102
RTVSPost2010PropOp41
 70
     1
102
RTVSPost2010Prop42
 90
       50
102
RTVSPost2010PropOp42
 70
     1
102
RTVSPost2010Prop43
 90
        3
102
RTVSPost2010PropOp43
 70
     1
102
RTVSPost2010Prop44ColorIndex
 90
        5
102
RTVSPost2010Prop44ColorRGB
 90
      255
102
RTVSPost2010PropOp44
 70
     1
102
RTVSPost2010Prop45
280
     0
102
RTVSPost2010PropOp45
 70
     1
102
RTVSPost2010Prop46
 90
       50
102
RTVSPost2010PropOp46
 70
     1
102
RTVSPost2010Prop47
 90
       50
102
RTVSPost2010PropOp47
 70
     1
102
RTVSPost2010Prop48
 90
       50
102
RTVSPost2010PropOp48
 70
     1
102
RTVSPost2010Prop49
280
     0
102
RTVSPost2010PropOp49
 70
     1
102
RTVSPost2010Prop50
 90
       50
102
RTVSPost2010PropOp50
 70
     1
102
RTVSPost2010Prop51ColorIndex
 90
      256
102
RTVSPost2010Prop51ColorRGB
 90
-16777216
102
RTVSPost2010PropOp51
 70
     0
102
RTVSPost2010Prop52
140
1.0
102
RTVSPost2010PropOp52
 70
     0
102
RTVSPost2010Prop53
 90
        2
102
RTVSPost2010PropOp53
 70
     1
102
RTVSPost2010Prop54
  1
strokes_ogs.tif
102
RTVSPost2010PropOp54
 70
     1
102
RTVSPost2010Prop55
280
     0
102
RTVSPost2010PropOp55
 70
     1
102
RTVSPost2010Prop56
140
1.0
102
RTVSPost2010PropOp56
 70
     1
102
RTVSPost2010Prop57
140
1.0
102
RTVSPost2010PropOp57
 70
     1
102
RTVSPropertyOp0
 70
     1
102
RTVSPropertyOp1
 70
     1
102
RTVSPropertyOp2
 70
     1
102
RTVSPropertyOp3
 70
     1
102
RTVSPropertyOp4
 70
     1
102
RTVSPropertyOp5
 70
     1
102
RTVSPropertyOp6
 70
     1
102
RTVSPropertyOp7
 70
     1
102
RTVSPropertyOp8
 70
     1
102
RTVSPropertyOp9
 70
     1
102
RTVSPropertyOp10
 70
     1
102
RTVSPropertyOp11
 70
     1
102
RTVSPropertyOp12
 70
     1
102
RTVSPropertyOp13
 70
     1
102
RTVSPropertyOp14
 70
     1
102
RTVSPropertyOp15
 70
     1
102
RTVSPropertyOp16
 70
     1
102
RTVSPropertyOp17
 70
     1
102
RTVSPropertyOp18
 70
     1
102
RTVSPropertyOp19
 70
     1
102
RTVSPropertyOp20
 70
     1
102
RTVSPropertyOp21
 70
     1
102
RTVSPropertyOp22
 70
     1
102
RTVSPropertyOp23
 70
     1
102
RTVSPropertyOp24
 70
     1
102
RTVSPropertyOp25
 70
     1
102
RTVSPropertyOp26
 70
     1
102
RTVSPropertyOp27
 70
     1
102
RTVSPropertyOp28
 70
     1
102
RTVSPropertyOp29
 70
     1
102
RTVSPropertyOp30
 70
     1
102
RTVSPropertyOp31
 70
     1
102
RTVSPropertyOp32
 70
     1
102
RTVSPropertyOp33
 70
     1
102
RTVSPropertyOp34
 70
     1
102
RTVSPropertyOp35
 70
     1
102
RTVSPropertyOp36
 70
     1
102
RTVSPropertyOp37
 70
     1
102
RTVSPropertyOp38
 70
     1
102
RTVSPropertyOp39
 70
     1
102
RTVSPropertyOp40
 70
     1
102
RTVSPropertyOp41
 70
     1
102
RTVSPropertyOp42
 70
     1
102
RTVSPropertyOp43
 70
     1
102
RTVSPropertyOp44
 70
     1
102
RTVSPropertyOp45
 70
     1
102
RTVSPropertyOp46
 70
     1
102
RTVSPropertyOp47
 70
     1
102
RTVSPropertyOp48
 70
     1
102
RTVSPropertyOp49
 70
     1
102
RTVSPropertyOp50
 70
     1
102
RTVSPropertyOp51
 70
     0
102
RTVSPropertyOp52
 70
     0
102
RTVSPropertyOp53
 70
     1
102
RTVSPropertyOp54
 70
     1
102
RTVSPropertyOp55
 70
     1
102
RTVSPropertyOp56
 70
     1
102
RTVSPropertyOp57
 70
     1
102
RTVSPropertyOp58
 70
     1
102
RTVSPropertyOp59
 70
     1
102
RTVSPropertyOp60
 70
     1
102
RTVSPropertyOp61
 70
     1
102
RTVSPropertyOp62
 70
     1
  0
XRECORD
  5
23F
102
{ACAD_REACTORS
330
23E
102
}
330
23E
100
AcDbXrecord
280
     1
102
RTVSPost2010Prop28
280
     0
102
RTVSPost2010PropOp28
 70
     1
102
RTVSPost2010Prop29
280
     1
102
RTVSPost2010PropOp29
 70
     1
102
RTVSPost2010Prop30
280
     1
102
RTVSPost2010PropOp30
 70
     1
102
RTVSPost2010Prop31
280
     0
102
RTVSPost2010PropOp31
 70
     1
102
RTVSPost2010Prop32
280
     0
102
RTVSPost2010PropOp32
 70
     1
102
RTVSPost2010Prop33
280
     0
102
RTVSPost2010PropOp33
 70
     1
102
RTVSPost2010Prop34
280
     0
102
RTVSPost2010PropOp34
 70
     1
102
RTVSPost2010Prop35
280
     0
102
RTVSPost2010PropOp35
 70
     1
102
RTVSPost2010Prop36
280
     0
102
RTVSPost2010PropOp36
 70
     1
102
RTVSPost2010Prop37
 90
       50
102
RTVSPost2010PropOp37
 70
     1
102
RTVSPost2010Prop38
140
0.0
102
RTVSPost2010PropOp38
 70
     1
102
RTVSPost2010Prop39
140
1.0
102
RTVSPost2010PropOp39
 70
     1
102
RTVSPost2010Prop40
 90
        0
102
RTVSPost2010PropOp40
 70
     1
102
RTVSPost2010Prop41ColorIndex
 90
       18
102
RTVSPost2010Prop41ColorRGB
 90
        0
102
RTVSPost2010PropOp41
 70
     1
102
RTVSPost2010Prop42
 90
       50
102
RTVSPost2010PropOp42
 70
     1
102
RTVSPost2010Prop43
 90
        3
102
RTVSPost2010PropOp43
 70
     1
102
RTVSPost2010Prop44ColorIndex
 90
        5
102
RTVSPost2010Prop44ColorRGB
 90
      255
102
RTVSPost2010PropOp44
 70
     1
102
RTVSPost2010Prop45
280
     0
102
RTVSPost2010PropOp45
 70
     1
102
RTVSPost2010Prop46
 90
       50
102
RTVSPost2010PropOp46
 70
     1
102
RTVSPost2010Prop47
 90
       50
102
RTVSPost2010PropOp47
 70
     1
102
RTVSPost2010Prop48
 90
       50
102
RTVSPost2010PropOp48
 70
     1
102
RTVSPost2010Prop49
280
     0
102
RTVSPost2010PropOp49
 70
     1
102
RTVSPost2010Prop50
 90
       50
102
RTVSPost2010PropOp50
 70
     1
102
RTVSPost2010Prop51ColorIndex
 90
      256
102
RTVSPost2010Prop51ColorRGB
 90
-16777216
102
RTVSPost2010PropOp51
 70
     0
102
RTVSPost2010Prop52
140
1.0
102
RTVSPost2010PropOp52
 70
     0
102
RTVSPost2010Prop53
 90
        2
102
RTVSPost2010PropOp53
 70
     1
102
RTVSPost2010Prop54
  1
strokes_ogs.tif
102
RTVSPost2010PropOp54
 70
     1
102
RTVSPost2010Prop55
280
     0
102
RTVSPost2010PropOp55
 70
     1
102
RTVSPost2010Prop56
140
1.0
102
RTVSPost2010PropOp56
 70
     1
102
RTVSPost2010Prop57
140
1.0
102
RTVSPost2010PropOp57
 70
     1
102
RTVSPropertyOp0
 70
     1
102
RTVSPropertyOp1
 70
     1
102
RTVSPropertyOp2
 70
     1
102
RTVSPropertyOp3
 70
     1
102
RTVSPropertyOp4
 70
     1
102
RTVSPropertyOp5
 70
     1
102
RTVSPropertyOp6
 70
     1
102
RTVSPropertyOp7
 70
     1
102
RTVSPropertyOp8
 70
     1
102
RTVSPropertyOp9
 70
     1
102
RTVSPropertyOp10
 70
     1
102
RTVSPropertyOp11
 70
     1
102
RTVSPropertyOp12
 70
     1
102
RTVSPropertyOp13
 70
     1
102
RTVSPropertyOp14
 70
     1
102
RTVSPropertyOp15
 70
     1
102
RTVSPropertyOp16
 70
     1
102
RTVSPropertyOp17
 70
     1
102
RTVSPropertyOp18
 70
     1
102
RTVSPropertyOp19
 70
     1
102
RTVSPropertyOp20
 70
     1
102
RTVSPropertyOp21
 70
     1
102
RTVSPropertyOp22
 70
     1
102
RTVSPropertyOp23
 70
     1
102
RTVSPropertyOp24
 70
     1
102
RTVSPropertyOp25
 70
     1
102
RTVSPropertyOp26
 70
     1
102
RTVSPropertyOp27
 70
     1
102
RTVSPropertyOp28
 70
     1
102
RTVSPropertyOp29
 70
     1
102
RTVSPropertyOp30
 70
     1
102
RTVSPropertyOp31
 70
     1
102
RTVSPropertyOp32
 70
     1
102
RTVSPropertyOp33
 70
     1
102
RTVSPropertyOp34
 70
     1
102
RTVSPropertyOp35
 70
     1
102
RTVSPropertyOp36
 70
     1
102
RTVSPropertyOp37
 70
     1
102
RTVSPropertyOp38
 70
     1
102
RTVSPropertyOp39
 70
     1
102
RTVSPropertyOp40
 70
     1
102
RTVSPropertyOp41
 70
     1
102
RTVSPropertyOp42
 70
     1
102
RTVSPropertyOp43
 70
     1
102
RTVSPropertyOp44
 70
     1
102
RTVSPropertyOp45
 70
     1
102
RTVSPropertyOp46
 70
     1
102
RTVSPropertyOp47
 70
     1
102
RTVSPropertyOp48
 70
     1
102
RTVSPropertyOp49
 70
     1
102
RTVSPropertyOp50
 70
     1
102
RTVSPropertyOp51
 70
     0
102
RTVSPropertyOp52
 70
     0
102
RTVSPropertyOp53
 70
     1
102
RTVSPropertyOp54
 70
     1
102
RTVSPropertyOp55
 70
     1
102
RTVSPropertyOp56
 70
     1
102
RTVSPropertyOp57
 70
     1
102
RTVSPropertyOp58
 70
     1
102
RTVSPropertyOp59
 70
     1
102
RTVSPropertyOp60
 70
     1
102
RTVSPropertyOp61
 70
     1
102
RTVSPropertyOp62
 70
     1
  0
XRECORD
  5
241
102
{ACAD_REACTORS
330
240
102
}
330
240
100
AcDbXrecord
280
     1
102
RTVSPost2010Prop28
280
     0
102
RTVSPost2010PropOp28
 70
     1
102
RTVSPost2010Prop29
280
     1
102
RTVSPost2010PropOp29
 70
     1
102
RTVSPost2010Prop30
280
     1
102
RTVSPost2010PropOp30
 70
     1
102
RTVSPost2010Prop31
280
     0
102
RTVSPost2010PropOp31
 70
     1
102
RTVSPost2010Prop32
280
     0
102
RTVSPost2010PropOp32
 70
     1
102
RTVSPost2010Prop33
280
     0
102
RTVSPost2010PropOp33
 70
     1
102
RTVSPost2010Prop34
280
     0
102
RTVSPost2010PropOp34
 70
     1
102
RTVSPost2010Prop35
280
     0
102
RTVSPost2010PropOp35
 70
     1
102
RTVSPost2010Prop36
280
     0
102
RTVSPost2010PropOp36
 70
     1
102
RTVSPost2010Prop37
 90
       50
102
RTVSPost2010PropOp37
 70
     1
102
RTVSPost2010Prop38
140
0.0
102
RTVSPost2010PropOp38
 70
     1
102
RTVSPost2010Prop39
140
1.0
102
RTVSPost2010PropOp39
 70
     1
102
RTVSPost2010Prop40
 90
        0
102
RTVSPost2010PropOp40
 70
     1
102
RTVSPost2010Prop41ColorIndex
 90
       18
102
RTVSPost2010Prop41ColorRGB
 90
        0
102
RTVSPost2010PropOp41
 70
     1
102
RTVSPost2010Prop42
 90
       50
102
RTVSPost2010PropOp42
 70
     1
102
RTVSPost2010Prop43
 90
        3
102
RTVSPost2010PropOp43
 70
     1
102
RTVSPost2010Prop44ColorIndex
 90
        5
102
RTVSPost2010Prop44ColorRGB
 90
      255
102
RTVSPost2010PropOp44
 70
     1
102
RTVSPost2010Prop45
280
     0
102
RTVSPost2010PropOp45
 70
     1
102
RTVSPost2010Prop46
 90
       50
102
RTVSPost2010PropOp46
 70
     1
102
RTVSPost2010Prop47
 90
       50
102
RTVSPost2010PropOp47
 70
     1
102
RTVSPost2010Prop48
 90
       50
102
RTVSPost2010PropOp48
 70
     1
102
RTVSPost2010Prop49
280
     0
102
RTVSPost2010PropOp49
 70
     1
102
RTVSPost2010Prop50
 90
       50
102
RTVSPost2010PropOp50
 70
     1
102
RTVSPost2010Prop51ColorIndex
 90
      256
102
RTVSPost2010Prop51ColorRGB
 90
-16777216
102
RTVSPost2010PropOp51
 70
     0
102
RTVSPost2010Prop52
140
1.0
102
RTVSPost2010PropOp52
 70
     0
102
RTVSPost2010Prop53
 90
        2
102
RTVSPost2010PropOp53
 70
     1
102
RTVSPost2010Prop54
  1
strokes_ogs.tif
102
RTVSPost2010PropOp54
 70
     1
102
RTVSPost2010Prop55
280
     0
102
RTVSPost2010PropOp55
 70
     1
102
RTVSPost2010Prop56
140
1.0
102
RTVSPost2010PropOp56
 70
     1
102
RTVSPost2010Prop57
140
1.0
102
RTVSPost2010PropOp57
 70
     1
102
RTVSPropertyOp0
 70
     1
102
RTVSPropertyOp1
 70
     1
102
RTVSPropertyOp2
 70
     1
102
RTVSPropertyOp3
 70
     1
102
RTVSPropertyOp4
 70
     1
102
RTVSPropertyOp5
 70
     1
102
RTVSPropertyOp6
 70
     1
102
RTVSPropertyOp7
 70
     1
102
RTVSPropertyOp8
 70
     1
102
RTVSPropertyOp9
 70
     1
102
RTVSPropertyOp10
 70
     1
102
RTVSPropertyOp11
 70
     1
102
RTVSPropertyOp12
 70
     1
102
RTVSPropertyOp13
 70
     1
102
RTVSPropertyOp14
 70
     1
102
RTVSPropertyOp15
 70
     1
102
RTVSPropertyOp16
 70
     1
102
RTVSPropertyOp17
 70
     1
102
RTVSPropertyOp18
 70
     1
102
RTVSPropertyOp19
 70
     1
102
RTVSPropertyOp20
 70
     1
102
RTVSPropertyOp21
 70
     1
102
RTVSPropertyOp22
 70
     1
102
RTVSPropertyOp23
 70
     1
102
RTVSPropertyOp24
 70
     1
102
RTVSPropertyOp25
 70
     1
102
RTVSPropertyOp26
 70
     1
102
RTVSPropertyOp27
 70
     1
102
RTVSPropertyOp28
 70
     1
102
RTVSPropertyOp29
 70
     1
102
RTVSPropertyOp30
 70
     1
102
RTVSPropertyOp31
 70
     1
102
RTVSPropertyOp32
 70
     1
102
RTVSPropertyOp33
 70
     1
102
RTVSPropertyOp34
 70
     1
102
RTVSPropertyOp35
 70
     1
102
RTVSPropertyOp36
 70
     1
102
RTVSPropertyOp37
 70
     1
102
RTVSPropertyOp38
 70
     1
102
RTVSPropertyOp39
 70
     1
102
RTVSPropertyOp40
 70
     1
102
RTVSPropertyOp41
 70
     1
102
RTVSPropertyOp42
 70
     1
102
RTVSPropertyOp43
 70
     1
102
RTVSPropertyOp44
 70
     1
102
RTVSPropertyOp45
 70
     1
102
RTVSPropertyOp46
 70
     1
102
RTVSPropertyOp47
 70
     1
102
RTVSPropertyOp48
 70
     1
102
RTVSPropertyOp49
 70
     1
102
RTVSPropertyOp50
 70
     1
102
RTVSPropertyOp51
 70
     0
102
RTVSPropertyOp52
 70
     0
102
RTVSPropertyOp53
 70
     1
102
RTVSPropertyOp54
 70
     1
102
RTVSPropertyOp55
 70
     1
102
RTVSPropertyOp56
 70
     1
102
RTVSPropertyOp57
 70
     1
102
RTVSPropertyOp58
 70
     1
102
RTVSPropertyOp59
 70
     1
102
RTVSPropertyOp60
 70
     1
102
RTVSPropertyOp61
 70
     1
102
RTVSPropertyOp62
 70
     1
  0
XRECORD
  5
243
102
{ACAD_REACTORS
330
242
102
}
330
242
100
AcDbXrecord
280
     1
102
RTVSPost2010Prop28
280
     0
102
RTVSPost2010PropOp28
 70
     1
102
RTVSPost2010Prop29
280
     1
102
RTVSPost2010PropOp29
 70
     1
102
RTVSPost2010Prop30
280
     1
102
RTVSPost2010PropOp30
 70
     1
102
RTVSPost2010Prop31
280
     0
102
RTVSPost2010PropOp31
 70
     1
102
RTVSPost2010Prop32
280
     0
102
RTVSPost2010PropOp32
 70
     1
102
RTVSPost2010Prop33
280
     0
102
RTVSPost2010PropOp33
 70
     1
102
RTVSPost2010Prop34
280
     0
102
RTVSPost2010PropOp34
 70
     1
102
RTVSPost2010Prop35
280
     0
102
RTVSPost2010PropOp35
 70
     1
102
RTVSPost2010Prop36
280
     0
102
RTVSPost2010PropOp36
 70
     1
102
RTVSPost2010Prop37
 90
       50
102
RTVSPost2010PropOp37
 70
     1
102
RTVSPost2010Prop38
140
0.0
102
RTVSPost2010PropOp38
 70
     1
102
RTVSPost2010Prop39
140
1.0
102
RTVSPost2010PropOp39
 70
     1
102
RTVSPost2010Prop40
 90
        0
102
RTVSPost2010PropOp40
 70
     1
102
RTVSPost2010Prop41ColorIndex
 90
       18
102
RTVSPost2010Prop41ColorRGB
 90
        0
102
RTVSPost2010PropOp41
 70
     1
102
RTVSPost2010Prop42
 90
       50
102
RTVSPost2010PropOp42
 70
     1
102
RTVSPost2010Prop43
 90
        3
102
RTVSPost2010PropOp43
 70
     1
102
RTVSPost2010Prop44ColorIndex
 90
        5
102
RTVSPost2010Prop44ColorRGB
 90
      255
102
RTVSPost2010PropOp44
 70
     1
102
RTVSPost2010Prop45
280
     0
102
RTVSPost2010PropOp45
 70
     1
102
RTVSPost2010Prop46
 90
       50
102
RTVSPost2010PropOp46
 70
     1
102
RTVSPost2010Prop47
 90
       50
102
RTVSPost2010PropOp47
 70
     1
102
RTVSPost2010Prop48
 90
       50
102
RTVSPost2010PropOp48
 70
     1
102
RTVSPost2010Prop49
280
     0
102
RTVSPost2010PropOp49
 70
     1
102
RTVSPost2010Prop50
 90
       50
102
RTVSPost2010PropOp50
 70
     1
102
RTVSPost2010Prop51ColorIndex
 90
      256
102
RTVSPost2010Prop51ColorRGB
 90
-16777216
102
RTVSPost2010PropOp51
 70
     0
102
RTVSPost2010Prop52
140
1.0
102
RTVSPost2010PropOp52
 70
     0
102
RTVSPost2010Prop53
 90
        2
102
RTVSPost2010PropOp53
 70
     1
102
RTVSPost2010Prop54
  1
strokes_ogs.tif
102
RTVSPost2010PropOp54
 70
     1
102
RTVSPost2010Prop55
280
     0
102
RTVSPost2010PropOp55
 70
     1
102
RTVSPost2010Prop56
140
1.0
102
RTVSPost2010PropOp56
 70
     1
102
RTVSPost2010Prop57
140
1.0
102
RTVSPost2010PropOp57
 70
     1
102
RTVSPropertyOp0
 70
     1
102
RTVSPropertyOp1
 70
     1
102
RTVSPropertyOp2
 70
     1
102
RTVSPropertyOp3
 70
     1
102
RTVSPropertyOp4
 70
     1
102
RTVSPropertyOp5
 70
     1
102
RTVSPropertyOp6
 70
     1
102
RTVSPropertyOp7
 70
     1
102
RTVSPropertyOp8
 70
     1
102
RTVSPropertyOp9
 70
     1
102
RTVSPropertyOp10
 70
     1
102
RTVSPropertyOp11
 70
     1
102
RTVSPropertyOp12
 70
     1
102
RTVSPropertyOp13
 70
     1
102
RTVSPropertyOp14
 70
     1
102
RTVSPropertyOp15
 70
     1
102
RTVSPropertyOp16
 70
     1
102
RTVSPropertyOp17
 70
     1
102
RTVSPropertyOp18
 70
     1
102
RTVSPropertyOp19
 70
     1
102
RTVSPropertyOp20
 70
     1
102
RTVSPropertyOp21
 70
     1
102
RTVSPropertyOp22
 70
     1
102
RTVSPropertyOp23
 70
     1
102
RTVSPropertyOp24
 70
     1
102
RTVSPropertyOp25
 70
     1
102
RTVSPropertyOp26
 70
     1
102
RTVSPropertyOp27
 70
     1
102
RTVSPropertyOp28
 70
     1
102
RTVSPropertyOp29
 70
     1
102
RTVSPropertyOp30
 70
     1
102
RTVSPropertyOp31
 70
     1
102
RTVSPropertyOp32
 70
     1
102
RTVSPropertyOp33
 70
     1
102
RTVSPropertyOp34
 70
     1
102
RTVSPropertyOp35
 70
     1
102
RTVSPropertyOp36
 70
     1
102
RTVSPropertyOp37
 70
     1
102
RTVSPropertyOp38
 70
     1
102
RTVSPropertyOp39
 70
     1
102
RTVSPropertyOp40
 70
     1
102
RTVSPropertyOp41
 70
     1
102
RTVSPropertyOp42
 70
     1
102
RTVSPropertyOp43
 70
     1
102
RTVSPropertyOp44
 70
     1
102
RTVSPropertyOp45
 70
     1
102
RTVSPropertyOp46
 70
     1
102
RTVSPropertyOp47
 70
     1
102
RTVSPropertyOp48
 70
     1
102
RTVSPropertyOp49
 70
     1
102
RTVSPropertyOp50
 70
     1
102
RTVSPropertyOp51
 70
     0
102
RTVSPropertyOp52
 70
     0
102
RTVSPropertyOp53
 70
     1
102
RTVSPropertyOp54
 70
     1
102
RTVSPropertyOp55
 70
     1
102
RTVSPropertyOp56
 70
     1
102
RTVSPropertyOp57
 70
     1
102
RTVSPropertyOp58
 70
     1
102
RTVSPropertyOp59
 70
     1
102
RTVSPropertyOp60
 70
     1
102
RTVSPropertyOp61
 70
     1
102
RTVSPropertyOp62
 70
     1
  0
XRECORD
  5
24B
102
{ACAD_REACTORS
330
24A
102
}
330
24A
100
AcDbXrecord
280
     1
102
RTVSPost2010Prop28
280
     0
102
RTVSPost2010PropOp28
 70
     1
102
RTVSPost2010Prop29
280
     1
102
RTVSPost2010PropOp29
 70
     1
102
RTVSPost2010Prop30
280
     1
102
RTVSPost2010PropOp30
 70
     1
102
RTVSPost2010Prop31
280
     0
102
RTVSPost2010PropOp31
 70
     1
102
RTVSPost2010Prop32
280
     0
102
RTVSPost2010PropOp32
 70
     1
102
RTVSPost2010Prop33
280
     0
102
RTVSPost2010PropOp33
 70
     1
102
RTVSPost2010Prop34
280
     0
102
RTVSPost2010PropOp34
 70
     1
102
RTVSPost2010Prop35
280
     0
102
RTVSPost2010PropOp35
 70
     1
102
RTVSPost2010Prop36
280
     0
102
RTVSPost2010PropOp36
 70
     1
102
RTVSPost2010Prop37
 90
       50
102
RTVSPost2010PropOp37
 70
     1
102
RTVSPost2010Prop38
140
0.0
102
RTVSPost2010PropOp38
 70
     1
102
RTVSPost2010Prop39
140
1.0
102
RTVSPost2010PropOp39
 70
     1
102
RTVSPost2010Prop40
 90
        0
102
RTVSPost2010PropOp40
 70
     1
102
RTVSPost2010Prop41ColorIndex
 90
       18
102
RTVSPost2010Prop41ColorRGB
 90
        0
102
RTVSPost2010PropOp41
 70
     1
102
RTVSPost2010Prop42
 90
       50
102
RTVSPost2010PropOp42
 70
     1
102
RTVSPost2010Prop43
 90
        3
102
RTVSPost2010PropOp43
 70
     1
102
RTVSPost2010Prop44ColorIndex
 90
        5
102
RTVSPost2010Prop44ColorRGB
 90
      255
102
RTVSPost2010PropOp44
 70
     1
102
RTVSPost2010Prop45
280
     0
102
RTVSPost2010PropOp45
 70
     1
102
RTVSPost2010Prop46
 90
       50
102
RTVSPost2010PropOp46
 70
     1
102
RTVSPost2010Prop47
 90
       50
102
RTVSPost2010PropOp47
 70
     1
102
RTVSPost2010Prop48
 90
       50
102
RTVSPost2010PropOp48
 70
     1
102
RTVSPost2010Prop49
280
     0
102
RTVSPost2010PropOp49
 70
     1
102
RTVSPost2010Prop50
 90
       50
102
RTVSPost2010PropOp50
 70
     1
102
RTVSPost2010Prop51ColorIndex
 90
      256
102
RTVSPost2010Prop51ColorRGB
 90
-16777216
102
RTVSPost2010PropOp51
 70
     0
102
RTVSPost2010Prop52
140
1.0
102
RTVSPost2010PropOp52
 70
     0
102
RTVSPost2010Prop53
 90
        2
102
RTVSPost2010PropOp53
 70
     1
102
RTVSPost2010Prop54
  1
strokes_ogs.tif
102
RTVSPost2010PropOp54
 70
     1
102
RTVSPost2010Prop55
280
     0
102
RTVSPost2010PropOp55
 70
     1
102
RTVSPost2010Prop56
140
1.0
102
RTVSPost2010PropOp56
 70
     1
102
RTVSPost2010Prop57
140
1.0
102
RTVSPost2010PropOp57
 70
     1
102
RTVSPropertyOp0
 70
     1
102
RTVSPropertyOp1
 70
     1
102
RTVSPropertyOp2
 70
     1
102
RTVSPropertyOp3
 70
     1
102
RTVSPropertyOp4
 70
     1
102
RTVSPropertyOp5
 70
     1
102
RTVSPropertyOp6
 70
     1
102
RTVSPropertyOp7
 70
     1
102
RTVSPropertyOp8
 70
     1
102
RTVSPropertyOp9
 70
     1
102
RTVSPropertyOp10
 70
     1
102
RTVSPropertyOp11
 70
     1
102
RTVSPropertyOp12
 70
     1
102
RTVSPropertyOp13
 70
     1
102
RTVSPropertyOp14
 70
     1
102
RTVSPropertyOp15
 70
     1
102
RTVSPropertyOp16
 70
     1
102
RTVSPropertyOp17
 70
     1
102
RTVSPropertyOp18
 70
     1
102
RTVSPropertyOp19
 70
     1
102
RTVSPropertyOp20
 70
     1
102
RTVSPropertyOp21
 70
     1
102
RTVSPropertyOp22
 70
     1
102
RTVSPropertyOp23
 70
     1
102
RTVSPropertyOp24
 70
     1
102
RTVSPropertyOp25
 70
     1
102
RTVSPropertyOp26
 70
     1
102
RTVSPropertyOp27
 70
     1
102
RTVSPropertyOp28
 70
     1
102
RTVSPropertyOp29
 70
     1
102
RTVSPropertyOp30
 70
     1
102
RTVSPropertyOp31
 70
     1
102
RTVSPropertyOp32
 70
     1
102
RTVSPropertyOp33
 70
     1
102
RTVSPropertyOp34
 70
     1
102
RTVSPropertyOp35
 70
     1
102
RTVSPropertyOp36
 70
     1
102
RTVSPropertyOp37
 70
     1
102
RTVSPropertyOp38
 70
     1
102
RTVSPropertyOp39
 70
     1
102
RTVSPropertyOp40
 70
     1
102
RTVSPropertyOp41
 70
     1
102
RTVSPropertyOp42
 70
     1
102
RTVSPropertyOp43
 70
     1
102
RTVSPropertyOp44
 70
     1
102
RTVSPropertyOp45
 70
     1
102
RTVSPropertyOp46
 70
     1
102
RTVSPropertyOp47
 70
     1
102
RTVSPropertyOp48
 70
     1
102
RTVSPropertyOp49
 70
     1
102
RTVSPropertyOp50
 70
     1
102
RTVSPropertyOp51
 70
     0
102
RTVSPropertyOp52
 70
     0
102
RTVSPropertyOp53
 70
     1
102
RTVSPropertyOp54
 70
     1
102
RTVSPropertyOp55
 70
     1
102
RTVSPropertyOp56
 70
     1
102
RTVSPropertyOp57
 70
     1
102
RTVSPropertyOp58
 70
     1
102
RTVSPropertyOp59
 70
     1
102
RTVSPropertyOp60
 70
     1
102
RTVSPropertyOp61
 70
     1
102
RTVSPropertyOp62
 70
     1
  0
XRECORD
  5
267
102
{ACAD_REACTORS
330
266
102
}
330
266
100
AcDbXrecord
280
     1
102
RTVSPost2010Prop28
280
     0
102
RTVSPost2010PropOp28
 70
     0
102
RTVSPost2010Prop29
280
     1
102
RTVSPost2010PropOp29
 70
     0
102
RTVSPost2010Prop30
280
     1
102
RTVSPost2010PropOp30
 70
     0
102
RTVSPost2010Prop31
280
     0
102
RTVSPost2010PropOp31
 70
     0
102
RTVSPost2010Prop32
280
     0
102
RTVSPost2010PropOp32
 70
     0
102
RTVSPost2010Prop33
280
     0
102
RTVSPost2010PropOp33
 70
     0
102
RTVSPost2010Prop34
280
     0
102
RTVSPost2010PropOp34
 70
     0
102
RTVSPost2010Prop35
280
     0
102
RTVSPost2010PropOp35
 70
     0
102
RTVSPost2010Prop36
280
     0
102
RTVSPost2010PropOp36
 70
     0
102
RTVSPost2010Prop37
 90
       50
102
RTVSPost2010PropOp37
 70
     0
102
RTVSPost2010Prop38
140
0.0
102
RTVSPost2010PropOp38
 70
     0
102
RTVSPost2010Prop39
140
1.0
102
RTVSPost2010PropOp39
 70
     0
102
RTVSPost2010Prop40
 90
        0
102
RTVSPost2010PropOp40
 70
     0
102
RTVSPost2010Prop41ColorIndex
 90
       18
102
RTVSPost2010Prop41ColorRGB
 90
        0
102
RTVSPost2010PropOp41
 70
     0
102
RTVSPost2010Prop42
 90
       50
102
RTVSPost2010PropOp42
 70
     0
102
RTVSPost2010Prop43
 90
        3
102
RTVSPost2010PropOp43
 70
     0
102
RTVSPost2010Prop44ColorIndex
 90
        5
102
RTVSPost2010Prop44ColorRGB
 90
      255
102
RTVSPost2010PropOp44
 70
     0
102
RTVSPost2010Prop45
280
     0
102
RTVSPost2010PropOp45
 70
     0
102
RTVSPost2010Prop46
 90
       50
102
RTVSPost2010PropOp46
 70
     0
102
RTVSPost2010Prop47
 90
       50
102
RTVSPost2010PropOp47
 70
     0
102
RTVSPost2010Prop48
 90
       50
102
RTVSPost2010PropOp48
 70
     0
102
RTVSPost2010Prop49
280
     0
102
RTVSPost2010PropOp49
 70
     0
102
RTVSPost2010Prop50
 90
       50
102
RTVSPost2010PropOp50
 70
     0
102
RTVSPost2010Prop51ColorIndex
 90
      256
102
RTVSPost2010Prop51ColorRGB
 90
-16777216
102
RTVSPost2010PropOp51
 70
     0
102
RTVSPost2010Prop52
140
1.0
102
RTVSPost2010PropOp52
 70
     0
102
RTVSPost2010Prop53
 90
        2
102
RTVSPost2010PropOp53
 70
     0
102
RTVSPost2010Prop54
  1
strokes_ogs.tif
102
RTVSPost2010PropOp54
 70
     0
102
RTVSPost2010Prop55
280
     0
102
RTVSPost2010PropOp55
 70
     0
102
RTVSPost2010Prop56
140
1.0
102
RTVSPost2010PropOp56
 70
     0
102
RTVSPost2010Prop57
140
1.0
102
RTVSPost2010PropOp57
 70
     0
102
RTVSPropertyOp0
 70
     0
102
RTVSPropertyOp1
 70
     0
102
RTVSPropertyOp2
 70
     0
102
RTVSPropertyOp3
 70
     0
102
RTVSPropertyOp4
 70
     0
102
RTVSPropertyOp5
 70
     0
102
RTVSPropertyOp6
 70
     0
102
RTVSPropertyOp7
 70
     0
102
RTVSPropertyOp8
 70
     0
102
RTVSPropertyOp9
 70
     0
102
RTVSPropertyOp10
 70
     0
102
RTVSPropertyOp11
 70
     0
102
RTVSPropertyOp12
 70
     0
102
RTVSPropertyOp13
 70
     0
102
RTVSPropertyOp14
 70
     2
102
RTVSPropertyOp15
 70
     0
102
RTVSPropertyOp16
 70
     0
102
RTVSPropertyOp17
 70
     0
102
RTVSPropertyOp18
 70
     0
102
RTVSPropertyOp19
 70
     0
102
RTVSPropertyOp20
 70
     0
102
RTVSPropertyOp21
 70
     0
102
RTVSPropertyOp22
 70
     0
102
RTVSPropertyOp23
 70
     0
102
RTVSPropertyOp24
 70
     0
102
RTVSPropertyOp25
 70
     0
102
RTVSPropertyOp26
 70
     0
102
RTVSPropertyOp27
 70
     0
102
RTVSPropertyOp28
 70
     0
102
RTVSPropertyOp29
 70
     0
102
RTVSPropertyOp30
 70
     0
102
RTVSPropertyOp31
 70
     0
102
RTVSPropertyOp32
 70
     0
102
RTVSPropertyOp33
 70
     0
102
RTVSPropertyOp34
 70
     0
102
RTVSPropertyOp35
 70
     0
102
RTVSPropertyOp36
 70
     0
102
RTVSPropertyOp37
 70
     0
102
RTVSPropertyOp38
 70
     0
102
RTVSPropertyOp39
 70
     0
102
RTVSPropertyOp40
 70
     0
102
RTVSPropertyOp41
 70
     0
102
RTVSPropertyOp42
 70
     0
102
RTVSPropertyOp43
 70
     0
102
RTVSPropertyOp44
 70
     0
102
RTVSPropertyOp45
 70
     0
102
RTVSPropertyOp46
 70
     0
102
RTVSPropertyOp47
 70
     0
102
RTVSPropertyOp48
 70
     0
102
RTVSPropertyOp49
 70
     0
102
RTVSPropertyOp50
 70
     0
102
RTVSPropertyOp51
 70
     0
102
RTVSPropertyOp52
 70
     0
102
RTVSPropertyOp53
 70
     0
102
RTVSPropertyOp54
 70
     0
102
RTVSPropertyOp55
 70
     0
102
RTVSPropertyOp56
 70
     0
102
RTVSPropertyOp57
 70
     0
102
RTVSPropertyOp58
 70
     0
102
RTVSPropertyOp59
 70
     0
102
RTVSPropertyOp60
 70
     0
102
RTVSPropertyOp61
 70
     0
102
RTVSPropertyOp62
 70
     0
  0
XRECORD
  5
257
102
{ACAD_REACTORS
330
256
102
}
330
256
100
AcDbXrecord
280
     1
102
RTVSPost2010Prop28
280
     0
102
RTVSPost2010PropOp28
 70
     1
102
RTVSPost2010Prop29
280
     1
102
RTVSPost2010PropOp29
 70
     1
102
RTVSPost2010Prop30
280
     1
102
RTVSPost2010PropOp30
 70
     1
102
RTVSPost2010Prop31
280
     0
102
RTVSPost2010PropOp31
 70
     1
102
RTVSPost2010Prop32
280
     0
102
RTVSPost2010PropOp32
 70
     1
102
RTVSPost2010Prop33
280
     0
102
RTVSPost2010PropOp33
 70
     1
102
RTVSPost2010Prop34
280
     0
102
RTVSPost2010PropOp34
 70
     1
102
RTVSPost2010Prop35
280
     0
102
RTVSPost2010PropOp35
 70
     1
102
RTVSPost2010Prop36
280
     0
102
RTVSPost2010PropOp36
 70
     1
102
RTVSPost2010Prop37
 90
       50
102
RTVSPost2010PropOp37
 70
     1
102
RTVSPost2010Prop38
140
0.0
102
RTVSPost2010PropOp38
 70
     1
102
RTVSPost2010Prop39
140
1.0
102
RTVSPost2010PropOp39
 70
     1
102
RTVSPost2010Prop40
 90
        0
102
RTVSPost2010PropOp40
 70
     1
102
RTVSPost2010Prop41ColorIndex
 90
       18
102
RTVSPost2010Prop41ColorRGB
 90
        0
102
RTVSPost2010PropOp41
 70
     1
102
RTVSPost2010Prop42
 90
       50
102
RTVSPost2010PropOp42
 70
     1
102
RTVSPost2010Prop43
 90
        3
102
RTVSPost2010PropOp43
 70
     1
102
RTVSPost2010Prop44ColorIndex
 90
        5
102
RTVSPost2010Prop44ColorRGB
 90
      255
102
RTVSPost2010PropOp44
 70
     1
102
RTVSPost2010Prop45
280
     0
102
RTVSPost2010PropOp45
 70
     1
102
RTVSPost2010Prop46
 90
       50
102
RTVSPost2010PropOp46
 70
     1
102
RTVSPost2010Prop47
 90
       50
102
RTVSPost2010PropOp47
 70
     1
102
RTVSPost2010Prop48
 90
       50
102
RTVSPost2010PropOp48
 70
     1
102
RTVSPost2010Prop49
280
     0
102
RTVSPost2010PropOp49
 70
     1
102
RTVSPost2010Prop50
 90
       50
102
RTVSPost2010PropOp50
 70
     1
102
RTVSPost2010Prop51ColorIndex
 90
      256
102
RTVSPost2010Prop51ColorRGB
 90
-16777216
102
RTVSPost2010PropOp51
 70
     0
102
RTVSPost2010Prop52
140
1.0
102
RTVSPost2010PropOp52
 70
     0
102
RTVSPost2010Prop53
 90
        2
102
RTVSPost2010PropOp53
 70
     1
102
RTVSPost2010Prop54
  1
strokes_ogs.tif
102
RTVSPost2010PropOp54
 70
     1
102
RTVSPost2010Prop55
280
     0
102
RTVSPost2010PropOp55
 70
     1
102
RTVSPost2010Prop56
140
1.0
102
RTVSPost2010PropOp56
 70
     1
102
RTVSPost2010Prop57
140
1.0
102
RTVSPost2010PropOp57
 70
     1
102
RTVSPropertyOp0
 70
     1
102
RTVSPropertyOp1
 70
     1
102
RTVSPropertyOp2
 70
     1
102
RTVSPropertyOp3
 70
     1
102
RTVSPropertyOp4
 70
     1
102
RTVSPropertyOp5
 70
     1
102
RTVSPropertyOp6
 70
     1
102
RTVSPropertyOp7
 70
     1
102
RTVSPropertyOp8
 70
     1
102
RTVSPropertyOp9
 70
     1
102
RTVSPropertyOp10
 70
     1
102
RTVSPropertyOp11
 70
     1
102
RTVSPropertyOp12
 70
     1
102
RTVSPropertyOp13
 70
     1
102
RTVSPropertyOp14
 70
     1
102
RTVSPropertyOp15
 70
     1
102
RTVSPropertyOp16
 70
     1
102
RTVSPropertyOp17
 70
     1
102
RTVSPropertyOp18
 70
     1
102
RTVSPropertyOp19
 70
     1
102
RTVSPropertyOp20
 70
     1
102
RTVSPropertyOp21
 70
     1
102
RTVSPropertyOp22
 70
     1
102
RTVSPropertyOp23
 70
     1
102
RTVSPropertyOp24
 70
     1
102
RTVSPropertyOp25
 70
     1
102
RTVSPropertyOp26
 70
     1
102
RTVSPropertyOp27
 70
     1
102
RTVSPropertyOp28
 70
     1
102
RTVSPropertyOp29
 70
     1
102
RTVSPropertyOp30
 70
     1
102
RTVSPropertyOp31
 70
     1
102
RTVSPropertyOp32
 70
     1
102
RTVSPropertyOp33
 70
     1
102
RTVSPropertyOp34
 70
     1
102
RTVSPropertyOp35
 70
     1
102
RTVSPropertyOp36
 70
     1
102
RTVSPropertyOp37
 70
     1
102
RTVSPropertyOp38
 70
     1
102
RTVSPropertyOp39
 70
     1
102
RTVSPropertyOp40
 70
     1
102
RTVSPropertyOp41
 70
     1
102
RTVSPropertyOp42
 70
     1
102
RTVSPropertyOp43
 70
     1
102
RTVSPropertyOp44
 70
     1
102
RTVSPropertyOp45
 70
     1
102
RTVSPropertyOp46
 70
     1
102
RTVSPropertyOp47
 70
     1
102
RTVSPropertyOp48
 70
     1
102
RTVSPropertyOp49
 70
     1
102
RTVSPropertyOp50
 70
     1
102
RTVSPropertyOp51
 70
     0
102
RTVSPropertyOp52
 70
     0
102
RTVSPropertyOp53
 70
     1
102
RTVSPropertyOp54
 70
     1
102
RTVSPropertyOp55
 70
     1
102
RTVSPropertyOp56
 70
     1
102
RTVSPropertyOp57
 70
     1
102
RTVSPropertyOp58
 70
     1
102
RTVSPropertyOp59
 70
     1
102
RTVSPropertyOp60
 70
     1
102
RTVSPropertyOp61
 70
     1
102
RTVSPropertyOp62
 70
     1
  0
XRECORD
  5
269
102
{ACAD_REACTORS
330
268
102
}
330
268
100
AcDbXrecord
280
     1
102
RTVSPost2010Prop28
280
     0
102
RTVSPost2010PropOp28
 70
     0
102
RTVSPost2010Prop29
280
     1
102
RTVSPost2010PropOp29
 70
     0
102
RTVSPost2010Prop30
280
     1
102
RTVSPost2010PropOp30
 70
     0
102
RTVSPost2010Prop31
280
     0
102
RTVSPost2010PropOp31
 70
     0
102
RTVSPost2010Prop32
280
     0
102
RTVSPost2010PropOp32
 70
     0
102
RTVSPost2010Prop33
280
     0
102
RTVSPost2010PropOp33
 70
     0
102
RTVSPost2010Prop34
280
     0
102
RTVSPost2010PropOp34
 70
     0
102
RTVSPost2010Prop35
280
     0
102
RTVSPost2010PropOp35
 70
     0
102
RTVSPost2010Prop36
280
     0
102
RTVSPost2010PropOp36
 70
     0
102
RTVSPost2010Prop37
 90
       50
102
RTVSPost2010PropOp37
 70
     0
102
RTVSPost2010Prop38
140
0.0
102
RTVSPost2010PropOp38
 70
     0
102
RTVSPost2010Prop39
140
1.0
102
RTVSPost2010PropOp39
 70
     0
102
RTVSPost2010Prop40
 90
        0
102
RTVSPost2010PropOp40
 70
     0
102
RTVSPost2010Prop41ColorIndex
 90
       18
102
RTVSPost2010Prop41ColorRGB
 90
        0
102
RTVSPost2010PropOp41
 70
     0
102
RTVSPost2010Prop42
 90
       50
102
RTVSPost2010PropOp42
 70
     0
102
RTVSPost2010Prop43
 90
        3
102
RTVSPost2010PropOp43
 70
     0
102
RTVSPost2010Prop44ColorIndex
 90
        5
102
RTVSPost2010Prop44ColorRGB
 90
      255
102
RTVSPost2010PropOp44
 70
     0
102
RTVSPost2010Prop45
280
     0
102
RTVSPost2010PropOp45
 70
     0
102
RTVSPost2010Prop46
 90
       50
102
RTVSPost2010PropOp46
 70
     0
102
RTVSPost2010Prop47
 90
       50
102
RTVSPost2010PropOp47
 70
     0
102
RTVSPost2010Prop48
 90
       50
102
RTVSPost2010PropOp48
 70
     0
102
RTVSPost2010Prop49
280
     0
102
RTVSPost2010PropOp49
 70
     0
102
RTVSPost2010Prop50
 90
       50
102
RTVSPost2010PropOp50
 70
     0
102
RTVSPost2010Prop51ColorIndex
 90
      256
102
RTVSPost2010Prop51ColorRGB
 90
-16777216
102
RTVSPost2010PropOp51
 70
     0
102
RTVSPost2010Prop52
140
1.0
102
RTVSPost2010PropOp52
 70
     0
102
RTVSPost2010Prop53
 90
        2
102
RTVSPost2010PropOp53
 70
     0
102
RTVSPost2010Prop54
  1
strokes_ogs.tif
102
RTVSPost2010PropOp54
 70
     0
102
RTVSPost2010Prop55
280
     0
102
RTVSPost2010PropOp55
 70
     0
102
RTVSPost2010Prop56
140
1.0
102
RTVSPost2010PropOp56
 70
     0
102
RTVSPost2010Prop57
140
1.0
102
RTVSPost2010PropOp57
 70
     0
102
RTVSPropertyOp0
 70
     0
102
RTVSPropertyOp1
 70
     0
102
RTVSPropertyOp2
 70
     0
102
RTVSPropertyOp3
 70
     0
102
RTVSPropertyOp4
 70
     0
102
RTVSPropertyOp5
 70
     0
102
RTVSPropertyOp6
 70
     0
102
RTVSPropertyOp7
 70
     0
102
RTVSPropertyOp8
 70
     0
102
RTVSPropertyOp9
 70
     0
102
RTVSPropertyOp10
 70
     0
102
RTVSPropertyOp11
 70
     0
102
RTVSPropertyOp12
 70
     0
102
RTVSPropertyOp13
 70
     0
102
RTVSPropertyOp14
 70
     2
102
RTVSPropertyOp15
 70
     0
102
RTVSPropertyOp16
 70
     0
102
RTVSPropertyOp17
 70
     0
102
RTVSPropertyOp18
 70
     0
102
RTVSPropertyOp19
 70
     0
102
RTVSPropertyOp20
 70
     0
102
RTVSPropertyOp21
 70
     0
102
RTVSPropertyOp22
 70
     0
102
RTVSPropertyOp23
 70
     0
102
RTVSPropertyOp24
 70
     0
102
RTVSPropertyOp25
 70
     0
102
RTVSPropertyOp26
 70
     0
102
RTVSPropertyOp27
 70
     0
102
RTVSPropertyOp28
 70
     0
102
RTVSPropertyOp29
 70
     0
102
RTVSPropertyOp30
 70
     0
102
RTVSPropertyOp31
 70
     0
102
RTVSPropertyOp32
 70
     0
102
RTVSPropertyOp33
 70
     0
102
RTVSPropertyOp34
 70
     0
102
RTVSPropertyOp35
 70
     0
102
RTVSPropertyOp36
 70
     0
102
RTVSPropertyOp37
 70
     0
102
RTVSPropertyOp38
 70
     0
102
RTVSPropertyOp39
 70
     0
102
RTVSPropertyOp40
 70
     0
102
RTVSPropertyOp41
 70
     0
102
RTVSPropertyOp42
 70
     0
102
RTVSPropertyOp43
 70
     0
102
RTVSPropertyOp44
 70
     0
102
RTVSPropertyOp45
 70
     0
102
RTVSPropertyOp46
 70
     0
102
RTVSPropertyOp47
 70
     0
102
RTVSPropertyOp48
 70
     0
102
RTVSPropertyOp49
 70
     0
102
RTVSPropertyOp50
 70
     0
102
RTVSPropertyOp51
 70
     0
102
RTVSPropertyOp52
 70
     0
102
RTVSPropertyOp53
 70
     0
102
RTVSPropertyOp54
 70
     0
102
RTVSPropertyOp55
 70
     0
102
RTVSPropertyOp56
 70
     0
102
RTVSPropertyOp57
 70
     0
102
RTVSPropertyOp58
 70
     0
102
RTVSPropertyOp59
 70
     0
102
RTVSPropertyOp60
 70
     0
102
RTVSPropertyOp61
 70
     0
102
RTVSPropertyOp62
 70
     0
  0
XRECORD
  5
24F
102
{ACAD_REACTORS
330
24E
102
}
330
24E
100
AcDbXrecord
280
     1
102
RTVSPost2010Prop28
280
     0
102
RTVSPost2010PropOp28
 70
     1
102
RTVSPost2010Prop29
280
     1
102
RTVSPost2010PropOp29
 70
     1
102
RTVSPost2010Prop30
280
     1
102
RTVSPost2010PropOp30
 70
     1
102
RTVSPost2010Prop31
280
     0
102
RTVSPost2010PropOp31
 70
     1
102
RTVSPost2010Prop32
280
     0
102
RTVSPost2010PropOp32
 70
     1
102
RTVSPost2010Prop33
280
     0
102
RTVSPost2010PropOp33
 70
     1
102
RTVSPost2010Prop34
280
     0
102
RTVSPost2010PropOp34
 70
     1
102
RTVSPost2010Prop35
280
     0
102
RTVSPost2010PropOp35
 70
     1
102
RTVSPost2010Prop36
280
     0
102
RTVSPost2010PropOp36
 70
     1
102
RTVSPost2010Prop37
 90
       50
102
RTVSPost2010PropOp37
 70
     1
102
RTVSPost2010Prop38
140
0.0
102
RTVSPost2010PropOp38
 70
     1
102
RTVSPost2010Prop39
140
1.0
102
RTVSPost2010PropOp39
 70
     1
102
RTVSPost2010Prop40
 90
        0
102
RTVSPost2010PropOp40
 70
     1
102
RTVSPost2010Prop41ColorIndex
 90
       18
102
RTVSPost2010Prop41ColorRGB
 90
        0
102
RTVSPost2010PropOp41
 70
     1
102
RTVSPost2010Prop42
 90
       50
102
RTVSPost2010PropOp42
 70
     1
102
RTVSPost2010Prop43
 90
        3
102
RTVSPost2010PropOp43
 70
     1
102
RTVSPost2010Prop44ColorIndex
 90
        5
102
RTVSPost2010Prop44ColorRGB
 90
      255
102
RTVSPost2010PropOp44
 70
     1
102
RTVSPost2010Prop45
280
     0
102
RTVSPost2010PropOp45
 70
     1
102
RTVSPost2010Prop46
 90
       50
102
RTVSPost2010PropOp46
 70
     1
102
RTVSPost2010Prop47
 90
       50
102
RTVSPost2010PropOp47
 70
     1
102
RTVSPost2010Prop48
 90
       50
102
RTVSPost2010PropOp48
 70
     1
102
RTVSPost2010Prop49
280
     0
102
RTVSPost2010PropOp49
 70
     1
102
RTVSPost2010Prop50
 90
       50
102
RTVSPost2010PropOp50
 70
     1
102
RTVSPost2010Prop51ColorIndex
 90
      256
102
RTVSPost2010Prop51ColorRGB
 90
-16777216
102
RTVSPost2010PropOp51
 70
     0
102
RTVSPost2010Prop52
140
1.0
102
RTVSPost2010PropOp52
 70
     0
102
RTVSPost2010Prop53
 90
        2
102
RTVSPost2010PropOp53
 70
     1
102
RTVSPost2010Prop54
  1
strokes_ogs.tif
102
RTVSPost2010PropOp54
 70
     1
102
RTVSPost2010Prop55
280
     0
102
RTVSPost2010PropOp55
 70
     1
102
RTVSPost2010Prop56
140
1.0
102
RTVSPost2010PropOp56
 70
     1
102
RTVSPost2010Prop57
140
1.0
102
RTVSPost2010PropOp57
 70
     1
102
RTVSPropertyOp0
 70
     1
102
RTVSPropertyOp1
 70
     1
102
RTVSPropertyOp2
 70
     1
102
RTVSPropertyOp3
 70
     1
102
RTVSPropertyOp4
 70
     1
102
RTVSPropertyOp5
 70
     1
102
RTVSPropertyOp6
 70
     1
102
RTVSPropertyOp7
 70
     1
102
RTVSPropertyOp8
 70
     1
102
RTVSPropertyOp9
 70
     1
102
RTVSPropertyOp10
 70
     1
102
RTVSPropertyOp11
 70
     1
102
RTVSPropertyOp12
 70
     1
102
RTVSPropertyOp13
 70
     1
102
RTVSPropertyOp14
 70
     1
102
RTVSPropertyOp15
 70
     1
102
RTVSPropertyOp16
 70
     1
102
RTVSPropertyOp17
 70
     1
102
RTVSPropertyOp18
 70
     1
102
RTVSPropertyOp19
 70
     1
102
RTVSPropertyOp20
 70
     1
102
RTVSPropertyOp21
 70
     1
102
RTVSPropertyOp22
 70
     1
102
RTVSPropertyOp23
 70
     1
102
RTVSPropertyOp24
 70
     1
102
RTVSPropertyOp25
 70
     1
102
RTVSPropertyOp26
 70
     1
102
RTVSPropertyOp27
 70
     1
102
RTVSPropertyOp28
 70
     1
102
RTVSPropertyOp29
 70
     1
102
RTVSPropertyOp30
 70
     1
102
RTVSPropertyOp31
 70
     1
102
RTVSPropertyOp32
 70
     1
102
RTVSPropertyOp33
 70
     1
102
RTVSPropertyOp34
 70
     1
102
RTVSPropertyOp35
 70
     1
102
RTVSPropertyOp36
 70
     1
102
RTVSPropertyOp37
 70
     1
102
RTVSPropertyOp38
 70
     1
102
RTVSPropertyOp39
 70
     1
102
RTVSPropertyOp40
 70
     1
102
RTVSPropertyOp41
 70
     1
102
RTVSPropertyOp42
 70
     1
102
RTVSPropertyOp43
 70
     1
102
RTVSPropertyOp44
 70
     1
102
RTVSPropertyOp45
 70
     1
102
RTVSPropertyOp46
 70
     1
102
RTVSPropertyOp47
 70
     1
102
RTVSPropertyOp48
 70
     1
102
RTVSPropertyOp49
 70
     1
102
RTVSPropertyOp50
 70
     1
102
RTVSPropertyOp51
 70
     0
102
RTVSPropertyOp52
 70
     0
102
RTVSPropertyOp53
 70
     1
102
RTVSPropertyOp54
 70
     1
102
RTVSPropertyOp55
 70
     1
102
RTVSPropertyOp56
 70
     1
102
RTVSPropertyOp57
 70
     1
102
RTVSPropertyOp58
 70
     1
102
RTVSPropertyOp59
 70
     1
102
RTVSPropertyOp60
 70
     1
102
RTVSPropertyOp61
 70
     1
102
RTVSPropertyOp62
 70
     1
  0
XRECORD
  5
265
102
{ACAD_REACTORS
330
264
102
}
330
264
100
AcDbXrecord
280
     1
102
RTVSPost2010Prop28
280
     0
102
RTVSPost2010PropOp28
 70
     1
102
RTVSPost2010Prop29
280
     1
102
RTVSPost2010PropOp29
 70
     1
102
RTVSPost2010Prop30
280
     1
102
RTVSPost2010PropOp30
 70
     1
102
RTVSPost2010Prop31
280
     0
102
RTVSPost2010PropOp31
 70
     1
102
RTVSPost2010Prop32
280
     0
102
RTVSPost2010PropOp32
 70
     1
102
RTVSPost2010Prop33
280
     0
102
RTVSPost2010PropOp33
 70
     1
102
RTVSPost2010Prop34
280
     0
102
RTVSPost2010PropOp34
 70
     1
102
RTVSPost2010Prop35
280
     0
102
RTVSPost2010PropOp35
 70
     1
102
RTVSPost2010Prop36
280
     0
102
RTVSPost2010PropOp36
 70
     1
102
RTVSPost2010Prop37
 90
       50
102
RTVSPost2010PropOp37
 70
     1
102
RTVSPost2010Prop38
140
0.0
102
RTVSPost2010PropOp38
 70
     1
102
RTVSPost2010Prop39
140
1.0
102
RTVSPost2010PropOp39
 70
     1
102
RTVSPost2010Prop40
 90
        0
102
RTVSPost2010PropOp40
 70
     1
102
RTVSPost2010Prop41ColorIndex
 90
       18
102
RTVSPost2010Prop41ColorRGB
 90
        0
102
RTVSPost2010PropOp41
 70
     1
102
RTVSPost2010Prop42
 90
       50
102
RTVSPost2010PropOp42
 70
     1
102
RTVSPost2010Prop43
 90
        3
102
RTVSPost2010PropOp43
 70
     1
102
RTVSPost2010Prop44ColorIndex
 90
        5
102
RTVSPost2010Prop44ColorRGB
 90
      255
102
RTVSPost2010PropOp44
 70
     1
102
RTVSPost2010Prop45
280
     0
102
RTVSPost2010PropOp45
 70
     1
102
RTVSPost2010Prop46
 90
       50
102
RTVSPost2010PropOp46
 70
     1
102
RTVSPost2010Prop47
 90
       50
102
RTVSPost2010PropOp47
 70
     1
102
RTVSPost2010Prop48
 90
       50
102
RTVSPost2010PropOp48
 70
     1
102
RTVSPost2010Prop49
280
     0
102
RTVSPost2010PropOp49
 70
     1
102
RTVSPost2010Prop50
 90
       50
102
RTVSPost2010PropOp50
 70
     1
102
RTVSPost2010Prop51ColorIndex
 90
      256
102
RTVSPost2010Prop51ColorRGB
 90
-16777216
102
RTVSPost2010PropOp51
 70
     0
102
RTVSPost2010Prop52
140
1.0
102
RTVSPost2010PropOp52
 70
     0
102
RTVSPost2010Prop53
 90
        2
102
RTVSPost2010PropOp53
 70
     1
102
RTVSPost2010Prop54
  1
strokes_ogs.tif
102
RTVSPost2010PropOp54
 70
     1
102
RTVSPost2010Prop55
280
     0
102
RTVSPost2010PropOp55
 70
     1
102
RTVSPost2010Prop56
140
1.0
102
RTVSPost2010PropOp56
 70
     1
102
RTVSPost2010Prop57
140
1.0
102
RTVSPost2010PropOp57
 70
     1
102
RTVSPropertyOp0
 70
     1
102
RTVSPropertyOp1
 70
     1
102
RTVSPropertyOp2
 70
     1
102
RTVSPropertyOp3
 70
     1
102
RTVSPropertyOp4
 70
     1
102
RTVSPropertyOp5
 70
     1
102
RTVSPropertyOp6
 70
     1
102
RTVSPropertyOp7
 70
     1
102
RTVSPropertyOp8
 70
     1
102
RTVSPropertyOp9
 70
     1
102
RTVSPropertyOp10
 70
     1
102
RTVSPropertyOp11
 70
     1
102
RTVSPropertyOp12
 70
     1
102
RTVSPropertyOp13
 70
     1
102
RTVSPropertyOp14
 70
     1
102
RTVSPropertyOp15
 70
     1
102
RTVSPropertyOp16
 70
     1
102
RTVSPropertyOp17
 70
     1
102
RTVSPropertyOp18
 70
     1
102
RTVSPropertyOp19
 70
     1
102
RTVSPropertyOp20
 70
     1
102
RTVSPropertyOp21
 70
     1
102
RTVSPropertyOp22
 70
     1
102
RTVSPropertyOp23
 70
     1
102
RTVSPropertyOp24
 70
     1
102
RTVSPropertyOp25
 70
     1
102
RTVSPropertyOp26
 70
     1
102
RTVSPropertyOp27
 70
     1
102
RTVSPropertyOp28
 70
     1
102
RTVSPropertyOp29
 70
     1
102
RTVSPropertyOp30
 70
     1
102
RTVSPropertyOp31
 70
     1
102
RTVSPropertyOp32
 70
     1
102
RTVSPropertyOp33
 70
     1
102
RTVSPropertyOp34
 70
     1
102
RTVSPropertyOp35
 70
     1
102
RTVSPropertyOp36
 70
     1
102
RTVSPropertyOp37
 70
     1
102
RTVSPropertyOp38
 70
     1
102
RTVSPropertyOp39
 70
     1
102
RTVSPropertyOp40
 70
     1
102
RTVSPropertyOp41
 70
     1
102
RTVSPropertyOp42
 70
     1
102
RTVSPropertyOp43
 70
     1
102
RTVSPropertyOp44
 70
     1
102
RTVSPropertyOp45
 70
     1
102
RTVSPropertyOp46
 70
     1
102
RTVSPropertyOp47
 70
     1
102
RTVSPropertyOp48
 70
     1
102
RTVSPropertyOp49
 70
     1
102
RTVSPropertyOp50
 70
     1
102
RTVSPropertyOp51
 70
     0
102
RTVSPropertyOp52
 70
     0
102
RTVSPropertyOp53
 70
     1
102
RTVSPropertyOp54
 70
     1
102
RTVSPropertyOp55
 70
     1
102
RTVSPropertyOp56
 70
     1
102
RTVSPropertyOp57
 70
     1
102
RTVSPropertyOp58
 70
     1
102
RTVSPropertyOp59
 70
     1
102
RTVSPropertyOp60
 70
     1
102
RTVSPropertyOp61
 70
     1
102
RTVSPropertyOp62
 70
     1
  0
XRECORD
  5
263
102
{ACAD_REACTORS
330
262
102
}
330
262
100
AcDbXrecord
280
     1
102
RTVSPost2010Prop28
280
     0
102
RTVSPost2010PropOp28
 70
     1
102
RTVSPost2010Prop29
280
     1
102
RTVSPost2010PropOp29
 70
     1
102
RTVSPost2010Prop30
280
     1
102
RTVSPost2010PropOp30
 70
     1
102
RTVSPost2010Prop31
280
     0
102
RTVSPost2010PropOp31
 70
     1
102
RTVSPost2010Prop32
280
     0
102
RTVSPost2010PropOp32
 70
     1
102
RTVSPost2010Prop33
280
     0
102
RTVSPost2010PropOp33
 70
     1
102
RTVSPost2010Prop34
280
     0
102
RTVSPost2010PropOp34
 70
     1
102
RTVSPost2010Prop35
280
     0
102
RTVSPost2010PropOp35
 70
     1
102
RTVSPost2010Prop36
280
     0
102
RTVSPost2010PropOp36
 70
     1
102
RTVSPost2010Prop37
 90
       50
102
RTVSPost2010PropOp37
 70
     1
102
RTVSPost2010Prop38
140
0.0
102
RTVSPost2010PropOp38
 70
     1
102
RTVSPost2010Prop39
140
1.0
102
RTVSPost2010PropOp39
 70
     1
102
RTVSPost2010Prop40
 90
        0
102
RTVSPost2010PropOp40
 70
     1
102
RTVSPost2010Prop41ColorIndex
 90
       18
102
RTVSPost2010Prop41ColorRGB
 90
        0
102
RTVSPost2010PropOp41
 70
     1
102
RTVSPost2010Prop42
 90
       50
102
RTVSPost2010PropOp42
 70
     1
102
RTVSPost2010Prop43
 90
        3
102
RTVSPost2010PropOp43
 70
     1
102
RTVSPost2010Prop44ColorIndex
 90
        5
102
RTVSPost2010Prop44ColorRGB
 90
      255
102
RTVSPost2010PropOp44
 70
     1
102
RTVSPost2010Prop45
280
     0
102
RTVSPost2010PropOp45
 70
     1
102
RTVSPost2010Prop46
 90
       50
102
RTVSPost2010PropOp46
 70
     1
102
RTVSPost2010Prop47
 90
       50
102
RTVSPost2010PropOp47
 70
     1
102
RTVSPost2010Prop48
 90
       50
102
RTVSPost2010PropOp48
 70
     1
102
RTVSPost2010Prop49
280
     0
102
RTVSPost2010PropOp49
 70
     1
102
RTVSPost2010Prop50
 90
       50
102
RTVSPost2010PropOp50
 70
     1
102
RTVSPost2010Prop51ColorIndex
 90
      256
102
RTVSPost2010Prop51ColorRGB
 90
-16777216
102
RTVSPost2010PropOp51
 70
     0
102
RTVSPost2010Prop52
140
1.0
102
RTVSPost2010PropOp52
 70
     0
102
RTVSPost2010Prop53
 90
        2
102
RTVSPost2010PropOp53
 70
     1
102
RTVSPost2010Prop54
  1
strokes_ogs.tif
102
RTVSPost2010PropOp54
 70
     1
102
RTVSPost2010Prop55
280
     0
102
RTVSPost2010PropOp55
 70
     1
102
RTVSPost2010Prop56
140
1.0
102
RTVSPost2010PropOp56
 70
     1
102
RTVSPost2010Prop57
140
1.0
102
RTVSPost2010PropOp57
 70
     1
102
RTVSPropertyOp0
 70
     1
102
RTVSPropertyOp1
 70
     1
102
RTVSPropertyOp2
 70
     1
102
RTVSPropertyOp3
 70
     1
102
RTVSPropertyOp4
 70
     1
102
RTVSPropertyOp5
 70
     1
102
RTVSPropertyOp6
 70
     1
102
RTVSPropertyOp7
 70
     1
102
RTVSPropertyOp8
 70
     1
102
RTVSPropertyOp9
 70
     1
102
RTVSPropertyOp10
 70
     1
102
RTVSPropertyOp11
 70
     1
102
RTVSPropertyOp12
 70
     1
102
RTVSPropertyOp13
 70
     1
102
RTVSPropertyOp14
 70
     1
102
RTVSPropertyOp15
 70
     1
102
RTVSPropertyOp16
 70
     1
102
RTVSPropertyOp17
 70
     1
102
RTVSPropertyOp18
 70
     1
102
RTVSPropertyOp19
 70
     1
102
RTVSPropertyOp20
 70
     1
102
RTVSPropertyOp21
 70
     1
102
RTVSPropertyOp22
 70
     1
102
RTVSPropertyOp23
 70
     1
102
RTVSPropertyOp24
 70
     1
102
RTVSPropertyOp25
 70
     1
102
RTVSPropertyOp26
 70
     1
102
RTVSPropertyOp27
 70
     1
102
RTVSPropertyOp28
 70
     1
102
RTVSPropertyOp29
 70
     1
102
RTVSPropertyOp30
 70
     1
102
RTVSPropertyOp31
 70
     1
102
RTVSPropertyOp32
 70
     1
102
RTVSPropertyOp33
 70
     1
102
RTVSPropertyOp34
 70
     1
102
RTVSPropertyOp35
 70
     1
102
RTVSPropertyOp36
 70
     1
102
RTVSPropertyOp37
 70
     1
102
RTVSPropertyOp38
 70
     1
102
RTVSPropertyOp39
 70
     1
102
RTVSPropertyOp40
 70
     1
102
RTVSPropertyOp41
 70
     1
102
RTVSPropertyOp42
 70
     1
102
RTVSPropertyOp43
 70
     1
102
RTVSPropertyOp44
 70
     1
102
RTVSPropertyOp45
 70
     1
102
RTVSPropertyOp46
 70
     1
102
RTVSPropertyOp47
 70
     1
102
RTVSPropertyOp48
 70
     1
102
RTVSPropertyOp49
 70
     1
102
RTVSPropertyOp50
 70
     1
102
RTVSPropertyOp51
 70
     0
102
RTVSPropertyOp52
 70
     0
102
RTVSPropertyOp53
 70
     1
102
RTVSPropertyOp54
 70
     1
102
RTVSPropertyOp55
 70
     1
102
RTVSPropertyOp56
 70
     1
102
RTVSPropertyOp57
 70
     1
102
RTVSPropertyOp58
 70
     1
102
RTVSPropertyOp59
 70
     1
102
RTVSPropertyOp60
 70
     1
102
RTVSPropertyOp61
 70
     1
102
RTVSPropertyOp62
 70
     1
  0
XRECORD
  5
25D
102
{ACAD_REACTORS
330
25C
102
}
330
25C
100
AcDbXrecord
280
     1
102
RTVSPost2010Prop28
280
     0
102
RTVSPost2010PropOp28
 70
     1
102
RTVSPost2010Prop29
280
     1
102
RTVSPost2010PropOp29
 70
     1
102
RTVSPost2010Prop30
280
     1
102
RTVSPost2010PropOp30
 70
     1
102
RTVSPost2010Prop31
280
     0
102
RTVSPost2010PropOp31
 70
     1
102
RTVSPost2010Prop32
280
     0
102
RTVSPost2010PropOp32
 70
     1
102
RTVSPost2010Prop33
280
     0
102
RTVSPost2010PropOp33
 70
     1
102
RTVSPost2010Prop34
280
     0
102
RTVSPost2010PropOp34
 70
     1
102
RTVSPost2010Prop35
280
     0
102
RTVSPost2010PropOp35
 70
     1
102
RTVSPost2010Prop36
280
     0
102
RTVSPost2010PropOp36
 70
     1
102
RTVSPost2010Prop37
 90
       50
102
RTVSPost2010PropOp37
 70
     1
102
RTVSPost2010Prop38
140
0.0
102
RTVSPost2010PropOp38
 70
     1
102
RTVSPost2010Prop39
140
1.0
102
RTVSPost2010PropOp39
 70
     1
102
RTVSPost2010Prop40
 90
        0
102
RTVSPost2010PropOp40
 70
     1
102
RTVSPost2010Prop41ColorIndex
 90
       18
102
RTVSPost2010Prop41ColorRGB
 90
        0
102
RTVSPost2010PropOp41
 70
     1
102
RTVSPost2010Prop42
 90
       50
102
RTVSPost2010PropOp42
 70
     1
102
RTVSPost2010Prop43
 90
        3
102
RTVSPost2010PropOp43
 70
     1
102
RTVSPost2010Prop44ColorIndex
 90
        5
102
RTVSPost2010Prop44ColorRGB
 90
      255
102
RTVSPost2010PropOp44
 70
     1
102
RTVSPost2010Prop45
280
     0
102
RTVSPost2010PropOp45
 70
     1
102
RTVSPost2010Prop46
 90
       50
102
RTVSPost2010PropOp46
 70
     1
102
RTVSPost2010Prop47
 90
       50
102
RTVSPost2010PropOp47
 70
     1
102
RTVSPost2010Prop48
 90
       50
102
RTVSPost2010PropOp48
 70
     1
102
RTVSPost2010Prop49
280
     0
102
RTVSPost2010PropOp49
 70
     1
102
RTVSPost2010Prop50
 90
       50
102
RTVSPost2010PropOp50
 70
     1
102
RTVSPost2010Prop51ColorIndex
 90
      256
102
RTVSPost2010Prop51ColorRGB
 90
-16777216
102
RTVSPost2010PropOp51
 70
     0
102
RTVSPost2010Prop52
140
1.0
102
RTVSPost2010PropOp52
 70
     0
102
RTVSPost2010Prop53
 90
        2
102
RTVSPost2010PropOp53
 70
     1
102
RTVSPost2010Prop54
  1
strokes_ogs.tif
102
RTVSPost2010PropOp54
 70
     1
102
RTVSPost2010Prop55
280
     0
102
RTVSPost2010PropOp55
 70
     1
102
RTVSPost2010Prop56
140
1.0
102
RTVSPost2010PropOp56
 70
     1
102
RTVSPost2010Prop57
140
1.0
102
RTVSPost2010PropOp57
 70
     1
102
RTVSPropertyOp0
 70
     1
102
RTVSPropertyOp1
 70
     1
102
RTVSPropertyOp2
 70
     1
102
RTVSPropertyOp3
 70
     1
102
RTVSPropertyOp4
 70
     1
102
RTVSPropertyOp5
 70
     1
102
RTVSPropertyOp6
 70
     1
102
RTVSPropertyOp7
 70
     1
102
RTVSPropertyOp8
 70
     1
102
RTVSPropertyOp9
 70
     1
102
RTVSPropertyOp10
 70
     1
102
RTVSPropertyOp11
 70
     1
102
RTVSPropertyOp12
 70
     1
102
RTVSPropertyOp13
 70
     1
102
RTVSPropertyOp14
 70
     1
102
RTVSPropertyOp15
 70
     1
102
RTVSPropertyOp16
 70
     1
102
RTVSPropertyOp17
 70
     1
102
RTVSPropertyOp18
 70
     1
102
RTVSPropertyOp19
 70
     1
102
RTVSPropertyOp20
 70
     1
102
RTVSPropertyOp21
 70
     1
102
RTVSPropertyOp22
 70
     1
102
RTVSPropertyOp23
 70
     1
102
RTVSPropertyOp24
 70
     1
102
RTVSPropertyOp25
 70
     1
102
RTVSPropertyOp26
 70
     1
102
RTVSPropertyOp27
 70
     1
102
RTVSPropertyOp28
 70
     1
102
RTVSPropertyOp29
 70
     1
102
RTVSPropertyOp30
 70
     1
102
RTVSPropertyOp31
 70
     1
102
RTVSPropertyOp32
 70
     1
102
RTVSPropertyOp33
 70
     1
102
RTVSPropertyOp34
 70
     1
102
RTVSPropertyOp35
 70
     1
102
RTVSPropertyOp36
 70
     1
102
RTVSPropertyOp37
 70
     1
102
RTVSPropertyOp38
 70
     1
102
RTVSPropertyOp39
 70
     1
102
RTVSPropertyOp40
 70
     1
102
RTVSPropertyOp41
 70
     1
102
RTVSPropertyOp42
 70
     1
102
RTVSPropertyOp43
 70
     1
102
RTVSPropertyOp44
 70
     1
102
RTVSPropertyOp45
 70
     1
102
RTVSPropertyOp46
 70
     1
102
RTVSPropertyOp47
 70
     1
102
RTVSPropertyOp48
 70
     1
102
RTVSPropertyOp49
 70
     1
102
RTVSPropertyOp50
 70
     1
102
RTVSPropertyOp51
 70
     0
102
RTVSPropertyOp52
 70
     0
102
RTVSPropertyOp53
 70
     1
102
RTVSPropertyOp54
 70
     1
102
RTVSPropertyOp55
 70
     1
102
RTVSPropertyOp56
 70
     1
102
RTVSPropertyOp57
 70
     1
102
RTVSPropertyOp58
 70
     1
102
RTVSPropertyOp59
 70
     1
102
RTVSPropertyOp60
 70
     1
102
RTVSPropertyOp61
 70
     1
102
RTVSPropertyOp62
 70
     1
  0
XRECORD
  5
25F
102
{ACAD_REACTORS
330
25E
102
}
330
25E
100
AcDbXrecord
280
     1
102
RTVSPost2010Prop28
280
     0
102
RTVSPost2010PropOp28
 70
     1
102
RTVSPost2010Prop29
280
     1
102
RTVSPost2010PropOp29
 70
     1
102
RTVSPost2010Prop30
280
     1
102
RTVSPost2010PropOp30
 70
     1
102
RTVSPost2010Prop31
280
     0
102
RTVSPost2010PropOp31
 70
     1
102
RTVSPost2010Prop32
280
     0
102
RTVSPost2010PropOp32
 70
     1
102
RTVSPost2010Prop33
280
     0
102
RTVSPost2010PropOp33
 70
     1
102
RTVSPost2010Prop34
280
     0
102
RTVSPost2010PropOp34
 70
     1
102
RTVSPost2010Prop35
280
     0
102
RTVSPost2010PropOp35
 70
     1
102
RTVSPost2010Prop36
280
     0
102
RTVSPost2010PropOp36
 70
     1
102
RTVSPost2010Prop37
 90
       50
102
RTVSPost2010PropOp37
 70
     1
102
RTVSPost2010Prop38
140
0.0
102
RTVSPost2010PropOp38
 70
     1
102
RTVSPost2010Prop39
140
1.0
102
RTVSPost2010PropOp39
 70
     1
102
RTVSPost2010Prop40
 90
        0
102
RTVSPost2010PropOp40
 70
     1
102
RTVSPost2010Prop41ColorIndex
 90
       18
102
RTVSPost2010Prop41ColorRGB
 90
        0
102
RTVSPost2010PropOp41
 70
     1
102
RTVSPost2010Prop42
 90
       50
102
RTVSPost2010PropOp42
 70
     1
102
RTVSPost2010Prop43
 90
        3
102
RTVSPost2010PropOp43
 70
     1
102
RTVSPost2010Prop44ColorIndex
 90
        5
102
RTVSPost2010Prop44ColorRGB
 90
      255
102
RTVSPost2010PropOp44
 70
     1
102
RTVSPost2010Prop45
280
     0
102
RTVSPost2010PropOp45
 70
     1
102
RTVSPost2010Prop46
 90
       50
102
RTVSPost2010PropOp46
 70
     1
102
RTVSPost2010Prop47
 90
       50
102
RTVSPost2010PropOp47
 70
     1
102
RTVSPost2010Prop48
 90
       50
102
RTVSPost2010PropOp48
 70
     1
102
RTVSPost2010Prop49
280
     0
102
RTVSPost2010PropOp49
 70
     1
102
RTVSPost2010Prop50
 90
       50
102
RTVSPost2010PropOp50
 70
     1
102
RTVSPost2010Prop51ColorIndex
 90
      256
102
RTVSPost2010Prop51ColorRGB
 90
-16777216
102
RTVSPost2010PropOp51
 70
     0
102
RTVSPost2010Prop52
140
1.0
102
RTVSPost2010PropOp52
 70
     0
102
RTVSPost2010Prop53
 90
        2
102
RTVSPost2010PropOp53
 70
     1
102
RTVSPost2010Prop54
  1
strokes_ogs.tif
102
RTVSPost2010PropOp54
 70
     1
102
RTVSPost2010Prop55
280
     0
102
RTVSPost2010PropOp55
 70
     1
102
RTVSPost2010Prop56
140
1.0
102
RTVSPost2010PropOp56
 70
     1
102
RTVSPost2010Prop57
140
1.0
102
RTVSPost2010PropOp57
 70
     1
102
RTVSPropertyOp0
 70
     1
102
RTVSPropertyOp1
 70
     1
102
RTVSPropertyOp2
 70
     1
102
RTVSPropertyOp3
 70
     1
102
RTVSPropertyOp4
 70
     1
102
RTVSPropertyOp5
 70
     1
102
RTVSPropertyOp6
 70
     1
102
RTVSPropertyOp7
 70
     1
102
RTVSPropertyOp8
 70
     1
102
RTVSPropertyOp9
 70
     1
102
RTVSPropertyOp10
 70
     1
102
RTVSPropertyOp11
 70
     1
102
RTVSPropertyOp12
 70
     1
102
RTVSPropertyOp13
 70
     1
102
RTVSPropertyOp14
 70
     1
102
RTVSPropertyOp15
 70
     1
102
RTVSPropertyOp16
 70
     1
102
RTVSPropertyOp17
 70
     1
102
RTVSPropertyOp18
 70
     1
102
RTVSPropertyOp19
 70
     1
102
RTVSPropertyOp20
 70
     1
102
RTVSPropertyOp21
 70
     1
102
RTVSPropertyOp22
 70
     1
102
RTVSPropertyOp23
 70
     1
102
RTVSPropertyOp24
 70
     1
102
RTVSPropertyOp25
 70
     1
102
RTVSPropertyOp26
 70
     1
102
RTVSPropertyOp27
 70
     1
102
RTVSPropertyOp28
 70
     1
102
RTVSPropertyOp29
 70
     1
102
RTVSPropertyOp30
 70
     1
102
RTVSPropertyOp31
 70
     1
102
RTVSPropertyOp32
 70
     1
102
RTVSPropertyOp33
 70
     1
102
RTVSPropertyOp34
 70
     1
102
RTVSPropertyOp35
 70
     1
102
RTVSPropertyOp36
 70
     1
102
RTVSPropertyOp37
 70
     1
102
RTVSPropertyOp38
 70
     1
102
RTVSPropertyOp39
 70
     1
102
RTVSPropertyOp40
 70
     1
102
RTVSPropertyOp41
 70
     1
102
RTVSPropertyOp42
 70
     1
102
RTVSPropertyOp43
 70
     1
102
RTVSPropertyOp44
 70
     1
102
RTVSPropertyOp45
 70
     1
102
RTVSPropertyOp46
 70
     1
102
RTVSPropertyOp47
 70
     1
102
RTVSPropertyOp48
 70
     1
102
RTVSPropertyOp49
 70
     1
102
RTVSPropertyOp50
 70
     1
102
RTVSPropertyOp51
 70
     0
102
RTVSPropertyOp52
 70
     0
102
RTVSPropertyOp53
 70
     1
102
RTVSPropertyOp54
 70
     1
102
RTVSPropertyOp55
 70
     1
102
RTVSPropertyOp56
 70
     1
102
RTVSPropertyOp57
 70
     1
102
RTVSPropertyOp58
 70
     1
102
RTVSPropertyOp59
 70
     1
102
RTVSPropertyOp60
 70
     1
102
RTVSPropertyOp61
 70
     1
102
RTVSPropertyOp62
 70
     1
  0
XRECORD
  5
255
102
{ACAD_REACTORS
330
254
102
}
330
254
100
AcDbXrecord
280
     1
102
RTVSPost2010Prop28
280
     0
102
RTVSPost2010PropOp28
 70
     1
102
RTVSPost2010Prop29
280
     1
102
RTVSPost2010PropOp29
 70
     1
102
RTVSPost2010Prop30
280
     1
102
RTVSPost2010PropOp30
 70
     1
102
RTVSPost2010Prop31
280
     0
102
RTVSPost2010PropOp31
 70
     1
102
RTVSPost2010Prop32
280
     0
102
RTVSPost2010PropOp32
 70
     1
102
RTVSPost2010Prop33
280
     0
102
RTVSPost2010PropOp33
 70
     1
102
RTVSPost2010Prop34
280
     0
102
RTVSPost2010PropOp34
 70
     1
102
RTVSPost2010Prop35
280
     0
102
RTVSPost2010PropOp35
 70
     1
102
RTVSPost2010Prop36
280
     0
102
RTVSPost2010PropOp36
 70
     1
102
RTVSPost2010Prop37
 90
       50
102
RTVSPost2010PropOp37
 70
     1
102
RTVSPost2010Prop38
140
0.0
102
RTVSPost2010PropOp38
 70
     1
102
RTVSPost2010Prop39
140
1.0
102
RTVSPost2010PropOp39
 70
     1
102
RTVSPost2010Prop40
 90
        0
102
RTVSPost2010PropOp40
 70
     1
102
RTVSPost2010Prop41ColorIndex
 90
       18
102
RTVSPost2010Prop41ColorRGB
 90
        0
102
RTVSPost2010PropOp41
 70
     1
102
RTVSPost2010Prop42
 90
       50
102
RTVSPost2010PropOp42
 70
     1
102
RTVSPost2010Prop43
 90
        3
102
RTVSPost2010PropOp43
 70
     1
102
RTVSPost2010Prop44ColorIndex
 90
        5
102
RTVSPost2010Prop44ColorRGB
 90
      255
102
RTVSPost2010PropOp44
 70
     1
102
RTVSPost2010Prop45
280
     0
102
RTVSPost2010PropOp45
 70
     1
102
RTVSPost2010Prop46
 90
       50
102
RTVSPost2010PropOp46
 70
     1
102
RTVSPost2010Prop47
 90
       50
102
RTVSPost2010PropOp47
 70
     1
102
RTVSPost2010Prop48
 90
       50
102
RTVSPost2010PropOp48
 70
     1
102
RTVSPost2010Prop49
280
     0
102
RTVSPost2010PropOp49
 70
     1
102
RTVSPost2010Prop50
 90
       50
102
RTVSPost2010PropOp50
 70
     1
102
RTVSPost2010Prop51ColorIndex
 90
      256
102
RTVSPost2010Prop51ColorRGB
 90
-16777216
102
RTVSPost2010PropOp51
 70
     0
102
RTVSPost2010Prop52
140
1.0
102
RTVSPost2010PropOp52
 70
     0
102
RTVSPost2010Prop53
 90
        2
102
RTVSPost2010PropOp53
 70
     1
102
RTVSPost2010Prop54
  1
strokes_ogs.tif
102
RTVSPost2010PropOp54
 70
     1
102
RTVSPost2010Prop55
280
     0
102
RTVSPost2010PropOp55
 70
     1
102
RTVSPost2010Prop56
140
1.0
102
RTVSPost2010PropOp56
 70
     1
102
RTVSPost2010Prop57
140
1.0
102
RTVSPost2010PropOp57
 70
     1
102
RTVSPropertyOp0
 70
     1
102
RTVSPropertyOp1
 70
     1
102
RTVSPropertyOp2
 70
     1
102
RTVSPropertyOp3
 70
     1
102
RTVSPropertyOp4
 70
     1
102
RTVSPropertyOp5
 70
     1
102
RTVSPropertyOp6
 70
     1
102
RTVSPropertyOp7
 70
     1
102
RTVSPropertyOp8
 70
     1
102
RTVSPropertyOp9
 70
     1
102
RTVSPropertyOp10
 70
     1
102
RTVSPropertyOp11
 70
     1
102
RTVSPropertyOp12
 70
     1
102
RTVSPropertyOp13
 70
     1
102
RTVSPropertyOp14
 70
     1
102
RTVSPropertyOp15
 70
     1
102
RTVSPropertyOp16
 70
     1
102
RTVSPropertyOp17
 70
     1
102
RTVSPropertyOp18
 70
     1
102
RTVSPropertyOp19
 70
     1
102
RTVSPropertyOp20
 70
     1
102
RTVSPropertyOp21
 70
     1
102
RTVSPropertyOp22
 70
     1
102
RTVSPropertyOp23
 70
     1
102
RTVSPropertyOp24
 70
     1
102
RTVSPropertyOp25
 70
     1
102
RTVSPropertyOp26
 70
     1
102
RTVSPropertyOp27
 70
     1
102
RTVSPropertyOp28
 70
     1
102
RTVSPropertyOp29
 70
     1
102
RTVSPropertyOp30
 70
     1
102
RTVSPropertyOp31
 70
     1
102
RTVSPropertyOp32
 70
     1
102
RTVSPropertyOp33
 70
     1
102
RTVSPropertyOp34
 70
     1
102
RTVSPropertyOp35
 70
     1
102
RTVSPropertyOp36
 70
     1
102
RTVSPropertyOp37
 70
     1
102
RTVSPropertyOp38
 70
     1
102
RTVSPropertyOp39
 70
     1
102
RTVSPropertyOp40
 70
     1
102
RTVSPropertyOp41
 70
     1
102
RTVSPropertyOp42
 70
     1
102
RTVSPropertyOp43
 70
     1
102
RTVSPropertyOp44
 70
     1
102
RTVSPropertyOp45
 70
     1
102
RTVSPropertyOp46
 70
     1
102
RTVSPropertyOp47
 70
     1
102
RTVSPropertyOp48
 70
     1
102
RTVSPropertyOp49
 70
     1
102
RTVSPropertyOp50
 70
     1
102
RTVSPropertyOp51
 70
     0
102
RTVSPropertyOp52
 70
     0
102
RTVSPropertyOp53
 70
     1
102
RTVSPropertyOp54
 70
     1
102
RTVSPropertyOp55
 70
     1
102
RTVSPropertyOp56
 70
     1
102
RTVSPropertyOp57
 70
     1
102
RTVSPropertyOp58
 70
     1
102
RTVSPropertyOp59
 70
     1
102
RTVSPropertyOp60
 70
     1
102
RTVSPropertyOp61
 70
     1
102
RTVSPropertyOp62
 70
     1
  0
XRECORD
  5
249
102
{ACAD_REACTORS
330
248
102
}
330
248
100
AcDbXrecord
280
     1
102
RTVSPost2010Prop28
280
     0
102
RTVSPost2010PropOp28
 70
     1
102
RTVSPost2010Prop29
280
     1
102
RTVSPost2010PropOp29
 70
     1
102
RTVSPost2010Prop30
280
     1
102
RTVSPost2010PropOp30
 70
     1
102
RTVSPost2010Prop31
280
     0
102
RTVSPost2010PropOp31
 70
     1
102
RTVSPost2010Prop32
280
     0
102
RTVSPost2010PropOp32
 70
     1
102
RTVSPost2010Prop33
280
     0
102
RTVSPost2010PropOp33
 70
     1
102
RTVSPost2010Prop34
280
     0
102
RTVSPost2010PropOp34
 70
     1
102
RTVSPost2010Prop35
280
     0
102
RTVSPost2010PropOp35
 70
     1
102
RTVSPost2010Prop36
280
     0
102
RTVSPost2010PropOp36
 70
     1
102
RTVSPost2010Prop37
 90
       50
102
RTVSPost2010PropOp37
 70
     1
102
RTVSPost2010Prop38
140
0.0
102
RTVSPost2010PropOp38
 70
     1
102
RTVSPost2010Prop39
140
1.0
102
RTVSPost2010PropOp39
 70
     1
102
RTVSPost2010Prop40
 90
        0
102
RTVSPost2010PropOp40
 70
     1
102
RTVSPost2010Prop41ColorIndex
 90
       18
102
RTVSPost2010Prop41ColorRGB
 90
        0
102
RTVSPost2010PropOp41
 70
     1
102
RTVSPost2010Prop42
 90
       50
102
RTVSPost2010PropOp42
 70
     1
102
RTVSPost2010Prop43
 90
        3
102
RTVSPost2010PropOp43
 70
     1
102
RTVSPost2010Prop44ColorIndex
 90
        5
102
RTVSPost2010Prop44ColorRGB
 90
      255
102
RTVSPost2010PropOp44
 70
     1
102
RTVSPost2010Prop45
280
     0
102
RTVSPost2010PropOp45
 70
     1
102
RTVSPost2010Prop46
 90
       50
102
RTVSPost2010PropOp46
 70
     1
102
RTVSPost2010Prop47
 90
       50
102
RTVSPost2010PropOp47
 70
     1
102
RTVSPost2010Prop48
 90
       50
102
RTVSPost2010PropOp48
 70
     1
102
RTVSPost2010Prop49
280
     0
102
RTVSPost2010PropOp49
 70
     1
102
RTVSPost2010Prop50
 90
       50
102
RTVSPost2010PropOp50
 70
     1
102
RTVSPost2010Prop51ColorIndex
 90
      256
102
RTVSPost2010Prop51ColorRGB
 90
-16777216
102
RTVSPost2010PropOp51
 70
     0
102
RTVSPost2010Prop52
140
1.0
102
RTVSPost2010PropOp52
 70
     0
102
RTVSPost2010Prop53
 90
        2
102
RTVSPost2010PropOp53
 70
     1
102
RTVSPost2010Prop54
  1
strokes_ogs.tif
102
RTVSPost2010PropOp54
 70
     1
102
RTVSPost2010Prop55
280
     0
102
RTVSPost2010PropOp55
 70
     1
102
RTVSPost2010Prop56
140
1.0
102
RTVSPost2010PropOp56
 70
     1
102
RTVSPost2010Prop57
140
1.0
102
RTVSPost2010PropOp57
 70
     1
102
RTVSPropertyOp0
 70
     1
102
RTVSPropertyOp1
 70
     1
102
RTVSPropertyOp2
 70
     1
102
RTVSPropertyOp3
 70
     1
102
RTVSPropertyOp4
 70
     1
102
RTVSPropertyOp5
 70
     1
102
RTVSPropertyOp6
 70
     1
102
RTVSPropertyOp7
 70
     1
102
RTVSPropertyOp8
 70
     1
102
RTVSPropertyOp9
 70
     1
102
RTVSPropertyOp10
 70
     1
102
RTVSPropertyOp11
 70
     1
102
RTVSPropertyOp12
 70
     1
102
RTVSPropertyOp13
 70
     1
102
RTVSPropertyOp14
 70
     1
102
RTVSPropertyOp15
 70
     1
102
RTVSPropertyOp16
 70
     1
102
RTVSPropertyOp17
 70
     1
102
RTVSPropertyOp18
 70
     1
102
RTVSPropertyOp19
 70
     1
102
RTVSPropertyOp20
 70
     1
102
RTVSPropertyOp21
 70
     1
102
RTVSPropertyOp22
 70
     1
102
RTVSPropertyOp23
 70
     1
102
RTVSPropertyOp24
 70
     1
102
RTVSPropertyOp25
 70
     1
102
RTVSPropertyOp26
 70
     1
102
RTVSPropertyOp27
 70
     1
102
RTVSPropertyOp28
 70
     1
102
RTVSPropertyOp29
 70
     1
102
RTVSPropertyOp30
 70
     1
102
RTVSPropertyOp31
 70
     1
102
RTVSPropertyOp32
 70
     1
102
RTVSPropertyOp33
 70
     1
102
RTVSPropertyOp34
 70
     1
102
RTVSPropertyOp35
 70
     1
102
RTVSPropertyOp36
 70
     1
102
RTVSPropertyOp37
 70
     1
102
RTVSPropertyOp38
 70
     1
102
RTVSPropertyOp39
 70
     1
102
RTVSPropertyOp40
 70
     1
102
RTVSPropertyOp41
 70
     1
102
RTVSPropertyOp42
 70
     1
102
RTVSPropertyOp43
 70
     1
102
RTVSPropertyOp44
 70
     1
102
RTVSPropertyOp45
 70
     1
102
RTVSPropertyOp46
 70
     1
102
RTVSPropertyOp47
 70
     1
102
RTVSPropertyOp48
 70
     1
102
RTVSPropertyOp49
 70
     1
102
RTVSPropertyOp50
 70
     1
102
RTVSPropertyOp51
 70
     0
102
RTVSPropertyOp52
 70
     0
102
RTVSPropertyOp53
 70
     1
102
RTVSPropertyOp54
 70
     1
102
RTVSPropertyOp55
 70
     1
102
RTVSPropertyOp56
 70
     1
102
RTVSPropertyOp57
 70
     1
102
RTVSPropertyOp58
 70
     1
102
RTVSPropertyOp59
 70
     1
102
RTVSPropertyOp60
 70
     1
102
RTVSPropertyOp61
 70
     1
102
RTVSPropertyOp62
 70
     1
  0
XRECORD
  5
261
102
{ACAD_REACTORS
330
260
102
}
330
260
100
AcDbXrecord
280
     1
102
RTVSPost2010Prop28
280
     0
102
RTVSPost2010PropOp28
 70
     1
102
RTVSPost2010Prop29
280
     1
102
RTVSPost2010PropOp29
 70
     1
102
RTVSPost2010Prop30
280
     1
102
RTVSPost2010PropOp30
 70
     1
102
RTVSPost2010Prop31
280
     0
102
RTVSPost2010PropOp31
 70
     1
102
RTVSPost2010Prop32
280
     0
102
RTVSPost2010PropOp32
 70
     1
102
RTVSPost2010Prop33
280
     0
102
RTVSPost2010PropOp33
 70
     1
102
RTVSPost2010Prop34
280
     0
102
RTVSPost2010PropOp34
 70
     1
102
RTVSPost2010Prop35
280
     0
102
RTVSPost2010PropOp35
 70
     1
102
RTVSPost2010Prop36
280
     0
102
RTVSPost2010PropOp36
 70
     1
102
RTVSPost2010Prop37
 90
       50
102
RTVSPost2010PropOp37
 70
     1
102
RTVSPost2010Prop38
140
0.0
102
RTVSPost2010PropOp38
 70
     1
102
RTVSPost2010Prop39
140
1.0
102
RTVSPost2010PropOp39
 70
     1
102
RTVSPost2010Prop40
 90
        0
102
RTVSPost2010PropOp40
 70
     1
102
RTVSPost2010Prop41ColorIndex
 90
       18
102
RTVSPost2010Prop41ColorRGB
 90
        0
102
RTVSPost2010PropOp41
 70
     1
102
RTVSPost2010Prop42
 90
       50
102
RTVSPost2010PropOp42
 70
     1
102
RTVSPost2010Prop43
 90
        3
102
RTVSPost2010PropOp43
 70
     1
102
RTVSPost2010Prop44ColorIndex
 90
        5
102
RTVSPost2010Prop44ColorRGB
 90
      255
102
RTVSPost2010PropOp44
 70
     1
102
RTVSPost2010Prop45
280
     0
102
RTVSPost2010PropOp45
 70
     1
102
RTVSPost2010Prop46
 90
       50
102
RTVSPost2010PropOp46
 70
     1
102
RTVSPost2010Prop47
 90
       50
102
RTVSPost2010PropOp47
 70
     1
102
RTVSPost2010Prop48
 90
       50
102
RTVSPost2010PropOp48
 70
     1
102
RTVSPost2010Prop49
280
     0
102
RTVSPost2010PropOp49
 70
     1
102
RTVSPost2010Prop50
 90
       50
102
RTVSPost2010PropOp50
 70
     1
102
RTVSPost2010Prop51ColorIndex
 90
      256
102
RTVSPost2010Prop51ColorRGB
 90
-16777216
102
RTVSPost2010PropOp51
 70
     0
102
RTVSPost2010Prop52
140
1.0
102
RTVSPost2010PropOp52
 70
     0
102
RTVSPost2010Prop53
 90
        2
102
RTVSPost2010PropOp53
 70
     1
102
RTVSPost2010Prop54
  1
strokes_ogs.tif
102
RTVSPost2010PropOp54
 70
     1
102
RTVSPost2010Prop55
280
     0
102
RTVSPost2010PropOp55
 70
     1
102
RTVSPost2010Prop56
140
1.0
102
RTVSPost2010PropOp56
 70
     1
102
RTVSPost2010Prop57
140
1.0
102
RTVSPost2010PropOp57
 70
     1
102
RTVSPropertyOp0
 70
     1
102
RTVSPropertyOp1
 70
     1
102
RTVSPropertyOp2
 70
     1
102
RTVSPropertyOp3
 70
     1
102
RTVSPropertyOp4
 70
     1
102
RTVSPropertyOp5
 70
     1
102
RTVSPropertyOp6
 70
     1
102
RTVSPropertyOp7
 70
     1
102
RTVSPropertyOp8
 70
     1
102
RTVSPropertyOp9
 70
     1
102
RTVSPropertyOp10
 70
     1
102
RTVSPropertyOp11
 70
     1
102
RTVSPropertyOp12
 70
     1
102
RTVSPropertyOp13
 70
     1
102
RTVSPropertyOp14
 70
     1
102
RTVSPropertyOp15
 70
     1
102
RTVSPropertyOp16
 70
     1
102
RTVSPropertyOp17
 70
     1
102
RTVSPropertyOp18
 70
     1
102
RTVSPropertyOp19
 70
     1
102
RTVSPropertyOp20
 70
     1
102
RTVSPropertyOp21
 70
     1
102
RTVSPropertyOp22
 70
     1
102
RTVSPropertyOp23
 70
     1
102
RTVSPropertyOp24
 70
     1
102
RTVSPropertyOp25
 70
     1
102
RTVSPropertyOp26
 70
     1
102
RTVSPropertyOp27
 70
     1
102
RTVSPropertyOp28
 70
     1
102
RTVSPropertyOp29
 70
     1
102
RTVSPropertyOp30
 70
     1
102
RTVSPropertyOp31
 70
     1
102
RTVSPropertyOp32
 70
     1
102
RTVSPropertyOp33
 70
     1
102
RTVSPropertyOp34
 70
     1
102
RTVSPropertyOp35
 70
     1
102
RTVSPropertyOp36
 70
     1
102
RTVSPropertyOp37
 70
     1
102
RTVSPropertyOp38
 70
     1
102
RTVSPropertyOp39
 70
     1
102
RTVSPropertyOp40
 70
     1
102
RTVSPropertyOp41
 70
     1
102
RTVSPropertyOp42
 70
     1
102
RTVSPropertyOp43
 70
     1
102
RTVSPropertyOp44
 70
     1
102
RTVSPropertyOp45
 70
     1
102
RTVSPropertyOp46
 70
     1
102
RTVSPropertyOp47
 70
     1
102
RTVSPropertyOp48
 70
     1
102
RTVSPropertyOp49
 70
     1
102
RTVSPropertyOp50
 70
     1
102
RTVSPropertyOp51
 70
     0
102
RTVSPropertyOp52
 70
     0
102
RTVSPropertyOp53
 70
     1
102
RTVSPropertyOp54
 70
     1
102
RTVSPropertyOp55
 70
     1
102
RTVSPropertyOp56
 70
     1
102
RTVSPropertyOp57
 70
     1
102
RTVSPropertyOp58
 70
     1
102
RTVSPropertyOp59
 70
     1
102
RTVSPropertyOp60
 70
     1
102
RTVSPropertyOp61
 70
     1
102
RTVSPropertyOp62
 70
     1
  0
ENDSEC
  0
EOF
