  0
SECTION
  2
HEADER
  9
$ACADVER
  1
AC1021
  9
$ACADMAINTVER
 70
    25
  9
$DWGCODEPAGE
  3
ANSI_1252
  9
$INSBASE
 10
0.0
 20
0.0
 30
0.0
  9
$EXTMIN
 10
1.000000000000000E+20
 20
1.000000000000000E+20
 30
1.000000000000000E+20
  9
$EXTMAX
 10
-1.000000000000000E+20
 20
-1.000000000000000E+20
 30
-1.000000000000000E+20
  9
$LIMMIN
 10
0.0
 20
0.0
  9
$LIMMAX
 10
12.0
 20
9.0
  9
$ORTHOMODE
 70
     0
  9
$REGENMODE
 70
     1
  9
$FILLMODE
 70
     1
  9
$QTEXTMODE
 70
     0
  9
$MIRRTEXT
 70
     1
  9
$LTSCALE
 40
1.0
  9
$ATTMODE
 70
     1
  9
$TEXTSIZE
 40
0.2
  9
$TRACEWID
 40
0.05
  9
$TEXTSTYLE
  7
Standard
  9
$CLAYER
  8
Bottom
  9
$CELTYPE
  6
ByLayer
  9
$CECOLOR
 62
   256
  9
$CELTSCALE
 40
1.0
  9
$DISPSILH
 70
     0
  9
$DIMSCALE
 40
1.0
  9
$DIMASZ
 40
0.18
  9
$DIMEXO
 40
0.0625
  9
$DIMDLI
 40
0.38
  9
$DIMRND
 40
0.0
  9
$DIMDLE
 40
0.0
  9
$DIMEXE
 40
0.18
  9
$DIMTP
 40
0.0
  9
$DIMTM
 40
0.0
  9
$DIMTXT
 40
0.18
  9
$DIMCEN
 40
0.09
  9
$DIMTSZ
 40
0.0
  9
$DIMTOL
 70
     0
  9
$DIMLIM
 70
     0
  9
$DIMTIH
 70
     1
  9
$DIMTOH
 70
     1
  9
$DIMSE1
 70
     0
  9
$DIMSE2
 70
     0
  9
$DIMTAD
 70
     0
  9
$DIMZIN
 70
     0
  9
$DIMBLK
  1

  9
$DIMASO
 70
     1
  9
$DIMSHO
 70
     1
  9
$DIMPOST
  1

  9
$DIMAPOST
  1

  9
$DIMALT
 70
     0
  9
$DIMALTD
 70
     2
  9
$DIMALTF
 40
25.4
  9
$DIMLFAC
 40
1.0
  9
$DIMTOFL
 70
     0
  9
$DIMTVP
 40
0.0
  9
$DIMTIX
 70
     0
  9
$DIMSOXD
 70
     0
  9
$DIMSAH
 70
     0
  9
$DIMBLK1
  1

  9
$DIMBLK2
  1

  9
$DIMSTYLE
  2
STANDARD_ACAD
  9
$DIMCLRD
 70
     0
  9
$DIMCLRE
 70
     0
  9
$DIMCLRT
 70
     0
  9
$DIMTFAC
 40
1.0
  9
$DIMGAP
 40
0.09
  9
$DIMJUST
 70
     0
  9
$DIMSD1
 70
     0
  9
$DIMSD2
 70
     0
  9
$DIMTOLJ
 70
     1
  9
$DIMTZIN
 70
     0
  9
$DIMALTZ
 70
     0
  9
$DIMALTTZ
 70
     0
  9
$DIMUPT
 70
     0
  9
$DIMDEC
 70
     4
  9
$DIMTDEC
 70
     4
  9
$DIMALTU
 70
     2
  9
$DIMALTTD
 70
     2
  9
$DIMTXSTY
  7
Standard
  9
$DIMAUNIT
 70
     0
  9
$DIMADEC
 70
     0
  9
$DIMALTRND
 40
0.0
  9
$DIMAZIN
 70
     0
  9
$DIMDSEP
 70
    46
  9
$DIMATFIT
 70
     3
  9
$DIMFRAC
 70
     0
  9
$DIMLDRBLK
  1

  9
$DIMLUNIT
 70
     2
  9
$DIMLWD
 70
    -2
  9
$DIMLWE
 70
    -2
  9
$DIMTMOVE
 70
     2
  9
$DIMFXL
 40
1.0
  9
$DIMFXLON
 70
     0
  9
$DIMJOGANG
 40
0.7853981633974483
  9
$DIMTFILL
 70
     0
  9
$DIMTFILLCLR
 70
     0
  9
$DIMARCSYM
 70
     0
  9
$DIMLTYPE
  6

  9
$DIMLTEX1
  6

  9
$DIMLTEX2
  6

  9
$LUNITS
 70
     2
  9
$LUPREC
 70
     3
  9
$SKETCHINC
 40
0.1
  9
$FILLETRAD
 40
0.5
  9
$AUNITS
 70
     0
  9
$AUPREC
 70
     0
  9
$MENU
  1
.
  9
$ELEVATION
 40
0.0
  9
$PELEVATION
 40
0.0
  9
$THICKNESS
 40
0.0
  9
$LIMCHECK
 70
     0
  9
$CHAMFERA
 40
0.0
  9
$CHAMFERB
 40
0.0
  9
$CHAMFERC
 40
0.0
  9
$CHAMFERD
 40
0.0
  9
$SKPOLY
 70
     0
  9
$TDCREATE
 40
2459401.687278299
  9
$TDUCREATE
 40
2459401.312278299
  9
$TDUPDATE
 40
2459401.687305185
  9
$TDUUPDATE
 40
2459401.312305185
  9
$TDINDWG
 40
0.0000000116
  9
$TDUSRTIMER
 40
0.0000000116
  9
$USRTIMER
 70
     1
  9
$ANGBASE
 50
0.0
  9
$ANGDIR
 70
     0
  9
$PDMODE
 70
     0
  9
$PDSIZE
 40
0.0
  9
$PLINEWID
 40
0.0
  9
$SPLFRAME
 70
     0
  9
$SPLINETYPE
 70
     6
  9
$SPLINESEGS
 70
     8
  9
$HANDSEED
  5
223
  9
$SURFTAB1
 70
     6
  9
$SURFTAB2
 70
     6
  9
$SURFTYPE
 70
     6
  9
$SURFU
 70
     6
  9
$SURFV
 70
     6
  9
$UCSBASE
  2

  9
$UCSNAME
  2

  9
$UCSORG
 10
0.0
 20
0.0
 30
0.0
  9
$UCSXDIR
 10
1.0
 20
0.0
 30
0.0
  9
$UCSYDIR
 10
0.0
 20
1.0
 30
0.0
  9
$UCSORTHOREF
  2

  9
$UCSORTHOVIEW
 70
     0
  9
$UCSORGTOP
 10
0.0
 20
0.0
 30
0.0
  9
$UCSORGBOTTOM
 10
0.0
 20
0.0
 30
0.0
  9
$UCSORGLEFT
 10
0.0
 20
0.0
 30
0.0
  9
$UCSORGRIGHT
 10
0.0
 20
0.0
 30
0.0
  9
$UCSORGFRONT
 10
0.0
 20
0.0
 30
0.0
  9
$UCSORGBACK
 10
0.0
 20
0.0
 30
0.0
  9
$PUCSBASE
  2

  9
$PUCSNAME
  2

  9
$PUCSORG
 10
0.0
 20
0.0
 30
0.0
  9
$PUCSXDIR
 10
1.0
 20
0.0
 30
0.0
  9
$PUCSYDIR
 10
0.0
 20
1.0
 30
0.0
  9
$PUCSORTHOREF
  2

  9
$PUCSORTHOVIEW
 70
     0
  9
$PUCSORGTOP
 10
0.0
 20
0.0
 30
0.0
  9
$PUCSORGBOTTOM
 10
0.0
 20
0.0
 30
0.0
  9
$PUCSORGLEFT
 10
0.0
 20
0.0
 30
0.0
  9
$PUCSORGRIGHT
 10
0.0
 20
0.0
 30
0.0
  9
$PUCSORGFRONT
 10
0.0
 20
0.0
 30
0.0
  9
$PUCSORGBACK
 10
0.0
 20
0.0
 30
0.0
  9
$USERI1
 70
     0
  9
$USERI2
 70
     0
  9
$USERI3
 70
     0
  9
$USERI4
 70
     0
  9
$USERI5
 70
     0
  9
$USERR1
 40
0.0
  9
$USERR2
 40
0.0
  9
$USERR3
 40
0.0
  9
$USERR4
 40
0.0
  9
$USERR5
 40
0.0
  9
$WORLDVIEW
 70
     1
  9
$SHADEDGE
 70
     3
  9
$SHADEDIF
 70
    70
  9
$TILEMODE
 70
     1
  9
$MAXACTVP
 70
    64
  9
$PINSBASE
 10
0.0
 20
0.0
 30
0.0
  9
$PLIMCHECK
 70
     0
  9
$PEXTMIN
 10
1.000000000000000E+20
 20
1.000000000000000E+20
 30
1.000000000000000E+20
  9
$PEXTMAX
 10
-1.000000000000000E+20
 20
-1.000000000000000E+20
 30
-1.000000000000000E+20
  9
$PLIMMIN
 10
0.0
 20
0.0
  9
$PLIMMAX
 10
12.0
 20
9.0
  9
$UNITMODE
 70
     0
  9
$VISRETAIN
 70
     1
  9
$PLINEGEN
 70
     0
  9
$PSLTSCALE
 70
     1
  9
$TREEDEPTH
 70
  3020
  9
$CMLSTYLE
  2
Standard
  9
$CMLJUST
 70
     0
  9
$CMLSCALE
 40
1.0
  9
$PROXYGRAPHICS
 70
     1
  9
$MEASUREMENT
 70
     1
  9
$CELWEIGHT
370
    -1
  9
$ENDCAPS
280
     0
  9
$JOINSTYLE
280
     0
  9
$LWDISPLAY
290
     0
  9
$INSUNITS
 70
     4
  9
$HYPERLINKBASE
  1

  9
$STYLESHEET
  1

  9
$XEDIT
290
     1
  9
$CEPSNTYPE
380
     0
  9
$PSTYLEMODE
290
     1
  9
$FINGERPRINTGUID
  2
{ca9956e0-e488-d547-b011-c4e4671b1f50}
  9
$VERSIONGUID
  2
{FAEB1C32-E019-11D5-929B-00C0DF256EC4}
  9
$EXTNAMES
290
     1
  9
$PSVPSCALE
 40
0.0
  9
$OLESTARTUP
290
     0
  9
$SORTENTS
280
   127
  9
$INDEXCTL
280
     0
  9
$HIDETEXT
280
     1
  9
$XCLIPFRAME
290
     0
  9
$HALOGAP
280
     0
  9
$OBSCOLOR
 70
   257
  9
$OBSLTYPE
280
     0
  9
$INTERSECTIONDISPLAY
280
     0
  9
$INTERSECTIONCOLOR
 70
   257
  9
$DIMASSOC
280
     2
  9
$PROJECTNAME
  1

  9
$CAMERADISPLAY
290
     0
  9
$LENSLENGTH
 40
50.0
  9
$CAMERAHEIGHT
 40
0.0
  9
$STEPSPERSEC
 40
2.0
  9
$STEPSIZE
 40
6.0
  9
$3DDWFPREC
 40
2.0
  9
$PSOLWIDTH
 40
0.25
  9
$PSOLHEIGHT
 40
4.0
  9
$LOFTANG1
 40
1.570796326794897
  9
$LOFTANG2
 40
1.570796326794897
  9
$LOFTMAG1
 40
0.0
  9
$LOFTMAG2
 40
0.0
  9
$LOFTPARAM
 70
     7
  9
$LOFTNORMALS
280
     1
  9
$LATITUDE
 40
37.795
  9
$LONGITUDE
 40
-122.394
  9
$NORTHDIRECTION
 40
0.0
  9
$TIMEZONE
 70
 -8000
  9
$LIGHTGLYPHDISPLAY
280
     1
  9
$TILEMODELIGHTSYNCH
280
     1
  9
$CMATERIAL
347
44
  9
$SOLIDHIST
280
     0
  9
$SHOWHIST
280
     1
  9
$DWFFRAME
280
     2
  9
$DGNFRAME
280
     2
  9
$REALWORLDSCALE
290
     1
  9
$INTERFERECOLOR
 62
   256
  9
$CSHADOW
280
     0
  9
$SHADOWPLANELOCATION
 40
0.0
  0
ENDSEC
  0
SECTION
  2
CLASSES
  0
CLASS
  1
ACDBDICTIONARYWDFLT
  2
AcDbDictionaryWithDefault
  3
ObjectDBX Classes
 90
        0
 91
        3
280
     0
281
     0
  0
CLASS
  1
VISUALSTYLE
  2
AcDbVisualStyle
  3
ObjectDBX Classes
 90
     4095
 91
        3
280
     0
281
     0
  0
CLASS
  1
MATERIAL
  2
AcDbMaterial
  3
ObjectDBX Classes
 90
     1153
 91
        3
280
     0
281
     0
  0
CLASS
  1
SCALE
  2
AcDbScale
  3
ObjectDBX Classes
 90
     1153
 91
        3
280
     0
281
     0
  0
CLASS
  1
TABLESTYLE
  2
AcDbTableStyle
  3
ObjectDBX Classes
 90
     4095
 91
        3
280
     0
281
     0
  0
CLASS
  1
MLEADERSTYLE
  2
AcDbMLeaderStyle
  3
ACDB_MLEADERSTYLE_CLASS
 90
     4095
 91
        3
280
     0
281
     0
  0
CLASS
  1
SUN
  2
AcDbSun
  3
SCENEOE
 90
     1153
 91
        3
280
     0
281
     0
  0
CLASS
  1
DICTIONARYVAR
  2
AcDbDictionaryVar
  3
ObjectDBX Classes
 90
        0
 91
        3
280
     0
281
     0
  0
CLASS
  1
CELLSTYLEMAP
  2
AcDbCellStyleMap
  3
ObjectDBX Classes
 90
     1152
 91
        3
280
     0
281
     0
  0
ENDSEC
  0
SECTION
  2
TABLES
  0
TABLE
  2
VPORT
  5
8
330
0
100
AcDbSymbolTable
 70
     1
  0
VPORT
  5
29
330
8
100
AcDbSymbolTableRecord
100
AcDbViewportTableRecord
  2
*Active
 70
     0
 10
0.0
 20
0.0
 11
1.0
 21
1.0
 12
10.42990654205607
 22
4.5
 13
0.0
 23
0.0
 14
0.5
 24
0.5
 15
0.5
 25
0.5
 16
0.0
 26
0.0
 36
1.0
 17
0.0
 27
0.0
 37
0.0
 40
9.0
 41
1.972972972850329
 42
50.0
 43
0.0
 44
0.0
 50
0.0
 51
0.0
 71
     0
 72
   100
 73
     1
 74
     3
 75
     0
 76
     0
 77
     0
 78
     0
281
     0
 65
     1
110
0.0
120
0.0
130
0.0
111
1.0
121
0.0
131
0.0
112
0.0
122
1.0
132
0.0
 79
     0
146
0.0
348
2F
 60
     3
 61
     5
292
     1
282
     1
141
0.0
142
0.0
 63
   250
361
6D
  0
ENDTAB
  0
TABLE
  2
LTYPE
  5
5
330
0
100
AcDbSymbolTable
 70
     1
  0
LTYPE
  5
14
330
5
100
AcDbSymbolTableRecord
100
AcDbLinetypeTableRecord
  2
ByBlock
 70
     0
  3

 72
    65
 73
     0
 40
0.0
  0
LTYPE
  5
15
330
5
100
AcDbSymbolTableRecord
100
AcDbLinetypeTableRecord
  2
ByLayer
 70
     0
  3

 72
    65
 73
     0
 40
0.0
  0
LTYPE
  5
16
330
5
100
AcDbSymbolTableRecord
100
AcDbLinetypeTableRecord
  2
Continuous
 70
     0
  3
Solid line
 72
    65
 73
     0
 40
0.0
  0
ENDTAB
  0
TABLE
  2
LAYER
  5
2
330
0
100
AcDbSymbolTable
 70
     3
  0
LAYER
  5
10
330
2
100
AcDbSymbolTableRecord
100
AcDbLayerTableRecord
  2
0
 70
     0
 62
     7
  6
Continuous
370
    -3
390
F
347
46
  0
LAYER
  5
6E
330
2
100
AcDbSymbolTableRecord
100
AcDbLayerTableRecord
  2
Make2D$Visible$Curves
 70
     0
 62
   178
420
        0
  6
Continuous
370
    -3
390
F
347
46
  0
LAYER
  5
7B
330
2
100
AcDbSymbolTableRecord
100
AcDbLayerTableRecord
  2
Bottom
 70
     0
 62
   178
420
        0
  6
Continuous
370
    -3
390
F
347
46
  0
ENDTAB
  0
TABLE
  2
STYLE
  5
3
330
0
100
AcDbSymbolTable
 70
     1
  0
STYLE
  5
11
330
3
100
AcDbSymbolTableRecord
100
AcDbTextStyleTableRecord
  2
Standard
 70
     0
 40
0.0
 41
1.0
 50
0.0
 71
     0
 42
0.2
  3
txt
  4

  0
ENDTAB
  0
TABLE
  2
VIEW
  5
6
330
0
100
AcDbSymbolTable
 70
     0
  0
ENDTAB
  0
TABLE
  2
UCS
  5
7
330
0
100
AcDbSymbolTable
 70
     0
  0
ENDTAB
  0
TABLE
  2
APPID
  5
9
330
0
100
AcDbSymbolTable
 70
     2
  0
APPID
  5
12
330
9
100
AcDbSymbolTableRecord
100
AcDbRegAppTableRecord
  2
ACAD
 70
     0
  0
APPID
  5
21B
330
9
100
AcDbSymbolTableRecord
100
AcDbRegAppTableRecord
  2
ACAD_MLEADERVER
 70
     0
  0
ENDTAB
  0
TABLE
  2
DIMSTYLE
  5
A
330
0
100
AcDbSymbolTable
 70
     1
100
AcDbDimStyleTable
  0
DIMSTYLE
105
27
330
A
100
AcDbSymbolTableRecord
100
AcDbDimStyleTableRecord
  2
STANDARD_ACAD
 70
     0
178
     0
340
11
  0
ENDTAB
  0
TABLE
  2
BLOCK_RECORD
  5
1
330
0
100
AcDbSymbolTable
 70
     1
  0
BLOCK_RECORD
  5
1F
330
1
100
AcDbSymbolTableRecord
100
AcDbBlockTableRecord
  2
*Model_Space
340
22
 70
     0
280
     1
281
     0
  0
BLOCK_RECORD
  5
1B
330
1
100
AcDbSymbolTableRecord
100
AcDbBlockTableRecord
  2
*Paper_Space
340
1E
 70
     0
280
     1
281
     0
  0
BLOCK_RECORD
  5
23
330
1
100
AcDbSymbolTableRecord
100
AcDbBlockTableRecord
  2
*Paper_Space0
340
26
 70
     0
280
     1
281
     0
  0
ENDTAB
  0
ENDSEC
  0
SECTION
  2
BLOCKS
  0
BLOCK
  5
20
330
1F
100
AcDbEntity
  8
0
100
AcDbBlockBegin
  2
*Model_Space
 70
     0
 10
0.0
 20
0.0
 30
0.0
  3
*Model_Space
  1

  0
ENDBLK
  5
21
330
1F
100
AcDbEntity
  8
0
100
AcDbBlockEnd
  0
BLOCK
  5
1C
330
1B
100
AcDbEntity
 67
     1
  8
0
100
AcDbBlockBegin
  2
*Paper_Space
 70
     0
 10
0.0
 20
0.0
 30
0.0
  3
*Paper_Space
  1

  0
ENDBLK
  5
1D
330
1B
100
AcDbEntity
 67
     1
  8
0
100
AcDbBlockEnd
  0
BLOCK
  5
24
330
23
100
AcDbEntity
  8
0
100
AcDbBlockBegin
  2
*Paper_Space0
 70
     0
 10
0.0
 20
0.0
 30
0.0
  3
*Paper_Space0
  1

  0
ENDBLK
  5
25
330
23
100
AcDbEntity
  8
0
100
AcDbBlockEnd
  0
ENDSEC
  0
SECTION
  2
ENTITIES
  0
POLYLINE
  5
6F
330
1F
100
AcDbEntity
  8
Make2D$Visible$Curves
 62
   178
420
        0
370
    -3
100
AcDb2dPolyline
 66
     1
 10
0.0
 20
0.0
 30
50.0
 70
     1
  0
VERTEX
  5
70
330
6F
100
AcDbEntity
  8
Make2D$Visible$Curves
 62
   178
420
        0
370
    -3
100
AcDbVertex
100
AcDb2dVertex
 10
611.4981737529688
 20
218.156599521215
 30
50.0
  0
VERTEX
  5
71
330
6F
100
AcDbEntity
  8
Make2D$Visible$Curves
 62
   178
420
        0
370
    -3
100
AcDbVertex
100
AcDb2dVertex
 10
620.609284864081
 20
168.156599521214
 30
50.0
  0
VERTEX
  5
72
330
6F
100
AcDbEntity
  8
Make2D$Visible$Curves
 62
   178
420
        0
370
    -3
100
AcDbVertex
100
AcDb2dVertex
 10
669.8981787247903
 20
168.156599521214
 30
50.0
  0
VERTEX
  5
73
330
6F
100
AcDbEntity
  8
Make2D$Visible$Curves
 62
   178
420
        0
370
    -3
100
AcDbVertex
100
AcDb2dVertex
 10
669.8981787247894
 20
218.156599521215
 30
50.0
  0
SEQEND
  5
74
330
6F
100
AcDbEntity
  8
Make2D$Visible$Curves
 62
   178
420
        0
370
    -3
  0
POLYLINE
  5
75
330
1F
100
AcDbEntity
  8
Make2D$Visible$Curves
 62
   178
420
        0
370
    -3
100
AcDb2dPolyline
 66
     1
 10
0.0
 20
0.0
 30
50.0
 70
     1
  0
VERTEX
  5
76
330
75
100
AcDbEntity
  8
Make2D$Visible$Curves
 62
   178
420
        0
370
    -3
100
AcDbVertex
100
AcDb2dVertex
 10
1212.33485628246
 20
218.156599521215
 30
50.0
  0
VERTEX
  5
77
330
75
100
AcDbEntity
  8
Make2D$Visible$Curves
 62
   178
420
        0
370
    -3
100
AcDbVertex
100
AcDb2dVertex
 10
1203.223745171348
 20
168.156599521214
 30
50.0
  0
VERTEX
  5
78
330
75
100
AcDbEntity
  8
Make2D$Visible$Curves
 62
   178
420
        0
370
    -3
100
AcDbVertex
100
AcDb2dVertex
 10
1153.934851310639
 20
168.156599521214
 30
50.0
  0
VERTEX
  5
79
330
75
100
AcDbEntity
  8
Make2D$Visible$Curves
 62
   178
420
        0
370
    -3
100
AcDbVertex
100
AcDb2dVertex
 10
1153.93485131064
 20
218.156599521215
 30
50.0
  0
SEQEND
  5
7A
330
75
100
AcDbEntity
  8
Make2D$Visible$Curves
 62
   178
420
        0
370
    -3
  0
POLYLINE
  5
7C
330
1F
100
AcDbEntity
  8
Bottom
100
AcDb2dPolyline
 66
     1
 10
0.0
 20
0.0
 30
50.0
 70
     1
  0
VERTEX
  5
7D
330
7C
100
AcDbEntity
  8
Bottom
100
AcDbVertex
100
AcDb2dVertex
 10
479.3361203408776
 20
829.1097236132746
 30
50.0
  0
VERTEX
  5
7E
330
7C
100
AcDbEntity
  8
Bottom
100
AcDbVertex
100
AcDb2dVertex
 10
479.3361203408786
 20
-70.89027638672587
 30
50.0
  0
VERTEX
  5
7F
330
7C
100
AcDbEntity
  8
Bottom
100
AcDbVertex
100
AcDb2dVertex
 10
2279.336120340879
 20
-70.89027638672405
 30
50.0
  0
VERTEX
  5
80
330
7C
100
AcDbEntity
  8
Bottom
100
AcDbVertex
100
AcDb2dVertex
 10
2279.336120340877
 20
829.1097236132764
 30
50.0
  0
SEQEND
  5
81
330
7C
100
AcDbEntity
  8
Bottom
  0
SPLINE
  5
82
330
1F
100
AcDbEntity
  8
Make2D$Visible$Curves
 62
   178
420
        0
370
    -3
100
AcDbSpline
210
0.0
220
0.0
230
1.0
 70
    24
 71
     2
 72
     6
 73
     3
 74
     0
 42
0.000000001
 43
0.0000000001
 40
-28.0
 40
-28.0
 40
-28.0
 40
-27.0
 40
-27.0
 40
-27.0
 10
1706.544199504192
 20
565.6104502465814
 30
50.0
 10
1574.544199504166
 20
565.6104502465814
 30
50.0
 10
1442.544199504141
 20
565.6104502465814
 30
50.0
  0
POLYLINE
  5
83
330
1F
100
AcDbEntity
  8
Bottom
100
AcDb2dPolyline
 66
     1
 10
0.0
 20
0.0
 30
50.0
 70
     1
  0
VERTEX
  5
84
330
83
100
AcDbEntity
  8
Bottom
100
AcDbVertex
100
AcDb2dVertex
 10
1464.544199504141
 20
328.0104502465629
 30
50.0
  0
VERTEX
  5
85
330
83
100
AcDbEntity
  8
Bottom
100
AcDbVertex
100
AcDb2dVertex
 10
1684.544199504186
 20
328.0104502465629
 30
50.0
  0
VERTEX
  5
86
330
83
100
AcDbEntity
  8
Bottom
100
AcDbVertex
100
AcDb2dVertex
 10
1684.544199504186
 20
371.2104502465636
 30
50.0
  0
VERTEX
  5
87
330
83
100
AcDbEntity
  8
Bottom
100
AcDbVertex
100
AcDb2dVertex
 10
1464.544199504141
 20
371.2104502465636
 30
50.0
  0
SEQEND
  5
88
330
83
100
AcDbEntity
  8
Bottom
  0
POLYLINE
  5
89
330
1F
100
AcDbEntity
  8
Make2D$Visible$Curves
 62
   178
420
        0
370
    -3
100
AcDb2dPolyline
 66
     1
 10
0.0
 20
0.0
 30
50.0
 70
     1
  0
VERTEX
  5
8A
330
89
100
AcDbEntity
  8
Make2D$Visible$Curves
 62
   178
420
        0
370
    -3
100
AcDbVertex
100
AcDb2dVertex
 10
688.0481787247877
 20
464.3565995212214
 30
50.0
  0
VERTEX
  5
8B
330
89
100
AcDbEntity
  8
Make2D$Visible$Curves
 62
   178
420
        0
370
    -3
100
AcDbVertex
100
AcDb2dVertex
 10
669.7481787247875
 20
464.3565995212223
 30
50.0
  0
VERTEX
  5
8C
330
89
100
AcDbEntity
  8
Make2D$Visible$Curves
 62
   178
420
        0
370
    -3
100
AcDbVertex
100
AcDb2dVertex
 10
669.7481787247884
 20
389.9565995212215
 30
50.0
  0
VERTEX
  5
8D
330
89
100
AcDbEntity
  8
Make2D$Visible$Curves
 62
   178
420
        0
370
    -3
100
AcDbVertex
100
AcDb2dVertex
 10
688.0481787247886
 20
389.9565995212224
 30
50.0
  0
SEQEND
  5
8E
330
89
100
AcDbEntity
  8
Make2D$Visible$Curves
 62
   178
420
        0
370
    -3
  0
POLYLINE
  5
8F
330
1F
100
AcDbEntity
  8
Make2D$Visible$Curves
 62
   178
420
        0
370
    -3
100
AcDb2dPolyline
 66
     1
 10
0.0
 20
0.0
 30
50.0
 70
     1
  0
VERTEX
  5
90
330
8F
100
AcDbEntity
  8
Make2D$Visible$Curves
 62
   178
420
        0
370
    -3
100
AcDbVertex
100
AcDb2dVertex
 10
688.0481787247886
 20
316.3565995212257
 30
50.0
  0
VERTEX
  5
91
330
8F
100
AcDbEntity
  8
Make2D$Visible$Curves
 62
   178
420
        0
370
    -3
100
AcDbVertex
100
AcDb2dVertex
 10
669.7481787247884
 20
316.3565995212257
 30
50.0
  0
VERTEX
  5
92
330
8F
100
AcDbEntity
  8
Make2D$Visible$Curves
 62
   178
420
        0
370
    -3
100
AcDbVertex
100
AcDb2dVertex
 10
669.7481787247889
 20
241.9565995212251
 30
50.0
  0
VERTEX
  5
93
330
8F
100
AcDbEntity
  8
Make2D$Visible$Curves
 62
   178
420
        0
370
    -3
100
AcDbVertex
100
AcDb2dVertex
 10
688.0481787247891
 20
241.9565995212251
 30
50.0
  0
SEQEND
  5
94
330
8F
100
AcDbEntity
  8
Make2D$Visible$Curves
 62
   178
420
        0
370
    -3
  0
POLYLINE
  5
95
330
1F
100
AcDbEntity
  8
Make2D$Visible$Curves
 62
   178
420
        0
370
    -3
100
AcDb2dPolyline
 66
     1
 10
0.0
 20
0.0
 30
50.0
 70
     1
  0
VERTEX
  5
96
330
95
100
AcDbEntity
  8
Make2D$Visible$Curves
 62
   178
420
        0
370
    -3
100
AcDbVertex
100
AcDb2dVertex
 10
883.6909584117334
 20
639.4741975417355
 30
50.0
  0
VERTEX
  5
97
330
95
100
AcDbEntity
  8
Make2D$Visible$Curves
 62
   178
420
        0
370
    -3
100
AcDbVertex
100
AcDb2dVertex
 10
945.4242917450661
 20
639.4741975417355
 30
50.0
  0
VERTEX
  5
98
330
95
100
AcDbEntity
  8
Make2D$Visible$Curves
 62
   178
420
        0
370
    -3
100
AcDbVertex
100
AcDb2dVertex
 10
945.4242917450661
 20
621.1741975417353
 30
50.0
  0
VERTEX
  5
99
330
95
100
AcDbEntity
  8
Make2D$Visible$Curves
 62
   178
420
        0
370
    -3
100
AcDbVertex
100
AcDb2dVertex
 10
883.6909584117334
 20
621.1741975417353
 30
50.0
  0
SEQEND
  5
9A
330
95
100
AcDbEntity
  8
Make2D$Visible$Curves
 62
   178
420
        0
370
    -3
  0
POLYLINE
  5
9B
330
1F
100
AcDbEntity
  8
Make2D$Visible$Curves
 62
   178
420
        0
370
    -3
100
AcDb2dPolyline
 66
     1
 10
0.0
 20
0.0
 30
50.0
 70
     1
  0
VERTEX
  5
9C
330
9B
100
AcDbEntity
  8
Make2D$Visible$Curves
 62
   178
420
        0
370
    -3
100
AcDbVertex
100
AcDb2dVertex
 10
1135.784851310641
 20
464.3565995212214
 30
50.0
  0
VERTEX
  5
9D
330
9B
100
AcDbEntity
  8
Make2D$Visible$Curves
 62
   178
420
        0
370
    -3
100
AcDbVertex
100
AcDb2dVertex
 10
1154.084851310642
 20
464.3565995212223
 30
50.0
  0
VERTEX
  5
9E
330
9B
100
AcDbEntity
  8
Make2D$Visible$Curves
 62
   178
420
        0
370
    -3
100
AcDbVertex
100
AcDb2dVertex
 10
1154.084851310641
 20
389.9565995212215
 30
50.0
  0
VERTEX
  5
9F
330
9B
100
AcDbEntity
  8
Make2D$Visible$Curves
 62
   178
420
        0
370
    -3
100
AcDbVertex
100
AcDb2dVertex
 10
1135.784851310641
 20
389.9565995212224
 30
50.0
  0
SEQEND
  5
A0
330
9B
100
AcDbEntity
  8
Make2D$Visible$Curves
 62
   178
420
        0
370
    -3
  0
POLYLINE
  5
A1
330
1F
100
AcDbEntity
  8
Make2D$Visible$Curves
 62
   178
420
        0
370
    -3
100
AcDb2dPolyline
 66
     1
 10
0.0
 20
0.0
 30
50.0
 70
     1
  0
VERTEX
  5
A2
330
A1
100
AcDbEntity
  8
Make2D$Visible$Curves
 62
   178
420
        0
370
    -3
100
AcDbVertex
100
AcDb2dVertex
 10
1135.784851310641
 20
316.3565995212257
 30
50.0
  0
VERTEX
  5
A3
330
A1
100
AcDbEntity
  8
Make2D$Visible$Curves
 62
   178
420
        0
370
    -3
100
AcDbVertex
100
AcDb2dVertex
 10
1154.084851310641
 20
316.3565995212257
 30
50.0
  0
VERTEX
  5
A4
330
A1
100
AcDbEntity
  8
Make2D$Visible$Curves
 62
   178
420
        0
370
    -3
100
AcDbVertex
100
AcDb2dVertex
 10
1154.08485131064
 20
241.9565995212251
 30
50.0
  0
VERTEX
  5
A5
330
A1
100
AcDbEntity
  8
Make2D$Visible$Curves
 62
   178
420
        0
370
    -3
100
AcDbVertex
100
AcDb2dVertex
 10
1135.78485131064
 20
241.9565995212251
 30
50.0
  0
SEQEND
  5
A6
330
A1
100
AcDbEntity
  8
Make2D$Visible$Curves
 62
   178
420
        0
370
    -3
  0
POLYLINE
  5
A7
330
1F
100
AcDbEntity
  8
Make2D$Visible$Curves
 62
   178
420
        0
370
    -3
100
AcDb2dPolyline
 66
     1
 10
0.0
 20
0.0
 30
50.0
 70
     1
  0
VERTEX
  5
A8
330
A7
100
AcDbEntity
  8
Make2D$Visible$Curves
 62
   178
420
        0
370
    -3
100
AcDbVertex
100
AcDb2dVertex
 10
974.5576250783993
 20
62.28234502015584
 30
50.0
  0
VERTEX
  5
A9
330
A7
100
AcDbEntity
  8
Make2D$Visible$Curves
 62
   178
420
        0
370
    -3
100
AcDbVertex
100
AcDb2dVertex
 10
1024.557625078399
 20
62.28234502015584
 30
50.0
  0
VERTEX
  5
AA
330
A7
100
AcDbEntity
  8
Make2D$Visible$Curves
 62
   178
420
        0
370
    -3
100
AcDbVertex
100
AcDb2dVertex
 10
1024.557625078399
 20
20.28234502015584
 30
50.0
  0
VERTEX
  5
AB
330
A7
100
AcDbEntity
  8
Make2D$Visible$Curves
 62
   178
420
        0
370
    -3
100
AcDbVertex
100
AcDb2dVertex
 10
974.5576250783993
 20
20.28234502015584
 30
50.0
  0
SEQEND
  5
AC
330
A7
100
AcDbEntity
  8
Make2D$Visible$Curves
 62
   178
420
        0
370
    -3
  0
POLYLINE
  5
AD
330
1F
100
AcDbEntity
  8
Make2D$Visible$Curves
 62
   178
420
        0
370
    -3
100
AcDb2dPolyline
 66
     1
 10
0.0
 20
0.0
 30
50.0
 70
     1
  0
VERTEX
  5
AE
330
AD
100
AcDbEntity
  8
Make2D$Visible$Curves
 62
   178
420
        0
370
    -3
100
AcDbVertex
100
AcDb2dVertex
 10
945.4242917450661
 20
20.43234502015594
 30
50.0
  0
VERTEX
  5
AF
330
AD
100
AcDbEntity
  8
Make2D$Visible$Curves
 62
   178
420
        0
370
    -3
100
AcDbVertex
100
AcDb2dVertex
 10
883.6909584117334
 20
20.43234502015594
 30
50.0
  0
VERTEX
  5
B0
330
AD
100
AcDbEntity
  8
Make2D$Visible$Curves
 62
   178
420
        0
370
    -3
100
AcDbVertex
100
AcDb2dVertex
 10
883.6909584117334
 20
2.132345020155753
 30
50.0
  0
VERTEX
  5
B1
330
AD
100
AcDbEntity
  8
Make2D$Visible$Curves
 62
   178
420
        0
370
    -3
100
AcDbVertex
100
AcDb2dVertex
 10
945.4242917450661
 20
2.132345020155753
 30
50.0
  0
SEQEND
  5
B2
330
AD
100
AcDbEntity
  8
Make2D$Visible$Curves
 62
   178
420
        0
370
    -3
  0
POLYLINE
  5
B3
330
1F
100
AcDbEntity
  8
Make2D$Visible$Curves
 62
   178
420
        0
370
    -3
100
AcDb2dPolyline
 66
     1
 10
0.0
 20
0.0
 30
50.0
 70
     1
  0
VERTEX
  5
B4
330
B3
100
AcDbEntity
  8
Make2D$Visible$Curves
 62
   178
420
        0
370
    -3
100
AcDbVertex
100
AcDb2dVertex
 10
782.5576250784002
 20
84.28234502015539
 30
50.0
  0
VERTEX
  5
B5
330
B3
100
AcDbEntity
  8
Make2D$Visible$Curves
 62
   178
420
        0
370
    -3
100
AcDbVertex
100
AcDb2dVertex
 10
782.5576250784002
 20
44.89901168682218
 30
50.0
  0
VERTEX
  5
B6
330
B3
100
AcDbEntity
  8
Make2D$Visible$Curves
 62
   178
420
        0
370
    -3
100
AcDbVertex
100
AcDb2dVertex
 10
764.5576250784002
 20
44.89901168682218
 30
50.0
  0
VERTEX
  5
B7
330
B3
100
AcDbEntity
  8
Make2D$Visible$Curves
 62
   178
420
        0
370
    -3
100
AcDbVertex
100
AcDb2dVertex
 10
764.5576250784002
 20
5.665678353488602
 30
50.0
  0
VERTEX
  5
B8
330
B3
100
AcDbEntity
  8
Make2D$Visible$Curves
 62
   178
420
        0
370
    -3
100
AcDbVertex
100
AcDb2dVertex
 10
782.5576250784002
 20
5.665678353488602
 30
50.0
  0
VERTEX
  5
B9
330
B3
100
AcDbEntity
  8
Make2D$Visible$Curves
 62
   178
420
        0
370
    -3
100
AcDbVertex
100
AcDb2dVertex
 10
782.5576250784002
 20
2.282345020156299
 30
50.0
  0
VERTEX
  5
BA
330
B3
100
AcDbEntity
  8
Make2D$Visible$Curves
 62
   178
420
        0
370
    -3
100
AcDbVertex
100
AcDb2dVertex
 10
782.5576250784002
 20
-33.71765497984461
 30
50.0
  0
VERTEX
  5
BB
330
B3
100
AcDbEntity
  8
Make2D$Visible$Curves
 62
   178
420
        0
370
    -3
100
AcDbVertex
100
AcDb2dVertex
 10
800.5576250784002
 20
-33.71765497984461
 30
50.0
  0
VERTEX
  5
BC
330
B3
100
AcDbEntity
  8
Make2D$Visible$Curves
 62
   178
420
        0
370
    -3
100
AcDbVertex
100
AcDb2dVertex
 10
800.5576250784002
 20
-20.71765497984461
 30
50.0
  0
VERTEX
  5
BD
330
B3
100
AcDbEntity
  8
Make2D$Visible$Curves
 62
   178
420
        0
370
    -3
100
AcDbVertex
100
AcDb2dVertex
 10
800.5576250784002
 20
-15.71765497984461
 30
50.0
  0
VERTEX
  5
BE
330
B3
100
AcDbEntity
  8
Make2D$Visible$Curves
 62
   178
420
        0
370
    -3
100
AcDbVertex
100
AcDb2dVertex
 10
805.5576250784002
 20
-15.71765497984461
 30
50.0
  0
VERTEX
  5
BF
330
B3
100
AcDbEntity
  8
Make2D$Visible$Curves
 62
   178
420
        0
370
    -3
100
AcDbVertex
100
AcDb2dVertex
 10
1023.557625078401
 20
-15.71765497984507
 30
50.0
  0
VERTEX
  5
C0
330
B3
100
AcDbEntity
  8
Make2D$Visible$Curves
 62
   178
420
        0
370
    -3
100
AcDbVertex
100
AcDb2dVertex
 10
1028.5576250784
 20
-15.71765497984552
 30
50.0
  0
VERTEX
  5
C1
330
B3
100
AcDbEntity
  8
Make2D$Visible$Curves
 62
   178
420
        0
370
    -3
100
AcDbVertex
100
AcDb2dVertex
 10
1028.5576250784
 20
-20.71765497984552
 30
50.0
  0
VERTEX
  5
C2
330
B3
100
AcDbEntity
  8
Make2D$Visible$Curves
 62
   178
420
        0
370
    -3
100
AcDbVertex
100
AcDb2dVertex
 10
1028.5576250784
 20
-33.71765497984552
 30
50.0
  0
VERTEX
  5
C3
330
B3
100
AcDbEntity
  8
Make2D$Visible$Curves
 62
   178
420
        0
370
    -3
100
AcDbVertex
100
AcDb2dVertex
 10
1046.5576250784
 20
-33.71765497984552
 30
50.0
  0
VERTEX
  5
C4
330
B3
100
AcDbEntity
  8
Make2D$Visible$Curves
 62
   178
420
        0
370
    -3
100
AcDbVertex
100
AcDb2dVertex
 10
1046.5576250784
 20
2.28234502015539
 30
50.0
  0
VERTEX
  5
C5
330
B3
100
AcDbEntity
  8
Make2D$Visible$Curves
 62
   178
420
        0
370
    -3
100
AcDbVertex
100
AcDb2dVertex
 10
1046.5576250784
 20
5.665678353487692
 30
50.0
  0
VERTEX
  5
C6
330
B3
100
AcDbEntity
  8
Make2D$Visible$Curves
 62
   178
420
        0
370
    -3
100
AcDbVertex
100
AcDb2dVertex
 10
1064.5576250784
 20
5.665678353487692
 30
50.0
  0
VERTEX
  5
C7
330
B3
100
AcDbEntity
  8
Make2D$Visible$Curves
 62
   178
420
        0
370
    -3
100
AcDbVertex
100
AcDb2dVertex
 10
1064.5576250784
 20
44.89901168682127
 30
50.0
  0
VERTEX
  5
C8
330
B3
100
AcDbEntity
  8
Make2D$Visible$Curves
 62
   178
420
        0
370
    -3
100
AcDbVertex
100
AcDb2dVertex
 10
1046.5576250784
 20
44.89901168682127
 30
50.0
  0
VERTEX
  5
C9
330
B3
100
AcDbEntity
  8
Make2D$Visible$Curves
 62
   178
420
        0
370
    -3
100
AcDbVertex
100
AcDb2dVertex
 10
1046.5576250784
 20
84.28234502015448
 30
50.0
  0
SEQEND
  5
CA
330
B3
100
AcDbEntity
  8
Make2D$Visible$Curves
 62
   178
420
        0
370
    -3
  0
SPLINE
  5
CB
330
1F
100
AcDbEntity
  8
Make2D$Visible$Curves
 62
   178
420
        0
370
    -3
100
AcDbSpline
210
0.0
220
0.0
230
1.0
 70
    12
 71
     2
 72
    16
 73
    13
 74
     0
 42
0.000000001
 43
0.0000000001
 40
13.34823143363695
 40
13.34823143363695
 40
13.34823143363695
 40
30.73742364454692
 40
30.73742364454692
 40
48.12661585545827
 40
48.12661585545827
 40
48.82111080912789
 40
48.82111080912789
 40
66.2103030200398
 40
66.2103030200398
 40
83.5994952309507
 40
83.5994952309507
 40
83.98368969265096
 40
83.98368969265096
 40
83.98368969265096
 10
1313.432057234004
 20
284.0073286816205
 30
50.0
 41
1.0
 10
1315.192455647085
 20
293.6680516802242
 30
49.99999999999999
 41
0.8366600265341793
 10
1324.750813894137
 20
295.9189090834243
 30
50.0
 41
1.0
 10
1334.309172141191
 20
298.1697664866228
 30
50.0
 41
0.8366600265341303
 10
1336.069570554272
 20
307.8304894852286
 30
50.0
 41
1.0
 10
1341.672171757177
 20
338.576471696294
 30
50.0
 41
1.0
 10
1347.274772960082
 20
369.3224539073585
 30
50.0
 41
1.0
 10
1349.035171373164
 20
378.983176905966
 30
49.99999999999999
 41
0.8366600265340052
 10
1340.885131856571
 20
384.4608979016512
 30
50.0
 41
1.0
 10
1332.735092339977
 20
389.9386188973343
 30
50.0
 41
0.8366600265339312
 10
1334.495490753059
 20
399.5993418959415
 30
50.0
 41
1.0
 10
1349.617384765581
 20
482.5853456231989
 30
50.0
 41
1.0
 10
1364.739278778104
 20
565.5713493504563
 30
50.0
 41
1.0
  0
LINE
  5
CC
330
1F
100
AcDbEntity
  8
Make2D$Visible$Curves
 62
   178
420
        0
370
    -3
100
AcDbLine
 10
1364.739278778104
 20
565.5713493504563
 30
50.0
 11
1382.739278778104
 21
565.5713493504563
 31
50.0
  0
LINE
  5
CD
330
1F
100
AcDbEntity
  8
Make2D$Visible$Curves
 62
   178
420
        0
370
    -3
100
AcDbLine
 10
1382.739278778104
 20
565.5713493504563
 30
50.0
 11
1382.739278778092
 21
479.2213493504476
 31
50.0
  0
LINE
  5
CE
330
1F
100
AcDbEntity
  8
Make2D$Visible$Curves
 62
   178
420
        0
370
    -3
100
AcDbLine
 10
1382.739278778092
 20
479.2213493504476
 30
50.0
 11
1364.739278778104
 21
479.2213493504476
 31
50.0
  0
LINE
  5
CF
330
1F
100
AcDbEntity
  8
Make2D$Visible$Curves
 62
   178
420
        0
370
    -3
100
AcDbLine
 10
1364.739278778104
 20
479.2213493504476
 30
50.0
 11
1364.73927877813
 21
392.7213493504478
 31
50.0
  0
LINE
  5
D0
330
1F
100
AcDbEntity
  8
Make2D$Visible$Curves
 62
   178
420
        0
370
    -3
100
AcDbLine
 10
1364.73927877813
 20
392.7213493504478
 30
50.0
 11
1382.739278778104
 21
392.7214631096413
 31
50.0
  0
LINE
  5
D1
330
1F
100
AcDbEntity
  8
Make2D$Visible$Curves
 62
   178
420
        0
370
    -3
100
AcDbLine
 10
1382.739278778104
 20
392.7214631096413
 30
50.0
 11
1382.739278778098
 21
306.4213493504303
 31
50.0
  0
LINE
  5
D2
330
1F
100
AcDbEntity
  8
Make2D$Visible$Curves
 62
   178
420
        0
370
    -3
100
AcDbLine
 10
1382.739278778098
 20
306.4213493504303
 30
50.0
 11
1364.739278778105
 21
306.4213493504321
 31
50.0
  0
LINE
  5
D3
330
1F
100
AcDbEntity
  8
Make2D$Visible$Curves
 62
   178
420
        0
370
    -3
100
AcDbLine
 10
1364.739278778105
 20
306.4213493504321
 30
50.0
 11
1364.73927877813
 21
219.9213493504303
 31
50.0
  0
LINE
  5
D4
330
1F
100
AcDbEntity
  8
Make2D$Visible$Curves
 62
   178
420
        0
370
    -3
100
AcDbLine
 10
1364.73927877813
 20
219.9213493504303
 30
50.0
 11
1382.739278778104
 21
219.9213493504303
 31
50.0
  0
LINE
  5
D5
330
1F
100
AcDbEntity
  8
Make2D$Visible$Curves
 62
   178
420
        0
370
    -3
100
AcDbLine
 10
1382.739278778104
 20
219.9213493504303
 30
50.0
 11
1382.739278778103
 21
133.5713493504581
 31
50.0
  0
LINE
  5
D6
330
1F
100
AcDbEntity
  8
Make2D$Visible$Curves
 62
   178
420
        0
370
    -3
100
AcDbLine
 10
1382.739278778103
 20
133.5713493504581
 30
50.0
 11
1350.449278778104
 21
133.5713493504563
 31
50.0
  0
LINE
  5
D7
330
1F
100
AcDbEntity
  8
Make2D$Visible$Curves
 62
   178
420
        0
370
    -3
100
AcDbLine
 10
1350.449278778104
 20
133.5713493504563
 30
50.0
 11
1350.449278778103
 21
115.5713493504563
 31
50.0
  0
LINE
  5
D8
330
1F
100
AcDbEntity
  8
Make2D$Visible$Curves
 62
   178
420
        0
370
    -3
100
AcDbLine
 10
1350.449278778103
 20
115.5713493504563
 30
50.0
 11
1318.309278778104
 21
115.5713493504563
 31
50.0
  0
LINE
  5
D9
330
1F
100
AcDbEntity
  8
Make2D$Visible$Curves
 62
   178
420
        0
370
    -3
100
AcDbLine
 10
1318.309278778104
 20
115.5713493504563
 30
50.0
 11
1318.309278778105
 21
133.5713493504563
 31
50.0
  0
LINE
  5
DA
330
1F
100
AcDbEntity
  8
Make2D$Visible$Curves
 62
   178
420
        0
370
    -3
100
AcDbLine
 10
1318.309278778105
 20
133.5713493504563
 30
50.0
 11
1286.019278778104
 21
133.57134935046
 31
50.0
  0
SPLINE
  5
DB
330
1F
100
AcDbEntity
  8
Make2D$Visible$Curves
 62
   178
420
        0
370
    -3
100
AcDbSpline
210
0.0
220
0.0
230
1.0
 70
    28
 71
     2
 72
     6
 73
     3
 74
     0
 42
0.000000001
 43
0.0000000001
 40
98.98368969265096
 40
98.98368969265096
 40
98.98368969265096
 40
99.33192112628791
 40
99.33192112628791
 40
99.33192112628791
 10
1286.019278778104
 20
133.57134935046
 30
50.0
 41
1.0
 10
1299.725668006054
 20
208.7893390160398
 30
50.0
 41
1.0
 10
1313.432057234004
 20
284.0073286816205
 30
50.0
 41
1.0
  0
SPLINE
  5
DC
330
1F
100
AcDbEntity
  8
Make2D$Visible$Curves
 62
   178
420
        0
370
    -3
100
AcDbSpline
210
0.0
220
0.0
230
1.0
 70
    12
 71
     2
 72
    16
 73
    13
 74
     0
 42
0.000000001
 43
0.0000000001
 40
13.34823143363695
 40
13.34823143363695
 40
13.34823143363695
 40
30.73742364454692
 40
30.73742364454692
 40
48.12661585545827
 40
48.12661585545827
 40
48.82111080912789
 40
48.82111080912789
 40
66.2103030200398
 40
66.2103030200398
 40
83.5994952309507
 40
83.5994952309507
 40
83.98368969265096
 40
83.98368969265096
 40
83.98368969265096
 10
1836.491001640022
 20
284.0073286816205
 30
50.0
 41
1.0
 10
1834.730603226941
 20
293.6680516802242
 30
49.99999999999999
 41
0.8366600265341793
 10
1825.172244979889
 20
295.9189090834243
 30
50.0
 41
1.0
 10
1815.613886732836
 20
298.1697664866228
 30
50.0
 41
0.8366600265341303
 10
1813.853488319754
 20
307.8304894852286
 30
50.0
 41
1.0
 10
1808.250887116849
 20
338.576471696294
 30
50.0
 41
1.0
 10
1802.648285913944
 20
369.3224539073585
 30
50.0
 41
1.0
 10
1800.887887500862
 20
378.983176905966
 30
49.99999999999999
 41
0.8366600265340052
 10
1809.037927017455
 20
384.4608979016512
 30
50.0
 41
1.0
 10
1817.187966534049
 20
389.9386188973343
 30
50.0
 41
0.8366600265339312
 10
1815.427568120967
 20
399.5993418959415
 30
50.0
 41
1.0
 10
1800.305674108445
 20
482.5853456231989
 30
50.0
 41
1.0
 10
1785.183780095922
 20
565.5713493504563
 30
50.0
 41
1.0
  0
LINE
  5
DD
330
1F
100
AcDbEntity
  8
Make2D$Visible$Curves
 62
   178
420
        0
370
    -3
100
AcDbLine
 10
1785.183780095922
 20
565.5713493504563
 30
50.0
 11
1767.183780095922
 21
565.5713493504563
 31
50.0
  0
LINE
  5
DE
330
1F
100
AcDbEntity
  8
Make2D$Visible$Curves
 62
   178
420
        0
370
    -3
100
AcDbLine
 10
1767.183780095922
 20
565.5713493504563
 30
50.0
 11
1767.183780095934
 21
479.2213493504476
 31
50.0
  0
LINE
  5
DF
330
1F
100
AcDbEntity
  8
Make2D$Visible$Curves
 62
   178
420
        0
370
    -3
100
AcDbLine
 10
1767.183780095934
 20
479.2213493504476
 30
50.0
 11
1785.183780095922
 21
479.2213493504476
 31
50.0
  0
LINE
  5
E0
330
1F
100
AcDbEntity
  8
Make2D$Visible$Curves
 62
   178
420
        0
370
    -3
100
AcDbLine
 10
1785.183780095922
 20
479.2213493504476
 30
50.0
 11
1785.183780095896
 21
392.7213493504478
 31
50.0
  0
LINE
  5
E1
330
1F
100
AcDbEntity
  8
Make2D$Visible$Curves
 62
   178
420
        0
370
    -3
100
AcDbLine
 10
1785.183780095896
 20
392.7213493504478
 30
50.0
 11
1767.183780095922
 21
392.7214631096413
 31
50.0
  0
LINE
  5
E2
330
1F
100
AcDbEntity
  8
Make2D$Visible$Curves
 62
   178
420
        0
370
    -3
100
AcDbLine
 10
1767.183780095922
 20
392.7214631096413
 30
50.0
 11
1767.183780095928
 21
306.4213493504303
 31
50.0
  0
LINE
  5
E3
330
1F
100
AcDbEntity
  8
Make2D$Visible$Curves
 62
   178
420
        0
370
    -3
100
AcDbLine
 10
1767.183780095928
 20
306.4213493504303
 30
50.0
 11
1785.183780095921
 21
306.4213493504321
 31
50.0
  0
LINE
  5
E4
330
1F
100
AcDbEntity
  8
Make2D$Visible$Curves
 62
   178
420
        0
370
    -3
100
AcDbLine
 10
1785.183780095921
 20
306.4213493504321
 30
50.0
 11
1785.183780095896
 21
219.9213493504303
 31
50.0
  0
LINE
  5
E5
330
1F
100
AcDbEntity
  8
Make2D$Visible$Curves
 62
   178
420
        0
370
    -3
100
AcDbLine
 10
1785.183780095896
 20
219.9213493504303
 30
50.0
 11
1767.183780095922
 21
219.9213493504303
 31
50.0
  0
LINE
  5
E6
330
1F
100
AcDbEntity
  8
Make2D$Visible$Curves
 62
   178
420
        0
370
    -3
100
AcDbLine
 10
1767.183780095922
 20
219.9213493504303
 30
50.0
 11
1767.183780095923
 21
133.5713493504581
 31
50.0
  0
LINE
  5
E7
330
1F
100
AcDbEntity
  8
Make2D$Visible$Curves
 62
   178
420
        0
370
    -3
100
AcDbLine
 10
1767.183780095923
 20
133.5713493504581
 30
50.0
 11
1799.473780095922
 21
133.5713493504563
 31
50.0
  0
LINE
  5
E8
330
1F
100
AcDbEntity
  8
Make2D$Visible$Curves
 62
   178
420
        0
370
    -3
100
AcDbLine
 10
1799.473780095922
 20
133.5713493504563
 30
50.0
 11
1799.473780095923
 21
115.5713493504563
 31
50.0
  0
LINE
  5
E9
330
1F
100
AcDbEntity
  8
Make2D$Visible$Curves
 62
   178
420
        0
370
    -3
100
AcDbLine
 10
1799.473780095923
 20
115.5713493504563
 30
50.0
 11
1831.613780095923
 21
115.5713493504563
 31
50.0
  0
LINE
  5
EA
330
1F
100
AcDbEntity
  8
Make2D$Visible$Curves
 62
   178
420
        0
370
    -3
100
AcDbLine
 10
1831.613780095923
 20
115.5713493504563
 30
50.0
 11
1831.613780095921
 21
133.5713493504563
 31
50.0
  0
LINE
  5
EB
330
1F
100
AcDbEntity
  8
Make2D$Visible$Curves
 62
   178
420
        0
370
    -3
100
AcDbLine
 10
1831.613780095921
 20
133.5713493504563
 30
50.0
 11
1863.903780095923
 21
133.57134935046
 31
50.0
  0
SPLINE
  5
EC
330
1F
100
AcDbEntity
  8
Make2D$Visible$Curves
 62
   178
420
        0
370
    -3
100
AcDbSpline
210
0.0
220
0.0
230
1.0
 70
    28
 71
     2
 72
     6
 73
     3
 74
     0
 42
0.000000001
 43
0.0000000001
 40
98.98368969265096
 40
98.98368969265096
 40
98.98368969265096
 40
99.33192112628791
 40
99.33192112628791
 40
99.33192112628791
 10
1863.903780095923
 20
133.57134935046
 30
50.0
 41
1.0
 10
1850.197390867973
 20
208.7893390160398
 30
50.0
 41
1.0
 10
1836.491001640022
 20
284.0073286816205
 30
50.0
 41
1.0
  0
SPLINE
  5
ED
330
1F
100
AcDbEntity
  8
Make2D$Visible$Curves
 62
   178
420
        0
370
    -3
100
AcDbSpline
210
0.0
220
0.0
230
1.0
 70
    12
 71
     2
 72
    10
 73
     7
 74
     0
 42
0.000000001
 43
0.0000000001
 40
48.70999999999946
 40
48.70999999999946
 40
48.70999999999946
 40
62.84716694115303
 40
62.84716694115303
 40
76.98433388230711
 40
76.98433388230711
 40
125.344333882306
 40
125.344333882306
 40
125.344333882306
 10
1565.544199504199
 20
2.005757109422617
 30
50.0
 41
0.9999999999999791
 10
1565.544199504198
 20
11.00575710942203
 30
50.00000000000001
 41
0.707106781186558
 10
1574.544199504198
 20
11.00575710942212
 30
50.0
 41
1.0
 10
1583.544199504198
 20
11.005757109423
 30
50.0
 41
0.7071067811865476
 10
1583.544199504198
 20
2.00575710942212
 30
50.0
 41
1.0
 10
1583.544199504198
 20
-7.842907821986955
 30
50.0
 41
1.0
 10
1583.544199504198
 20
-17.69157275339603
 30
50.0
 41
1.0
  0
LINE
  5
EE
330
1F
100
AcDbEntity
  8
Make2D$Visible$Curves
 62
   178
420
        0
370
    -3
100
AcDbLine
 10
1583.544199504198
 20
-17.69157275339603
 30
50.0
 11
1604.494199504192
 21
-17.69157275339603
 31
50.0
  0
LINE
  5
EF
330
1F
100
AcDbEntity
  8
Make2D$Visible$Curves
 62
   178
420
        0
370
    -3
100
AcDbLine
 10
1604.494199504192
 20
-17.69157275339603
 30
50.0
 11
1604.494199504192
 21
0.3084272466039693
 31
50.0
  0
LINE
  5
F0
330
1F
100
AcDbEntity
  8
Make2D$Visible$Curves
 62
   178
420
        0
370
    -3
100
AcDbLine
 10
1604.494199504192
 20
0.3084272466039693
 30
50.0
 11
1664.594199504192
 21
0.3084272466039693
 31
50.0
  0
LINE
  5
F1
330
1F
100
AcDbEntity
  8
Make2D$Visible$Curves
 62
   178
420
        0
370
    -3
100
AcDbLine
 10
1664.594199504192
 20
0.3084272466039693
 30
50.0
 11
1664.594199504192
 21
-17.69157275339603
 31
50.0
  0
LINE
  5
F2
330
1F
100
AcDbEntity
  8
Make2D$Visible$Curves
 62
   178
420
        0
370
    -3
100
AcDbLine
 10
1664.594199504192
 20
-17.69157275339603
 30
50.0
 11
1724.544199504186
 21
-17.69157275339603
 31
50.0
  0
LINE
  5
F3
330
1F
100
AcDbEntity
  8
Make2D$Visible$Curves
 62
   178
420
        0
370
    -3
100
AcDbLine
 10
1724.544199504186
 20
-17.69157275339603
 30
50.0
 11
1724.544199504186
 21
14.49842724660357
 31
50.0
  0
LINE
  5
F4
330
1F
100
AcDbEntity
  8
Make2D$Visible$Curves
 62
   178
420
        0
370
    -3
100
AcDbLine
 10
1724.544199504186
 20
14.49842724660357
 30
50.0
 11
1706.544199504186
 21
14.49842724660539
 31
50.0
  0
LINE
  5
F5
330
1F
100
AcDbEntity
  8
Make2D$Visible$Curves
 62
   178
420
        0
370
    -3
100
AcDbLine
 10
1706.544199504186
 20
14.49842724660539
 30
50.0
 11
1706.544199504187
 21
46.83842724660553
 31
50.0
  0
LINE
  5
F6
330
1F
100
AcDbEntity
  8
Make2D$Visible$Curves
 62
   178
420
        0
370
    -3
100
AcDbLine
 10
1706.544199504187
 20
46.83842724660553
 30
50.0
 11
1724.544199504186
 21
46.83842724660462
 31
50.0
  0
LINE
  5
F7
330
1F
100
AcDbEntity
  8
Make2D$Visible$Curves
 62
   178
420
        0
370
    -3
100
AcDbLine
 10
1724.544199504186
 20
46.83842724660462
 30
50.0
 11
1724.544199504186
 21
79.02842724660422
 31
50.0
  0
LINE
  5
F8
330
1F
100
AcDbEntity
  8
Make2D$Visible$Curves
 62
   178
420
        0
370
    -3
100
AcDbLine
 10
1724.544199504186
 20
79.02842724660422
 30
50.0
 11
1424.544199504186
 21
79.02842724660331
 31
50.0
  0
LINE
  5
F9
330
1F
100
AcDbEntity
  8
Make2D$Visible$Curves
 62
   178
420
        0
370
    -3
100
AcDbLine
 10
1424.544199504186
 20
79.02842724660331
 30
50.0
 11
1424.544199504186
 21
46.83842724660371
 31
50.0
  0
LINE
  5
FA
330
1F
100
AcDbEntity
  8
Make2D$Visible$Curves
 62
   178
420
        0
370
    -3
100
AcDbLine
 10
1424.544199504186
 20
46.83842724660371
 30
50.0
 11
1442.544199504185
 21
46.83842724660462
 31
50.0
  0
LINE
  5
FB
330
1F
100
AcDbEntity
  8
Make2D$Visible$Curves
 62
   178
420
        0
370
    -3
100
AcDbLine
 10
1442.544199504185
 20
46.83842724660462
 30
50.0
 11
1442.544199504186
 21
14.49842724660357
 31
50.0
  0
LINE
  5
FC
330
1F
100
AcDbEntity
  8
Make2D$Visible$Curves
 62
   178
420
        0
370
    -3
100
AcDbLine
 10
1442.544199504186
 20
14.49842724660357
 30
50.0
 11
1424.544199504186
 21
14.49842724660357
 31
50.0
  0
LINE
  5
FD
330
1F
100
AcDbEntity
  8
Make2D$Visible$Curves
 62
   178
420
        0
370
    -3
100
AcDbLine
 10
1424.544199504186
 20
14.49842724660357
 30
50.0
 11
1424.544199504186
 21
-17.69157275339603
 31
50.0
  0
LINE
  5
FE
330
1F
100
AcDbEntity
  8
Make2D$Visible$Curves
 62
   178
420
        0
370
    -3
100
AcDbLine
 10
1424.544199504186
 20
-17.69157275339603
 30
50.0
 11
1484.494199504205
 21
-17.69157275339603
 31
50.0
  0
LINE
  5
FF
330
1F
100
AcDbEntity
  8
Make2D$Visible$Curves
 62
   178
420
        0
370
    -3
100
AcDbLine
 10
1484.494199504205
 20
-17.69157275339603
 30
50.0
 11
1484.494199504205
 21
0.3084272466039693
 31
50.0
  0
LINE
  5
100
330
1F
100
AcDbEntity
  8
Make2D$Visible$Curves
 62
   178
420
        0
370
    -3
100
AcDbLine
 10
1484.494199504205
 20
0.3084272466039693
 30
50.0
 11
1544.594199504205
 21
0.3084272466039693
 31
50.0
  0
LINE
  5
101
330
1F
100
AcDbEntity
  8
Make2D$Visible$Curves
 62
   178
420
        0
370
    -3
100
AcDbLine
 10
1544.594199504205
 20
0.3084272466039693
 30
50.0
 11
1544.594199504205
 21
-17.69157275339421
 31
50.0
  0
LINE
  5
102
330
1F
100
AcDbEntity
  8
Make2D$Visible$Curves
 62
   178
420
        0
370
    -3
100
AcDbLine
 10
1544.594199504205
 20
-17.69157275339421
 30
50.0
 11
1565.544199504198
 21
-17.69157275339603
 31
50.0
  0
SPLINE
  5
103
330
1F
100
AcDbEntity
  8
Make2D$Visible$Curves
 62
   178
420
        0
370
    -3
100
AcDbSpline
210
0.0
220
0.0
230
1.0
 70
    28
 71
     2
 72
     6
 73
     3
 74
     0
 42
0.000000001
 43
0.0000000001
 40
145.0443338823059
 40
145.0443338823059
 40
145.0443338823059
 40
193.4043338823054
 40
193.4043338823054
 40
193.4043338823054
 10
1565.544199504198
 20
-17.69157275339603
 30
50.0
 41
1.0
 10
1565.544199504198
 20
-7.842907821986955
 30
50.0
 41
1.0
 10
1565.544199504199
 20
2.005757109422617
 30
50.0
 41
0.9999999999999791
  0
POLYLINE
  5
104
330
1F
100
AcDbEntity
  8
Make2D$Visible$Curves
 62
   178
420
        0
370
    -3
100
AcDb2dPolyline
 66
     1
 10
0.0
 20
0.0
 30
50.0
  0
VERTEX
  5
105
330
104
100
AcDbEntity
  8
Make2D$Visible$Curves
 62
   178
420
        0
370
    -3
100
AcDbVertex
100
AcDb2dVertex
 10
1442.544199504141
 20
565.6104502465814
 30
50.0
  0
VERTEX
  5
106
330
104
100
AcDbEntity
  8
Make2D$Visible$Curves
 62
   178
420
        0
370
    -3
100
AcDbVertex
100
AcDb2dVertex
 10
1442.544199504153
 20
479.1604502465809
 30
50.0
  0
SEQEND
  5
107
330
104
100
AcDbEntity
  8
Make2D$Visible$Curves
 62
   178
420
        0
370
    -3
  0
POLYLINE
  5
108
330
1F
100
AcDbEntity
  8
Make2D$Visible$Curves
 62
   178
420
        0
370
    -3
100
AcDb2dPolyline
 66
     1
 10
0.0
 20
0.0
 30
50.0
  0
VERTEX
  5
109
330
108
100
AcDbEntity
  8
Make2D$Visible$Curves
 62
   178
420
        0
370
    -3
100
AcDbVertex
100
AcDb2dVertex
 10
1442.544199504153
 20
479.1604502465809
 30
50.0
  0
VERTEX
  5
10A
330
108
100
AcDbEntity
  8
Make2D$Visible$Curves
 62
   178
420
        0
370
    -3
100
AcDbVertex
100
AcDb2dVertex
 10
1424.544199504179
 20
479.1604502465818
 30
50.0
  0
SEQEND
  5
10B
330
108
100
AcDbEntity
  8
Make2D$Visible$Curves
 62
   178
420
        0
370
    -3
  0
POLYLINE
  5
10C
330
1F
100
AcDbEntity
  8
Make2D$Visible$Curves
 62
   178
420
        0
370
    -3
100
AcDb2dPolyline
 66
     1
 10
0.0
 20
0.0
 30
50.0
  0
VERTEX
  5
10D
330
10C
100
AcDbEntity
  8
Make2D$Visible$Curves
 62
   178
420
        0
370
    -3
100
AcDbVertex
100
AcDb2dVertex
 10
1442.544199504153
 20
306.3604502465632
 30
50.0
  0
VERTEX
  5
10E
330
10C
100
AcDbEntity
  8
Make2D$Visible$Curves
 62
   178
420
        0
370
    -3
100
AcDbVertex
100
AcDb2dVertex
 10
1424.544199504179
 20
306.3604758413585
 30
50.0
  0
SEQEND
  5
10F
330
10C
100
AcDbEntity
  8
Make2D$Visible$Curves
 62
   178
420
        0
370
    -3
  0
POLYLINE
  5
110
330
1F
100
AcDbEntity
  8
Make2D$Visible$Curves
 62
   178
420
        0
370
    -3
100
AcDb2dPolyline
 66
     1
 10
0.0
 20
0.0
 30
50.0
  0
VERTEX
  5
111
330
110
100
AcDbEntity
  8
Make2D$Visible$Curves
 62
   178
420
        0
370
    -3
100
AcDbVertex
100
AcDb2dVertex
 10
1724.544199504159
 20
306.3604502465641
 30
50.0
  0
VERTEX
  5
112
330
110
100
AcDbEntity
  8
Make2D$Visible$Curves
 62
   178
420
        0
370
    -3
100
AcDbVertex
100
AcDb2dVertex
 10
1706.54419950418
 20
306.3604502465632
 30
50.0
  0
SEQEND
  5
113
330
110
100
AcDbEntity
  8
Make2D$Visible$Curves
 62
   178
420
        0
370
    -3
  0
POLYLINE
  5
114
330
1F
100
AcDbEntity
  8
Make2D$Visible$Curves
 62
   178
420
        0
370
    -3
100
AcDb2dPolyline
 66
     1
 10
0.0
 20
0.0
 30
50.0
  0
VERTEX
  5
115
330
114
100
AcDbEntity
  8
Make2D$Visible$Curves
 62
   178
420
        0
370
    -3
100
AcDbVertex
100
AcDb2dVertex
 10
1724.544199504164
 20
479.1604502465818
 30
50.0
  0
VERTEX
  5
116
330
114
100
AcDbEntity
  8
Make2D$Visible$Curves
 62
   178
420
        0
370
    -3
100
AcDbVertex
100
AcDb2dVertex
 10
1706.54419950418
 20
479.1604502465809
 30
50.0
  0
SEQEND
  5
117
330
114
100
AcDbEntity
  8
Make2D$Visible$Curves
 62
   178
420
        0
370
    -3
  0
POLYLINE
  5
118
330
1F
100
AcDbEntity
  8
Make2D$Visible$Curves
 62
   178
420
        0
370
    -3
100
AcDb2dPolyline
 66
     1
 10
0.0
 20
0.0
 30
50.0
  0
VERTEX
  5
119
330
118
100
AcDbEntity
  8
Make2D$Visible$Curves
 62
   178
420
        0
370
    -3
100
AcDbVertex
100
AcDb2dVertex
 10
1706.54419950418
 20
479.1604502465809
 30
50.0
  0
VERTEX
  5
11A
330
118
100
AcDbEntity
  8
Make2D$Visible$Curves
 62
   178
420
        0
370
    -3
100
AcDbVertex
100
AcDb2dVertex
 10
1706.544199504192
 20
565.6104502465814
 30
50.0
  0
SEQEND
  5
11B
330
118
100
AcDbEntity
  8
Make2D$Visible$Curves
 62
   178
420
        0
370
    -3
  0
POLYLINE
  5
11C
330
1F
100
AcDbEntity
  8
Make2D$Visible$Curves
 62
   178
420
        0
370
    -3
100
AcDb2dPolyline
 66
     1
 10
0.0
 20
0.0
 30
50.0
  0
VERTEX
  5
11D
330
11C
100
AcDbEntity
  8
Make2D$Visible$Curves
 62
   178
420
        0
370
    -3
100
AcDbVertex
100
AcDb2dVertex
 10
1424.544199504166
 20
392.8604502465641
 30
50.0
  0
VERTEX
  5
11E
330
11C
100
AcDbEntity
  8
Make2D$Visible$Curves
 62
   178
420
        0
370
    -3
100
AcDbVertex
100
AcDb2dVertex
 10
1442.544199504141
 20
392.8604502465641
 30
50.0
  0
SEQEND
  5
11F
330
11C
100
AcDbEntity
  8
Make2D$Visible$Curves
 62
   178
420
        0
370
    -3
  0
POLYLINE
  5
120
330
1F
100
AcDbEntity
  8
Make2D$Visible$Curves
 62
   178
420
        0
370
    -3
100
AcDb2dPolyline
 66
     1
 10
0.0
 20
0.0
 30
50.0
  0
VERTEX
  5
121
330
120
100
AcDbEntity
  8
Make2D$Visible$Curves
 62
   178
420
        0
370
    -3
100
AcDbVertex
100
AcDb2dVertex
 10
1424.544199504166
 20
220.0604502465467
 30
50.0
  0
VERTEX
  5
122
330
120
100
AcDbEntity
  8
Make2D$Visible$Curves
 62
   178
420
        0
370
    -3
100
AcDbVertex
100
AcDb2dVertex
 10
1442.544199504141
 20
220.0604502465467
 30
50.0
  0
SEQEND
  5
123
330
120
100
AcDbEntity
  8
Make2D$Visible$Curves
 62
   178
420
        0
370
    -3
  0
POLYLINE
  5
124
330
1F
100
AcDbEntity
  8
Make2D$Visible$Curves
 62
   178
420
        0
370
    -3
100
AcDb2dPolyline
 66
     1
 10
0.0
 20
0.0
 30
50.0
  0
VERTEX
  5
125
330
124
100
AcDbEntity
  8
Make2D$Visible$Curves
 62
   178
420
        0
370
    -3
100
AcDbVertex
100
AcDb2dVertex
 10
1442.544199504141
 20
220.0604502465467
 30
50.0
  0
VERTEX
  5
126
330
124
100
AcDbEntity
  8
Make2D$Visible$Curves
 62
   178
420
        0
370
    -3
100
AcDbVertex
100
AcDb2dVertex
 10
1442.544199504153
 20
133.6104502465651
 30
50.0
  0
SEQEND
  5
127
330
124
100
AcDbEntity
  8
Make2D$Visible$Curves
 62
   178
420
        0
370
    -3
  0
POLYLINE
  5
128
330
1F
100
AcDbEntity
  8
Make2D$Visible$Curves
 62
   178
420
        0
370
    -3
100
AcDb2dPolyline
 66
     1
 10
0.0
 20
0.0
 30
50.0
  0
VERTEX
  5
129
330
128
100
AcDbEntity
  8
Make2D$Visible$Curves
 62
   178
420
        0
370
    -3
100
AcDbVertex
100
AcDb2dVertex
 10
1706.54419950418
 20
133.6104502465651
 30
50.0
  0
VERTEX
  5
12A
330
128
100
AcDbEntity
  8
Make2D$Visible$Curves
 62
   178
420
        0
370
    -3
100
AcDbVertex
100
AcDb2dVertex
 10
1706.544199504192
 20
220.0604502465467
 30
50.0
  0
SEQEND
  5
12B
330
128
100
AcDbEntity
  8
Make2D$Visible$Curves
 62
   178
420
        0
370
    -3
  0
POLYLINE
  5
12C
330
1F
100
AcDbEntity
  8
Make2D$Visible$Curves
 62
   178
420
        0
370
    -3
100
AcDb2dPolyline
 66
     1
 10
0.0
 20
0.0
 30
50.0
  0
VERTEX
  5
12D
330
12C
100
AcDbEntity
  8
Make2D$Visible$Curves
 62
   178
420
        0
370
    -3
100
AcDbVertex
100
AcDb2dVertex
 10
1706.544199504192
 20
220.0604502465467
 30
50.0
  0
VERTEX
  5
12E
330
12C
100
AcDbEntity
  8
Make2D$Visible$Curves
 62
   178
420
        0
370
    -3
100
AcDbVertex
100
AcDb2dVertex
 10
1724.544199504169
 20
220.0604502465467
 30
50.0
  0
SEQEND
  5
12F
330
12C
100
AcDbEntity
  8
Make2D$Visible$Curves
 62
   178
420
        0
370
    -3
  0
POLYLINE
  5
130
330
1F
100
AcDbEntity
  8
Make2D$Visible$Curves
 62
   178
420
        0
370
    -3
100
AcDb2dPolyline
 66
     1
 10
0.0
 20
0.0
 30
50.0
  0
VERTEX
  5
131
330
130
100
AcDbEntity
  8
Make2D$Visible$Curves
 62
   178
420
        0
370
    -3
100
AcDbVertex
100
AcDb2dVertex
 10
1706.544199504192
 20
392.8604502465641
 30
50.0
  0
VERTEX
  5
132
330
130
100
AcDbEntity
  8
Make2D$Visible$Curves
 62
   178
420
        0
370
    -3
100
AcDbVertex
100
AcDb2dVertex
 10
1724.544199504175
 20
392.8604502465641
 30
50.0
  0
SEQEND
  5
133
330
130
100
AcDbEntity
  8
Make2D$Visible$Curves
 62
   178
420
        0
370
    -3
  0
POLYLINE
  5
134
330
1F
100
AcDbEntity
  8
Make2D$Visible$Curves
 62
   178
420
        0
370
    -3
100
AcDb2dPolyline
 66
     1
 10
0.0
 20
0.0
 30
50.0
  0
VERTEX
  5
135
330
134
100
AcDbEntity
  8
Make2D$Visible$Curves
 62
   178
420
        0
370
    -3
100
AcDbVertex
100
AcDb2dVertex
 10
1424.544199504179
 20
479.1604502465818
 30
50.0
  0
VERTEX
  5
136
330
134
100
AcDbEntity
  8
Make2D$Visible$Curves
 62
   178
420
        0
370
    -3
100
AcDbVertex
100
AcDb2dVertex
 10
1424.544199504166
 20
392.8604502465641
 30
50.0
  0
SEQEND
  5
137
330
134
100
AcDbEntity
  8
Make2D$Visible$Curves
 62
   178
420
        0
370
    -3
  0
POLYLINE
  5
138
330
1F
100
AcDbEntity
  8
Make2D$Visible$Curves
 62
   178
420
        0
370
    -3
100
AcDb2dPolyline
 66
     1
 10
0.0
 20
0.0
 30
50.0
  0
VERTEX
  5
139
330
138
100
AcDbEntity
  8
Make2D$Visible$Curves
 62
   178
420
        0
370
    -3
100
AcDbVertex
100
AcDb2dVertex
 10
1442.544199504141
 20
392.8604502465641
 30
50.0
  0
VERTEX
  5
13A
330
138
100
AcDbEntity
  8
Make2D$Visible$Curves
 62
   178
420
        0
370
    -3
100
AcDbVertex
100
AcDb2dVertex
 10
1442.544199504153
 20
306.3604502465632
 30
50.0
  0
SEQEND
  5
13B
330
138
100
AcDbEntity
  8
Make2D$Visible$Curves
 62
   178
420
        0
370
    -3
  0
POLYLINE
  5
13C
330
1F
100
AcDbEntity
  8
Make2D$Visible$Curves
 62
   178
420
        0
370
    -3
100
AcDb2dPolyline
 66
     1
 10
0.0
 20
0.0
 30
50.0
  0
VERTEX
  5
13D
330
13C
100
AcDbEntity
  8
Make2D$Visible$Curves
 62
   178
420
        0
370
    -3
100
AcDbVertex
100
AcDb2dVertex
 10
1424.544199504179
 20
306.3604758413585
 30
50.0
  0
VERTEX
  5
13E
330
13C
100
AcDbEntity
  8
Make2D$Visible$Curves
 62
   178
420
        0
370
    -3
100
AcDbVertex
100
AcDb2dVertex
 10
1424.544199504166
 20
220.0604502465467
 30
50.0
  0
SEQEND
  5
13F
330
13C
100
AcDbEntity
  8
Make2D$Visible$Curves
 62
   178
420
        0
370
    -3
  0
POLYLINE
  5
140
330
1F
100
AcDbEntity
  8
Make2D$Visible$Curves
 62
   178
420
        0
370
    -3
100
AcDb2dPolyline
 66
     1
 10
0.0
 20
0.0
 30
50.0
  0
VERTEX
  5
141
330
140
100
AcDbEntity
  8
Make2D$Visible$Curves
 62
   178
420
        0
370
    -3
100
AcDbVertex
100
AcDb2dVertex
 10
1724.544199504169
 20
220.0604502465467
 30
50.0
  0
VERTEX
  5
142
330
140
100
AcDbEntity
  8
Make2D$Visible$Curves
 62
   178
420
        0
370
    -3
100
AcDbVertex
100
AcDb2dVertex
 10
1724.544199504159
 20
306.3604502465641
 30
50.0
  0
SEQEND
  5
143
330
140
100
AcDbEntity
  8
Make2D$Visible$Curves
 62
   178
420
        0
370
    -3
  0
POLYLINE
  5
144
330
1F
100
AcDbEntity
  8
Make2D$Visible$Curves
 62
   178
420
        0
370
    -3
100
AcDb2dPolyline
 66
     1
 10
0.0
 20
0.0
 30
50.0
  0
VERTEX
  5
145
330
144
100
AcDbEntity
  8
Make2D$Visible$Curves
 62
   178
420
        0
370
    -3
100
AcDbVertex
100
AcDb2dVertex
 10
1706.54419950418
 20
306.3604502465632
 30
50.0
  0
VERTEX
  5
146
330
144
100
AcDbEntity
  8
Make2D$Visible$Curves
 62
   178
420
        0
370
    -3
100
AcDbVertex
100
AcDb2dVertex
 10
1706.544199504192
 20
392.8604502465641
 30
50.0
  0
SEQEND
  5
147
330
144
100
AcDbEntity
  8
Make2D$Visible$Curves
 62
   178
420
        0
370
    -3
  0
POLYLINE
  5
148
330
1F
100
AcDbEntity
  8
Make2D$Visible$Curves
 62
   178
420
        0
370
    -3
100
AcDb2dPolyline
 66
     1
 10
0.0
 20
0.0
 30
50.0
  0
VERTEX
  5
149
330
148
100
AcDbEntity
  8
Make2D$Visible$Curves
 62
   178
420
        0
370
    -3
100
AcDbVertex
100
AcDb2dVertex
 10
1724.544199504175
 20
392.8604502465641
 30
50.0
  0
VERTEX
  5
14A
330
148
100
AcDbEntity
  8
Make2D$Visible$Curves
 62
   178
420
        0
370
    -3
100
AcDbVertex
100
AcDb2dVertex
 10
1724.544199504164
 20
479.1604502465818
 30
50.0
  0
SEQEND
  5
14B
330
148
100
AcDbEntity
  8
Make2D$Visible$Curves
 62
   178
420
        0
370
    -3
  0
POLYLINE
  5
14C
330
1F
100
AcDbEntity
  8
Make2D$Visible$Curves
 62
   178
420
        0
370
    -3
100
AcDb2dPolyline
 66
     1
 10
0.0
 20
0.0
 30
50.0
  0
VERTEX
  5
14D
330
14C
100
AcDbEntity
  8
Make2D$Visible$Curves
 62
   178
420
        0
370
    -3
100
AcDbVertex
100
AcDb2dVertex
 10
1442.544199504153
 20
133.6104502465651
 30
50.0
  0
VERTEX
  5
14E
330
14C
100
AcDbEntity
  8
Make2D$Visible$Curves
 62
   178
420
        0
370
    -3
100
AcDbVertex
100
AcDb2dVertex
 10
1484.594199504179
 20
133.6104502465842
 30
50.0
  0
SEQEND
  5
14F
330
14C
100
AcDbEntity
  8
Make2D$Visible$Curves
 62
   178
420
        0
370
    -3
  0
POLYLINE
  5
150
330
1F
100
AcDbEntity
  8
Make2D$Visible$Curves
 62
   178
420
        0
370
    -3
100
AcDb2dPolyline
 66
     1
 10
0.0
 20
0.0
 30
50.0
  0
VERTEX
  5
151
330
150
100
AcDbEntity
  8
Make2D$Visible$Curves
 62
   178
420
        0
370
    -3
100
AcDbVertex
100
AcDb2dVertex
 10
1484.594199504179
 20
133.6104502465842
 30
50.0
  0
VERTEX
  5
152
330
150
100
AcDbEntity
  8
Make2D$Visible$Curves
 62
   178
420
        0
370
    -3
100
AcDbVertex
100
AcDb2dVertex
 10
1484.594199504179
 20
115.6104502465842
 30
50.0
  0
SEQEND
  5
153
330
150
100
AcDbEntity
  8
Make2D$Visible$Curves
 62
   178
420
        0
370
    -3
  0
POLYLINE
  5
154
330
1F
100
AcDbEntity
  8
Make2D$Visible$Curves
 62
   178
420
        0
370
    -3
100
AcDb2dPolyline
 66
     1
 10
0.0
 20
0.0
 30
50.0
  0
VERTEX
  5
155
330
154
100
AcDbEntity
  8
Make2D$Visible$Curves
 62
   178
420
        0
370
    -3
100
AcDbVertex
100
AcDb2dVertex
 10
1604.594199504167
 20
133.6104502465842
 30
50.0
  0
VERTEX
  5
156
330
154
100
AcDbEntity
  8
Make2D$Visible$Curves
 62
   178
420
        0
370
    -3
100
AcDbVertex
100
AcDb2dVertex
 10
1604.594199504167
 20
115.6104502465842
 30
50.0
  0
SEQEND
  5
157
330
154
100
AcDbEntity
  8
Make2D$Visible$Curves
 62
   178
420
        0
370
    -3
  0
POLYLINE
  5
158
330
1F
100
AcDbEntity
  8
Make2D$Visible$Curves
 62
   178
420
        0
370
    -3
100
AcDb2dPolyline
 66
     1
 10
0.0
 20
0.0
 30
50.0
  0
VERTEX
  5
159
330
158
100
AcDbEntity
  8
Make2D$Visible$Curves
 62
   178
420
        0
370
    -3
100
AcDbVertex
100
AcDb2dVertex
 10
1544.494199504166
 20
115.6104502465842
 30
50.0
  0
VERTEX
  5
15A
330
158
100
AcDbEntity
  8
Make2D$Visible$Curves
 62
   178
420
        0
370
    -3
100
AcDbVertex
100
AcDb2dVertex
 10
1544.494199504166
 20
133.6104502465832
 30
50.0
  0
SEQEND
  5
15B
330
158
100
AcDbEntity
  8
Make2D$Visible$Curves
 62
   178
420
        0
370
    -3
  0
POLYLINE
  5
15C
330
1F
100
AcDbEntity
  8
Make2D$Visible$Curves
 62
   178
420
        0
370
    -3
100
AcDb2dPolyline
 66
     1
 10
0.0
 20
0.0
 30
50.0
  0
VERTEX
  5
15D
330
15C
100
AcDbEntity
  8
Make2D$Visible$Curves
 62
   178
420
        0
370
    -3
100
AcDbVertex
100
AcDb2dVertex
 10
1664.494199504154
 20
115.6104502465842
 30
50.0
  0
VERTEX
  5
15E
330
15C
100
AcDbEntity
  8
Make2D$Visible$Curves
 62
   178
420
        0
370
    -3
100
AcDbVertex
100
AcDb2dVertex
 10
1664.494199504154
 20
133.6104502465832
 30
50.0
  0
SEQEND
  5
15F
330
15C
100
AcDbEntity
  8
Make2D$Visible$Curves
 62
   178
420
        0
370
    -3
  0
POLYLINE
  5
160
330
1F
100
AcDbEntity
  8
Make2D$Visible$Curves
 62
   178
420
        0
370
    -3
100
AcDb2dPolyline
 66
     1
 10
0.0
 20
0.0
 30
50.0
  0
VERTEX
  5
161
330
160
100
AcDbEntity
  8
Make2D$Visible$Curves
 62
   178
420
        0
370
    -3
100
AcDbVertex
100
AcDb2dVertex
 10
1664.494199504154
 20
133.6104502465832
 30
50.0
  0
VERTEX
  5
162
330
160
100
AcDbEntity
  8
Make2D$Visible$Curves
 62
   178
420
        0
370
    -3
100
AcDbVertex
100
AcDb2dVertex
 10
1706.54419950418
 20
133.6104502465651
 30
50.0
  0
SEQEND
  5
163
330
160
100
AcDbEntity
  8
Make2D$Visible$Curves
 62
   178
420
        0
370
    -3
  0
POLYLINE
  5
164
330
1F
100
AcDbEntity
  8
Make2D$Visible$Curves
 62
   178
420
        0
370
    -3
100
AcDb2dPolyline
 66
     1
 10
0.0
 20
0.0
 30
50.0
  0
VERTEX
  5
165
330
164
100
AcDbEntity
  8
Make2D$Visible$Curves
 62
   178
420
        0
370
    -3
100
AcDbVertex
100
AcDb2dVertex
 10
1484.594199504179
 20
115.6104502465842
 30
50.0
  0
VERTEX
  5
166
330
164
100
AcDbEntity
  8
Make2D$Visible$Curves
 62
   178
420
        0
370
    -3
100
AcDbVertex
100
AcDb2dVertex
 10
1544.494199504166
 20
115.6104502465842
 30
50.0
  0
SEQEND
  5
167
330
164
100
AcDbEntity
  8
Make2D$Visible$Curves
 62
   178
420
        0
370
    -3
  0
POLYLINE
  5
168
330
1F
100
AcDbEntity
  8
Make2D$Visible$Curves
 62
   178
420
        0
370
    -3
100
AcDb2dPolyline
 66
     1
 10
0.0
 20
0.0
 30
50.0
  0
VERTEX
  5
169
330
168
100
AcDbEntity
  8
Make2D$Visible$Curves
 62
   178
420
        0
370
    -3
100
AcDbVertex
100
AcDb2dVertex
 10
1544.494199504166
 20
133.6104502465832
 30
50.0
  0
VERTEX
  5
16A
330
168
100
AcDbEntity
  8
Make2D$Visible$Curves
 62
   178
420
        0
370
    -3
100
AcDbVertex
100
AcDb2dVertex
 10
1604.594199504167
 20
133.6104502465842
 30
50.0
  0
SEQEND
  5
16B
330
168
100
AcDbEntity
  8
Make2D$Visible$Curves
 62
   178
420
        0
370
    -3
  0
POLYLINE
  5
16C
330
1F
100
AcDbEntity
  8
Make2D$Visible$Curves
 62
   178
420
        0
370
    -3
100
AcDb2dPolyline
 66
     1
 10
0.0
 20
0.0
 30
50.0
  0
VERTEX
  5
16D
330
16C
100
AcDbEntity
  8
Make2D$Visible$Curves
 62
   178
420
        0
370
    -3
100
AcDbVertex
100
AcDb2dVertex
 10
1604.594199504167
 20
115.6104502465842
 30
50.0
  0
VERTEX
  5
16E
330
16C
100
AcDbEntity
  8
Make2D$Visible$Curves
 62
   178
420
        0
370
    -3
100
AcDbVertex
100
AcDb2dVertex
 10
1664.494199504154
 20
115.6104502465842
 30
50.0
  0
SEQEND
  5
16F
330
16C
100
AcDbEntity
  8
Make2D$Visible$Curves
 62
   178
420
        0
370
    -3
  0
POLYLINE
  5
170
330
1F
100
AcDbEntity
  8
Make2D$Visible$Curves
 62
   178
420
        0
370
    -3
100
AcDb2dPolyline
 66
     1
 10
0.0
 20
0.0
 30
50.0
 70
     1
  0
VERTEX
  5
171
330
170
100
AcDbEntity
  8
Make2D$Visible$Curves
 62
   178
420
        0
370
    -3
100
AcDbVertex
100
AcDb2dVertex
 10
1046.557625078399
 20
128.1565722368423
 30
50.0
  0
VERTEX
  5
172
330
170
100
AcDbEntity
  8
Make2D$Visible$Curves
 62
   178
420
        0
370
    -3
100
AcDbVertex
100
AcDb2dVertex
 10
945.2242917450662
 20
128.1565722368423
 30
50.0
  0
VERTEX
  5
173
330
170
100
AcDbEntity
  8
Make2D$Visible$Curves
 62
   178
420
        0
370
    -3
100
AcDbVertex
100
AcDb2dVertex
 10
945.2242917450662
 20
110.1565722368423
 30
50.0
  0
VERTEX
  5
174
330
170
100
AcDbEntity
  8
Make2D$Visible$Curves
 62
   178
420
        0
370
    -3
100
AcDbVertex
100
AcDb2dVertex
 10
883.8909584117332
 20
110.1565722368423
 30
50.0
  0
VERTEX
  5
175
330
170
100
AcDbEntity
  8
Make2D$Visible$Curves
 62
   178
420
        0
370
    -3
100
AcDbVertex
100
AcDb2dVertex
 10
883.8909584117332
 20
128.1565722368423
 30
50.0
  0
VERTEX
  5
176
330
170
100
AcDbEntity
  8
Make2D$Visible$Curves
 62
   178
420
        0
370
    -3
100
AcDbVertex
100
AcDb2dVertex
 10
782.5576250784002
 20
128.1565722368423
 30
50.0
  0
VERTEX
  5
177
330
170
100
AcDbEntity
  8
Make2D$Visible$Curves
 62
   178
420
        0
370
    -3
100
AcDbVertex
100
AcDb2dVertex
 10
782.5576229849285
 20
224.1565722368478
 30
50.0
  0
VERTEX
  5
178
330
170
100
AcDbEntity
  8
Make2D$Visible$Curves
 62
   178
420
        0
370
    -3
100
AcDbVertex
100
AcDb2dVertex
 10
764.5576229849285
 20
224.1565722368478
 30
50.0
  0
VERTEX
  5
179
330
170
100
AcDbEntity
  8
Make2D$Visible$Curves
 62
   178
420
        0
370
    -3
100
AcDbVertex
100
AcDb2dVertex
 10
764.5576229849285
 20
298.1565722368478
 30
50.0
  0
VERTEX
  5
17A
330
170
100
AcDbEntity
  8
Make2D$Visible$Curves
 62
   178
420
        0
370
    -3
100
AcDbVertex
100
AcDb2dVertex
 10
782.5576229849285
 20
298.1565722368478
 30
50.0
  0
VERTEX
  5
17B
330
170
100
AcDbEntity
  8
Make2D$Visible$Curves
 62
   178
420
        0
370
    -3
100
AcDbVertex
100
AcDb2dVertex
 10
782.5576229849285
 20
372.1565722368441
 30
50.0
  0
VERTEX
  5
17C
330
170
100
AcDbEntity
  8
Make2D$Visible$Curves
 62
   178
420
        0
370
    -3
100
AcDbVertex
100
AcDb2dVertex
 10
764.5576229849285
 20
372.1565722368441
 30
50.0
  0
VERTEX
  5
17D
330
170
100
AcDbEntity
  8
Make2D$Visible$Curves
 62
   178
420
        0
370
    -3
100
AcDbVertex
100
AcDb2dVertex
 10
764.5576229849285
 20
446.1565722368441
 30
50.0
  0
VERTEX
  5
17E
330
170
100
AcDbEntity
  8
Make2D$Visible$Curves
 62
   178
420
        0
370
    -3
100
AcDbVertex
100
AcDb2dVertex
 10
782.5576229849285
 20
446.1565722368441
 30
50.0
  0
VERTEX
  5
17F
330
170
100
AcDbEntity
  8
Make2D$Visible$Curves
 62
   178
420
        0
370
    -3
100
AcDbVertex
100
AcDb2dVertex
 10
782.5576250784002
 20
542.1565722368423
 30
50.0
  0
VERTEX
  5
180
330
170
100
AcDbEntity
  8
Make2D$Visible$Curves
 62
   178
420
        0
370
    -3
100
AcDbVertex
100
AcDb2dVertex
 10
883.8909584117332
 20
542.1565722368423
 30
50.0
  0
VERTEX
  5
181
330
170
100
AcDbEntity
  8
Make2D$Visible$Curves
 62
   178
420
        0
370
    -3
100
AcDbVertex
100
AcDb2dVertex
 10
883.8909584117332
 20
560.1565722368423
 30
50.0
  0
VERTEX
  5
182
330
170
100
AcDbEntity
  8
Make2D$Visible$Curves
 62
   178
420
        0
370
    -3
100
AcDbVertex
100
AcDb2dVertex
 10
945.2242917450662
 20
560.1565722368423
 30
50.0
  0
VERTEX
  5
183
330
170
100
AcDbEntity
  8
Make2D$Visible$Curves
 62
   178
420
        0
370
    -3
100
AcDbVertex
100
AcDb2dVertex
 10
945.2242917450662
 20
542.1565722368423
 30
50.0
  0
VERTEX
  5
184
330
170
100
AcDbEntity
  8
Make2D$Visible$Curves
 62
   178
420
        0
370
    -3
100
AcDbVertex
100
AcDb2dVertex
 10
1046.557625078399
 20
542.1565722368423
 30
50.0
  0
VERTEX
  5
185
330
170
100
AcDbEntity
  8
Make2D$Visible$Curves
 62
   178
420
        0
370
    -3
100
AcDbVertex
100
AcDb2dVertex
 10
1046.557627171871
 20
446.1565722368441
 30
50.0
  0
VERTEX
  5
186
330
170
100
AcDbEntity
  8
Make2D$Visible$Curves
 62
   178
420
        0
370
    -3
100
AcDbVertex
100
AcDb2dVertex
 10
1064.557627171871
 20
446.1565722368441
 30
50.0
  0
VERTEX
  5
187
330
170
100
AcDbEntity
  8
Make2D$Visible$Curves
 62
   178
420
        0
370
    -3
100
AcDbVertex
100
AcDb2dVertex
 10
1064.557627171871
 20
372.1565722368441
 30
50.0
  0
VERTEX
  5
188
330
170
100
AcDbEntity
  8
Make2D$Visible$Curves
 62
   178
420
        0
370
    -3
100
AcDbVertex
100
AcDb2dVertex
 10
1046.557627171871
 20
372.1565722368441
 30
50.0
  0
VERTEX
  5
189
330
170
100
AcDbEntity
  8
Make2D$Visible$Curves
 62
   178
420
        0
370
    -3
100
AcDbVertex
100
AcDb2dVertex
 10
1046.557627171871
 20
298.1565722368478
 30
50.0
  0
VERTEX
  5
18A
330
170
100
AcDbEntity
  8
Make2D$Visible$Curves
 62
   178
420
        0
370
    -3
100
AcDbVertex
100
AcDb2dVertex
 10
1064.557627171871
 20
298.1565722368478
 30
50.0
  0
VERTEX
  5
18B
330
170
100
AcDbEntity
  8
Make2D$Visible$Curves
 62
   178
420
        0
370
    -3
100
AcDbVertex
100
AcDb2dVertex
 10
1064.557627171871
 20
224.1565722368478
 30
50.0
  0
VERTEX
  5
18C
330
170
100
AcDbEntity
  8
Make2D$Visible$Curves
 62
   178
420
        0
370
    -3
100
AcDbVertex
100
AcDb2dVertex
 10
1046.557627171871
 20
224.1565722368478
 30
50.0
  0
SEQEND
  5
18D
330
170
100
AcDbEntity
  8
Make2D$Visible$Curves
 62
   178
420
        0
370
    -3
  0
POLYLINE
  5
18E
330
1F
100
AcDbEntity
  8
Make2D$Visible$Curves
 62
   178
420
        0
370
    -3
100
AcDb2dPolyline
 66
     1
 10
0.0
 20
0.0
 30
50.0
 70
     1
  0
VERTEX
  5
18F
330
18E
100
AcDbEntity
  8
Make2D$Visible$Curves
 62
   178
420
        0
370
    -3
100
AcDbVertex
100
AcDb2dVertex
 10
1024.557625078399
 20
150.1565722368423
 30
50.0
  0
VERTEX
  5
190
330
18E
100
AcDbEntity
  8
Make2D$Visible$Curves
 62
   178
420
        0
370
    -3
100
AcDbVertex
100
AcDb2dVertex
 10
804.5576250784002
 20
150.1565722368423
 30
50.0
  0
VERTEX
  5
191
330
18E
100
AcDbEntity
  8
Make2D$Visible$Curves
 62
   178
420
        0
370
    -3
100
AcDbVertex
100
AcDb2dVertex
 10
804.5576250784002
 20
520.1565722368423
 30
50.0
  0
VERTEX
  5
192
330
18E
100
AcDbEntity
  8
Make2D$Visible$Curves
 62
   178
420
        0
370
    -3
100
AcDbVertex
100
AcDb2dVertex
 10
1024.557625078399
 20
520.1565722368423
 30
50.0
  0
SEQEND
  5
193
330
18E
100
AcDbEntity
  8
Make2D$Visible$Curves
 62
   178
420
        0
370
    -3
  0
POLYLINE
  5
194
330
1F
100
AcDbEntity
  8
Make2D$Visible$Curves
 62
   178
420
        0
370
    -3
100
AcDb2dPolyline
 66
     1
 10
0.0
 20
0.0
 30
50.0
 70
     1
  0
VERTEX
  5
195
330
194
100
AcDbEntity
  8
Make2D$Visible$Curves
 62
   178
420
        0
370
    -3
100
AcDbVertex
100
AcDb2dVertex
 10
764.5576250784002
 20
703.4061975417274
 30
50.0
  0
VERTEX
  5
196
330
194
100
AcDbEntity
  8
Make2D$Visible$Curves
 62
   178
420
        0
370
    -3
100
AcDbVertex
100
AcDb2dVertex
 10
782.5576250784006
 20
703.4061975417274
 30
50.0
  0
VERTEX
  5
197
330
194
100
AcDbEntity
  8
Make2D$Visible$Curves
 62
   178
420
        0
370
    -3
100
AcDbVertex
100
AcDb2dVertex
 10
782.5576250784006
 20
663.9621975417283
 30
50.0
  0
VERTEX
  5
198
330
194
100
AcDbEntity
  8
Make2D$Visible$Curves
 62
   178
420
        0
370
    -3
100
AcDbVertex
100
AcDb2dVertex
 10
764.5576250784002
 20
663.9621879528765
 30
50.0
  0
VERTEX
  5
199
330
194
100
AcDbEntity
  8
Make2D$Visible$Curves
 62
   178
420
        0
370
    -3
100
AcDbVertex
100
AcDb2dVertex
 10
764.5576250784002
 20
624.7181975417236
 30
50.0
  0
VERTEX
  5
19A
330
194
100
AcDbEntity
  8
Make2D$Visible$Curves
 62
   178
420
        0
370
    -3
100
AcDbVertex
100
AcDb2dVertex
 10
782.5576250784006
 20
624.7181975417236
 30
50.0
  0
VERTEX
  5
19B
330
194
100
AcDbEntity
  8
Make2D$Visible$Curves
 62
   178
420
        0
370
    -3
100
AcDbVertex
100
AcDb2dVertex
 10
782.5576250784006
 20
621.3241975417354
 30
50.0
  0
VERTEX
  5
19C
330
194
100
AcDbEntity
  8
Make2D$Visible$Curves
 62
   178
420
        0
370
    -3
100
AcDbVertex
100
AcDb2dVertex
 10
782.5576250784006
 20
585.3241975417282
 30
50.0
  0
VERTEX
  5
19D
330
194
100
AcDbEntity
  8
Make2D$Visible$Curves
 62
   178
420
        0
370
    -3
100
AcDbVertex
100
AcDb2dVertex
 10
800.5576250784002
 20
585.3241975417318
 30
50.0
  0
VERTEX
  5
19E
330
194
100
AcDbEntity
  8
Make2D$Visible$Curves
 62
   178
420
        0
370
    -3
100
AcDbVertex
100
AcDb2dVertex
 10
800.5576250784002
 20
603.3241975417318
 30
50.0
  0
VERTEX
  5
19F
330
194
100
AcDbEntity
  8
Make2D$Visible$Curves
 62
   178
420
        0
370
    -3
100
AcDbVertex
100
AcDb2dVertex
 10
1028.5576250784
 20
603.3241975417318
 30
50.0
  0
VERTEX
  5
1A0
330
194
100
AcDbEntity
  8
Make2D$Visible$Curves
 62
   178
420
        0
370
    -3
100
AcDbVertex
100
AcDb2dVertex
 10
1028.5576250784
 20
585.3241975417318
 30
50.0
  0
VERTEX
  5
1A1
330
194
100
AcDbEntity
  8
Make2D$Visible$Curves
 62
   178
420
        0
370
    -3
100
AcDbVertex
100
AcDb2dVertex
 10
1046.5576250784
 20
585.3241975417282
 30
50.0
  0
VERTEX
  5
1A2
330
194
100
AcDbEntity
  8
Make2D$Visible$Curves
 62
   178
420
        0
370
    -3
100
AcDbVertex
100
AcDb2dVertex
 10
1046.5576250784
 20
621.3241975417354
 30
50.0
  0
VERTEX
  5
1A3
330
194
100
AcDbEntity
  8
Make2D$Visible$Curves
 62
   178
420
        0
370
    -3
100
AcDbVertex
100
AcDb2dVertex
 10
1046.5576250784
 20
624.7181975417236
 30
50.0
  0
VERTEX
  5
1A4
330
194
100
AcDbEntity
  8
Make2D$Visible$Curves
 62
   178
420
        0
370
    -3
100
AcDbVertex
100
AcDb2dVertex
 10
1064.5576250784
 20
624.7181975417236
 30
50.0
  0
VERTEX
  5
1A5
330
194
100
AcDbEntity
  8
Make2D$Visible$Curves
 62
   178
420
        0
370
    -3
100
AcDbVertex
100
AcDb2dVertex
 10
1064.5576250784
 20
663.9621975417283
 30
50.0
  0
VERTEX
  5
1A6
330
194
100
AcDbEntity
  8
Make2D$Visible$Curves
 62
   178
420
        0
370
    -3
100
AcDbVertex
100
AcDb2dVertex
 10
1046.5576250784
 20
663.9621975417283
 30
50.0
  0
VERTEX
  5
1A7
330
194
100
AcDbEntity
  8
Make2D$Visible$Curves
 62
   178
420
        0
370
    -3
100
AcDbVertex
100
AcDb2dVertex
 10
1046.5576250784
 20
703.4061975417274
 30
50.0
  0
VERTEX
  5
1A8
330
194
100
AcDbEntity
  8
Make2D$Visible$Curves
 62
   178
420
        0
370
    -3
100
AcDbVertex
100
AcDb2dVertex
 10
1064.5576250784
 20
703.4061975417274
 30
50.0
  0
VERTEX
  5
1A9
330
194
100
AcDbEntity
  8
Make2D$Visible$Curves
 62
   178
420
        0
370
    -3
100
AcDbVertex
100
AcDb2dVertex
 10
1064.5576250784
 20
742.650197541732
 30
50.0
  0
VERTEX
  5
1AA
330
194
100
AcDbEntity
  8
Make2D$Visible$Curves
 62
   178
420
        0
370
    -3
100
AcDbVertex
100
AcDb2dVertex
 10
1046.5576250784
 20
742.650197541732
 30
50.0
  0
VERTEX
  5
1AB
330
194
100
AcDbEntity
  8
Make2D$Visible$Curves
 62
   178
420
        0
370
    -3
100
AcDbVertex
100
AcDb2dVertex
 10
1046.5576250784
 20
782.0441975417311
 30
50.0
  0
VERTEX
  5
1AC
330
194
100
AcDbEntity
  8
Make2D$Visible$Curves
 62
   178
420
        0
370
    -3
100
AcDbVertex
100
AcDb2dVertex
 10
782.5576250784006
 20
782.0441975417311
 30
50.0
  0
VERTEX
  5
1AD
330
194
100
AcDbEntity
  8
Make2D$Visible$Curves
 62
   178
420
        0
370
    -3
100
AcDbVertex
100
AcDb2dVertex
 10
782.5576250784006
 20
742.650197541732
 30
50.0
  0
VERTEX
  5
1AE
330
194
100
AcDbEntity
  8
Make2D$Visible$Curves
 62
   178
420
        0
370
    -3
100
AcDbVertex
100
AcDb2dVertex
 10
764.5576250784006
 20
742.650197541732
 30
50.0
  0
SEQEND
  5
1AF
330
194
100
AcDbEntity
  8
Make2D$Visible$Curves
 62
   178
420
        0
370
    -3
  0
SPLINE
  5
1B0
330
1F
100
AcDbEntity
  8
Make2D$Visible$Curves
 62
   178
420
        0
370
    -3
100
AcDbSpline
210
0.0
220
0.0
230
1.0
 70
    12
 71
     2
 72
    16
 73
    13
 74
     0
 42
0.000000001
 43
0.0000000001
 40
232.2295759508536
 40
232.2295759508536
 40
232.2295759508536
 40
249.6187681617636
 40
249.6187681617636
 40
267.0079603726749
 40
267.0079603726749
 40
267.7024553263445
 40
267.7024553263445
 40
285.0916475372564
 40
285.0916475372564
 40
302.4808397481673
 40
302.4808397481673
 40
303.390155250448
 40
303.390155250448
 40
303.390155250448
 10
575.2054002688883
 20
296.5925515680037
 30
50.0
 41
1.0
 10
573.4450018558074
 20
306.2532745666076
 30
50.0
 41
0.836660026534187
 10
563.8866436087555
 20
308.5041319698075
 30
50.0
 41
1.0
 10
554.3282853617006
 20
310.7549893730046
 30
50.0
 41
0.8366600265340063
 10
552.567886948621
 20
320.4157123716113
 30
50.0
 41
1.0
 10
546.9652857457158
 20
351.1616945826763
 30
50.0
 41
1.0
 10
541.3626845428107
 20
381.9076767937413
 30
50.0
 41
1.0
 10
539.6022861297288
 20
391.5683997923483
 30
50.0
 41
0.8366600265339775
 10
547.7523256463219
 20
397.0461207880335
 30
50.0
 41
1.0
 10
555.9023651629166
 20
402.5238417837176
 30
50.0
 41
0.8366600265339179
 10
554.1419667498344
 20
412.1845647823247
 30
50.0
 41
1.0
 10
540.6600727373116
 20
486.1705685095826
 30
50.0
 41
1.0
 10
527.1781787247892
 20
560.1565722368405
 30
50.0
 41
1.0
  0
LINE
  5
1B1
330
1F
100
AcDbEntity
  8
Make2D$Visible$Curves
 62
   178
420
        0
370
    -3
100
AcDbLine
 10
527.1781787247892
 20
560.1565722368405
 30
50.0
 11
527.1781787247892
 21
578.1565722368414
 31
50.0
  0
LINE
  5
1B2
330
1F
100
AcDbEntity
  8
Make2D$Visible$Curves
 62
   178
420
        0
370
    -3
100
AcDbLine
 10
527.1781787247892
 20
578.1565722368414
 30
50.0
 11
566.4721787247909
 21
578.1565722368414
 31
50.0
  0
LINE
  5
1B3
330
1F
100
AcDbEntity
  8
Make2D$Visible$Curves
 62
   178
420
        0
370
    -3
100
AcDbLine
 10
566.4721787247909
 20
578.1565722368414
 30
50.0
 11
566.4721787247909
 21
560.1565722368405
 31
50.0
  0
LINE
  5
1B4
330
1F
100
AcDbEntity
  8
Make2D$Visible$Curves
 62
   178
420
        0
370
    -3
100
AcDbLine
 10
566.4721787247909
 20
560.1565722368405
 30
50.0
 11
605.9161787247913
 21
560.1565722368414
 31
50.0
  0
LINE
  5
1B5
330
1F
100
AcDbEntity
  8
Make2D$Visible$Curves
 62
   178
420
        0
370
    -3
100
AcDbLine
 10
605.9161787247913
 20
560.1565722368414
 30
50.0
 11
605.9161787247908
 21
578.1565722368414
 31
50.0
  0
LINE
  5
1B6
330
1F
100
AcDbEntity
  8
Make2D$Visible$Curves
 62
   178
420
        0
370
    -3
100
AcDbLine
 10
605.9161787247908
 20
578.1565722368414
 30
50.0
 11
645.1601787247946
 21
578.1565722368414
 31
50.0
  0
LINE
  5
1B7
330
1F
100
AcDbEntity
  8
Make2D$Visible$Curves
 62
   178
420
        0
370
    -3
100
AcDbLine
 10
645.1601787247946
 20
578.1565722368414
 30
50.0
 11
645.1601787247946
 21
560.1565722368405
 31
50.0
  0
LINE
  5
1B8
330
1F
100
AcDbEntity
  8
Make2D$Visible$Curves
 62
   178
420
        0
370
    -3
100
AcDbLine
 10
645.1601787247946
 20
560.1565722368405
 30
50.0
 11
669.8981787247876
 21
560.1565722368414
 31
50.0
  0
LINE
  5
1B9
330
1F
100
AcDbEntity
  8
Make2D$Visible$Curves
 62
   178
420
        0
370
    -3
100
AcDbLine
 10
669.8981787247876
 20
560.1565722368414
 30
50.0
 11
684.604178724795
 21
560.1565722368414
 31
50.0
  0
LINE
  5
1BA
330
1F
100
AcDbEntity
  8
Make2D$Visible$Curves
 62
   178
420
        0
370
    -3
100
AcDbLine
 10
684.604178724795
 20
560.1565722368414
 30
50.0
 11
684.604178724795
 21
578.1565722368414
 31
50.0
  0
LINE
  5
1BB
330
1F
100
AcDbEntity
  8
Make2D$Visible$Curves
 62
   178
420
        0
370
    -3
100
AcDbLine
 10
684.604178724795
 20
578.1565722368414
 30
50.0
 11
705.8981787247885
 21
578.1565722368414
 31
50.0
  0
LINE
  5
1BC
330
1F
100
AcDbEntity
  8
Make2D$Visible$Curves
 62
   178
420
        0
370
    -3
100
AcDbLine
 10
705.8981787247885
 20
578.1565722368414
 30
50.0
 11
723.8981787247885
 21
578.1565722368414
 31
50.0
  0
LINE
  5
1BD
330
1F
100
AcDbEntity
  8
Make2D$Visible$Curves
 62
   178
420
        0
370
    -3
100
AcDbLine
 10
723.8981787247885
 20
578.1565722368414
 30
50.0
 11
723.8981787247894
 21
542.1565722368405
 31
50.0
  0
LINE
  5
1BE
330
1F
100
AcDbEntity
  8
Make2D$Visible$Curves
 62
   178
420
        0
370
    -3
100
AcDbLine
 10
723.8981787247894
 20
542.1565722368405
 30
50.0
 11
710.8981787247894
 21
542.1565722368414
 31
50.0
  0
LINE
  5
1BF
330
1F
100
AcDbEntity
  8
Make2D$Visible$Curves
 62
   178
420
        0
370
    -3
100
AcDbLine
 10
710.8981787247894
 20
542.1565722368414
 30
50.0
 11
705.898178724789
 21
542.1565722368414
 31
50.0
  0
LINE
  5
1C0
330
1F
100
AcDbEntity
  8
Make2D$Visible$Curves
 62
   178
420
        0
370
    -3
100
AcDbLine
 10
705.898178724789
 20
542.1565722368414
 30
50.0
 11
705.8981787247894
 21
164.1565722368405
 31
50.0
  0
LINE
  5
1C1
330
1F
100
AcDbEntity
  8
Make2D$Visible$Curves
 62
   178
420
        0
370
    -3
100
AcDbLine
 10
705.8981787247894
 20
164.1565722368405
 30
50.0
 11
723.8981787247894
 21
164.1565722368414
 31
50.0
  0
LINE
  5
1C2
330
1F
100
AcDbEntity
  8
Make2D$Visible$Curves
 62
   178
420
        0
370
    -3
100
AcDbLine
 10
723.8981787247894
 20
164.1565722368414
 30
50.0
 11
723.8981787247894
 21
128.1565722368423
 31
50.0
  0
LINE
  5
1C3
330
1F
100
AcDbEntity
  8
Make2D$Visible$Curves
 62
   178
420
        0
370
    -3
100
AcDbLine
 10
723.8981787247894
 20
128.1565722368423
 30
50.0
 11
705.8981787247894
 21
128.1565722368414
 31
50.0
  0
LINE
  5
1C4
330
1F
100
AcDbEntity
  8
Make2D$Visible$Curves
 62
   178
420
        0
370
    -3
100
AcDbLine
 10
705.8981787247894
 20
128.1565722368414
 30
50.0
 11
684.6148453914566
 21
128.1565722368423
 31
50.0
  0
LINE
  5
1C5
330
1F
100
AcDbEntity
  8
Make2D$Visible$Curves
 62
   178
420
        0
370
    -3
100
AcDbLine
 10
684.6148453914566
 20
128.1565722368423
 30
50.0
 11
684.6148453914566
 21
146.1565722368423
 31
50.0
  0
LINE
  5
1C6
330
1F
100
AcDbEntity
  8
Make2D$Visible$Curves
 62
   178
420
        0
370
    -3
100
AcDbLine
 10
684.6148453914566
 20
146.1565722368423
 30
50.0
 11
669.8981787247894
 21
146.1565722368414
 31
50.0
  0
LINE
  5
1C7
330
1F
100
AcDbEntity
  8
Make2D$Visible$Curves
 62
   178
420
        0
370
    -3
100
AcDbLine
 10
669.8981787247894
 20
146.1565722368414
 30
50.0
 11
645.1815120581223
 21
146.1565722368423
 31
50.0
  0
LINE
  5
1C8
330
1F
100
AcDbEntity
  8
Make2D$Visible$Curves
 62
   178
420
        0
370
    -3
100
AcDbLine
 10
645.1815120581223
 20
146.1565722368423
 30
50.0
 11
645.1815120581223
 21
128.1565722368414
 31
50.0
  0
LINE
  5
1C9
330
1F
100
AcDbEntity
  8
Make2D$Visible$Curves
 62
   178
420
        0
370
    -3
100
AcDbLine
 10
645.1815120581223
 20
128.1565722368414
 30
50.0
 11
605.8981787247894
 21
128.1565722368414
 31
50.0
  0
SPLINE
  5
1CA
330
1F
100
AcDbEntity
  8
Make2D$Visible$Curves
 62
   178
420
        0
370
    -3
100
AcDbSpline
210
0.0
220
0.0
230
1.0
 70
    28
 71
     2
 72
     6
 73
     3
 74
     0
 42
0.000000001
 43
0.0000000001
 40
328.3901552504481
 40
328.3901552504481
 40
328.3901552504481
 40
329.3221361396278
 40
329.3221361396278
 40
329.3221361396278
 10
605.8981787247894
 20
128.1565722368414
 30
50.0
 41
1.0
 10
590.5517894968389
 20
212.3745619024226
 30
50.0
 41
1.0
 10
575.2054002688883
 20
296.5925515680037
 30
50.0
 41
1.0
  0
SPLINE
  5
1CB
330
1F
100
AcDbEntity
  8
Make2D$Visible$Curves
 62
   178
420
        0
370
    -3
100
AcDbSpline
210
0.0
220
0.0
230
1.0
 70
    12
 71
     2
 72
    16
 73
    13
 74
     0
 42
0.000000001
 43
0.0000000001
 40
232.2295759508536
 40
232.2295759508536
 40
232.2295759508536
 40
249.6187681617636
 40
249.6187681617636
 40
267.0079603726749
 40
267.0079603726749
 40
267.7024553263445
 40
267.7024553263445
 40
285.0916475372564
 40
285.0916475372564
 40
302.4808397481673
 40
302.4808397481673
 40
303.390155250448
 40
303.390155250448
 40
303.390155250448
 10
1248.62762976654
 20
296.5925515680037
 30
50.0
 41
1.0
 10
1250.388028179622
 20
306.2532745666076
 30
50.00000000000001
 41
0.836660026534169
 10
1259.946386426674
 20
308.5041319698075
 30
50.0
 41
1.0
 10
1269.504744673728
 20
310.7549893730071
 30
50.0
 41
0.8366600265341448
 10
1271.265143086808
 20
320.4157123716113
 30
50.0
 41
1.0
 10
1276.867744289713
 20
351.1616945826763
 30
50.0
 41
1.0
 10
1282.470345492618
 20
381.9076767937413
 30
50.0
 41
1.0
 10
1284.230743905699
 20
391.5683997923489
 30
49.99999999999999
 41
0.8366600265339504
 10
1276.080704389106
 20
397.0461207880335
 30
50.0
 41
1.0
 10
1267.930664872516
 20
402.5238417837191
 30
50.0
 41
0.8366600265340606
 10
1269.691063285595
 20
412.1845647823247
 30
50.0
 41
1.0
 10
1283.172957298118
 20
486.1705685095826
 30
50.0
 41
1.0
 10
1296.65485131064
 20
560.1565722368405
 30
50.0
 41
1.0
  0
LINE
  5
1CC
330
1F
100
AcDbEntity
  8
Make2D$Visible$Curves
 62
   178
420
        0
370
    -3
100
AcDbLine
 10
1296.65485131064
 20
560.1565722368405
 30
50.0
 11
1296.65485131064
 21
578.1565722368414
 31
50.0
  0
LINE
  5
1CD
330
1F
100
AcDbEntity
  8
Make2D$Visible$Curves
 62
   178
420
        0
370
    -3
100
AcDbLine
 10
1296.65485131064
 20
578.1565722368414
 30
50.0
 11
1257.360851310638
 21
578.1565722368414
 31
50.0
  0
LINE
  5
1CE
330
1F
100
AcDbEntity
  8
Make2D$Visible$Curves
 62
   178
420
        0
370
    -3
100
AcDbLine
 10
1257.360851310638
 20
578.1565722368414
 30
50.0
 11
1257.360851310638
 21
560.1565722368405
 31
50.0
  0
LINE
  5
1CF
330
1F
100
AcDbEntity
  8
Make2D$Visible$Curves
 62
   178
420
        0
370
    -3
100
AcDbLine
 10
1257.360851310638
 20
560.1565722368405
 30
50.0
 11
1217.916851310638
 21
560.1565722368414
 31
50.0
  0
LINE
  5
1D0
330
1F
100
AcDbEntity
  8
Make2D$Visible$Curves
 62
   178
420
        0
370
    -3
100
AcDbLine
 10
1217.916851310638
 20
560.1565722368414
 30
50.0
 11
1217.916851310638
 21
578.1565722368414
 31
50.0
  0
LINE
  5
1D1
330
1F
100
AcDbEntity
  8
Make2D$Visible$Curves
 62
   178
420
        0
370
    -3
100
AcDbLine
 10
1217.916851310638
 20
578.1565722368414
 30
50.0
 11
1178.672851310635
 21
578.1565722368414
 31
50.0
  0
LINE
  5
1D2
330
1F
100
AcDbEntity
  8
Make2D$Visible$Curves
 62
   178
420
        0
370
    -3
100
AcDbLine
 10
1178.672851310635
 20
578.1565722368414
 30
50.0
 11
1178.672851310635
 21
560.1565722368405
 31
50.0
  0
LINE
  5
1D3
330
1F
100
AcDbEntity
  8
Make2D$Visible$Curves
 62
   178
420
        0
370
    -3
100
AcDbLine
 10
1178.672851310635
 20
560.1565722368405
 30
50.0
 11
1153.934851310642
 21
560.1565722368414
 31
50.0
  0
LINE
  5
1D4
330
1F
100
AcDbEntity
  8
Make2D$Visible$Curves
 62
   178
420
        0
370
    -3
100
AcDbLine
 10
1153.934851310642
 20
560.1565722368414
 30
50.0
 11
1139.228851310634
 21
560.1565722368414
 31
50.0
  0
LINE
  5
1D5
330
1F
100
AcDbEntity
  8
Make2D$Visible$Curves
 62
   178
420
        0
370
    -3
100
AcDbLine
 10
1139.228851310634
 20
560.1565722368414
 30
50.0
 11
1139.228851310634
 21
578.1565722368414
 31
50.0
  0
LINE
  5
1D6
330
1F
100
AcDbEntity
  8
Make2D$Visible$Curves
 62
   178
420
        0
370
    -3
100
AcDbLine
 10
1139.228851310634
 20
578.1565722368414
 30
50.0
 11
1117.934851310641
 21
578.1565722368414
 31
50.0
  0
LINE
  5
1D7
330
1F
100
AcDbEntity
  8
Make2D$Visible$Curves
 62
   178
420
        0
370
    -3
100
AcDbLine
 10
1117.934851310641
 20
578.1565722368414
 30
50.0
 11
1099.934851310641
 21
578.1565722368414
 31
50.0
  0
LINE
  5
1D8
330
1F
100
AcDbEntity
  8
Make2D$Visible$Curves
 62
   178
420
        0
370
    -3
100
AcDbLine
 10
1099.934851310641
 20
578.1565722368414
 30
50.0
 11
1099.93485131064
 21
542.1565722368405
 31
50.0
  0
LINE
  5
1D9
330
1F
100
AcDbEntity
  8
Make2D$Visible$Curves
 62
   178
420
        0
370
    -3
100
AcDbLine
 10
1099.93485131064
 20
542.1565722368405
 30
50.0
 11
1112.93485131064
 21
542.1565722368414
 31
50.0
  0
LINE
  5
1DA
330
1F
100
AcDbEntity
  8
Make2D$Visible$Curves
 62
   178
420
        0
370
    -3
100
AcDbLine
 10
1112.93485131064
 20
542.1565722368414
 30
50.0
 11
1117.93485131064
 21
542.1565722368414
 31
50.0
  0
LINE
  5
1DB
330
1F
100
AcDbEntity
  8
Make2D$Visible$Curves
 62
   178
420
        0
370
    -3
100
AcDbLine
 10
1117.93485131064
 20
542.1565722368414
 30
50.0
 11
1117.93485131064
 21
164.1565722368405
 31
50.0
  0
LINE
  5
1DC
330
1F
100
AcDbEntity
  8
Make2D$Visible$Curves
 62
   178
420
        0
370
    -3
100
AcDbLine
 10
1117.93485131064
 20
164.1565722368405
 30
50.0
 11
1099.93485131064
 21
164.1565722368414
 31
50.0
  0
LINE
  5
1DD
330
1F
100
AcDbEntity
  8
Make2D$Visible$Curves
 62
   178
420
        0
370
    -3
100
AcDbLine
 10
1099.93485131064
 20
164.1565722368414
 30
50.0
 11
1099.93485131064
 21
128.1565722368423
 31
50.0
  0
LINE
  5
1DE
330
1F
100
AcDbEntity
  8
Make2D$Visible$Curves
 62
   178
420
        0
370
    -3
100
AcDbLine
 10
1099.93485131064
 20
128.1565722368423
 30
50.0
 11
1117.93485131064
 21
128.1565722368414
 31
50.0
  0
LINE
  5
1DF
330
1F
100
AcDbEntity
  8
Make2D$Visible$Curves
 62
   178
420
        0
370
    -3
100
AcDbLine
 10
1117.93485131064
 20
128.1565722368414
 30
50.0
 11
1139.218184643973
 21
128.1565722368423
 31
50.0
  0
LINE
  5
1E0
330
1F
100
AcDbEntity
  8
Make2D$Visible$Curves
 62
   178
420
        0
370
    -3
100
AcDbLine
 10
1139.218184643973
 20
128.1565722368423
 30
50.0
 11
1139.218184643973
 21
146.1565722368423
 31
50.0
  0
LINE
  5
1E1
330
1F
100
AcDbEntity
  8
Make2D$Visible$Curves
 62
   178
420
        0
370
    -3
100
AcDbLine
 10
1139.218184643973
 20
146.1565722368423
 30
50.0
 11
1153.93485131064
 21
146.1565722368414
 31
50.0
  0
LINE
  5
1E2
330
1F
100
AcDbEntity
  8
Make2D$Visible$Curves
 62
   178
420
        0
370
    -3
100
AcDbLine
 10
1153.93485131064
 20
146.1565722368414
 30
50.0
 11
1178.651517977307
 21
146.1565722368423
 31
50.0
  0
LINE
  5
1E3
330
1F
100
AcDbEntity
  8
Make2D$Visible$Curves
 62
   178
420
        0
370
    -3
100
AcDbLine
 10
1178.651517977307
 20
146.1565722368423
 30
50.0
 11
1178.651517977307
 21
128.1565722368414
 31
50.0
  0
LINE
  5
1E4
330
1F
100
AcDbEntity
  8
Make2D$Visible$Curves
 62
   178
420
        0
370
    -3
100
AcDbLine
 10
1178.651517977307
 20
128.1565722368414
 30
50.0
 11
1217.93485131064
 21
128.1565722368414
 31
50.0
  0
SPLINE
  5
1E5
330
1F
100
AcDbEntity
  8
Make2D$Visible$Curves
 62
   178
420
        0
370
    -3
100
AcDbSpline
210
0.0
220
0.0
230
1.0
 70
    28
 71
     2
 72
     6
 73
     3
 74
     0
 42
0.000000001
 43
0.0000000001
 40
328.3901552504481
 40
328.3901552504481
 40
328.3901552504481
 40
329.3221361396278
 40
329.3221361396278
 40
329.3221361396278
 10
1217.93485131064
 20
128.1565722368414
 30
50.0
 41
1.0
 10
1233.28124053859
 20
212.3745619024226
 30
50.0
 41
1.0
 10
1248.62762976654
 20
296.5925515680037
 30
50.0
 41
1.0
  0
ENDSEC
  0
SECTION
  2
OBJECTS
  0
DICTIONARY
  5
C
330
0
100
AcDbDictionary
281
     1
  3
ACAD_DETAILVIEWSTYLE
350
221
  3
ACAD_GROUP
350
D
  3
ACAD_LAYOUT
350
1A
  3
ACAD_MATERIAL
350
43
  3
ACAD_MLEADERSTYLE
350
6B
  3
ACAD_MLINESTYLE
350
17
  3
ACAD_PLOTSETTINGS
350
19
  3
ACAD_PLOTSTYLENAME
350
E
  3
ACAD_SCALELIST
350
47
  3
ACAD_SECTIONVIEWSTYLE
350
222
  3
ACAD_TABLESTYLE
350
69
  3
ACAD_VISUALSTYLE
350
2A
  3
AcDbVariableDictionary
350
1E6
  3
ACDB_RECOMPOSE_DATA
350
21E
  0
SUN
  5
6D
330
29
100
AcDbSun
 90
        1
290
     0
 63
     7
421
 16777215
 40
1.0
291
     1
 91
  2455826
 92
 54000000
292
     0
 70
     2
 71
   256
280
     1
  0
DICTIONARY
  5
221
102
{ACAD_REACTORS
330
C
102
}
330
C
100
AcDbDictionary
281
     1
  0
DICTIONARY
  5
D
102
{ACAD_REACTORS
330
C
102
}
330
C
100
AcDbDictionary
281
     1
  0
DICTIONARY
  5
1A
102
{ACAD_REACTORS
330
C
102
}
330
C
100
AcDbDictionary
281
     1
  3
Layout1
350
1E
  3
Layout2
350
26
  3
Model
350
22
  0
DICTIONARY
  5
43
102
{ACAD_REACTORS
330
C
102
}
330
C
100
AcDbDictionary
281
     1
  3
ByBlock
350
45
  3
ByLayer
350
44
  3
Global
350
46
  0
DICTIONARY
  5
6B
102
{ACAD_REACTORS
330
C
102
}
330
C
100
AcDbDictionary
281
     1
  3
Standard
350
6C
  0
DICTIONARY
  5
17
102
{ACAD_REACTORS
330
C
102
}
330
C
100
AcDbDictionary
281
     1
  3
Standard
350
18
  0
DICTIONARY
  5
19
102
{ACAD_REACTORS
330
C
102
}
330
C
100
AcDbDictionary
281
     1
  0
ACDBDICTIONARYWDFLT
  5
E
102
{ACAD_REACTORS
330
C
102
}
330
C
100
AcDbDictionary
281
     1
  3
Normal
350
F
100
AcDbDictionaryWithDefault
340
F
  0
DICTIONARY
  5
47
102
{ACAD_REACTORS
330
C
102
}
330
C
100
AcDbDictionary
281
     1
  3
A0
350
48
  3
A1
350
49
  3
A2
350
4A
  3
A3
350
4B
  3
A4
350
4C
  3
A5
350
4D
  3
A6
350
4E
  3
A7
350
4F
  3
A8
350
50
  3
A9
350
51
  3
B0
350
52
  3
B1
350
53
  3
B2
350
54
  3
B3
350
55
  3
B4
350
56
  3
B5
350
57
  3
B6
350
58
  3
B7
350
59
  3
B8
350
5A
  3
B9
350
5B
  3
C0
350
5C
  3
C1
350
5D
  3
C2
350
5E
  3
C3
350
5F
  3
C4
350
60
  3
C5
350
61
  3
C6
350
62
  3
C7
350
63
  3
C8
350
64
  3
C9
350
65
  3
D0
350
66
  3
D1
350
67
  3
D2
350
68
  0
DICTIONARY
  5
222
102
{ACAD_REACTORS
330
C
102
}
330
C
100
AcDbDictionary
281
     1
  0
DICTIONARY
  5
69
102
{ACAD_REACTORS
330
C
102
}
330
C
100
AcDbDictionary
281
     1
  3
Standard
350
6A
  0
DICTIONARY
  5
2A
102
{ACAD_REACTORS
330
C
102
}
330
C
100
AcDbDictionary
281
     1
  3
2dWireframe
350
2F
  3
Basic
350
32
  3
Brighten
350
36
  3
ColorChange
350
3A
  3
Conceptual
350
34
  3
Dim
350
35
  3
EdgeColorOff
350
3D
  3
Facepattern
350
39
  3
Flat
350
2B
  3
FlatWithEdges
350
2C
  3
Gouraud
350
2D
  3
GouraudWithEdges
350
2E
  3
Hidden
350
31
  3
JitterOff
350
3B
  3
Linepattern
350
38
  3
OverhangOff
350
3C
  3
Realistic
350
33
  3
Shaded
350
42
  3
Shaded with edges
350
41
  3
Shades of Gray
350
3E
  3
Sketchy
350
3F
  3
Thicken
350
37
  3
Wireframe
350
30
  3
X-Ray
350
40
  0
DICTIONARY
  5
1E6
102
{ACAD_REACTORS
330
C
102
}
330
C
100
AcDbDictionary
281
     1
  3
CANNOSCALE
350
1E7
  3
CMLEADERSTYLE
350
220
  3
CTABLESTYLE
350
21F
  3
XCLIPFRAME
350
1E8
  0
XRECORD
  5
21E
102
{ACAD_REACTORS
330
C
102
}
330
C
100
AcDbXrecord
280
     1
 90
        1
330
6A
  0
LAYOUT
  5
1E
102
{ACAD_REACTORS
330
1A
102
}
330
1A
100
AcDbPlotSettings
  1

  2
none_device
  4

  6

 40
0.0
 41
0.0
 42
0.0
 43
0.0
 44
0.0
 45
0.0
 46
0.0
 47
0.0
 48
0.0
 49
0.0
140
0.0
141
0.0
142
1.0
143
1.0
 70
   688
 72
     0
 73
     0
 74
     5
  7

 75
    16
 76
     0
 77
     2
 78
   300
147
1.0
148
0.0
149
0.0
100
AcDbLayout
  1
Layout1
 70
     1
 71
     1
 10
0.0
 20
0.0
 11
12.0
 21
9.0
 12
0.0
 22
0.0
 32
0.0
 14
1.000000000000000E+20
 24
1.000000000000000E+20
 34
1.000000000000000E+20
 15
-1.000000000000000E+20
 25
-1.000000000000000E+20
 35
-1.000000000000000E+20
146
0.0
 13
0.0
 23
0.0
 33
0.0
 16
1.0
 26
0.0
 36
0.0
 17
0.0
 27
1.0
 37
0.0
 76
     0
330
1B
  0
LAYOUT
  5
26
102
{ACAD_REACTORS
330
1A
102
}
330
1A
100
AcDbPlotSettings
  1

  2
none_device
  4

  6

 40
0.0
 41
0.0
 42
0.0
 43
0.0
 44
0.0
 45
0.0
 46
0.0
 47
0.0
 48
0.0
 49
0.0
140
0.0
141
0.0
142
1.0
143
1.0
 70
   688
 72
     0
 73
     0
 74
     5
  7

 75
    16
 76
     0
 77
     2
 78
   300
147
1.0
148
0.0
149
0.0
100
AcDbLayout
  1
Layout2
 70
     1
 71
     2
 10
0.0
 20
0.0
 11
0.0
 21
0.0
 12
0.0
 22
0.0
 32
0.0
 14
0.0
 24
0.0
 34
0.0
 15
0.0
 25
0.0
 35
0.0
146
0.0
 13
0.0
 23
0.0
 33
0.0
 16
1.0
 26
0.0
 36
0.0
 17
0.0
 27
1.0
 37
0.0
 76
     0
330
23
  0
LAYOUT
  5
22
102
{ACAD_REACTORS
330
1A
102
}
330
1A
100
AcDbPlotSettings
  1

  2
none_device
  4
Letter_(8.50_x_11.00_Inches)
  6

 40
6.35
 41
6.35
 42
6.35000508
 43
6.35000508
 44
215.9
 45
279.4
 46
0.0
 47
0.0
 48
0.0
 49
0.0
140
0.0
141
0.0
142
1.0
143
1.0
 70
  1712
 72
     0
 73
     0
 74
     0
  7

 75
     0
 76
     0
 77
     2
 78
   300
147
1.0
148
0.0
149
0.0
100
AcDbLayout
  1
Model
 70
     1
 71
     0
 10
0.0
 20
0.0
 11
12.0
 21
9.0
 12
0.0
 22
0.0
 32
0.0
 14
1.000000000000000E+20
 24
1.000000000000000E+20
 34
1.000000000000000E+20
 15
-1.000000000000000E+20
 25
-1.000000000000000E+20
 35
-1.000000000000000E+20
146
0.0
 13
0.0
 23
0.0
 33
0.0
 16
1.0
 26
0.0
 36
0.0
 17
0.0
 27
1.0
 37
0.0
 76
     0
330
1F
331
29
  0
MATERIAL
  5
45
102
{ACAD_REACTORS
330
43
102
}
330
43
100
AcDbMaterial
  1
ByBlock
 72
     1
 94
      127
  0
MATERIAL
  5
44
102
{ACAD_REACTORS
330
43
102
}
330
43
100
AcDbMaterial
  1
ByLayer
 72
     1
 94
      127
  0
MATERIAL
  5
46
102
{ACAD_REACTORS
330
43
102
}
330
43
100
AcDbMaterial
  1
Global
 72
     1
 94
      127
  0
MLEADERSTYLE
  5
6C
102
{ACAD_REACTORS
330
6B
102
}
102
{ACAD_XDICTIONARY
360
21C
102
}
330
6B
100
AcDbMLeaderStyle
170
     2
171
     1
172
     0
 90
        2
 40
0.0
 41
0.0
173
     1
 91
-1056964608
340
14
 92
       -2
290
     1
 42
0.09
291
     1
 43
0.36
  3
Standard
341
0
 44
0.18
300

342
11
174
     1
178
     6
175
     1
176
     0
 93
-1056964608
 45
0.18
292
     0
297
     0
 46
0.18
343
0
 94
-1056964608
 47
1.0
 49
1.0
140
1.0
293
     1
141
0.0
294
     1
177
     0
142
1.0
295
     0
296
     0
143
0.125
1001
ACAD_MLEADERVER
1070
     2
  0
MLINESTYLE
  5
18
102
{ACAD_REACTORS
330
17
102
}
330
17
100
AcDbMlineStyle
  2
Standard
 70
     0
  3

 62
   256
 51
90.0
 52
90.0
 71
     2
 49
0.5
 62
   256
  6
BYLAYER
 49
-0.5
 62
   256
  6
BYLAYER
  0
ACDBPLACEHOLDER
  5
F
102
{ACAD_REACTORS
330
E
102
}
330
E
  0
SCALE
  5
48
102
{ACAD_REACTORS
330
47
102
}
330
47
100
AcDbScale
 70
     0
300
1:1
140
1.0
141
1.0
290
     1
  0
SCALE
  5
49
102
{ACAD_REACTORS
330
47
102
}
330
47
100
AcDbScale
 70
     0
300
1:2
140
1.0
141
2.0
290
     0
  0
SCALE
  5
4A
102
{ACAD_REACTORS
330
47
102
}
330
47
100
AcDbScale
 70
     0
300
1:4
140
1.0
141
4.0
290
     0
  0
SCALE
  5
4B
102
{ACAD_REACTORS
330
47
102
}
330
47
100
AcDbScale
 70
     0
300
1:5
140
1.0
141
5.0
290
     0
  0
SCALE
  5
4C
102
{ACAD_REACTORS
330
47
102
}
330
47
100
AcDbScale
 70
     0
300
1:8
140
1.0
141
8.0
290
     0
  0
SCALE
  5
4D
102
{ACAD_REACTORS
330
47
102
}
330
47
100
AcDbScale
 70
     0
300
1:10
140
1.0
141
10.0
290
     0
  0
SCALE
  5
4E
102
{ACAD_REACTORS
330
47
102
}
330
47
100
AcDbScale
 70
     0
300
1:16
140
1.0
141
16.0
290
     0
  0
SCALE
  5
4F
102
{ACAD_REACTORS
330
47
102
}
330
47
100
AcDbScale
 70
     0
300
1:20
140
1.0
141
20.0
290
     0
  0
SCALE
  5
50
102
{ACAD_REACTORS
330
47
102
}
330
47
100
AcDbScale
 70
     0
300
1:30
140
1.0
141
30.0
290
     0
  0
SCALE
  5
51
102
{ACAD_REACTORS
330
47
102
}
330
47
100
AcDbScale
 70
     0
300
1:40
140
1.0
141
40.0
290
     0
  0
SCALE
  5
52
102
{ACAD_REACTORS
330
47
102
}
330
47
100
AcDbScale
 70
     0
300
1:50
140
1.0
141
50.0
290
     0
  0
SCALE
  5
53
102
{ACAD_REACTORS
330
47
102
}
330
47
100
AcDbScale
 70
     0
300
1:100
140
1.0
141
100.0
290
     0
  0
SCALE
  5
54
102
{ACAD_REACTORS
330
47
102
}
330
47
100
AcDbScale
 70
     0
300
2:1
140
2.0
141
1.0
290
     0
  0
SCALE
  5
55
102
{ACAD_REACTORS
330
47
102
}
330
47
100
AcDbScale
 70
     0
300
4:1
140
4.0
141
1.0
290
     0
  0
SCALE
  5
56
102
{ACAD_REACTORS
330
47
102
}
330
47
100
AcDbScale
 70
     0
300
8:1
140
8.0
141
1.0
290
     0
  0
SCALE
  5
57
102
{ACAD_REACTORS
330
47
102
}
330
47
100
AcDbScale
 70
     0
300
10:1
140
10.0
141
1.0
290
     0
  0
SCALE
  5
58
102
{ACAD_REACTORS
330
47
102
}
330
47
100
AcDbScale
 70
     0
300
100:1
140
100.0
141
1.0
290
     0
  0
SCALE
  5
59
102
{ACAD_REACTORS
330
47
102
}
330
47
100
AcDbScale
 70
     0
300
1/128" = 1'-0"
140
0.0078125
141
12.0
290
     0
  0
SCALE
  5
5A
102
{ACAD_REACTORS
330
47
102
}
330
47
100
AcDbScale
 70
     0
300
1/64" = 1'-0"
140
0.015625
141
12.0
290
     0
  0
SCALE
  5
5B
102
{ACAD_REACTORS
330
47
102
}
330
47
100
AcDbScale
 70
     0
300
1/32" = 1'-0"
140
0.03125
141
12.0
290
     0
  0
SCALE
  5
5C
102
{ACAD_REACTORS
330
47
102
}
330
47
100
AcDbScale
 70
     0
300
1/16" = 1'-0"
140
0.0625
141
12.0
290
     0
  0
SCALE
  5
5D
102
{ACAD_REACTORS
330
47
102
}
330
47
100
AcDbScale
 70
     0
300
3/32" = 1'-0"
140
0.09375
141
12.0
290
     0
  0
SCALE
  5
5E
102
{ACAD_REACTORS
330
47
102
}
330
47
100
AcDbScale
 70
     0
300
1/8" = 1'-0"
140
0.125
141
12.0
290
     0
  0
SCALE
  5
5F
102
{ACAD_REACTORS
330
47
102
}
330
47
100
AcDbScale
 70
     0
300
3/16" = 1'-0"
140
0.1875
141
12.0
290
     0
  0
SCALE
  5
60
102
{ACAD_REACTORS
330
47
102
}
330
47
100
AcDbScale
 70
     0
300
1/4" = 1'-0"
140
0.25
141
12.0
290
     0
  0
SCALE
  5
61
102
{ACAD_REACTORS
330
47
102
}
330
47
100
AcDbScale
 70
     0
300
3/8" = 1'-0"
140
0.375
141
12.0
290
     0
  0
SCALE
  5
62
102
{ACAD_REACTORS
330
47
102
}
330
47
100
AcDbScale
 70
     0
300
1/2" = 1'-0"
140
0.5
141
12.0
290
     0
  0
SCALE
  5
63
102
{ACAD_REACTORS
330
47
102
}
330
47
100
AcDbScale
 70
     0
300
3/4" = 1'-0"
140
0.75
141
12.0
290
     0
  0
SCALE
  5
64
102
{ACAD_REACTORS
330
47
102
}
330
47
100
AcDbScale
 70
     0
300
1" = 1'-0"
140
1.0
141
12.0
290
     0
  0
SCALE
  5
65
102
{ACAD_REACTORS
330
47
102
}
330
47
100
AcDbScale
 70
     0
300
1-1/2" = 1'-0"
140
1.5
141
12.0
290
     0
  0
SCALE
  5
66
102
{ACAD_REACTORS
330
47
102
}
330
47
100
AcDbScale
 70
     0
300
3" = 1'-0"
140
3.0
141
12.0
290
     0
  0
SCALE
  5
67
102
{ACAD_REACTORS
330
47
102
}
330
47
100
AcDbScale
 70
     0
300
6" = 1'-0"
140
6.0
141
12.0
290
     0
  0
SCALE
  5
68
102
{ACAD_REACTORS
330
47
102
}
330
47
100
AcDbScale
 70
     0
300
1'-0" = 1'-0"
140
12.0
141
12.0
290
     0
  0
TABLESTYLE
  5
6A
102
{ACAD_REACTORS
330
69
102
}
102
{ACAD_XDICTIONARY
360
219
102
}
330
69
100
AcDbTableStyle
  3
Standard
 70
     0
 71
     0
 40
0.06
 41
0.06
280
     0
281
     0
  7
Standard
140
0.18
170
     2
 62
     0
 63
   257
283
     0
 90
        4
 91
        0
  1

274
    -2
284
     1
 64
     0
275
    -2
285
     1
 65
     0
276
    -2
286
     1
 66
     0
277
    -2
287
     1
 67
     0
278
    -2
288
     1
 68
     0
279
    -2
289
     1
 69
     0
  7
Standard
140
0.25
170
     5
 62
     0
 63
   257
283
     0
 90
        4
 91
        0
  1

274
    -2
284
     1
 64
     0
275
    -2
285
     1
 65
     0
276
    -2
286
     1
 66
     0
277
    -2
287
     1
 67
     0
278
    -2
288
     1
 68
     0
279
    -2
289
     1
 69
     0
  7
Standard
140
0.18
170
     5
 62
     0
 63
   257
283
     0
 90
        4
 91
        0
  1

274
    -2
284
     1
 64
     0
275
    -2
285
     1
 65
     0
276
    -2
286
     1
 66
     0
277
    -2
287
     1
 67
     0
278
    -2
288
     1
 68
     0
279
    -2
289
     1
 69
     0
  0
VISUALSTYLE
  5
2F
102
{ACAD_REACTORS
330
2A
102
}
102
{ACAD_XDICTIONARY
360
1F1
102
}
330
2A
100
AcDbVisualStyle
  2
2dWireframe
 70
     4
 71
     0
 72
     2
 73
     0
 90
        0
 40
0.6
 41
30.0
 62
     5
 63
     7
421
 16777215
 74
     1
 91
        4
 64
     7
 65
   257
 75
     1
175
     1
 42
1.0
 92
        0
 66
   257
 43
1.0
 76
     1
 77
     6
 78
     2
 67
     7
 79
     5
170
     0
171
     0
290
     0
174
     0
 93
        1
 44
0.0
173
     0
291
     0
 45
0.0
  0
VISUALSTYLE
  5
32
102
{ACAD_REACTORS
330
2A
102
}
102
{ACAD_XDICTIONARY
360
1F7
102
}
330
2A
100
AcDbVisualStyle
  2
Basic
 70
     7
 71
     1
 72
     0
 73
     1
 90
        0
 40
0.6
 41
30.0
 62
     5
 63
     7
421
 16777215
 74
     0
 91
        4
 64
     7
 65
   257
 75
     1
175
     1
 42
1.0
 92
        8
 66
     7
 43
1.0
 76
     1
 77
     6
 78
     2
 67
     7
 79
     5
170
     0
171
     0
290
     0
174
     0
 93
        1
 44
0.0
173
     0
291
     1
 45
0.0
  0
VISUALSTYLE
  5
36
102
{ACAD_REACTORS
330
2A
102
}
102
{ACAD_XDICTIONARY
360
1FF
102
}
330
2A
100
AcDbVisualStyle
  2
Brighten
 70
    12
 71
     2
 72
     2
 73
     0
 90
        0
 40
0.6
 41
30.0
 62
     5
 63
     7
421
 16777215
 74
     1
 91
        4
 64
     7
 65
   257
 75
     1
175
     1
 42
1.0
 92
        8
 66
     7
 43
1.0
 76
     1
 77
     6
 78
     2
 67
     7
 79
     5
170
     0
171
     0
290
     0
174
     0
 93
        1
 44
50.0
173
     0
291
     1
 45
0.0
  0
VISUALSTYLE
  5
3A
102
{ACAD_REACTORS
330
2A
102
}
102
{ACAD_XDICTIONARY
360
207
102
}
330
2A
100
AcDbVisualStyle
  2
ColorChange
 70
    16
 71
     2
 72
     2
 73
     3
 90
        0
 40
0.6
 41
30.0
 62
     5
 63
     8
421
  8421504
 74
     1
 91
        4
 64
     7
 65
   257
 75
     1
175
     1
 42
1.0
 92
        8
 66
     8
424
  8421504
 43
1.0
 76
     1
 77
     6
 78
     2
 67
     7
 79
     5
170
     0
171
     0
290
     0
174
     0
 93
        1
 44
0.0
173
     0
291
     1
 45
0.0
  0
VISUALSTYLE
  5
34
102
{ACAD_REACTORS
330
2A
102
}
102
{ACAD_XDICTIONARY
360
1FB
102
}
330
2A
100
AcDbVisualStyle
  2
Conceptual
 70
     9
 71
     3
 72
     2
 73
     0
 90
        0
 40
0.6
 41
30.0
 62
     5
 63
     7
421
 16777215
 74
     2
 91
        2
 64
     7
 65
   257
 75
     1
175
     1
 42
179.0
 92
        8
 66
     7
 43
1.0
 76
     1
 77
     6
 78
     2
 67
     7
 79
     3
170
     0
171
     0
290
     0
174
     0
 93
        1
 44
0.0
173
     0
291
     0
 45
0.0
  0
VISUALSTYLE
  5
35
102
{ACAD_REACTORS
330
2A
102
}
102
{ACAD_XDICTIONARY
360
1FD
102
}
330
2A
100
AcDbVisualStyle
  2
Dim
 70
    11
 71
     2
 72
     2
 73
     0
 90
        0
 40
0.6
 41
30.0
 62
     5
 63
     7
421
 16777215
 74
     1
 91
        4
 64
     7
 65
   257
 75
     1
175
     1
 42
1.0
 92
        8
 66
     7
 43
1.0
 76
     1
 77
     6
 78
     2
 67
     7
 79
     5
170
     0
171
     0
290
     0
174
     0
 93
        1
 44
-50.0
173
     0
291
     1
 45
0.0
  0
VISUALSTYLE
  5
3D
102
{ACAD_REACTORS
330
2A
102
}
102
{ACAD_XDICTIONARY
360
20D
102
}
330
2A
100
AcDbVisualStyle
  2
EdgeColorOff
 70
    22
 71
     2
 72
     2
 73
     0
 90
        0
 40
0.6
 41
30.0
 62
     5
 63
     7
421
 16777215
 74
     1
 91
        4
 64
     7
 65
   257
 75
     1
175
     1
 42
1.0
 92
        8
 66
     7
 43
1.0
 76
     1
 77
     6
 78
     2
 67
     7
 79
     5
170
     0
171
     0
290
     0
174
     0
 93
        1
 44
0.0
173
     0
291
     1
 45
0.0
  0
VISUALSTYLE
  5
39
102
{ACAD_REACTORS
330
2A
102
}
102
{ACAD_XDICTIONARY
360
205
102
}
330
2A
100
AcDbVisualStyle
  2
Facepattern
 70
    15
 71
     2
 72
     2
 73
     0
 90
        0
 40
0.6
 41
30.0
 62
     5
 63
     7
421
 16777215
 74
     1
 91
        4
 64
     7
 65
   257
 75
     1
175
     1
 42
1.0
 92
        8
 66
     7
 43
1.0
 76
     1
 77
     6
 78
     2
 67
     7
 79
     5
170
     0
171
     0
290
     0
174
     0
 93
        1
 44
0.0
173
     0
291
     1
 45
0.0
  0
VISUALSTYLE
  5
2B
102
{ACAD_REACTORS
330
2A
102
}
102
{ACAD_XDICTIONARY
360
1E9
102
}
330
2A
100
AcDbVisualStyle
  2
Flat
 70
     0
 71
     2
 72
     1
 73
     1
 90
        2
 40
0.6
 41
30.0
 62
     5
 63
     7
421
 16777215
 74
     0
 91
        0
 64
     7
 65
   257
 75
     1
175
     1
 42
1.0
 92
        8
 66
     7
 43
1.0
 76
     1
 77
     6
 78
     2
 67
     7
 79
     5
170
     0
171
     0
290
     0
174
     0
 93
       13
 44
0.0
173
     0
291
     1
 45
0.0
  0
VISUALSTYLE
  5
2C
102
{ACAD_REACTORS
330
2A
102
}
102
{ACAD_XDICTIONARY
360
1EB
102
}
330
2A
100
AcDbVisualStyle
  2
FlatWithEdges
 70
     1
 71
     2
 72
     1
 73
     1
 90
        2
 40
0.6
 41
30.0
 62
     5
 63
     7
421
 16777215
 74
     1
 91
        0
 64
     7
 65
   257
 75
     1
175
     1
 42
1.0
 92
        0
 66
   257
 43
1.0
 76
     1
 77
     6
 78
     2
 67
     7
 79
     5
170
     0
171
     0
290
     0
174
     0
 93
       13
 44
0.0
173
     0
291
     1
 45
0.0
  0
VISUALSTYLE
  5
2D
102
{ACAD_REACTORS
330
2A
102
}
102
{ACAD_XDICTIONARY
360
1ED
102
}
330
2A
100
AcDbVisualStyle
  2
Gouraud
 70
     2
 71
     2
 72
     2
 73
     1
 90
        2
 40
0.6
 41
30.0
 62
     5
 63
     7
421
 16777215
 74
     0
 91
        0
 64
     7
 65
   257
 75
     1
175
     1
 42
1.0
 92
        0
 66
     7
 43
1.0
 76
     1
 77
     6
 78
     2
 67
     7
 79
     5
170
     0
171
     0
290
     0
174
     0
 93
       13
 44
0.0
173
     0
291
     1
 45
0.0
  0
VISUALSTYLE
  5
2E
102
{ACAD_REACTORS
330
2A
102
}
102
{ACAD_XDICTIONARY
360
1EF
102
}
330
2A
100
AcDbVisualStyle
  2
GouraudWithEdges
 70
     3
 71
     2
 72
     2
 73
     1
 90
        2
 40
0.6
 41
30.0
 62
     5
 63
     7
421
 16777215
 74
     1
 91
        0
 64
     7
 65
   257
 75
     1
175
     1
 42
1.0
 92
        0
 66
   257
 43
1.0
 76
     1
 77
     6
 78
     2
 67
     7
 79
     5
170
     0
171
     0
290
     0
174
     0
 93
       13
 44
0.0
173
     0
291
     1
 45
0.0
  0
VISUALSTYLE
  5
31
102
{ACAD_REACTORS
330
2A
102
}
102
{ACAD_XDICTIONARY
360
1F5
102
}
330
2A
100
AcDbVisualStyle
  2
Hidden
 70
     6
 71
     1
 72
     2
 73
     2
 90
        0
 40
0.6
 41
30.0
 62
     5
 63
     7
421
 16777215
 74
     2
 91
        2
 64
     7
 65
   257
 75
     2
175
     1
 42
40.0
 92
        0
 66
   257
 43
1.0
 76
     1
 77
     6
 78
     2
 67
     7
 79
     3
170
     0
171
     0
290
     0
174
     0
 93
        1
 44
0.0
173
     0
291
     0
 45
0.0
  0
VISUALSTYLE
  5
3B
102
{ACAD_REACTORS
330
2A
102
}
102
{ACAD_XDICTIONARY
360
209
102
}
330
2A
100
AcDbVisualStyle
  2
JitterOff
 70
    20
 71
     2
 72
     2
 73
     0
 90
        0
 40
0.6
 41
30.0
 62
     5
 63
     7
421
 16777215
 74
     1
 91
        4
 64
     7
 65
   257
 75
     1
175
     1
 42
1.0
 92
       10
 66
     7
 43
1.0
 76
     1
 77
     6
 78
     2
 67
     7
 79
     5
170
     0
171
     0
290
     0
174
     0
 93
        1
 44
0.0
173
     0
291
     1
 45
0.0
  0
VISUALSTYLE
  5
38
102
{ACAD_REACTORS
330
2A
102
}
102
{ACAD_XDICTIONARY
360
203
102
}
330
2A
100
AcDbVisualStyle
  2
Linepattern
 70
    14
 71
     2
 72
     2
 73
     0
 90
        0
 40
0.6
 41
30.0
 62
     5
 63
     7
421
 16777215
 74
     1
 91
        4
 64
     7
 65
   257
 75
     7
175
     7
 42
1.0
 92
        8
 66
     7
 43
1.0
 76
     1
 77
     6
 78
     2
 67
     7
 79
     5
170
     0
171
     0
290
     0
174
     0
 93
        1
 44
0.0
173
     0
291
     1
 45
0.0
  0
VISUALSTYLE
  5
3C
102
{ACAD_REACTORS
330
2A
102
}
102
{ACAD_XDICTIONARY
360
20B
102
}
330
2A
100
AcDbVisualStyle
  2
OverhangOff
 70
    21
 71
     2
 72
     2
 73
     0
 90
        0
 40
0.6
 41
30.0
 62
     5
 63
     7
421
 16777215
 74
     1
 91
        4
 64
     7
 65
   257
 75
     1
175
     1
 42
1.0
 92
        9
 66
     7
 43
1.0
 76
     1
 77
     6
 78
     2
 67
     7
 79
     5
170
     0
171
     0
290
     0
174
     0
 93
        1
 44
0.0
173
     0
291
     1
 45
0.0
  0
VISUALSTYLE
  5
33
102
{ACAD_REACTORS
330
2A
102
}
102
{ACAD_XDICTIONARY
360
1F9
102
}
330
2A
100
AcDbVisualStyle
  2
Realistic
 70
     8
 71
     2
 72
     3
 73
     0
 90
        2
 40
0.6
 41
30.0
 62
     5
 63
     7
421
 16777215
 74
     0
 91
        0
 64
     7
 65
   257
 75
     1
175
     1
 42
1.0
 92
        8
 66
   257
 43
1.0
 76
     1
 77
     6
 78
     2
 67
     7
 79
     3
170
     0
171
     0
290
     0
174
     0
 93
       13
 44
0.0
173
     0
291
     0
 45
0.0
  0
VISUALSTYLE
  5
42
102
{ACAD_REACTORS
330
2A
102
}
102
{ACAD_XDICTIONARY
360
217
102
}
330
2A
100
AcDbVisualStyle
  2
Shaded
 70
    27
 71
     2
 72
     2
 73
     1
 90
        2
 40
0.6
 41
30.0
 62
     5
 63
     7
421
 16777215
 74
     0
 91
        4
 64
     7
 65
   257
 75
     1
175
     1
 42
1.0
 92
        8
 66
   257
 43
1.0
 76
     1
 77
     6
 78
     2
 67
     8
425
  7895160
 79
     3
170
     0
171
     0
290
     0
174
     0
 93
        5
 44
0.0
173
     0
291
     0
 45
0.0
  0
VISUALSTYLE
  5
41
102
{ACAD_REACTORS
330
2A
102
}
102
{ACAD_XDICTIONARY
360
215
102
}
330
2A
100
AcDbVisualStyle
  2
Shaded with edges
 70
    26
 71
     2
 72
     2
 73
     1
 90
        2
 40
0.6
 41
30.0
 62
     5
 63
     7
421
 16777215
 74
     1
 91
       10
 64
     7
 65
   257
 75
     2
175
     1
 42
1.0
 92
        8
 66
   257
 43
1.0
 76
     1
 77
     6
 78
     2
 67
     7
 79
     3
170
     0
171
     0
290
     0
174
     0
 93
        5
 44
0.0
173
     0
291
     0
 45
0.0
  0
VISUALSTYLE
  5
3E
102
{ACAD_REACTORS
330
2A
102
}
102
{ACAD_XDICTIONARY
360
20F
102
}
330
2A
100
AcDbVisualStyle
  2
Shades of Gray
 70
    23
 71
     2
 72
     2
 73
     3
 90
        0
 40
0.6
 41
30.0
 62
     5
 63
     7
421
 16777215
 74
     2
 91
        2
 64
     7
 65
     7
 75
     1
175
     1
 42
40.0
 92
        8
 66
     7
 43
1.0
 76
     1
 77
     6
 78
     2
 67
     7
 79
     3
170
     0
171
     0
290
     0
174
     0
 93
        1
 44
0.0
173
     0
291
     0
 45
0.0
  0
VISUALSTYLE
  5
3F
102
{ACAD_REACTORS
330
2A
102
}
102
{ACAD_XDICTIONARY
360
211
102
}
330
2A
100
AcDbVisualStyle
  2
Sketchy
 70
    24
 71
     1
 72
     2
 73
     2
 90
        0
 40
0.6
 41
30.0
 62
     5
 63
     7
421
 16777215
 74
     2
 91
        2
 64
     7
 65
     7
 75
     1
175
     1
 42
40.0
 92
       11
 66
     7
 43
1.0
 76
     1
 77
     6
 78
     2
 67
     7
 79
     6
170
     0
171
     0
290
     0
174
     0
 93
        1
 44
0.0
173
     0
291
     0
 45
0.0
  0
VISUALSTYLE
  5
37
102
{ACAD_REACTORS
330
2A
102
}
102
{ACAD_XDICTIONARY
360
201
102
}
330
2A
100
AcDbVisualStyle
  2
Thicken
 70
    13
 71
     2
 72
     2
 73
     0
 90
        0
 40
0.6
 41
30.0
 62
     5
 63
     7
421
 16777215
 74
     1
 91
        4
 64
     7
 65
   257
 75
     1
175
     1
 42
1.0
 92
       12
 66
     7
 43
1.0
 76
     1
 77
     6
 78
     2
 67
     7
 79
     5
170
     0
171
     0
290
     0
174
     0
 93
        1
 44
0.0
173
     0
291
     1
 45
0.0
  0
VISUALSTYLE
  5
30
102
{ACAD_REACTORS
330
2A
102
}
102
{ACAD_XDICTIONARY
360
1F3
102
}
330
2A
100
AcDbVisualStyle
  2
Wireframe
 70
     5
 71
     0
 72
     2
 73
     0
 90
        0
 40
0.6
 41
30.0
 62
     5
 63
     7
421
 16777215
 74
     1
 91
        4
 64
     7
 65
   257
 75
     1
175
     1
 42
1.0
 92
        0
 66
   257
 43
1.0
 76
     1
 77
     6
 78
     2
 67
     7
 79
     3
170
     0
171
     0
290
     0
174
     0
 93
        1
 44
0.0
173
     0
291
     0
 45
0.0
  0
VISUALSTYLE
  5
40
102
{ACAD_REACTORS
330
2A
102
}
102
{ACAD_XDICTIONARY
360
213
102
}
330
2A
100
AcDbVisualStyle
  2
X-Ray
 70
    25
 71
     2
 72
     2
 73
     1
 90
        1
 40
0.5
 41
30.0
 62
     5
 63
     7
421
 16777215
 74
     1
 91
        0
 64
     7
 65
   257
 75
     1
175
     1
 42
1.0
 92
        8
 66
     7
 43
1.0
 76
     1
 77
     6
 78
     2
 67
     7
 79
     3
170
     0
171
     0
290
     0
174
     0
 93
       13
 44
0.0
173
     0
291
     0
 45
0.0
  0
DICTIONARYVAR
  5
1E7
102
{ACAD_REACTORS
330
1E6
102
}
330
1E6
100
DictionaryVariables
280
     0
  1
1:1
  0
DICTIONARYVAR
  5
220
102
{ACAD_REACTORS
330
1E6
102
}
330
1E6
100
DictionaryVariables
280
     0
  1
Standard
  0
DICTIONARYVAR
  5
21F
102
{ACAD_REACTORS
330
1E6
102
}
330
1E6
100
DictionaryVariables
280
     0
  1
Standard
  0
DICTIONARYVAR
  5
1E8
102
{ACAD_REACTORS
330
1E6
102
}
330
1E6
100
DictionaryVariables
280
     0
  1
2
  0
DICTIONARY
  5
21C
330
6C
100
AcDbDictionary
280
     1
281
     1
  3
ACAD_XREC_ROUNDTRIP
360
21D
  0
DICTIONARY
  5
219
330
6A
100
AcDbDictionary
280
     1
281
     1
  3
ACAD_ROUNDTRIP_2008_TABLESTYLE_CELLSTYLEMAP
360
21A
  0
DICTIONARY
  5
1F1
330
2F
100
AcDbDictionary
280
     1
281
     1
  3
ACAD_XREC_ROUNDTRIP
360
1F2
  0
DICTIONARY
  5
1F7
330
32
100
AcDbDictionary
280
     1
281
     1
  3
ACAD_XREC_ROUNDTRIP
360
1F8
  0
DICTIONARY
  5
1FF
330
36
100
AcDbDictionary
280
     1
281
     1
  3
ACAD_XREC_ROUNDTRIP
360
200
  0
DICTIONARY
  5
207
330
3A
100
AcDbDictionary
280
     1
281
     1
  3
ACAD_XREC_ROUNDTRIP
360
208
  0
DICTIONARY
  5
1FB
330
34
100
AcDbDictionary
280
     1
281
     1
  3
ACAD_XREC_ROUNDTRIP
360
1FC
  0
DICTIONARY
  5
1FD
330
35
100
AcDbDictionary
280
     1
281
     1
  3
ACAD_XREC_ROUNDTRIP
360
1FE
  0
DICTIONARY
  5
20D
330
3D
100
AcDbDictionary
280
     1
281
     1
  3
ACAD_XREC_ROUNDTRIP
360
20E
  0
DICTIONARY
  5
205
330
39
100
AcDbDictionary
280
     1
281
     1
  3
ACAD_XREC_ROUNDTRIP
360
206
  0
DICTIONARY
  5
1E9
330
2B
100
AcDbDictionary
280
     1
281
     1
  3
ACAD_XREC_ROUNDTRIP
360
1EA
  0
DICTIONARY
  5
1EB
330
2C
100
AcDbDictionary
280
     1
281
     1
  3
ACAD_XREC_ROUNDTRIP
360
1EC
  0
DICTIONARY
  5
1ED
330
2D
100
AcDbDictionary
280
     1
281
     1
  3
ACAD_XREC_ROUNDTRIP
360
1EE
  0
DICTIONARY
  5
1EF
330
2E
100
AcDbDictionary
280
     1
281
     1
  3
ACAD_XREC_ROUNDTRIP
360
1F0
  0
DICTIONARY
  5
1F5
330
31
100
AcDbDictionary
280
     1
281
     1
  3
ACAD_XREC_ROUNDTRIP
360
1F6
  0
DICTIONARY
  5
209
330
3B
100
AcDbDictionary
280
     1
281
     1
  3
ACAD_XREC_ROUNDTRIP
360
20A
  0
DICTIONARY
  5
203
330
38
100
AcDbDictionary
280
     1
281
     1
  3
ACAD_XREC_ROUNDTRIP
360
204
  0
DICTIONARY
  5
20B
330
3C
100
AcDbDictionary
280
     1
281
     1
  3
ACAD_XREC_ROUNDTRIP
360
20C
  0
DICTIONARY
  5
1F9
330
33
100
AcDbDictionary
280
     1
281
     1
  3
ACAD_XREC_ROUNDTRIP
360
1FA
  0
DICTIONARY
  5
217
330
42
100
AcDbDictionary
280
     1
281
     1
  3
ACAD_XREC_ROUNDTRIP
360
218
  0
DICTIONARY
  5
215
330
41
100
AcDbDictionary
280
     1
281
     1
  3
ACAD_XREC_ROUNDTRIP
360
216
  0
DICTIONARY
  5
20F
330
3E
100
AcDbDictionary
280
     1
281
     1
  3
ACAD_XREC_ROUNDTRIP
360
210
  0
DICTIONARY
  5
211
330
3F
100
AcDbDictionary
280
     1
281
     1
  3
ACAD_XREC_ROUNDTRIP
360
212
  0
DICTIONARY
  5
201
330
37
100
AcDbDictionary
280
     1
281
     1
  3
ACAD_XREC_ROUNDTRIP
360
202
  0
DICTIONARY
  5
1F3
330
30
100
AcDbDictionary
280
     1
281
     1
  3
ACAD_XREC_ROUNDTRIP
360
1F4
  0
DICTIONARY
  5
213
330
40
100
AcDbDictionary
280
     1
281
     1
  3
ACAD_XREC_ROUNDTRIP
360
214
  0
XRECORD
  5
21D
102
{ACAD_REACTORS
330
21C
102
}
330
21C
100
AcDbXrecord
280
     1
102
ACAD_ROUNDTRIP_2010_MLEADER_STYLE
  0
CELLSTYLEMAP
  5
21A
102
{ACAD_REACTORS
330
219
102
}
330
219
100
AcDbCellStyleMap
 90
        3
300
CELLSTYLE
  1
TABLEFORMAT_BEGIN
 90
        5
170
     1
 91
        0
 92
    32768
 62
   257
 93
        1
300
CONTENTFORMAT
  1
CONTENTFORMAT_BEGIN
 90
        0
 91
        0
 92
        4
 93
        0
300

 40
0.0
140
1.0
 94
        5
 62
     0
340
11
144
0.25
309
CONTENTFORMAT_END
171
     1
301
MARGIN
  1
CELLMARGIN_BEGIN
 40
0.06
 40
0.06
 40
0.06
 40
0.06
 40
0.06
 40
0.06
309
CELLMARGIN_END
 94
        6
 95
        1
302
GRIDFORMAT
  1
GRIDFORMAT_BEGIN
 90
        0
 91
        1
 62
     0
 92
       -2
340
14
 93
        0
 40
0.045
309
GRIDFORMAT_END
 95
        2
302
GRIDFORMAT
  1
GRIDFORMAT_BEGIN
 90
        0
 91
        1
 62
     0
 92
       -2
340
14
 93
        0
 40
0.045
309
GRIDFORMAT_END
 95
        4
302
GRIDFORMAT
  1
GRIDFORMAT_BEGIN
 90
        0
 91
        1
 62
     0
 92
       -2
340
14
 93
        0
 40
0.045
309
GRIDFORMAT_END
 95
        8
302
GRIDFORMAT
  1
GRIDFORMAT_BEGIN
 90
        0
 91
        1
 62
     0
 92
       -2
340
14
 93
        0
 40
0.045
309
GRIDFORMAT_END
 95
       16
302
GRIDFORMAT
  1
GRIDFORMAT_BEGIN
 90
        0
 91
        1
 62
     0
 92
       -2
340
14
 93
        0
 40
0.045
309
GRIDFORMAT_END
 95
       32
302
GRIDFORMAT
  1
GRIDFORMAT_BEGIN
 90
        0
 91
        1
 62
     0
 92
       -2
340
14
 93
        0
 40
0.045
309
GRIDFORMAT_END
309
TABLEFORMAT_END
  1
CELLSTYLE_BEGIN
 90
        1
 91
        1
300
_TITLE
309
CELLSTYLE_END
300
CELLSTYLE
  1
TABLEFORMAT_BEGIN
 90
        5
170
     1
 91
        0
 92
        0
 62
   257
 93
        1
300
CONTENTFORMAT
  1
CONTENTFORMAT_BEGIN
 90
        0
 91
        0
 92
        4
 93
        0
300

 40
0.0
140
1.0
 94
        5
 62
     0
340
11
144
0.18
309
CONTENTFORMAT_END
171
     1
301
MARGIN
  1
CELLMARGIN_BEGIN
 40
0.06
 40
0.06
 40
0.06
 40
0.06
 40
0.06
 40
0.06
309
CELLMARGIN_END
 94
        6
 95
        1
302
GRIDFORMAT
  1
GRIDFORMAT_BEGIN
 90
        0
 91
        1
 62
     0
 92
       -2
340
14
 93
        0
 40
0.045
309
GRIDFORMAT_END
 95
        2
302
GRIDFORMAT
  1
GRIDFORMAT_BEGIN
 90
        0
 91
        1
 62
     0
 92
       -2
340
14
 93
        0
 40
0.045
309
GRIDFORMAT_END
 95
        4
302
GRIDFORMAT
  1
GRIDFORMAT_BEGIN
 90
        0
 91
        1
 62
     0
 92
       -2
340
14
 93
        0
 40
0.045
309
GRIDFORMAT_END
 95
        8
302
GRIDFORMAT
  1
GRIDFORMAT_BEGIN
 90
        0
 91
        1
 62
     0
 92
       -2
340
14
 93
        0
 40
0.045
309
GRIDFORMAT_END
 95
       16
302
GRIDFORMAT
  1
GRIDFORMAT_BEGIN
 90
        0
 91
        1
 62
     0
 92
       -2
340
14
 93
        0
 40
0.045
309
GRIDFORMAT_END
 95
       32
302
GRIDFORMAT
  1
GRIDFORMAT_BEGIN
 90
        0
 91
        1
 62
     0
 92
       -2
340
14
 93
        0
 40
0.045
309
GRIDFORMAT_END
309
TABLEFORMAT_END
  1
CELLSTYLE_BEGIN
 90
        2
 91
        1
300
_HEADER
309
CELLSTYLE_END
300
CELLSTYLE
  1
TABLEFORMAT_BEGIN
 90
        5
170
     1
 91
        0
 92
        0
 62
   257
 93
        1
300
CONTENTFORMAT
  1
CONTENTFORMAT_BEGIN
 90
        0
 91
        0
 92
        4
 93
        0
300

 40
0.0
140
1.0
 94
        2
 62
     0
340
11
144
0.18
309
CONTENTFORMAT_END
171
     1
301
MARGIN
  1
CELLMARGIN_BEGIN
 40
0.06
 40
0.06
 40
0.06
 40
0.06
 40
0.06
 40
0.06
309
CELLMARGIN_END
 94
        6
 95
        1
302
GRIDFORMAT
  1
GRIDFORMAT_BEGIN
 90
        0
 91
        1
 62
     0
 92
       -2
340
14
 93
        0
 40
0.045
309
GRIDFORMAT_END
 95
        2
302
GRIDFORMAT
  1
GRIDFORMAT_BEGIN
 90
        0
 91
        1
 62
     0
 92
       -2
340
14
 93
        0
 40
0.045
309
GRIDFORMAT_END
 95
        4
302
GRIDFORMAT
  1
GRIDFORMAT_BEGIN
 90
        0
 91
        1
 62
     0
 92
       -2
340
14
 93
        0
 40
0.045
309
GRIDFORMAT_END
 95
        8
302
GRIDFORMAT
  1
GRIDFORMAT_BEGIN
 90
        0
 91
        1
 62
     0
 92
       -2
340
14
 93
        0
 40
0.045
309
GRIDFORMAT_END
 95
       16
302
GRIDFORMAT
  1
GRIDFORMAT_BEGIN
 90
        0
 91
        1
 62
     0
 92
       -2
340
14
 93
        0
 40
0.045
309
GRIDFORMAT_END
 95
       32
302
GRIDFORMAT
  1
GRIDFORMAT_BEGIN
 90
        0
 91
        1
 62
     0
 92
       -2
340
14
 93
        0
 40
0.045
309
GRIDFORMAT_END
309
TABLEFORMAT_END
  1
CELLSTYLE_BEGIN
 90
        3
 91
        2
300
_DATA
309
CELLSTYLE_END
  0
XRECORD
  5
1F2
102
{ACAD_REACTORS
330
1F1
102
}
330
1F1
100
AcDbXrecord
280
     1
102
RTVSPropertyOp0
 70
     1
102
RTVSPropertyOp1
 70
     1
102
RTVSPropertyOp2
 70
     1
102
RTVSPropertyOp3
 70
     1
102
RTVSPropertyOp4
 70
     1
102
RTVSPropertyOp5
 70
     1
102
RTVSPropertyOp6
 70
     1
102
RTVSPropertyOp7
 70
     1
102
RTVSPropertyOp8
 70
     1
102
RTVSPropertyOp9
 70
     1
102
RTVSPropertyOp10
 70
     1
102
RTVSPropertyOp11
 70
     1
102
RTVSPropertyOp12
 70
     1
102
RTVSPropertyOp13
 70
     1
102
RTVSPropertyOp14
 70
     1
102
RTVSPropertyOp15
 70
     1
102
RTVSPropertyOp16
 70
     1
102
RTVSPropertyOp17
 70
     1
102
RTVSPropertyOp18
 70
     1
102
RTVSPropertyOp19
 70
     1
102
RTVSPropertyOp20
 70
     1
102
RTVSPropertyOp21
 70
     1
102
RTVSPropertyOp22
 70
     1
102
RTVSPropertyOp23
 70
     1
102
RTVSPropertyOp24
 70
     1
102
RTVSPropertyOp25
 70
     1
102
RTVSPropertyOp26
 70
     1
102
RTVSPropertyOp27
 70
     1
102
RTVSPropertyOp28
 70
     1
102
RTVSPropertyOp29
 70
     1
102
RTVSPropertyOp30
 70
     1
102
RTVSPropertyOp31
 70
     1
102
RTVSPropertyOp32
 70
     1
102
RTVSPropertyOp33
 70
     1
102
RTVSPropertyOp34
 70
     1
102
RTVSPropertyOp35
 70
     1
102
RTVSPropertyOp36
 70
     1
102
RTVSPropertyOp37
 70
     1
102
RTVSPropertyOp38
 70
     1
102
RTVSPropertyOp39
 70
     1
102
RTVSPropertyOp40
 70
     1
102
RTVSPropertyOp41
 70
     1
102
RTVSPropertyOp42
 70
     1
102
RTVSPropertyOp43
 70
     1
102
RTVSPropertyOp44
 70
     1
102
RTVSPropertyOp45
 70
     1
102
RTVSPropertyOp46
 70
     1
102
RTVSPropertyOp47
 70
     1
102
RTVSPropertyOp48
 70
     1
102
RTVSPropertyOp49
 70
     1
102
RTVSPropertyOp50
 70
     1
102
RTVSPropertyOp51
 70
     0
102
RTVSPropertyOp52
 70
     0
102
RTVSPropertyOp53
 70
     1
102
RTVSPropertyOp54
 70
     1
102
RTVSPropertyOp55
 70
     1
102
RTVSPropertyOp56
 70
     1
102
RTVSPropertyOp57
 70
     1
102
RTVSPost2010Prop28
280
     1
102
RTVSPost2010PropOp28
 70
     1
102
RTVSPost2010Prop29
280
     1
102
RTVSPost2010PropOp29
 70
     1
102
RTVSPost2010Prop30
280
     0
102
RTVSPost2010PropOp30
 70
     1
102
RTVSPost2010Prop31
280
     0
102
RTVSPost2010PropOp31
 70
     1
102
RTVSPost2010Prop32
280
     0
102
RTVSPost2010PropOp32
 70
     1
102
RTVSPost2010Prop33
280
     0
102
RTVSPost2010PropOp33
 70
     1
102
RTVSPost2010Prop34
280
     0
102
RTVSPost2010PropOp34
 70
     1
102
RTVSPost2010Prop35
280
     0
102
RTVSPost2010PropOp35
 70
     1
102
RTVSPost2010Prop36
280
     0
102
RTVSPost2010PropOp36
 70
     1
102
RTVSPost2010Prop37
 90
       50
102
RTVSPost2010PropOp37
 70
     1
102
RTVSPost2010Prop38
140
0.0
102
RTVSPost2010PropOp38
 70
     1
102
RTVSPost2010Prop39
140
1.0
102
RTVSPost2010PropOp39
 70
     1
102
RTVSPost2010Prop40
 90
        0
102
RTVSPost2010PropOp40
 70
     1
102
RTVSPost2010Prop41ColorIndex
 90
      178
102
RTVSPost2010Prop41ColorRGB
 90
        0
102
RTVSPost2010PropOp41
 70
     1
102
RTVSPost2010Prop42
 90
       50
102
RTVSPost2010PropOp42
 70
     1
102
RTVSPost2010Prop43
 90
        3
102
RTVSPost2010PropOp43
 70
     1
102
RTVSPost2010Prop44ColorIndex
 90
        5
102
RTVSPost2010Prop44ColorRGB
 90
      255
102
RTVSPost2010PropOp44
 70
     1
102
RTVSPost2010Prop45
280
     0
102
RTVSPost2010PropOp45
 70
     1
102
RTVSPost2010Prop46
 90
       50
102
RTVSPost2010PropOp46
 70
     1
102
RTVSPost2010Prop47
 90
       50
102
RTVSPost2010PropOp47
 70
     1
102
RTVSPost2010Prop48
 90
       50
102
RTVSPost2010PropOp48
 70
     1
102
RTVSPost2010Prop49
280
     0
102
RTVSPost2010PropOp49
 70
     1
102
RTVSPost2010Prop50
 90
       50
102
RTVSPost2010PropOp50
 70
     1
102
RTVSPost2010Prop51ColorIndex
 90
      256
102
RTVSPost2010Prop51ColorRGB
 90
-16777216
102
RTVSPost2010PropOp51
 70
     0
102
RTVSPost2010Prop52
140
1.0
102
RTVSPost2010PropOp52
 70
     0
102
RTVSPost2010Prop53
 90
        2
102
RTVSPost2010PropOp53
 70
     1
102
RTVSPost2010Prop54
  1
strokes_ogs.tif
102
RTVSPost2010PropOp54
 70
     1
102
RTVSPost2010Prop55
280
     0
102
RTVSPost2010PropOp55
 70
     1
102
RTVSPost2010Prop56
140
1.0
102
RTVSPost2010PropOp56
 70
     1
102
RTVSPost2010Prop57
140
1.0
102
RTVSPost2010PropOp57
 70
     1
  0
XRECORD
  5
1F8
102
{ACAD_REACTORS
330
1F7
102
}
330
1F7
100
AcDbXrecord
280
     1
102
RTVSPropertyOp0
 70
     1
102
RTVSPropertyOp1
 70
     1
102
RTVSPropertyOp2
 70
     1
102
RTVSPropertyOp3
 70
     1
102
RTVSPropertyOp4
 70
     1
102
RTVSPropertyOp5
 70
     1
102
RTVSPropertyOp6
 70
     1
102
RTVSPropertyOp7
 70
     1
102
RTVSPropertyOp8
 70
     1
102
RTVSPropertyOp9
 70
     1
102
RTVSPropertyOp10
 70
     1
102
RTVSPropertyOp11
 70
     1
102
RTVSPropertyOp12
 70
     1
102
RTVSPropertyOp13
 70
     1
102
RTVSPropertyOp14
 70
     1
102
RTVSPropertyOp15
 70
     1
102
RTVSPropertyOp16
 70
     1
102
RTVSPropertyOp17
 70
     1
102
RTVSPropertyOp18
 70
     1
102
RTVSPropertyOp19
 70
     1
102
RTVSPropertyOp20
 70
     1
102
RTVSPropertyOp21
 70
     1
102
RTVSPropertyOp22
 70
     1
102
RTVSPropertyOp23
 70
     1
102
RTVSPropertyOp24
 70
     1
102
RTVSPropertyOp25
 70
     1
102
RTVSPropertyOp26
 70
     1
102
RTVSPropertyOp27
 70
     1
102
RTVSPropertyOp28
 70
     1
102
RTVSPropertyOp29
 70
     1
102
RTVSPropertyOp30
 70
     1
102
RTVSPropertyOp31
 70
     1
102
RTVSPropertyOp32
 70
     1
102
RTVSPropertyOp33
 70
     1
102
RTVSPropertyOp34
 70
     1
102
RTVSPropertyOp35
 70
     1
102
RTVSPropertyOp36
 70
     1
102
RTVSPropertyOp37
 70
     1
102
RTVSPropertyOp38
 70
     1
102
RTVSPropertyOp39
 70
     1
102
RTVSPropertyOp40
 70
     1
102
RTVSPropertyOp41
 70
     1
102
RTVSPropertyOp42
 70
     1
102
RTVSPropertyOp43
 70
     1
102
RTVSPropertyOp44
 70
     1
102
RTVSPropertyOp45
 70
     1
102
RTVSPropertyOp46
 70
     1
102
RTVSPropertyOp47
 70
     1
102
RTVSPropertyOp48
 70
     1
102
RTVSPropertyOp49
 70
     1
102
RTVSPropertyOp50
 70
     1
102
RTVSPropertyOp51
 70
     0
102
RTVSPropertyOp52
 70
     0
102
RTVSPropertyOp53
 70
     1
102
RTVSPropertyOp54
 70
     1
102
RTVSPropertyOp55
 70
     1
102
RTVSPropertyOp56
 70
     1
102
RTVSPropertyOp57
 70
     1
102
RTVSPost2010Prop28
280
     0
102
RTVSPost2010PropOp28
 70
     1
102
RTVSPost2010Prop29
280
     1
102
RTVSPost2010PropOp29
 70
     1
102
RTVSPost2010Prop30
280
     1
102
RTVSPost2010PropOp30
 70
     1
102
RTVSPost2010Prop31
280
     0
102
RTVSPost2010PropOp31
 70
     1
102
RTVSPost2010Prop32
280
     0
102
RTVSPost2010PropOp32
 70
     1
102
RTVSPost2010Prop33
280
     0
102
RTVSPost2010PropOp33
 70
     1
102
RTVSPost2010Prop34
280
     0
102
RTVSPost2010PropOp34
 70
     1
102
RTVSPost2010Prop35
280
     0
102
RTVSPost2010PropOp35
 70
     1
102
RTVSPost2010Prop36
280
     0
102
RTVSPost2010PropOp36
 70
     1
102
RTVSPost2010Prop37
 90
       50
102
RTVSPost2010PropOp37
 70
     1
102
RTVSPost2010Prop38
140
0.0
102
RTVSPost2010PropOp38
 70
     1
102
RTVSPost2010Prop39
140
1.0
102
RTVSPost2010PropOp39
 70
     1
102
RTVSPost2010Prop40
 90
        0
102
RTVSPost2010PropOp40
 70
     1
102
RTVSPost2010Prop41ColorIndex
 90
      178
102
RTVSPost2010Prop41ColorRGB
 90
        0
102
RTVSPost2010PropOp41
 70
     1
102
RTVSPost2010Prop42
 90
       50
102
RTVSPost2010PropOp42
 70
     1
102
RTVSPost2010Prop43
 90
        3
102
RTVSPost2010PropOp43
 70
     1
102
RTVSPost2010Prop44ColorIndex
 90
        5
102
RTVSPost2010Prop44ColorRGB
 90
      255
102
RTVSPost2010PropOp44
 70
     1
102
RTVSPost2010Prop45
280
     0
102
RTVSPost2010PropOp45
 70
     1
102
RTVSPost2010Prop46
 90
       50
102
RTVSPost2010PropOp46
 70
     1
102
RTVSPost2010Prop47
 90
       50
102
RTVSPost2010PropOp47
 70
     1
102
RTVSPost2010Prop48
 90
       50
102
RTVSPost2010PropOp48
 70
     1
102
RTVSPost2010Prop49
280
     0
102
RTVSPost2010PropOp49
 70
     1
102
RTVSPost2010Prop50
 90
       50
102
RTVSPost2010PropOp50
 70
     1
102
RTVSPost2010Prop51ColorIndex
 90
      256
102
RTVSPost2010Prop51ColorRGB
 90
-16777216
102
RTVSPost2010PropOp51
 70
     0
102
RTVSPost2010Prop52
140
1.0
102
RTVSPost2010PropOp52
 70
     0
102
RTVSPost2010Prop53
 90
        2
102
RTVSPost2010PropOp53
 70
     1
102
RTVSPost2010Prop54
  1
strokes_ogs.tif
102
RTVSPost2010PropOp54
 70
     1
102
RTVSPost2010Prop55
280
     0
102
RTVSPost2010PropOp55
 70
     1
102
RTVSPost2010Prop56
140
1.0
102
RTVSPost2010PropOp56
 70
     1
102
RTVSPost2010Prop57
140
1.0
102
RTVSPost2010PropOp57
 70
     1
  0
XRECORD
  5
200
102
{ACAD_REACTORS
330
1FF
102
}
330
1FF
100
AcDbXrecord
280
     1
102
RTVSPropertyOp0
 70
     1
102
RTVSPropertyOp1
 70
     1
102
RTVSPropertyOp2
 70
     1
102
RTVSPropertyOp3
 70
     1
102
RTVSPropertyOp4
 70
     1
102
RTVSPropertyOp5
 70
     1
102
RTVSPropertyOp6
 70
     1
102
RTVSPropertyOp7
 70
     1
102
RTVSPropertyOp8
 70
     1
102
RTVSPropertyOp9
 70
     1
102
RTVSPropertyOp10
 70
     1
102
RTVSPropertyOp11
 70
     1
102
RTVSPropertyOp12
 70
     1
102
RTVSPropertyOp13
 70
     1
102
RTVSPropertyOp14
 70
     1
102
RTVSPropertyOp15
 70
     1
102
RTVSPropertyOp16
 70
     1
102
RTVSPropertyOp17
 70
     1
102
RTVSPropertyOp18
 70
     1
102
RTVSPropertyOp19
 70
     1
102
RTVSPropertyOp20
 70
     1
102
RTVSPropertyOp21
 70
     1
102
RTVSPropertyOp22
 70
     1
102
RTVSPropertyOp23
 70
     1
102
RTVSPropertyOp24
 70
     1
102
RTVSPropertyOp25
 70
     1
102
RTVSPropertyOp26
 70
     1
102
RTVSPropertyOp27
 70
     1
102
RTVSPropertyOp28
 70
     1
102
RTVSPropertyOp29
 70
     1
102
RTVSPropertyOp30
 70
     1
102
RTVSPropertyOp31
 70
     1
102
RTVSPropertyOp32
 70
     1
102
RTVSPropertyOp33
 70
     1
102
RTVSPropertyOp34
 70
     1
102
RTVSPropertyOp35
 70
     1
102
RTVSPropertyOp36
 70
     1
102
RTVSPropertyOp37
 70
     1
102
RTVSPropertyOp38
 70
     1
102
RTVSPropertyOp39
 70
     1
102
RTVSPropertyOp40
 70
     1
102
RTVSPropertyOp41
 70
     1
102
RTVSPropertyOp42
 70
     1
102
RTVSPropertyOp43
 70
     1
102
RTVSPropertyOp44
 70
     1
102
RTVSPropertyOp45
 70
     1
102
RTVSPropertyOp46
 70
     1
102
RTVSPropertyOp47
 70
     1
102
RTVSPropertyOp48
 70
     1
102
RTVSPropertyOp49
 70
     1
102
RTVSPropertyOp50
 70
     1
102
RTVSPropertyOp51
 70
     0
102
RTVSPropertyOp52
 70
     0
102
RTVSPropertyOp53
 70
     1
102
RTVSPropertyOp54
 70
     1
102
RTVSPropertyOp55
 70
     1
102
RTVSPropertyOp56
 70
     1
102
RTVSPropertyOp57
 70
     1
102
RTVSPost2010Prop28
280
     0
102
RTVSPost2010PropOp28
 70
     1
102
RTVSPost2010Prop29
280
     1
102
RTVSPost2010PropOp29
 70
     1
102
RTVSPost2010Prop30
280
     1
102
RTVSPost2010PropOp30
 70
     1
102
RTVSPost2010Prop31
280
     0
102
RTVSPost2010PropOp31
 70
     1
102
RTVSPost2010Prop32
280
     0
102
RTVSPost2010PropOp32
 70
     1
102
RTVSPost2010Prop33
280
     0
102
RTVSPost2010PropOp33
 70
     1
102
RTVSPost2010Prop34
280
     0
102
RTVSPost2010PropOp34
 70
     1
102
RTVSPost2010Prop35
280
     0
102
RTVSPost2010PropOp35
 70
     1
102
RTVSPost2010Prop36
280
     0
102
RTVSPost2010PropOp36
 70
     1
102
RTVSPost2010Prop37
 90
       50
102
RTVSPost2010PropOp37
 70
     1
102
RTVSPost2010Prop38
140
0.0
102
RTVSPost2010PropOp38
 70
     1
102
RTVSPost2010Prop39
140
1.0
102
RTVSPost2010PropOp39
 70
     1
102
RTVSPost2010Prop40
 90
        0
102
RTVSPost2010PropOp40
 70
     1
102
RTVSPost2010Prop41ColorIndex
 90
      178
102
RTVSPost2010Prop41ColorRGB
 90
        0
102
RTVSPost2010PropOp41
 70
     1
102
RTVSPost2010Prop42
 90
       50
102
RTVSPost2010PropOp42
 70
     1
102
RTVSPost2010Prop43
 90
        3
102
RTVSPost2010PropOp43
 70
     1
102
RTVSPost2010Prop44ColorIndex
 90
        5
102
RTVSPost2010Prop44ColorRGB
 90
      255
102
RTVSPost2010PropOp44
 70
     1
102
RTVSPost2010Prop45
280
     0
102
RTVSPost2010PropOp45
 70
     1
102
RTVSPost2010Prop46
 90
       50
102
RTVSPost2010PropOp46
 70
     1
102
RTVSPost2010Prop47
 90
       50
102
RTVSPost2010PropOp47
 70
     1
102
RTVSPost2010Prop48
 90
       50
102
RTVSPost2010PropOp48
 70
     1
102
RTVSPost2010Prop49
280
     0
102
RTVSPost2010PropOp49
 70
     1
102
RTVSPost2010Prop50
 90
       50
102
RTVSPost2010PropOp50
 70
     1
102
RTVSPost2010Prop51ColorIndex
 90
      256
102
RTVSPost2010Prop51ColorRGB
 90
-16777216
102
RTVSPost2010PropOp51
 70
     0
102
RTVSPost2010Prop52
140
1.0
102
RTVSPost2010PropOp52
 70
     0
102
RTVSPost2010Prop53
 90
        2
102
RTVSPost2010PropOp53
 70
     1
102
RTVSPost2010Prop54
  1
strokes_ogs.tif
102
RTVSPost2010PropOp54
 70
     1
102
RTVSPost2010Prop55
280
     0
102
RTVSPost2010PropOp55
 70
     1
102
RTVSPost2010Prop56
140
1.0
102
RTVSPost2010PropOp56
 70
     1
102
RTVSPost2010Prop57
140
1.0
102
RTVSPost2010PropOp57
 70
     1
  0
XRECORD
  5
208
102
{ACAD_REACTORS
330
207
102
}
330
207
100
AcDbXrecord
280
     1
102
RTVSPropertyOp0
 70
     1
102
RTVSPropertyOp1
 70
     1
102
RTVSPropertyOp2
 70
     1
102
RTVSPropertyOp3
 70
     1
102
RTVSPropertyOp4
 70
     1
102
RTVSPropertyOp5
 70
     1
102
RTVSPropertyOp6
 70
     1
102
RTVSPropertyOp7
 70
     1
102
RTVSPropertyOp8
 70
     1
102
RTVSPropertyOp9
 70
     1
102
RTVSPropertyOp10
 70
     1
102
RTVSPropertyOp11
 70
     1
102
RTVSPropertyOp12
 70
     1
102
RTVSPropertyOp13
 70
     1
102
RTVSPropertyOp14
 70
     1
102
RTVSPropertyOp15
 70
     1
102
RTVSPropertyOp16
 70
     1
102
RTVSPropertyOp17
 70
     1
102
RTVSPropertyOp18
 70
     1
102
RTVSPropertyOp19
 70
     1
102
RTVSPropertyOp20
 70
     1
102
RTVSPropertyOp21
 70
     1
102
RTVSPropertyOp22
 70
     1
102
RTVSPropertyOp23
 70
     1
102
RTVSPropertyOp24
 70
     1
102
RTVSPropertyOp25
 70
     1
102
RTVSPropertyOp26
 70
     1
102
RTVSPropertyOp27
 70
     1
102
RTVSPropertyOp28
 70
     1
102
RTVSPropertyOp29
 70
     1
102
RTVSPropertyOp30
 70
     1
102
RTVSPropertyOp31
 70
     1
102
RTVSPropertyOp32
 70
     1
102
RTVSPropertyOp33
 70
     1
102
RTVSPropertyOp34
 70
     1
102
RTVSPropertyOp35
 70
     1
102
RTVSPropertyOp36
 70
     1
102
RTVSPropertyOp37
 70
     1
102
RTVSPropertyOp38
 70
     1
102
RTVSPropertyOp39
 70
     1
102
RTVSPropertyOp40
 70
     1
102
RTVSPropertyOp41
 70
     1
102
RTVSPropertyOp42
 70
     1
102
RTVSPropertyOp43
 70
     1
102
RTVSPropertyOp44
 70
     1
102
RTVSPropertyOp45
 70
     1
102
RTVSPropertyOp46
 70
     1
102
RTVSPropertyOp47
 70
     1
102
RTVSPropertyOp48
 70
     1
102
RTVSPropertyOp49
 70
     1
102
RTVSPropertyOp50
 70
     1
102
RTVSPropertyOp51
 70
     0
102
RTVSPropertyOp52
 70
     0
102
RTVSPropertyOp53
 70
     1
102
RTVSPropertyOp54
 70
     1
102
RTVSPropertyOp55
 70
     1
102
RTVSPropertyOp56
 70
     1
102
RTVSPropertyOp57
 70
     1
102
RTVSPost2010Prop28
280
     0
102
RTVSPost2010PropOp28
 70
     1
102
RTVSPost2010Prop29
280
     1
102
RTVSPost2010PropOp29
 70
     1
102
RTVSPost2010Prop30
280
     1
102
RTVSPost2010PropOp30
 70
     1
102
RTVSPost2010Prop31
280
     0
102
RTVSPost2010PropOp31
 70
     1
102
RTVSPost2010Prop32
280
     0
102
RTVSPost2010PropOp32
 70
     1
102
RTVSPost2010Prop33
280
     0
102
RTVSPost2010PropOp33
 70
     1
102
RTVSPost2010Prop34
280
     0
102
RTVSPost2010PropOp34
 70
     1
102
RTVSPost2010Prop35
280
     0
102
RTVSPost2010PropOp35
 70
     1
102
RTVSPost2010Prop36
280
     0
102
RTVSPost2010PropOp36
 70
     1
102
RTVSPost2010Prop37
 90
       50
102
RTVSPost2010PropOp37
 70
     1
102
RTVSPost2010Prop38
140
0.0
102
RTVSPost2010PropOp38
 70
     1
102
RTVSPost2010Prop39
140
1.0
102
RTVSPost2010PropOp39
 70
     1
102
RTVSPost2010Prop40
 90
        0
102
RTVSPost2010PropOp40
 70
     1
102
RTVSPost2010Prop41ColorIndex
 90
      178
102
RTVSPost2010Prop41ColorRGB
 90
        0
102
RTVSPost2010PropOp41
 70
     1
102
RTVSPost2010Prop42
 90
       50
102
RTVSPost2010PropOp42
 70
     1
102
RTVSPost2010Prop43
 90
        3
102
RTVSPost2010PropOp43
 70
     1
102
RTVSPost2010Prop44ColorIndex
 90
        5
102
RTVSPost2010Prop44ColorRGB
 90
      255
102
RTVSPost2010PropOp44
 70
     1
102
RTVSPost2010Prop45
280
     0
102
RTVSPost2010PropOp45
 70
     1
102
RTVSPost2010Prop46
 90
       50
102
RTVSPost2010PropOp46
 70
     1
102
RTVSPost2010Prop47
 90
       50
102
RTVSPost2010PropOp47
 70
     1
102
RTVSPost2010Prop48
 90
       50
102
RTVSPost2010PropOp48
 70
     1
102
RTVSPost2010Prop49
280
     0
102
RTVSPost2010PropOp49
 70
     1
102
RTVSPost2010Prop50
 90
       50
102
RTVSPost2010PropOp50
 70
     1
102
RTVSPost2010Prop51ColorIndex
 90
      256
102
RTVSPost2010Prop51ColorRGB
 90
-16777216
102
RTVSPost2010PropOp51
 70
     0
102
RTVSPost2010Prop52
140
1.0
102
RTVSPost2010PropOp52
 70
     0
102
RTVSPost2010Prop53
 90
        2
102
RTVSPost2010PropOp53
 70
     1
102
RTVSPost2010Prop54
  1
strokes_ogs.tif
102
RTVSPost2010PropOp54
 70
     1
102
RTVSPost2010Prop55
280
     0
102
RTVSPost2010PropOp55
 70
     1
102
RTVSPost2010Prop56
140
1.0
102
RTVSPost2010PropOp56
 70
     1
102
RTVSPost2010Prop57
140
1.0
102
RTVSPost2010PropOp57
 70
     1
  0
XRECORD
  5
1FC
102
{ACAD_REACTORS
330
1FB
102
}
330
1FB
100
AcDbXrecord
280
     1
102
RTVSPropertyOp0
 70
     1
102
RTVSPropertyOp1
 70
     1
102
RTVSPropertyOp2
 70
     1
102
RTVSPropertyOp3
 70
     1
102
RTVSPropertyOp4
 70
     1
102
RTVSPropertyOp5
 70
     1
102
RTVSPropertyOp6
 70
     1
102
RTVSPropertyOp7
 70
     1
102
RTVSPropertyOp8
 70
     1
102
RTVSPropertyOp9
 70
     1
102
RTVSPropertyOp10
 70
     1
102
RTVSPropertyOp11
 70
     1
102
RTVSPropertyOp12
 70
     1
102
RTVSPropertyOp13
 70
     1
102
RTVSPropertyOp14
 70
     1
102
RTVSPropertyOp15
 70
     1
102
RTVSPropertyOp16
 70
     1
102
RTVSPropertyOp17
 70
     1
102
RTVSPropertyOp18
 70
     1
102
RTVSPropertyOp19
 70
     1
102
RTVSPropertyOp20
 70
     1
102
RTVSPropertyOp21
 70
     1
102
RTVSPropertyOp22
 70
     1
102
RTVSPropertyOp23
 70
     1
102
RTVSPropertyOp24
 70
     1
102
RTVSPropertyOp25
 70
     1
102
RTVSPropertyOp26
 70
     1
102
RTVSPropertyOp27
 70
     1
102
RTVSPropertyOp28
 70
     1
102
RTVSPropertyOp29
 70
     1
102
RTVSPropertyOp30
 70
     1
102
RTVSPropertyOp31
 70
     1
102
RTVSPropertyOp32
 70
     1
102
RTVSPropertyOp33
 70
     1
102
RTVSPropertyOp34
 70
     1
102
RTVSPropertyOp35
 70
     1
102
RTVSPropertyOp36
 70
     1
102
RTVSPropertyOp37
 70
     1
102
RTVSPropertyOp38
 70
     1
102
RTVSPropertyOp39
 70
     1
102
RTVSPropertyOp40
 70
     1
102
RTVSPropertyOp41
 70
     1
102
RTVSPropertyOp42
 70
     1
102
RTVSPropertyOp43
 70
     1
102
RTVSPropertyOp44
 70
     1
102
RTVSPropertyOp45
 70
     1
102
RTVSPropertyOp46
 70
     1
102
RTVSPropertyOp47
 70
     1
102
RTVSPropertyOp48
 70
     1
102
RTVSPropertyOp49
 70
     1
102
RTVSPropertyOp50
 70
     1
102
RTVSPropertyOp51
 70
     0
102
RTVSPropertyOp52
 70
     0
102
RTVSPropertyOp53
 70
     1
102
RTVSPropertyOp54
 70
     1
102
RTVSPropertyOp55
 70
     1
102
RTVSPropertyOp56
 70
     1
102
RTVSPropertyOp57
 70
     1
102
RTVSPost2010Prop28
280
     0
102
RTVSPost2010PropOp28
 70
     1
102
RTVSPost2010Prop29
280
     1
102
RTVSPost2010PropOp29
 70
     1
102
RTVSPost2010Prop30
280
     1
102
RTVSPost2010PropOp30
 70
     1
102
RTVSPost2010Prop31
280
     0
102
RTVSPost2010PropOp31
 70
     1
102
RTVSPost2010Prop32
280
     0
102
RTVSPost2010PropOp32
 70
     1
102
RTVSPost2010Prop33
280
     0
102
RTVSPost2010PropOp33
 70
     1
102
RTVSPost2010Prop34
280
     0
102
RTVSPost2010PropOp34
 70
     1
102
RTVSPost2010Prop35
280
     0
102
RTVSPost2010PropOp35
 70
     1
102
RTVSPost2010Prop36
280
     0
102
RTVSPost2010PropOp36
 70
     1
102
RTVSPost2010Prop37
 90
       50
102
RTVSPost2010PropOp37
 70
     1
102
RTVSPost2010Prop38
140
0.0
102
RTVSPost2010PropOp38
 70
     1
102
RTVSPost2010Prop39
140
1.0
102
RTVSPost2010PropOp39
 70
     1
102
RTVSPost2010Prop40
 90
        0
102
RTVSPost2010PropOp40
 70
     1
102
RTVSPost2010Prop41ColorIndex
 90
      178
102
RTVSPost2010Prop41ColorRGB
 90
        0
102
RTVSPost2010PropOp41
 70
     1
102
RTVSPost2010Prop42
 90
       50
102
RTVSPost2010PropOp42
 70
     1
102
RTVSPost2010Prop43
 90
        3
102
RTVSPost2010PropOp43
 70
     1
102
RTVSPost2010Prop44ColorIndex
 90
        5
102
RTVSPost2010Prop44ColorRGB
 90
      255
102
RTVSPost2010PropOp44
 70
     1
102
RTVSPost2010Prop45
280
     0
102
RTVSPost2010PropOp45
 70
     1
102
RTVSPost2010Prop46
 90
       50
102
RTVSPost2010PropOp46
 70
     1
102
RTVSPost2010Prop47
 90
       50
102
RTVSPost2010PropOp47
 70
     1
102
RTVSPost2010Prop48
 90
       50
102
RTVSPost2010PropOp48
 70
     1
102
RTVSPost2010Prop49
280
     0
102
RTVSPost2010PropOp49
 70
     1
102
RTVSPost2010Prop50
 90
       50
102
RTVSPost2010PropOp50
 70
     1
102
RTVSPost2010Prop51ColorIndex
 90
      256
102
RTVSPost2010Prop51ColorRGB
 90
-16777216
102
RTVSPost2010PropOp51
 70
     0
102
RTVSPost2010Prop52
140
1.0
102
RTVSPost2010PropOp52
 70
     0
102
RTVSPost2010Prop53
 90
        2
102
RTVSPost2010PropOp53
 70
     1
102
RTVSPost2010Prop54
  1
strokes_ogs.tif
102
RTVSPost2010PropOp54
 70
     1
102
RTVSPost2010Prop55
280
     0
102
RTVSPost2010PropOp55
 70
     1
102
RTVSPost2010Prop56
140
1.0
102
RTVSPost2010PropOp56
 70
     1
102
RTVSPost2010Prop57
140
1.0
102
RTVSPost2010PropOp57
 70
     1
  0
XRECORD
  5
1FE
102
{ACAD_REACTORS
330
1FD
102
}
330
1FD
100
AcDbXrecord
280
     1
102
RTVSPropertyOp0
 70
     1
102
RTVSPropertyOp1
 70
     1
102
RTVSPropertyOp2
 70
     1
102
RTVSPropertyOp3
 70
     1
102
RTVSPropertyOp4
 70
     1
102
RTVSPropertyOp5
 70
     1
102
RTVSPropertyOp6
 70
     1
102
RTVSPropertyOp7
 70
     1
102
RTVSPropertyOp8
 70
     1
102
RTVSPropertyOp9
 70
     1
102
RTVSPropertyOp10
 70
     1
102
RTVSPropertyOp11
 70
     1
102
RTVSPropertyOp12
 70
     1
102
RTVSPropertyOp13
 70
     1
102
RTVSPropertyOp14
 70
     1
102
RTVSPropertyOp15
 70
     1
102
RTVSPropertyOp16
 70
     1
102
RTVSPropertyOp17
 70
     1
102
RTVSPropertyOp18
 70
     1
102
RTVSPropertyOp19
 70
     1
102
RTVSPropertyOp20
 70
     1
102
RTVSPropertyOp21
 70
     1
102
RTVSPropertyOp22
 70
     1
102
RTVSPropertyOp23
 70
     1
102
RTVSPropertyOp24
 70
     1
102
RTVSPropertyOp25
 70
     1
102
RTVSPropertyOp26
 70
     1
102
RTVSPropertyOp27
 70
     1
102
RTVSPropertyOp28
 70
     1
102
RTVSPropertyOp29
 70
     1
102
RTVSPropertyOp30
 70
     1
102
RTVSPropertyOp31
 70
     1
102
RTVSPropertyOp32
 70
     1
102
RTVSPropertyOp33
 70
     1
102
RTVSPropertyOp34
 70
     1
102
RTVSPropertyOp35
 70
     1
102
RTVSPropertyOp36
 70
     1
102
RTVSPropertyOp37
 70
     1
102
RTVSPropertyOp38
 70
     1
102
RTVSPropertyOp39
 70
     1
102
RTVSPropertyOp40
 70
     1
102
RTVSPropertyOp41
 70
     1
102
RTVSPropertyOp42
 70
     1
102
RTVSPropertyOp43
 70
     1
102
RTVSPropertyOp44
 70
     1
102
RTVSPropertyOp45
 70
     1
102
RTVSPropertyOp46
 70
     1
102
RTVSPropertyOp47
 70
     1
102
RTVSPropertyOp48
 70
     1
102
RTVSPropertyOp49
 70
     1
102
RTVSPropertyOp50
 70
     1
102
RTVSPropertyOp51
 70
     0
102
RTVSPropertyOp52
 70
     0
102
RTVSPropertyOp53
 70
     1
102
RTVSPropertyOp54
 70
     1
102
RTVSPropertyOp55
 70
     1
102
RTVSPropertyOp56
 70
     1
102
RTVSPropertyOp57
 70
     1
102
RTVSPost2010Prop28
280
     0
102
RTVSPost2010PropOp28
 70
     1
102
RTVSPost2010Prop29
280
     1
102
RTVSPost2010PropOp29
 70
     1
102
RTVSPost2010Prop30
280
     1
102
RTVSPost2010PropOp30
 70
     1
102
RTVSPost2010Prop31
280
     0
102
RTVSPost2010PropOp31
 70
     1
102
RTVSPost2010Prop32
280
     0
102
RTVSPost2010PropOp32
 70
     1
102
RTVSPost2010Prop33
280
     0
102
RTVSPost2010PropOp33
 70
     1
102
RTVSPost2010Prop34
280
     0
102
RTVSPost2010PropOp34
 70
     1
102
RTVSPost2010Prop35
280
     0
102
RTVSPost2010PropOp35
 70
     1
102
RTVSPost2010Prop36
280
     0
102
RTVSPost2010PropOp36
 70
     1
102
RTVSPost2010Prop37
 90
       50
102
RTVSPost2010PropOp37
 70
     1
102
RTVSPost2010Prop38
140
0.0
102
RTVSPost2010PropOp38
 70
     1
102
RTVSPost2010Prop39
140
1.0
102
RTVSPost2010PropOp39
 70
     1
102
RTVSPost2010Prop40
 90
        0
102
RTVSPost2010PropOp40
 70
     1
102
RTVSPost2010Prop41ColorIndex
 90
      178
102
RTVSPost2010Prop41ColorRGB
 90
        0
102
RTVSPost2010PropOp41
 70
     1
102
RTVSPost2010Prop42
 90
       50
102
RTVSPost2010PropOp42
 70
     1
102
RTVSPost2010Prop43
 90
        3
102
RTVSPost2010PropOp43
 70
     1
102
RTVSPost2010Prop44ColorIndex
 90
        5
102
RTVSPost2010Prop44ColorRGB
 90
      255
102
RTVSPost2010PropOp44
 70
     1
102
RTVSPost2010Prop45
280
     0
102
RTVSPost2010PropOp45
 70
     1
102
RTVSPost2010Prop46
 90
       50
102
RTVSPost2010PropOp46
 70
     1
102
RTVSPost2010Prop47
 90
       50
102
RTVSPost2010PropOp47
 70
     1
102
RTVSPost2010Prop48
 90
       50
102
RTVSPost2010PropOp48
 70
     1
102
RTVSPost2010Prop49
280
     0
102
RTVSPost2010PropOp49
 70
     1
102
RTVSPost2010Prop50
 90
       50
102
RTVSPost2010PropOp50
 70
     1
102
RTVSPost2010Prop51ColorIndex
 90
      256
102
RTVSPost2010Prop51ColorRGB
 90
-16777216
102
RTVSPost2010PropOp51
 70
     0
102
RTVSPost2010Prop52
140
1.0
102
RTVSPost2010PropOp52
 70
     0
102
RTVSPost2010Prop53
 90
        2
102
RTVSPost2010PropOp53
 70
     1
102
RTVSPost2010Prop54
  1
strokes_ogs.tif
102
RTVSPost2010PropOp54
 70
     1
102
RTVSPost2010Prop55
280
     0
102
RTVSPost2010PropOp55
 70
     1
102
RTVSPost2010Prop56
140
1.0
102
RTVSPost2010PropOp56
 70
     1
102
RTVSPost2010Prop57
140
1.0
102
RTVSPost2010PropOp57
 70
     1
  0
XRECORD
  5
20E
102
{ACAD_REACTORS
330
20D
102
}
330
20D
100
AcDbXrecord
280
     1
102
RTVSPropertyOp0
 70
     0
102
RTVSPropertyOp1
 70
     0
102
RTVSPropertyOp2
 70
     0
102
RTVSPropertyOp3
 70
     0
102
RTVSPropertyOp4
 70
     0
102
RTVSPropertyOp5
 70
     0
102
RTVSPropertyOp6
 70
     0
102
RTVSPropertyOp7
 70
     0
102
RTVSPropertyOp8
 70
     0
102
RTVSPropertyOp9
 70
     0
102
RTVSPropertyOp10
 70
     0
102
RTVSPropertyOp11
 70
     0
102
RTVSPropertyOp12
 70
     0
102
RTVSPropertyOp13
 70
     0
102
RTVSPropertyOp14
 70
     2
102
RTVSPropertyOp15
 70
     0
102
RTVSPropertyOp16
 70
     0
102
RTVSPropertyOp17
 70
     0
102
RTVSPropertyOp18
 70
     0
102
RTVSPropertyOp19
 70
     0
102
RTVSPropertyOp20
 70
     0
102
RTVSPropertyOp21
 70
     0
102
RTVSPropertyOp22
 70
     0
102
RTVSPropertyOp23
 70
     0
102
RTVSPropertyOp24
 70
     0
102
RTVSPropertyOp25
 70
     0
102
RTVSPropertyOp26
 70
     0
102
RTVSPropertyOp27
 70
     0
102
RTVSPropertyOp28
 70
     0
102
RTVSPropertyOp29
 70
     0
102
RTVSPropertyOp30
 70
     0
102
RTVSPropertyOp31
 70
     0
102
RTVSPropertyOp32
 70
     0
102
RTVSPropertyOp33
 70
     0
102
RTVSPropertyOp34
 70
     0
102
RTVSPropertyOp35
 70
     0
102
RTVSPropertyOp36
 70
     0
102
RTVSPropertyOp37
 70
     0
102
RTVSPropertyOp38
 70
     0
102
RTVSPropertyOp39
 70
     0
102
RTVSPropertyOp40
 70
     0
102
RTVSPropertyOp41
 70
     0
102
RTVSPropertyOp42
 70
     0
102
RTVSPropertyOp43
 70
     0
102
RTVSPropertyOp44
 70
     0
102
RTVSPropertyOp45
 70
     0
102
RTVSPropertyOp46
 70
     0
102
RTVSPropertyOp47
 70
     0
102
RTVSPropertyOp48
 70
     0
102
RTVSPropertyOp49
 70
     0
102
RTVSPropertyOp50
 70
     0
102
RTVSPropertyOp51
 70
     0
102
RTVSPropertyOp52
 70
     0
102
RTVSPropertyOp53
 70
     0
102
RTVSPropertyOp54
 70
     0
102
RTVSPropertyOp55
 70
     0
102
RTVSPropertyOp56
 70
     0
102
RTVSPropertyOp57
 70
     0
102
RTVSPost2010Prop28
280
     0
102
RTVSPost2010PropOp28
 70
     0
102
RTVSPost2010Prop29
280
     1
102
RTVSPost2010PropOp29
 70
     0
102
RTVSPost2010Prop30
280
     1
102
RTVSPost2010PropOp30
 70
     0
102
RTVSPost2010Prop31
280
     0
102
RTVSPost2010PropOp31
 70
     0
102
RTVSPost2010Prop32
280
     0
102
RTVSPost2010PropOp32
 70
     0
102
RTVSPost2010Prop33
280
     0
102
RTVSPost2010PropOp33
 70
     0
102
RTVSPost2010Prop34
280
     0
102
RTVSPost2010PropOp34
 70
     0
102
RTVSPost2010Prop35
280
     0
102
RTVSPost2010PropOp35
 70
     0
102
RTVSPost2010Prop36
280
     0
102
RTVSPost2010PropOp36
 70
     0
102
RTVSPost2010Prop37
 90
       50
102
RTVSPost2010PropOp37
 70
     0
102
RTVSPost2010Prop38
140
0.0
102
RTVSPost2010PropOp38
 70
     0
102
RTVSPost2010Prop39
140
1.0
102
RTVSPost2010PropOp39
 70
     0
102
RTVSPost2010Prop40
 90
        0
102
RTVSPost2010PropOp40
 70
     0
102
RTVSPost2010Prop41ColorIndex
 90
      178
102
RTVSPost2010Prop41ColorRGB
 90
        0
102
RTVSPost2010PropOp41
 70
     0
102
RTVSPost2010Prop42
 90
       50
102
RTVSPost2010PropOp42
 70
     0
102
RTVSPost2010Prop43
 90
        3
102
RTVSPost2010PropOp43
 70
     0
102
RTVSPost2010Prop44ColorIndex
 90
        5
102
RTVSPost2010Prop44ColorRGB
 90
      255
102
RTVSPost2010PropOp44
 70
     0
102
RTVSPost2010Prop45
280
     0
102
RTVSPost2010PropOp45
 70
     0
102
RTVSPost2010Prop46
 90
       50
102
RTVSPost2010PropOp46
 70
     0
102
RTVSPost2010Prop47
 90
       50
102
RTVSPost2010PropOp47
 70
     0
102
RTVSPost2010Prop48
 90
       50
102
RTVSPost2010PropOp48
 70
     0
102
RTVSPost2010Prop49
280
     0
102
RTVSPost2010PropOp49
 70
     0
102
RTVSPost2010Prop50
 90
       50
102
RTVSPost2010PropOp50
 70
     0
102
RTVSPost2010Prop51ColorIndex
 90
      256
102
RTVSPost2010Prop51ColorRGB
 90
-16777216
102
RTVSPost2010PropOp51
 70
     0
102
RTVSPost2010Prop52
140
1.0
102
RTVSPost2010PropOp52
 70
     0
102
RTVSPost2010Prop53
 90
        2
102
RTVSPost2010PropOp53
 70
     0
102
RTVSPost2010Prop54
  1
strokes_ogs.tif
102
RTVSPost2010PropOp54
 70
     0
102
RTVSPost2010Prop55
280
     0
102
RTVSPost2010PropOp55
 70
     0
102
RTVSPost2010Prop56
140
1.0
102
RTVSPost2010PropOp56
 70
     0
102
RTVSPost2010Prop57
140
1.0
102
RTVSPost2010PropOp57
 70
     0
  0
XRECORD
  5
206
102
{ACAD_REACTORS
330
205
102
}
330
205
100
AcDbXrecord
280
     1
102
RTVSPropertyOp0
 70
     1
102
RTVSPropertyOp1
 70
     1
102
RTVSPropertyOp2
 70
     1
102
RTVSPropertyOp3
 70
     1
102
RTVSPropertyOp4
 70
     1
102
RTVSPropertyOp5
 70
     1
102
RTVSPropertyOp6
 70
     1
102
RTVSPropertyOp7
 70
     1
102
RTVSPropertyOp8
 70
     1
102
RTVSPropertyOp9
 70
     1
102
RTVSPropertyOp10
 70
     1
102
RTVSPropertyOp11
 70
     1
102
RTVSPropertyOp12
 70
     1
102
RTVSPropertyOp13
 70
     1
102
RTVSPropertyOp14
 70
     1
102
RTVSPropertyOp15
 70
     1
102
RTVSPropertyOp16
 70
     1
102
RTVSPropertyOp17
 70
     1
102
RTVSPropertyOp18
 70
     1
102
RTVSPropertyOp19
 70
     1
102
RTVSPropertyOp20
 70
     1
102
RTVSPropertyOp21
 70
     1
102
RTVSPropertyOp22
 70
     1
102
RTVSPropertyOp23
 70
     1
102
RTVSPropertyOp24
 70
     1
102
RTVSPropertyOp25
 70
     1
102
RTVSPropertyOp26
 70
     1
102
RTVSPropertyOp27
 70
     1
102
RTVSPropertyOp28
 70
     1
102
RTVSPropertyOp29
 70
     1
102
RTVSPropertyOp30
 70
     1
102
RTVSPropertyOp31
 70
     1
102
RTVSPropertyOp32
 70
     1
102
RTVSPropertyOp33
 70
     1
102
RTVSPropertyOp34
 70
     1
102
RTVSPropertyOp35
 70
     1
102
RTVSPropertyOp36
 70
     1
102
RTVSPropertyOp37
 70
     1
102
RTVSPropertyOp38
 70
     1
102
RTVSPropertyOp39
 70
     1
102
RTVSPropertyOp40
 70
     1
102
RTVSPropertyOp41
 70
     1
102
RTVSPropertyOp42
 70
     1
102
RTVSPropertyOp43
 70
     1
102
RTVSPropertyOp44
 70
     1
102
RTVSPropertyOp45
 70
     1
102
RTVSPropertyOp46
 70
     1
102
RTVSPropertyOp47
 70
     1
102
RTVSPropertyOp48
 70
     1
102
RTVSPropertyOp49
 70
     1
102
RTVSPropertyOp50
 70
     1
102
RTVSPropertyOp51
 70
     0
102
RTVSPropertyOp52
 70
     0
102
RTVSPropertyOp53
 70
     1
102
RTVSPropertyOp54
 70
     1
102
RTVSPropertyOp55
 70
     1
102
RTVSPropertyOp56
 70
     1
102
RTVSPropertyOp57
 70
     1
102
RTVSPost2010Prop28
280
     0
102
RTVSPost2010PropOp28
 70
     1
102
RTVSPost2010Prop29
280
     1
102
RTVSPost2010PropOp29
 70
     1
102
RTVSPost2010Prop30
280
     1
102
RTVSPost2010PropOp30
 70
     1
102
RTVSPost2010Prop31
280
     0
102
RTVSPost2010PropOp31
 70
     1
102
RTVSPost2010Prop32
280
     0
102
RTVSPost2010PropOp32
 70
     1
102
RTVSPost2010Prop33
280
     0
102
RTVSPost2010PropOp33
 70
     1
102
RTVSPost2010Prop34
280
     0
102
RTVSPost2010PropOp34
 70
     1
102
RTVSPost2010Prop35
280
     0
102
RTVSPost2010PropOp35
 70
     1
102
RTVSPost2010Prop36
280
     0
102
RTVSPost2010PropOp36
 70
     1
102
RTVSPost2010Prop37
 90
       50
102
RTVSPost2010PropOp37
 70
     1
102
RTVSPost2010Prop38
140
0.0
102
RTVSPost2010PropOp38
 70
     1
102
RTVSPost2010Prop39
140
1.0
102
RTVSPost2010PropOp39
 70
     1
102
RTVSPost2010Prop40
 90
        0
102
RTVSPost2010PropOp40
 70
     1
102
RTVSPost2010Prop41ColorIndex
 90
      178
102
RTVSPost2010Prop41ColorRGB
 90
        0
102
RTVSPost2010PropOp41
 70
     1
102
RTVSPost2010Prop42
 90
       50
102
RTVSPost2010PropOp42
 70
     1
102
RTVSPost2010Prop43
 90
        3
102
RTVSPost2010PropOp43
 70
     1
102
RTVSPost2010Prop44ColorIndex
 90
        5
102
RTVSPost2010Prop44ColorRGB
 90
      255
102
RTVSPost2010PropOp44
 70
     1
102
RTVSPost2010Prop45
280
     0
102
RTVSPost2010PropOp45
 70
     1
102
RTVSPost2010Prop46
 90
       50
102
RTVSPost2010PropOp46
 70
     1
102
RTVSPost2010Prop47
 90
       50
102
RTVSPost2010PropOp47
 70
     1
102
RTVSPost2010Prop48
 90
       50
102
RTVSPost2010PropOp48
 70
     1
102
RTVSPost2010Prop49
280
     0
102
RTVSPost2010PropOp49
 70
     1
102
RTVSPost2010Prop50
 90
       50
102
RTVSPost2010PropOp50
 70
     1
102
RTVSPost2010Prop51ColorIndex
 90
      256
102
RTVSPost2010Prop51ColorRGB
 90
-16777216
102
RTVSPost2010PropOp51
 70
     0
102
RTVSPost2010Prop52
140
1.0
102
RTVSPost2010PropOp52
 70
     0
102
RTVSPost2010Prop53
 90
        2
102
RTVSPost2010PropOp53
 70
     1
102
RTVSPost2010Prop54
  1
strokes_ogs.tif
102
RTVSPost2010PropOp54
 70
     1
102
RTVSPost2010Prop55
280
     0
102
RTVSPost2010PropOp55
 70
     1
102
RTVSPost2010Prop56
140
1.0
102
RTVSPost2010PropOp56
 70
     1
102
RTVSPost2010Prop57
140
1.0
102
RTVSPost2010PropOp57
 70
     1
  0
XRECORD
  5
1EA
102
{ACAD_REACTORS
330
1E9
102
}
330
1E9
100
AcDbXrecord
280
     1
102
RTVSPropertyOp0
 70
     1
102
RTVSPropertyOp1
 70
     1
102
RTVSPropertyOp2
 70
     1
102
RTVSPropertyOp3
 70
     1
102
RTVSPropertyOp4
 70
     1
102
RTVSPropertyOp5
 70
     1
102
RTVSPropertyOp6
 70
     1
102
RTVSPropertyOp7
 70
     1
102
RTVSPropertyOp8
 70
     1
102
RTVSPropertyOp9
 70
     1
102
RTVSPropertyOp10
 70
     1
102
RTVSPropertyOp11
 70
     1
102
RTVSPropertyOp12
 70
     1
102
RTVSPropertyOp13
 70
     1
102
RTVSPropertyOp14
 70
     1
102
RTVSPropertyOp15
 70
     1
102
RTVSPropertyOp16
 70
     1
102
RTVSPropertyOp17
 70
     1
102
RTVSPropertyOp18
 70
     1
102
RTVSPropertyOp19
 70
     1
102
RTVSPropertyOp20
 70
     1
102
RTVSPropertyOp21
 70
     1
102
RTVSPropertyOp22
 70
     1
102
RTVSPropertyOp23
 70
     1
102
RTVSPropertyOp24
 70
     1
102
RTVSPropertyOp25
 70
     1
102
RTVSPropertyOp26
 70
     1
102
RTVSPropertyOp27
 70
     1
102
RTVSPropertyOp28
 70
     1
102
RTVSPropertyOp29
 70
     1
102
RTVSPropertyOp30
 70
     1
102
RTVSPropertyOp31
 70
     1
102
RTVSPropertyOp32
 70
     1
102
RTVSPropertyOp33
 70
     1
102
RTVSPropertyOp34
 70
     1
102
RTVSPropertyOp35
 70
     1
102
RTVSPropertyOp36
 70
     1
102
RTVSPropertyOp37
 70
     1
102
RTVSPropertyOp38
 70
     1
102
RTVSPropertyOp39
 70
     1
102
RTVSPropertyOp40
 70
     1
102
RTVSPropertyOp41
 70
     1
102
RTVSPropertyOp42
 70
     1
102
RTVSPropertyOp43
 70
     1
102
RTVSPropertyOp44
 70
     1
102
RTVSPropertyOp45
 70
     1
102
RTVSPropertyOp46
 70
     1
102
RTVSPropertyOp47
 70
     1
102
RTVSPropertyOp48
 70
     1
102
RTVSPropertyOp49
 70
     1
102
RTVSPropertyOp50
 70
     1
102
RTVSPropertyOp51
 70
     0
102
RTVSPropertyOp52
 70
     0
102
RTVSPropertyOp53
 70
     1
102
RTVSPropertyOp54
 70
     1
102
RTVSPropertyOp55
 70
     1
102
RTVSPropertyOp56
 70
     1
102
RTVSPropertyOp57
 70
     1
102
RTVSPost2010Prop28
280
     0
102
RTVSPost2010PropOp28
 70
     1
102
RTVSPost2010Prop29
280
     1
102
RTVSPost2010PropOp29
 70
     1
102
RTVSPost2010Prop30
280
     1
102
RTVSPost2010PropOp30
 70
     1
102
RTVSPost2010Prop31
280
     0
102
RTVSPost2010PropOp31
 70
     1
102
RTVSPost2010Prop32
280
     0
102
RTVSPost2010PropOp32
 70
     1
102
RTVSPost2010Prop33
280
     0
102
RTVSPost2010PropOp33
 70
     1
102
RTVSPost2010Prop34
280
     0
102
RTVSPost2010PropOp34
 70
     1
102
RTVSPost2010Prop35
280
     0
102
RTVSPost2010PropOp35
 70
     1
102
RTVSPost2010Prop36
280
     0
102
RTVSPost2010PropOp36
 70
     1
102
RTVSPost2010Prop37
 90
       50
102
RTVSPost2010PropOp37
 70
     1
102
RTVSPost2010Prop38
140
0.0
102
RTVSPost2010PropOp38
 70
     1
102
RTVSPost2010Prop39
140
1.0
102
RTVSPost2010PropOp39
 70
     1
102
RTVSPost2010Prop40
 90
        0
102
RTVSPost2010PropOp40
 70
     1
102
RTVSPost2010Prop41ColorIndex
 90
      178
102
RTVSPost2010Prop41ColorRGB
 90
        0
102
RTVSPost2010PropOp41
 70
     1
102
RTVSPost2010Prop42
 90
       50
102
RTVSPost2010PropOp42
 70
     1
102
RTVSPost2010Prop43
 90
        3
102
RTVSPost2010PropOp43
 70
     1
102
RTVSPost2010Prop44ColorIndex
 90
        5
102
RTVSPost2010Prop44ColorRGB
 90
      255
102
RTVSPost2010PropOp44
 70
     1
102
RTVSPost2010Prop45
280
     0
102
RTVSPost2010PropOp45
 70
     1
102
RTVSPost2010Prop46
 90
       50
102
RTVSPost2010PropOp46
 70
     1
102
RTVSPost2010Prop47
 90
       50
102
RTVSPost2010PropOp47
 70
     1
102
RTVSPost2010Prop48
 90
       50
102
RTVSPost2010PropOp48
 70
     1
102
RTVSPost2010Prop49
280
     0
102
RTVSPost2010PropOp49
 70
     1
102
RTVSPost2010Prop50
 90
       50
102
RTVSPost2010PropOp50
 70
     1
102
RTVSPost2010Prop51ColorIndex
 90
      256
102
RTVSPost2010Prop51ColorRGB
 90
-16777216
102
RTVSPost2010PropOp51
 70
     0
102
RTVSPost2010Prop52
140
1.0
102
RTVSPost2010PropOp52
 70
     0
102
RTVSPost2010Prop53
 90
        2
102
RTVSPost2010PropOp53
 70
     1
102
RTVSPost2010Prop54
  1
strokes_ogs.tif
102
RTVSPost2010PropOp54
 70
     1
102
RTVSPost2010Prop55
280
     0
102
RTVSPost2010PropOp55
 70
     1
102
RTVSPost2010Prop56
140
1.0
102
RTVSPost2010PropOp56
 70
     1
102
RTVSPost2010Prop57
140
1.0
102
RTVSPost2010PropOp57
 70
     1
  0
XRECORD
  5
1EC
102
{ACAD_REACTORS
330
1EB
102
}
330
1EB
100
AcDbXrecord
280
     1
102
RTVSPropertyOp0
 70
     1
102
RTVSPropertyOp1
 70
     1
102
RTVSPropertyOp2
 70
     1
102
RTVSPropertyOp3
 70
     1
102
RTVSPropertyOp4
 70
     1
102
RTVSPropertyOp5
 70
     1
102
RTVSPropertyOp6
 70
     1
102
RTVSPropertyOp7
 70
     1
102
RTVSPropertyOp8
 70
     1
102
RTVSPropertyOp9
 70
     1
102
RTVSPropertyOp10
 70
     1
102
RTVSPropertyOp11
 70
     1
102
RTVSPropertyOp12
 70
     1
102
RTVSPropertyOp13
 70
     1
102
RTVSPropertyOp14
 70
     1
102
RTVSPropertyOp15
 70
     1
102
RTVSPropertyOp16
 70
     1
102
RTVSPropertyOp17
 70
     1
102
RTVSPropertyOp18
 70
     1
102
RTVSPropertyOp19
 70
     1
102
RTVSPropertyOp20
 70
     1
102
RTVSPropertyOp21
 70
     1
102
RTVSPropertyOp22
 70
     1
102
RTVSPropertyOp23
 70
     1
102
RTVSPropertyOp24
 70
     1
102
RTVSPropertyOp25
 70
     1
102
RTVSPropertyOp26
 70
     1
102
RTVSPropertyOp27
 70
     1
102
RTVSPropertyOp28
 70
     1
102
RTVSPropertyOp29
 70
     1
102
RTVSPropertyOp30
 70
     1
102
RTVSPropertyOp31
 70
     1
102
RTVSPropertyOp32
 70
     1
102
RTVSPropertyOp33
 70
     1
102
RTVSPropertyOp34
 70
     1
102
RTVSPropertyOp35
 70
     1
102
RTVSPropertyOp36
 70
     1
102
RTVSPropertyOp37
 70
     1
102
RTVSPropertyOp38
 70
     1
102
RTVSPropertyOp39
 70
     1
102
RTVSPropertyOp40
 70
     1
102
RTVSPropertyOp41
 70
     1
102
RTVSPropertyOp42
 70
     1
102
RTVSPropertyOp43
 70
     1
102
RTVSPropertyOp44
 70
     1
102
RTVSPropertyOp45
 70
     1
102
RTVSPropertyOp46
 70
     1
102
RTVSPropertyOp47
 70
     1
102
RTVSPropertyOp48
 70
     1
102
RTVSPropertyOp49
 70
     1
102
RTVSPropertyOp50
 70
     1
102
RTVSPropertyOp51
 70
     0
102
RTVSPropertyOp52
 70
     0
102
RTVSPropertyOp53
 70
     1
102
RTVSPropertyOp54
 70
     1
102
RTVSPropertyOp55
 70
     1
102
RTVSPropertyOp56
 70
     1
102
RTVSPropertyOp57
 70
     1
102
RTVSPost2010Prop28
280
     0
102
RTVSPost2010PropOp28
 70
     1
102
RTVSPost2010Prop29
280
     1
102
RTVSPost2010PropOp29
 70
     1
102
RTVSPost2010Prop30
280
     1
102
RTVSPost2010PropOp30
 70
     1
102
RTVSPost2010Prop31
280
     0
102
RTVSPost2010PropOp31
 70
     1
102
RTVSPost2010Prop32
280
     0
102
RTVSPost2010PropOp32
 70
     1
102
RTVSPost2010Prop33
280
     0
102
RTVSPost2010PropOp33
 70
     1
102
RTVSPost2010Prop34
280
     0
102
RTVSPost2010PropOp34
 70
     1
102
RTVSPost2010Prop35
280
     0
102
RTVSPost2010PropOp35
 70
     1
102
RTVSPost2010Prop36
280
     0
102
RTVSPost2010PropOp36
 70
     1
102
RTVSPost2010Prop37
 90
       50
102
RTVSPost2010PropOp37
 70
     1
102
RTVSPost2010Prop38
140
0.0
102
RTVSPost2010PropOp38
 70
     1
102
RTVSPost2010Prop39
140
1.0
102
RTVSPost2010PropOp39
 70
     1
102
RTVSPost2010Prop40
 90
        0
102
RTVSPost2010PropOp40
 70
     1
102
RTVSPost2010Prop41ColorIndex
 90
      178
102
RTVSPost2010Prop41ColorRGB
 90
        0
102
RTVSPost2010PropOp41
 70
     1
102
RTVSPost2010Prop42
 90
       50
102
RTVSPost2010PropOp42
 70
     1
102
RTVSPost2010Prop43
 90
        3
102
RTVSPost2010PropOp43
 70
     1
102
RTVSPost2010Prop44ColorIndex
 90
        5
102
RTVSPost2010Prop44ColorRGB
 90
      255
102
RTVSPost2010PropOp44
 70
     1
102
RTVSPost2010Prop45
280
     0
102
RTVSPost2010PropOp45
 70
     1
102
RTVSPost2010Prop46
 90
       50
102
RTVSPost2010PropOp46
 70
     1
102
RTVSPost2010Prop47
 90
       50
102
RTVSPost2010PropOp47
 70
     1
102
RTVSPost2010Prop48
 90
       50
102
RTVSPost2010PropOp48
 70
     1
102
RTVSPost2010Prop49
280
     0
102
RTVSPost2010PropOp49
 70
     1
102
RTVSPost2010Prop50
 90
       50
102
RTVSPost2010PropOp50
 70
     1
102
RTVSPost2010Prop51ColorIndex
 90
      256
102
RTVSPost2010Prop51ColorRGB
 90
-16777216
102
RTVSPost2010PropOp51
 70
     0
102
RTVSPost2010Prop52
140
1.0
102
RTVSPost2010PropOp52
 70
     0
102
RTVSPost2010Prop53
 90
        2
102
RTVSPost2010PropOp53
 70
     1
102
RTVSPost2010Prop54
  1
strokes_ogs.tif
102
RTVSPost2010PropOp54
 70
     1
102
RTVSPost2010Prop55
280
     0
102
RTVSPost2010PropOp55
 70
     1
102
RTVSPost2010Prop56
140
1.0
102
RTVSPost2010PropOp56
 70
     1
102
RTVSPost2010Prop57
140
1.0
102
RTVSPost2010PropOp57
 70
     1
  0
XRECORD
  5
1EE
102
{ACAD_REACTORS
330
1ED
102
}
330
1ED
100
AcDbXrecord
280
     1
102
RTVSPropertyOp0
 70
     1
102
RTVSPropertyOp1
 70
     1
102
RTVSPropertyOp2
 70
     1
102
RTVSPropertyOp3
 70
     1
102
RTVSPropertyOp4
 70
     1
102
RTVSPropertyOp5
 70
     1
102
RTVSPropertyOp6
 70
     1
102
RTVSPropertyOp7
 70
     1
102
RTVSPropertyOp8
 70
     1
102
RTVSPropertyOp9
 70
     1
102
RTVSPropertyOp10
 70
     1
102
RTVSPropertyOp11
 70
     1
102
RTVSPropertyOp12
 70
     1
102
RTVSPropertyOp13
 70
     1
102
RTVSPropertyOp14
 70
     1
102
RTVSPropertyOp15
 70
     1
102
RTVSPropertyOp16
 70
     1
102
RTVSPropertyOp17
 70
     1
102
RTVSPropertyOp18
 70
     1
102
RTVSPropertyOp19
 70
     1
102
RTVSPropertyOp20
 70
     1
102
RTVSPropertyOp21
 70
     1
102
RTVSPropertyOp22
 70
     1
102
RTVSPropertyOp23
 70
     1
102
RTVSPropertyOp24
 70
     1
102
RTVSPropertyOp25
 70
     1
102
RTVSPropertyOp26
 70
     1
102
RTVSPropertyOp27
 70
     1
102
RTVSPropertyOp28
 70
     1
102
RTVSPropertyOp29
 70
     1
102
RTVSPropertyOp30
 70
     1
102
RTVSPropertyOp31
 70
     1
102
RTVSPropertyOp32
 70
     1
102
RTVSPropertyOp33
 70
     1
102
RTVSPropertyOp34
 70
     1
102
RTVSPropertyOp35
 70
     1
102
RTVSPropertyOp36
 70
     1
102
RTVSPropertyOp37
 70
     1
102
RTVSPropertyOp38
 70
     1
102
RTVSPropertyOp39
 70
     1
102
RTVSPropertyOp40
 70
     1
102
RTVSPropertyOp41
 70
     1
102
RTVSPropertyOp42
 70
     1
102
RTVSPropertyOp43
 70
     1
102
RTVSPropertyOp44
 70
     1
102
RTVSPropertyOp45
 70
     1
102
RTVSPropertyOp46
 70
     1
102
RTVSPropertyOp47
 70
     1
102
RTVSPropertyOp48
 70
     1
102
RTVSPropertyOp49
 70
     1
102
RTVSPropertyOp50
 70
     1
102
RTVSPropertyOp51
 70
     0
102
RTVSPropertyOp52
 70
     0
102
RTVSPropertyOp53
 70
     1
102
RTVSPropertyOp54
 70
     1
102
RTVSPropertyOp55
 70
     1
102
RTVSPropertyOp56
 70
     1
102
RTVSPropertyOp57
 70
     1
102
RTVSPost2010Prop28
280
     0
102
RTVSPost2010PropOp28
 70
     1
102
RTVSPost2010Prop29
280
     1
102
RTVSPost2010PropOp29
 70
     1
102
RTVSPost2010Prop30
280
     1
102
RTVSPost2010PropOp30
 70
     1
102
RTVSPost2010Prop31
280
     0
102
RTVSPost2010PropOp31
 70
     1
102
RTVSPost2010Prop32
280
     0
102
RTVSPost2010PropOp32
 70
     1
102
RTVSPost2010Prop33
280
     0
102
RTVSPost2010PropOp33
 70
     1
102
RTVSPost2010Prop34
280
     0
102
RTVSPost2010PropOp34
 70
     1
102
RTVSPost2010Prop35
280
     0
102
RTVSPost2010PropOp35
 70
     1
102
RTVSPost2010Prop36
280
     0
102
RTVSPost2010PropOp36
 70
     1
102
RTVSPost2010Prop37
 90
       50
102
RTVSPost2010PropOp37
 70
     1
102
RTVSPost2010Prop38
140
0.0
102
RTVSPost2010PropOp38
 70
     1
102
RTVSPost2010Prop39
140
1.0
102
RTVSPost2010PropOp39
 70
     1
102
RTVSPost2010Prop40
 90
        0
102
RTVSPost2010PropOp40
 70
     1
102
RTVSPost2010Prop41ColorIndex
 90
      178
102
RTVSPost2010Prop41ColorRGB
 90
        0
102
RTVSPost2010PropOp41
 70
     1
102
RTVSPost2010Prop42
 90
       50
102
RTVSPost2010PropOp42
 70
     1
102
RTVSPost2010Prop43
 90
        3
102
RTVSPost2010PropOp43
 70
     1
102
RTVSPost2010Prop44ColorIndex
 90
        5
102
RTVSPost2010Prop44ColorRGB
 90
      255
102
RTVSPost2010PropOp44
 70
     1
102
RTVSPost2010Prop45
280
     0
102
RTVSPost2010PropOp45
 70
     1
102
RTVSPost2010Prop46
 90
       50
102
RTVSPost2010PropOp46
 70
     1
102
RTVSPost2010Prop47
 90
       50
102
RTVSPost2010PropOp47
 70
     1
102
RTVSPost2010Prop48
 90
       50
102
RTVSPost2010PropOp48
 70
     1
102
RTVSPost2010Prop49
280
     0
102
RTVSPost2010PropOp49
 70
     1
102
RTVSPost2010Prop50
 90
       50
102
RTVSPost2010PropOp50
 70
     1
102
RTVSPost2010Prop51ColorIndex
 90
      256
102
RTVSPost2010Prop51ColorRGB
 90
-16777216
102
RTVSPost2010PropOp51
 70
     0
102
RTVSPost2010Prop52
140
1.0
102
RTVSPost2010PropOp52
 70
     0
102
RTVSPost2010Prop53
 90
        2
102
RTVSPost2010PropOp53
 70
     1
102
RTVSPost2010Prop54
  1
strokes_ogs.tif
102
RTVSPost2010PropOp54
 70
     1
102
RTVSPost2010Prop55
280
     0
102
RTVSPost2010PropOp55
 70
     1
102
RTVSPost2010Prop56
140
1.0
102
RTVSPost2010PropOp56
 70
     1
102
RTVSPost2010Prop57
140
1.0
102
RTVSPost2010PropOp57
 70
     1
  0
XRECORD
  5
1F0
102
{ACAD_REACTORS
330
1EF
102
}
330
1EF
100
AcDbXrecord
280
     1
102
RTVSPropertyOp0
 70
     1
102
RTVSPropertyOp1
 70
     1
102
RTVSPropertyOp2
 70
     1
102
RTVSPropertyOp3
 70
     1
102
RTVSPropertyOp4
 70
     1
102
RTVSPropertyOp5
 70
     1
102
RTVSPropertyOp6
 70
     1
102
RTVSPropertyOp7
 70
     1
102
RTVSPropertyOp8
 70
     1
102
RTVSPropertyOp9
 70
     1
102
RTVSPropertyOp10
 70
     1
102
RTVSPropertyOp11
 70
     1
102
RTVSPropertyOp12
 70
     1
102
RTVSPropertyOp13
 70
     1
102
RTVSPropertyOp14
 70
     1
102
RTVSPropertyOp15
 70
     1
102
RTVSPropertyOp16
 70
     1
102
RTVSPropertyOp17
 70
     1
102
RTVSPropertyOp18
 70
     1
102
RTVSPropertyOp19
 70
     1
102
RTVSPropertyOp20
 70
     1
102
RTVSPropertyOp21
 70
     1
102
RTVSPropertyOp22
 70
     1
102
RTVSPropertyOp23
 70
     1
102
RTVSPropertyOp24
 70
     1
102
RTVSPropertyOp25
 70
     1
102
RTVSPropertyOp26
 70
     1
102
RTVSPropertyOp27
 70
     1
102
RTVSPropertyOp28
 70
     1
102
RTVSPropertyOp29
 70
     1
102
RTVSPropertyOp30
 70
     1
102
RTVSPropertyOp31
 70
     1
102
RTVSPropertyOp32
 70
     1
102
RTVSPropertyOp33
 70
     1
102
RTVSPropertyOp34
 70
     1
102
RTVSPropertyOp35
 70
     1
102
RTVSPropertyOp36
 70
     1
102
RTVSPropertyOp37
 70
     1
102
RTVSPropertyOp38
 70
     1
102
RTVSPropertyOp39
 70
     1
102
RTVSPropertyOp40
 70
     1
102
RTVSPropertyOp41
 70
     1
102
RTVSPropertyOp42
 70
     1
102
RTVSPropertyOp43
 70
     1
102
RTVSPropertyOp44
 70
     1
102
RTVSPropertyOp45
 70
     1
102
RTVSPropertyOp46
 70
     1
102
RTVSPropertyOp47
 70
     1
102
RTVSPropertyOp48
 70
     1
102
RTVSPropertyOp49
 70
     1
102
RTVSPropertyOp50
 70
     1
102
RTVSPropertyOp51
 70
     0
102
RTVSPropertyOp52
 70
     0
102
RTVSPropertyOp53
 70
     1
102
RTVSPropertyOp54
 70
     1
102
RTVSPropertyOp55
 70
     1
102
RTVSPropertyOp56
 70
     1
102
RTVSPropertyOp57
 70
     1
102
RTVSPost2010Prop28
280
     0
102
RTVSPost2010PropOp28
 70
     1
102
RTVSPost2010Prop29
280
     1
102
RTVSPost2010PropOp29
 70
     1
102
RTVSPost2010Prop30
280
     1
102
RTVSPost2010PropOp30
 70
     1
102
RTVSPost2010Prop31
280
     0
102
RTVSPost2010PropOp31
 70
     1
102
RTVSPost2010Prop32
280
     0
102
RTVSPost2010PropOp32
 70
     1
102
RTVSPost2010Prop33
280
     0
102
RTVSPost2010PropOp33
 70
     1
102
RTVSPost2010Prop34
280
     0
102
RTVSPost2010PropOp34
 70
     1
102
RTVSPost2010Prop35
280
     0
102
RTVSPost2010PropOp35
 70
     1
102
RTVSPost2010Prop36
280
     0
102
RTVSPost2010PropOp36
 70
     1
102
RTVSPost2010Prop37
 90
       50
102
RTVSPost2010PropOp37
 70
     1
102
RTVSPost2010Prop38
140
0.0
102
RTVSPost2010PropOp38
 70
     1
102
RTVSPost2010Prop39
140
1.0
102
RTVSPost2010PropOp39
 70
     1
102
RTVSPost2010Prop40
 90
        0
102
RTVSPost2010PropOp40
 70
     1
102
RTVSPost2010Prop41ColorIndex
 90
      178
102
RTVSPost2010Prop41ColorRGB
 90
        0
102
RTVSPost2010PropOp41
 70
     1
102
RTVSPost2010Prop42
 90
       50
102
RTVSPost2010PropOp42
 70
     1
102
RTVSPost2010Prop43
 90
        3
102
RTVSPost2010PropOp43
 70
     1
102
RTVSPost2010Prop44ColorIndex
 90
        5
102
RTVSPost2010Prop44ColorRGB
 90
      255
102
RTVSPost2010PropOp44
 70
     1
102
RTVSPost2010Prop45
280
     0
102
RTVSPost2010PropOp45
 70
     1
102
RTVSPost2010Prop46
 90
       50
102
RTVSPost2010PropOp46
 70
     1
102
RTVSPost2010Prop47
 90
       50
102
RTVSPost2010PropOp47
 70
     1
102
RTVSPost2010Prop48
 90
       50
102
RTVSPost2010PropOp48
 70
     1
102
RTVSPost2010Prop49
280
     0
102
RTVSPost2010PropOp49
 70
     1
102
RTVSPost2010Prop50
 90
       50
102
RTVSPost2010PropOp50
 70
     1
102
RTVSPost2010Prop51ColorIndex
 90
      256
102
RTVSPost2010Prop51ColorRGB
 90
-16777216
102
RTVSPost2010PropOp51
 70
     0
102
RTVSPost2010Prop52
140
1.0
102
RTVSPost2010PropOp52
 70
     0
102
RTVSPost2010Prop53
 90
        2
102
RTVSPost2010PropOp53
 70
     1
102
RTVSPost2010Prop54
  1
strokes_ogs.tif
102
RTVSPost2010PropOp54
 70
     1
102
RTVSPost2010Prop55
280
     0
102
RTVSPost2010PropOp55
 70
     1
102
RTVSPost2010Prop56
140
1.0
102
RTVSPost2010PropOp56
 70
     1
102
RTVSPost2010Prop57
140
1.0
102
RTVSPost2010PropOp57
 70
     1
  0
XRECORD
  5
1F6
102
{ACAD_REACTORS
330
1F5
102
}
330
1F5
100
AcDbXrecord
280
     1
102
RTVSPropertyOp0
 70
     1
102
RTVSPropertyOp1
 70
     1
102
RTVSPropertyOp2
 70
     1
102
RTVSPropertyOp3
 70
     1
102
RTVSPropertyOp4
 70
     1
102
RTVSPropertyOp5
 70
     1
102
RTVSPropertyOp6
 70
     1
102
RTVSPropertyOp7
 70
     1
102
RTVSPropertyOp8
 70
     1
102
RTVSPropertyOp9
 70
     1
102
RTVSPropertyOp10
 70
     1
102
RTVSPropertyOp11
 70
     1
102
RTVSPropertyOp12
 70
     1
102
RTVSPropertyOp13
 70
     1
102
RTVSPropertyOp14
 70
     1
102
RTVSPropertyOp15
 70
     1
102
RTVSPropertyOp16
 70
     1
102
RTVSPropertyOp17
 70
     1
102
RTVSPropertyOp18
 70
     1
102
RTVSPropertyOp19
 70
     1
102
RTVSPropertyOp20
 70
     1
102
RTVSPropertyOp21
 70
     1
102
RTVSPropertyOp22
 70
     1
102
RTVSPropertyOp23
 70
     1
102
RTVSPropertyOp24
 70
     1
102
RTVSPropertyOp25
 70
     1
102
RTVSPropertyOp26
 70
     1
102
RTVSPropertyOp27
 70
     1
102
RTVSPropertyOp28
 70
     1
102
RTVSPropertyOp29
 70
     1
102
RTVSPropertyOp30
 70
     1
102
RTVSPropertyOp31
 70
     1
102
RTVSPropertyOp32
 70
     1
102
RTVSPropertyOp33
 70
     1
102
RTVSPropertyOp34
 70
     1
102
RTVSPropertyOp35
 70
     1
102
RTVSPropertyOp36
 70
     1
102
RTVSPropertyOp37
 70
     1
102
RTVSPropertyOp38
 70
     1
102
RTVSPropertyOp39
 70
     1
102
RTVSPropertyOp40
 70
     1
102
RTVSPropertyOp41
 70
     1
102
RTVSPropertyOp42
 70
     1
102
RTVSPropertyOp43
 70
     1
102
RTVSPropertyOp44
 70
     1
102
RTVSPropertyOp45
 70
     1
102
RTVSPropertyOp46
 70
     1
102
RTVSPropertyOp47
 70
     1
102
RTVSPropertyOp48
 70
     1
102
RTVSPropertyOp49
 70
     1
102
RTVSPropertyOp50
 70
     1
102
RTVSPropertyOp51
 70
     0
102
RTVSPropertyOp52
 70
     0
102
RTVSPropertyOp53
 70
     1
102
RTVSPropertyOp54
 70
     1
102
RTVSPropertyOp55
 70
     1
102
RTVSPropertyOp56
 70
     1
102
RTVSPropertyOp57
 70
     1
102
RTVSPost2010Prop28
280
     0
102
RTVSPost2010PropOp28
 70
     1
102
RTVSPost2010Prop29
280
     1
102
RTVSPost2010PropOp29
 70
     1
102
RTVSPost2010Prop30
280
     1
102
RTVSPost2010PropOp30
 70
     1
102
RTVSPost2010Prop31
280
     0
102
RTVSPost2010PropOp31
 70
     1
102
RTVSPost2010Prop32
280
     0
102
RTVSPost2010PropOp32
 70
     1
102
RTVSPost2010Prop33
280
     0
102
RTVSPost2010PropOp33
 70
     1
102
RTVSPost2010Prop34
280
     0
102
RTVSPost2010PropOp34
 70
     1
102
RTVSPost2010Prop35
280
     0
102
RTVSPost2010PropOp35
 70
     1
102
RTVSPost2010Prop36
280
     0
102
RTVSPost2010PropOp36
 70
     1
102
RTVSPost2010Prop37
 90
       50
102
RTVSPost2010PropOp37
 70
     1
102
RTVSPost2010Prop38
140
0.0
102
RTVSPost2010PropOp38
 70
     1
102
RTVSPost2010Prop39
140
1.0
102
RTVSPost2010PropOp39
 70
     1
102
RTVSPost2010Prop40
 90
        0
102
RTVSPost2010PropOp40
 70
     1
102
RTVSPost2010Prop41ColorIndex
 90
      178
102
RTVSPost2010Prop41ColorRGB
 90
        0
102
RTVSPost2010PropOp41
 70
     1
102
RTVSPost2010Prop42
 90
       50
102
RTVSPost2010PropOp42
 70
     1
102
RTVSPost2010Prop43
 90
        3
102
RTVSPost2010PropOp43
 70
     1
102
RTVSPost2010Prop44ColorIndex
 90
        5
102
RTVSPost2010Prop44ColorRGB
 90
      255
102
RTVSPost2010PropOp44
 70
     1
102
RTVSPost2010Prop45
280
     0
102
RTVSPost2010PropOp45
 70
     1
102
RTVSPost2010Prop46
 90
       50
102
RTVSPost2010PropOp46
 70
     1
102
RTVSPost2010Prop47
 90
       50
102
RTVSPost2010PropOp47
 70
     1
102
RTVSPost2010Prop48
 90
       50
102
RTVSPost2010PropOp48
 70
     1
102
RTVSPost2010Prop49
280
     0
102
RTVSPost2010PropOp49
 70
     1
102
RTVSPost2010Prop50
 90
       50
102
RTVSPost2010PropOp50
 70
     1
102
RTVSPost2010Prop51ColorIndex
 90
      256
102
RTVSPost2010Prop51ColorRGB
 90
-16777216
102
RTVSPost2010PropOp51
 70
     0
102
RTVSPost2010Prop52
140
1.0
102
RTVSPost2010PropOp52
 70
     0
102
RTVSPost2010Prop53
 90
        2
102
RTVSPost2010PropOp53
 70
     1
102
RTVSPost2010Prop54
  1
strokes_ogs.tif
102
RTVSPost2010PropOp54
 70
     1
102
RTVSPost2010Prop55
280
     0
102
RTVSPost2010PropOp55
 70
     1
102
RTVSPost2010Prop56
140
1.0
102
RTVSPost2010PropOp56
 70
     1
102
RTVSPost2010Prop57
140
1.0
102
RTVSPost2010PropOp57
 70
     1
  0
XRECORD
  5
20A
102
{ACAD_REACTORS
330
209
102
}
330
209
100
AcDbXrecord
280
     1
102
RTVSPropertyOp0
 70
     0
102
RTVSPropertyOp1
 70
     0
102
RTVSPropertyOp2
 70
     0
102
RTVSPropertyOp3
 70
     0
102
RTVSPropertyOp4
 70
     0
102
RTVSPropertyOp5
 70
     0
102
RTVSPropertyOp6
 70
     0
102
RTVSPropertyOp7
 70
     0
102
RTVSPropertyOp8
 70
     0
102
RTVSPropertyOp9
 70
     0
102
RTVSPropertyOp10
 70
     0
102
RTVSPropertyOp11
 70
     0
102
RTVSPropertyOp12
 70
     0
102
RTVSPropertyOp13
 70
     0
102
RTVSPropertyOp14
 70
     2
102
RTVSPropertyOp15
 70
     0
102
RTVSPropertyOp16
 70
     0
102
RTVSPropertyOp17
 70
     0
102
RTVSPropertyOp18
 70
     0
102
RTVSPropertyOp19
 70
     0
102
RTVSPropertyOp20
 70
     0
102
RTVSPropertyOp21
 70
     0
102
RTVSPropertyOp22
 70
     0
102
RTVSPropertyOp23
 70
     0
102
RTVSPropertyOp24
 70
     0
102
RTVSPropertyOp25
 70
     0
102
RTVSPropertyOp26
 70
     0
102
RTVSPropertyOp27
 70
     0
102
RTVSPropertyOp28
 70
     0
102
RTVSPropertyOp29
 70
     0
102
RTVSPropertyOp30
 70
     0
102
RTVSPropertyOp31
 70
     0
102
RTVSPropertyOp32
 70
     0
102
RTVSPropertyOp33
 70
     0
102
RTVSPropertyOp34
 70
     0
102
RTVSPropertyOp35
 70
     0
102
RTVSPropertyOp36
 70
     0
102
RTVSPropertyOp37
 70
     0
102
RTVSPropertyOp38
 70
     0
102
RTVSPropertyOp39
 70
     0
102
RTVSPropertyOp40
 70
     0
102
RTVSPropertyOp41
 70
     0
102
RTVSPropertyOp42
 70
     0
102
RTVSPropertyOp43
 70
     0
102
RTVSPropertyOp44
 70
     0
102
RTVSPropertyOp45
 70
     0
102
RTVSPropertyOp46
 70
     0
102
RTVSPropertyOp47
 70
     0
102
RTVSPropertyOp48
 70
     0
102
RTVSPropertyOp49
 70
     0
102
RTVSPropertyOp50
 70
     0
102
RTVSPropertyOp51
 70
     0
102
RTVSPropertyOp52
 70
     0
102
RTVSPropertyOp53
 70
     0
102
RTVSPropertyOp54
 70
     0
102
RTVSPropertyOp55
 70
     0
102
RTVSPropertyOp56
 70
     0
102
RTVSPropertyOp57
 70
     0
102
RTVSPost2010Prop28
280
     0
102
RTVSPost2010PropOp28
 70
     0
102
RTVSPost2010Prop29
280
     1
102
RTVSPost2010PropOp29
 70
     0
102
RTVSPost2010Prop30
280
     1
102
RTVSPost2010PropOp30
 70
     0
102
RTVSPost2010Prop31
280
     0
102
RTVSPost2010PropOp31
 70
     0
102
RTVSPost2010Prop32
280
     0
102
RTVSPost2010PropOp32
 70
     0
102
RTVSPost2010Prop33
280
     0
102
RTVSPost2010PropOp33
 70
     0
102
RTVSPost2010Prop34
280
     0
102
RTVSPost2010PropOp34
 70
     0
102
RTVSPost2010Prop35
280
     0
102
RTVSPost2010PropOp35
 70
     0
102
RTVSPost2010Prop36
280
     0
102
RTVSPost2010PropOp36
 70
     0
102
RTVSPost2010Prop37
 90
       50
102
RTVSPost2010PropOp37
 70
     0
102
RTVSPost2010Prop38
140
0.0
102
RTVSPost2010PropOp38
 70
     0
102
RTVSPost2010Prop39
140
1.0
102
RTVSPost2010PropOp39
 70
     0
102
RTVSPost2010Prop40
 90
        0
102
RTVSPost2010PropOp40
 70
     0
102
RTVSPost2010Prop41ColorIndex
 90
      178
102
RTVSPost2010Prop41ColorRGB
 90
        0
102
RTVSPost2010PropOp41
 70
     0
102
RTVSPost2010Prop42
 90
       50
102
RTVSPost2010PropOp42
 70
     0
102
RTVSPost2010Prop43
 90
        3
102
RTVSPost2010PropOp43
 70
     0
102
RTVSPost2010Prop44ColorIndex
 90
        5
102
RTVSPost2010Prop44ColorRGB
 90
      255
102
RTVSPost2010PropOp44
 70
     0
102
RTVSPost2010Prop45
280
     0
102
RTVSPost2010PropOp45
 70
     0
102
RTVSPost2010Prop46
 90
       50
102
RTVSPost2010PropOp46
 70
     0
102
RTVSPost2010Prop47
 90
       50
102
RTVSPost2010PropOp47
 70
     0
102
RTVSPost2010Prop48
 90
       50
102
RTVSPost2010PropOp48
 70
     0
102
RTVSPost2010Prop49
280
     0
102
RTVSPost2010PropOp49
 70
     0
102
RTVSPost2010Prop50
 90
       50
102
RTVSPost2010PropOp50
 70
     0
102
RTVSPost2010Prop51ColorIndex
 90
      256
102
RTVSPost2010Prop51ColorRGB
 90
-16777216
102
RTVSPost2010PropOp51
 70
     0
102
RTVSPost2010Prop52
140
1.0
102
RTVSPost2010PropOp52
 70
     0
102
RTVSPost2010Prop53
 90
        2
102
RTVSPost2010PropOp53
 70
     0
102
RTVSPost2010Prop54
  1
strokes_ogs.tif
102
RTVSPost2010PropOp54
 70
     0
102
RTVSPost2010Prop55
280
     0
102
RTVSPost2010PropOp55
 70
     0
102
RTVSPost2010Prop56
140
1.0
102
RTVSPost2010PropOp56
 70
     0
102
RTVSPost2010Prop57
140
1.0
102
RTVSPost2010PropOp57
 70
     0
  0
XRECORD
  5
204
102
{ACAD_REACTORS
330
203
102
}
330
203
100
AcDbXrecord
280
     1
102
RTVSPropertyOp0
 70
     1
102
RTVSPropertyOp1
 70
     1
102
RTVSPropertyOp2
 70
     1
102
RTVSPropertyOp3
 70
     1
102
RTVSPropertyOp4
 70
     1
102
RTVSPropertyOp5
 70
     1
102
RTVSPropertyOp6
 70
     1
102
RTVSPropertyOp7
 70
     1
102
RTVSPropertyOp8
 70
     1
102
RTVSPropertyOp9
 70
     1
102
RTVSPropertyOp10
 70
     1
102
RTVSPropertyOp11
 70
     1
102
RTVSPropertyOp12
 70
     1
102
RTVSPropertyOp13
 70
     1
102
RTVSPropertyOp14
 70
     1
102
RTVSPropertyOp15
 70
     1
102
RTVSPropertyOp16
 70
     1
102
RTVSPropertyOp17
 70
     1
102
RTVSPropertyOp18
 70
     1
102
RTVSPropertyOp19
 70
     1
102
RTVSPropertyOp20
 70
     1
102
RTVSPropertyOp21
 70
     1
102
RTVSPropertyOp22
 70
     1
102
RTVSPropertyOp23
 70
     1
102
RTVSPropertyOp24
 70
     1
102
RTVSPropertyOp25
 70
     1
102
RTVSPropertyOp26
 70
     1
102
RTVSPropertyOp27
 70
     1
102
RTVSPropertyOp28
 70
     1
102
RTVSPropertyOp29
 70
     1
102
RTVSPropertyOp30
 70
     1
102
RTVSPropertyOp31
 70
     1
102
RTVSPropertyOp32
 70
     1
102
RTVSPropertyOp33
 70
     1
102
RTVSPropertyOp34
 70
     1
102
RTVSPropertyOp35
 70
     1
102
RTVSPropertyOp36
 70
     1
102
RTVSPropertyOp37
 70
     1
102
RTVSPropertyOp38
 70
     1
102
RTVSPropertyOp39
 70
     1
102
RTVSPropertyOp40
 70
     1
102
RTVSPropertyOp41
 70
     1
102
RTVSPropertyOp42
 70
     1
102
RTVSPropertyOp43
 70
     1
102
RTVSPropertyOp44
 70
     1
102
RTVSPropertyOp45
 70
     1
102
RTVSPropertyOp46
 70
     1
102
RTVSPropertyOp47
 70
     1
102
RTVSPropertyOp48
 70
     1
102
RTVSPropertyOp49
 70
     1
102
RTVSPropertyOp50
 70
     1
102
RTVSPropertyOp51
 70
     0
102
RTVSPropertyOp52
 70
     0
102
RTVSPropertyOp53
 70
     1
102
RTVSPropertyOp54
 70
     1
102
RTVSPropertyOp55
 70
     1
102
RTVSPropertyOp56
 70
     1
102
RTVSPropertyOp57
 70
     1
102
RTVSPost2010Prop28
280
     0
102
RTVSPost2010PropOp28
 70
     1
102
RTVSPost2010Prop29
280
     1
102
RTVSPost2010PropOp29
 70
     1
102
RTVSPost2010Prop30
280
     1
102
RTVSPost2010PropOp30
 70
     1
102
RTVSPost2010Prop31
280
     0
102
RTVSPost2010PropOp31
 70
     1
102
RTVSPost2010Prop32
280
     0
102
RTVSPost2010PropOp32
 70
     1
102
RTVSPost2010Prop33
280
     0
102
RTVSPost2010PropOp33
 70
     1
102
RTVSPost2010Prop34
280
     0
102
RTVSPost2010PropOp34
 70
     1
102
RTVSPost2010Prop35
280
     0
102
RTVSPost2010PropOp35
 70
     1
102
RTVSPost2010Prop36
280
     0
102
RTVSPost2010PropOp36
 70
     1
102
RTVSPost2010Prop37
 90
       50
102
RTVSPost2010PropOp37
 70
     1
102
RTVSPost2010Prop38
140
0.0
102
RTVSPost2010PropOp38
 70
     1
102
RTVSPost2010Prop39
140
1.0
102
RTVSPost2010PropOp39
 70
     1
102
RTVSPost2010Prop40
 90
        0
102
RTVSPost2010PropOp40
 70
     1
102
RTVSPost2010Prop41ColorIndex
 90
      178
102
RTVSPost2010Prop41ColorRGB
 90
        0
102
RTVSPost2010PropOp41
 70
     1
102
RTVSPost2010Prop42
 90
       50
102
RTVSPost2010PropOp42
 70
     1
102
RTVSPost2010Prop43
 90
        3
102
RTVSPost2010PropOp43
 70
     1
102
RTVSPost2010Prop44ColorIndex
 90
        5
102
RTVSPost2010Prop44ColorRGB
 90
      255
102
RTVSPost2010PropOp44
 70
     1
102
RTVSPost2010Prop45
280
     0
102
RTVSPost2010PropOp45
 70
     1
102
RTVSPost2010Prop46
 90
       50
102
RTVSPost2010PropOp46
 70
     1
102
RTVSPost2010Prop47
 90
       50
102
RTVSPost2010PropOp47
 70
     1
102
RTVSPost2010Prop48
 90
       50
102
RTVSPost2010PropOp48
 70
     1
102
RTVSPost2010Prop49
280
     0
102
RTVSPost2010PropOp49
 70
     1
102
RTVSPost2010Prop50
 90
       50
102
RTVSPost2010PropOp50
 70
     1
102
RTVSPost2010Prop51ColorIndex
 90
      256
102
RTVSPost2010Prop51ColorRGB
 90
-16777216
102
RTVSPost2010PropOp51
 70
     0
102
RTVSPost2010Prop52
140
1.0
102
RTVSPost2010PropOp52
 70
     0
102
RTVSPost2010Prop53
 90
        2
102
RTVSPost2010PropOp53
 70
     1
102
RTVSPost2010Prop54
  1
strokes_ogs.tif
102
RTVSPost2010PropOp54
 70
     1
102
RTVSPost2010Prop55
280
     0
102
RTVSPost2010PropOp55
 70
     1
102
RTVSPost2010Prop56
140
1.0
102
RTVSPost2010PropOp56
 70
     1
102
RTVSPost2010Prop57
140
1.0
102
RTVSPost2010PropOp57
 70
     1
  0
XRECORD
  5
20C
102
{ACAD_REACTORS
330
20B
102
}
330
20B
100
AcDbXrecord
280
     1
102
RTVSPropertyOp0
 70
     0
102
RTVSPropertyOp1
 70
     0
102
RTVSPropertyOp2
 70
     0
102
RTVSPropertyOp3
 70
     0
102
RTVSPropertyOp4
 70
     0
102
RTVSPropertyOp5
 70
     0
102
RTVSPropertyOp6
 70
     0
102
RTVSPropertyOp7
 70
     0
102
RTVSPropertyOp8
 70
     0
102
RTVSPropertyOp9
 70
     0
102
RTVSPropertyOp10
 70
     0
102
RTVSPropertyOp11
 70
     0
102
RTVSPropertyOp12
 70
     0
102
RTVSPropertyOp13
 70
     0
102
RTVSPropertyOp14
 70
     2
102
RTVSPropertyOp15
 70
     0
102
RTVSPropertyOp16
 70
     0
102
RTVSPropertyOp17
 70
     0
102
RTVSPropertyOp18
 70
     0
102
RTVSPropertyOp19
 70
     0
102
RTVSPropertyOp20
 70
     0
102
RTVSPropertyOp21
 70
     0
102
RTVSPropertyOp22
 70
     0
102
RTVSPropertyOp23
 70
     0
102
RTVSPropertyOp24
 70
     0
102
RTVSPropertyOp25
 70
     0
102
RTVSPropertyOp26
 70
     0
102
RTVSPropertyOp27
 70
     0
102
RTVSPropertyOp28
 70
     0
102
RTVSPropertyOp29
 70
     0
102
RTVSPropertyOp30
 70
     0
102
RTVSPropertyOp31
 70
     0
102
RTVSPropertyOp32
 70
     0
102
RTVSPropertyOp33
 70
     0
102
RTVSPropertyOp34
 70
     0
102
RTVSPropertyOp35
 70
     0
102
RTVSPropertyOp36
 70
     0
102
RTVSPropertyOp37
 70
     0
102
RTVSPropertyOp38
 70
     0
102
RTVSPropertyOp39
 70
     0
102
RTVSPropertyOp40
 70
     0
102
RTVSPropertyOp41
 70
     0
102
RTVSPropertyOp42
 70
     0
102
RTVSPropertyOp43
 70
     0
102
RTVSPropertyOp44
 70
     0
102
RTVSPropertyOp45
 70
     0
102
RTVSPropertyOp46
 70
     0
102
RTVSPropertyOp47
 70
     0
102
RTVSPropertyOp48
 70
     0
102
RTVSPropertyOp49
 70
     0
102
RTVSPropertyOp50
 70
     0
102
RTVSPropertyOp51
 70
     0
102
RTVSPropertyOp52
 70
     0
102
RTVSPropertyOp53
 70
     0
102
RTVSPropertyOp54
 70
     0
102
RTVSPropertyOp55
 70
     0
102
RTVSPropertyOp56
 70
     0
102
RTVSPropertyOp57
 70
     0
102
RTVSPost2010Prop28
280
     0
102
RTVSPost2010PropOp28
 70
     0
102
RTVSPost2010Prop29
280
     1
102
RTVSPost2010PropOp29
 70
     0
102
RTVSPost2010Prop30
280
     1
102
RTVSPost2010PropOp30
 70
     0
102
RTVSPost2010Prop31
280
     0
102
RTVSPost2010PropOp31
 70
     0
102
RTVSPost2010Prop32
280
     0
102
RTVSPost2010PropOp32
 70
     0
102
RTVSPost2010Prop33
280
     0
102
RTVSPost2010PropOp33
 70
     0
102
RTVSPost2010Prop34
280
     0
102
RTVSPost2010PropOp34
 70
     0
102
RTVSPost2010Prop35
280
     0
102
RTVSPost2010PropOp35
 70
     0
102
RTVSPost2010Prop36
280
     0
102
RTVSPost2010PropOp36
 70
     0
102
RTVSPost2010Prop37
 90
       50
102
RTVSPost2010PropOp37
 70
     0
102
RTVSPost2010Prop38
140
0.0
102
RTVSPost2010PropOp38
 70
     0
102
RTVSPost2010Prop39
140
1.0
102
RTVSPost2010PropOp39
 70
     0
102
RTVSPost2010Prop40
 90
        0
102
RTVSPost2010PropOp40
 70
     0
102
RTVSPost2010Prop41ColorIndex
 90
      178
102
RTVSPost2010Prop41ColorRGB
 90
        0
102
RTVSPost2010PropOp41
 70
     0
102
RTVSPost2010Prop42
 90
       50
102
RTVSPost2010PropOp42
 70
     0
102
RTVSPost2010Prop43
 90
        3
102
RTVSPost2010PropOp43
 70
     0
102
RTVSPost2010Prop44ColorIndex
 90
        5
102
RTVSPost2010Prop44ColorRGB
 90
      255
102
RTVSPost2010PropOp44
 70
     0
102
RTVSPost2010Prop45
280
     0
102
RTVSPost2010PropOp45
 70
     0
102
RTVSPost2010Prop46
 90
       50
102
RTVSPost2010PropOp46
 70
     0
102
RTVSPost2010Prop47
 90
       50
102
RTVSPost2010PropOp47
 70
     0
102
RTVSPost2010Prop48
 90
       50
102
RTVSPost2010PropOp48
 70
     0
102
RTVSPost2010Prop49
280
     0
102
RTVSPost2010PropOp49
 70
     0
102
RTVSPost2010Prop50
 90
       50
102
RTVSPost2010PropOp50
 70
     0
102
RTVSPost2010Prop51ColorIndex
 90
      256
102
RTVSPost2010Prop51ColorRGB
 90
-16777216
102
RTVSPost2010PropOp51
 70
     0
102
RTVSPost2010Prop52
140
1.0
102
RTVSPost2010PropOp52
 70
     0
102
RTVSPost2010Prop53
 90
        2
102
RTVSPost2010PropOp53
 70
     0
102
RTVSPost2010Prop54
  1
strokes_ogs.tif
102
RTVSPost2010PropOp54
 70
     0
102
RTVSPost2010Prop55
280
     0
102
RTVSPost2010PropOp55
 70
     0
102
RTVSPost2010Prop56
140
1.0
102
RTVSPost2010PropOp56
 70
     0
102
RTVSPost2010Prop57
140
1.0
102
RTVSPost2010PropOp57
 70
     0
  0
XRECORD
  5
1FA
102
{ACAD_REACTORS
330
1F9
102
}
330
1F9
100
AcDbXrecord
280
     1
102
RTVSPropertyOp0
 70
     1
102
RTVSPropertyOp1
 70
     1
102
RTVSPropertyOp2
 70
     1
102
RTVSPropertyOp3
 70
     1
102
RTVSPropertyOp4
 70
     1
102
RTVSPropertyOp5
 70
     1
102
RTVSPropertyOp6
 70
     1
102
RTVSPropertyOp7
 70
     1
102
RTVSPropertyOp8
 70
     1
102
RTVSPropertyOp9
 70
     1
102
RTVSPropertyOp10
 70
     1
102
RTVSPropertyOp11
 70
     1
102
RTVSPropertyOp12
 70
     1
102
RTVSPropertyOp13
 70
     1
102
RTVSPropertyOp14
 70
     1
102
RTVSPropertyOp15
 70
     1
102
RTVSPropertyOp16
 70
     1
102
RTVSPropertyOp17
 70
     1
102
RTVSPropertyOp18
 70
     1
102
RTVSPropertyOp19
 70
     1
102
RTVSPropertyOp20
 70
     1
102
RTVSPropertyOp21
 70
     1
102
RTVSPropertyOp22
 70
     1
102
RTVSPropertyOp23
 70
     1
102
RTVSPropertyOp24
 70
     1
102
RTVSPropertyOp25
 70
     1
102
RTVSPropertyOp26
 70
     1
102
RTVSPropertyOp27
 70
     1
102
RTVSPropertyOp28
 70
     1
102
RTVSPropertyOp29
 70
     1
102
RTVSPropertyOp30
 70
     1
102
RTVSPropertyOp31
 70
     1
102
RTVSPropertyOp32
 70
     1
102
RTVSPropertyOp33
 70
     1
102
RTVSPropertyOp34
 70
     1
102
RTVSPropertyOp35
 70
     1
102
RTVSPropertyOp36
 70
     1
102
RTVSPropertyOp37
 70
     1
102
RTVSPropertyOp38
 70
     1
102
RTVSPropertyOp39
 70
     1
102
RTVSPropertyOp40
 70
     1
102
RTVSPropertyOp41
 70
     1
102
RTVSPropertyOp42
 70
     1
102
RTVSPropertyOp43
 70
     1
102
RTVSPropertyOp44
 70
     1
102
RTVSPropertyOp45
 70
     1
102
RTVSPropertyOp46
 70
     1
102
RTVSPropertyOp47
 70
     1
102
RTVSPropertyOp48
 70
     1
102
RTVSPropertyOp49
 70
     1
102
RTVSPropertyOp50
 70
     1
102
RTVSPropertyOp51
 70
     0
102
RTVSPropertyOp52
 70
     0
102
RTVSPropertyOp53
 70
     1
102
RTVSPropertyOp54
 70
     1
102
RTVSPropertyOp55
 70
     1
102
RTVSPropertyOp56
 70
     1
102
RTVSPropertyOp57
 70
     1
102
RTVSPost2010Prop28
280
     0
102
RTVSPost2010PropOp28
 70
     1
102
RTVSPost2010Prop29
280
     1
102
RTVSPost2010PropOp29
 70
     1
102
RTVSPost2010Prop30
280
     1
102
RTVSPost2010PropOp30
 70
     1
102
RTVSPost2010Prop31
280
     0
102
RTVSPost2010PropOp31
 70
     1
102
RTVSPost2010Prop32
280
     0
102
RTVSPost2010PropOp32
 70
     1
102
RTVSPost2010Prop33
280
     0
102
RTVSPost2010PropOp33
 70
     1
102
RTVSPost2010Prop34
280
     0
102
RTVSPost2010PropOp34
 70
     1
102
RTVSPost2010Prop35
280
     0
102
RTVSPost2010PropOp35
 70
     1
102
RTVSPost2010Prop36
280
     0
102
RTVSPost2010PropOp36
 70
     1
102
RTVSPost2010Prop37
 90
       50
102
RTVSPost2010PropOp37
 70
     1
102
RTVSPost2010Prop38
140
0.0
102
RTVSPost2010PropOp38
 70
     1
102
RTVSPost2010Prop39
140
1.0
102
RTVSPost2010PropOp39
 70
     1
102
RTVSPost2010Prop40
 90
        0
102
RTVSPost2010PropOp40
 70
     1
102
RTVSPost2010Prop41ColorIndex
 90
      178
102
RTVSPost2010Prop41ColorRGB
 90
        0
102
RTVSPost2010PropOp41
 70
     1
102
RTVSPost2010Prop42
 90
       50
102
RTVSPost2010PropOp42
 70
     1
102
RTVSPost2010Prop43
 90
        3
102
RTVSPost2010PropOp43
 70
     1
102
RTVSPost2010Prop44ColorIndex
 90
        5
102
RTVSPost2010Prop44ColorRGB
 90
      255
102
RTVSPost2010PropOp44
 70
     1
102
RTVSPost2010Prop45
280
     0
102
RTVSPost2010PropOp45
 70
     1
102
RTVSPost2010Prop46
 90
       50
102
RTVSPost2010PropOp46
 70
     1
102
RTVSPost2010Prop47
 90
       50
102
RTVSPost2010PropOp47
 70
     1
102
RTVSPost2010Prop48
 90
       50
102
RTVSPost2010PropOp48
 70
     1
102
RTVSPost2010Prop49
280
     0
102
RTVSPost2010PropOp49
 70
     1
102
RTVSPost2010Prop50
 90
       50
102
RTVSPost2010PropOp50
 70
     1
102
RTVSPost2010Prop51ColorIndex
 90
      256
102
RTVSPost2010Prop51ColorRGB
 90
-16777216
102
RTVSPost2010PropOp51
 70
     0
102
RTVSPost2010Prop52
140
1.0
102
RTVSPost2010PropOp52
 70
     0
102
RTVSPost2010Prop53
 90
        2
102
RTVSPost2010PropOp53
 70
     1
102
RTVSPost2010Prop54
  1
strokes_ogs.tif
102
RTVSPost2010PropOp54
 70
     1
102
RTVSPost2010Prop55
280
     0
102
RTVSPost2010PropOp55
 70
     1
102
RTVSPost2010Prop56
140
1.0
102
RTVSPost2010PropOp56
 70
     1
102
RTVSPost2010Prop57
140
1.0
102
RTVSPost2010PropOp57
 70
     1
  0
XRECORD
  5
218
102
{ACAD_REACTORS
330
217
102
}
330
217
100
AcDbXrecord
280
     1
102
RTVSPropertyOp0
 70
     1
102
RTVSPropertyOp1
 70
     1
102
RTVSPropertyOp2
 70
     1
102
RTVSPropertyOp3
 70
     1
102
RTVSPropertyOp4
 70
     1
102
RTVSPropertyOp5
 70
     1
102
RTVSPropertyOp6
 70
     1
102
RTVSPropertyOp7
 70
     1
102
RTVSPropertyOp8
 70
     1
102
RTVSPropertyOp9
 70
     1
102
RTVSPropertyOp10
 70
     1
102
RTVSPropertyOp11
 70
     1
102
RTVSPropertyOp12
 70
     1
102
RTVSPropertyOp13
 70
     1
102
RTVSPropertyOp14
 70
     1
102
RTVSPropertyOp15
 70
     1
102
RTVSPropertyOp16
 70
     1
102
RTVSPropertyOp17
 70
     1
102
RTVSPropertyOp18
 70
     1
102
RTVSPropertyOp19
 70
     1
102
RTVSPropertyOp20
 70
     1
102
RTVSPropertyOp21
 70
     1
102
RTVSPropertyOp22
 70
     1
102
RTVSPropertyOp23
 70
     1
102
RTVSPropertyOp24
 70
     1
102
RTVSPropertyOp25
 70
     1
102
RTVSPropertyOp26
 70
     1
102
RTVSPropertyOp27
 70
     1
102
RTVSPropertyOp28
 70
     1
102
RTVSPropertyOp29
 70
     1
102
RTVSPropertyOp30
 70
     1
102
RTVSPropertyOp31
 70
     1
102
RTVSPropertyOp32
 70
     1
102
RTVSPropertyOp33
 70
     1
102
RTVSPropertyOp34
 70
     1
102
RTVSPropertyOp35
 70
     1
102
RTVSPropertyOp36
 70
     1
102
RTVSPropertyOp37
 70
     1
102
RTVSPropertyOp38
 70
     1
102
RTVSPropertyOp39
 70
     1
102
RTVSPropertyOp40
 70
     1
102
RTVSPropertyOp41
 70
     1
102
RTVSPropertyOp42
 70
     1
102
RTVSPropertyOp43
 70
     1
102
RTVSPropertyOp44
 70
     1
102
RTVSPropertyOp45
 70
     1
102
RTVSPropertyOp46
 70
     1
102
RTVSPropertyOp47
 70
     1
102
RTVSPropertyOp48
 70
     1
102
RTVSPropertyOp49
 70
     1
102
RTVSPropertyOp50
 70
     1
102
RTVSPropertyOp51
 70
     0
102
RTVSPropertyOp52
 70
     0
102
RTVSPropertyOp53
 70
     1
102
RTVSPropertyOp54
 70
     1
102
RTVSPropertyOp55
 70
     1
102
RTVSPropertyOp56
 70
     1
102
RTVSPropertyOp57
 70
     1
102
RTVSPost2010Prop28
280
     0
102
RTVSPost2010PropOp28
 70
     1
102
RTVSPost2010Prop29
280
     1
102
RTVSPost2010PropOp29
 70
     1
102
RTVSPost2010Prop30
280
     1
102
RTVSPost2010PropOp30
 70
     1
102
RTVSPost2010Prop31
280
     0
102
RTVSPost2010PropOp31
 70
     1
102
RTVSPost2010Prop32
280
     0
102
RTVSPost2010PropOp32
 70
     1
102
RTVSPost2010Prop33
280
     0
102
RTVSPost2010PropOp33
 70
     1
102
RTVSPost2010Prop34
280
     0
102
RTVSPost2010PropOp34
 70
     1
102
RTVSPost2010Prop35
280
     0
102
RTVSPost2010PropOp35
 70
     1
102
RTVSPost2010Prop36
280
     0
102
RTVSPost2010PropOp36
 70
     1
102
RTVSPost2010Prop37
 90
       50
102
RTVSPost2010PropOp37
 70
     1
102
RTVSPost2010Prop38
140
0.0
102
RTVSPost2010PropOp38
 70
     1
102
RTVSPost2010Prop39
140
1.0
102
RTVSPost2010PropOp39
 70
     1
102
RTVSPost2010Prop40
 90
        0
102
RTVSPost2010PropOp40
 70
     1
102
RTVSPost2010Prop41ColorIndex
 90
      178
102
RTVSPost2010Prop41ColorRGB
 90
        0
102
RTVSPost2010PropOp41
 70
     1
102
RTVSPost2010Prop42
 90
       50
102
RTVSPost2010PropOp42
 70
     1
102
RTVSPost2010Prop43
 90
        3
102
RTVSPost2010PropOp43
 70
     1
102
RTVSPost2010Prop44ColorIndex
 90
        5
102
RTVSPost2010Prop44ColorRGB
 90
      255
102
RTVSPost2010PropOp44
 70
     1
102
RTVSPost2010Prop45
280
     0
102
RTVSPost2010PropOp45
 70
     1
102
RTVSPost2010Prop46
 90
       50
102
RTVSPost2010PropOp46
 70
     1
102
RTVSPost2010Prop47
 90
       50
102
RTVSPost2010PropOp47
 70
     1
102
RTVSPost2010Prop48
 90
       50
102
RTVSPost2010PropOp48
 70
     1
102
RTVSPost2010Prop49
280
     0
102
RTVSPost2010PropOp49
 70
     1
102
RTVSPost2010Prop50
 90
       50
102
RTVSPost2010PropOp50
 70
     1
102
RTVSPost2010Prop51ColorIndex
 90
      256
102
RTVSPost2010Prop51ColorRGB
 90
-16777216
102
RTVSPost2010PropOp51
 70
     0
102
RTVSPost2010Prop52
140
1.0
102
RTVSPost2010PropOp52
 70
     0
102
RTVSPost2010Prop53
 90
        2
102
RTVSPost2010PropOp53
 70
     1
102
RTVSPost2010Prop54
  1
strokes_ogs.tif
102
RTVSPost2010PropOp54
 70
     1
102
RTVSPost2010Prop55
280
     0
102
RTVSPost2010PropOp55
 70
     1
102
RTVSPost2010Prop56
140
1.0
102
RTVSPost2010PropOp56
 70
     1
102
RTVSPost2010Prop57
140
1.0
102
RTVSPost2010PropOp57
 70
     1
  0
XRECORD
  5
216
102
{ACAD_REACTORS
330
215
102
}
330
215
100
AcDbXrecord
280
     1
102
RTVSPropertyOp0
 70
     1
102
RTVSPropertyOp1
 70
     1
102
RTVSPropertyOp2
 70
     1
102
RTVSPropertyOp3
 70
     1
102
RTVSPropertyOp4
 70
     1
102
RTVSPropertyOp5
 70
     1
102
RTVSPropertyOp6
 70
     1
102
RTVSPropertyOp7
 70
     1
102
RTVSPropertyOp8
 70
     1
102
RTVSPropertyOp9
 70
     1
102
RTVSPropertyOp10
 70
     1
102
RTVSPropertyOp11
 70
     1
102
RTVSPropertyOp12
 70
     1
102
RTVSPropertyOp13
 70
     1
102
RTVSPropertyOp14
 70
     1
102
RTVSPropertyOp15
 70
     1
102
RTVSPropertyOp16
 70
     1
102
RTVSPropertyOp17
 70
     1
102
RTVSPropertyOp18
 70
     1
102
RTVSPropertyOp19
 70
     1
102
RTVSPropertyOp20
 70
     1
102
RTVSPropertyOp21
 70
     1
102
RTVSPropertyOp22
 70
     1
102
RTVSPropertyOp23
 70
     1
102
RTVSPropertyOp24
 70
     1
102
RTVSPropertyOp25
 70
     1
102
RTVSPropertyOp26
 70
     1
102
RTVSPropertyOp27
 70
     1
102
RTVSPropertyOp28
 70
     1
102
RTVSPropertyOp29
 70
     1
102
RTVSPropertyOp30
 70
     1
102
RTVSPropertyOp31
 70
     1
102
RTVSPropertyOp32
 70
     1
102
RTVSPropertyOp33
 70
     1
102
RTVSPropertyOp34
 70
     1
102
RTVSPropertyOp35
 70
     1
102
RTVSPropertyOp36
 70
     1
102
RTVSPropertyOp37
 70
     1
102
RTVSPropertyOp38
 70
     1
102
RTVSPropertyOp39
 70
     1
102
RTVSPropertyOp40
 70
     1
102
RTVSPropertyOp41
 70
     1
102
RTVSPropertyOp42
 70
     1
102
RTVSPropertyOp43
 70
     1
102
RTVSPropertyOp44
 70
     1
102
RTVSPropertyOp45
 70
     1
102
RTVSPropertyOp46
 70
     1
102
RTVSPropertyOp47
 70
     1
102
RTVSPropertyOp48
 70
     1
102
RTVSPropertyOp49
 70
     1
102
RTVSPropertyOp50
 70
     1
102
RTVSPropertyOp51
 70
     0
102
RTVSPropertyOp52
 70
     0
102
RTVSPropertyOp53
 70
     1
102
RTVSPropertyOp54
 70
     1
102
RTVSPropertyOp55
 70
     1
102
RTVSPropertyOp56
 70
     1
102
RTVSPropertyOp57
 70
     1
102
RTVSPost2010Prop28
280
     0
102
RTVSPost2010PropOp28
 70
     1
102
RTVSPost2010Prop29
280
     1
102
RTVSPost2010PropOp29
 70
     1
102
RTVSPost2010Prop30
280
     1
102
RTVSPost2010PropOp30
 70
     1
102
RTVSPost2010Prop31
280
     0
102
RTVSPost2010PropOp31
 70
     1
102
RTVSPost2010Prop32
280
     0
102
RTVSPost2010PropOp32
 70
     1
102
RTVSPost2010Prop33
280
     0
102
RTVSPost2010PropOp33
 70
     1
102
RTVSPost2010Prop34
280
     0
102
RTVSPost2010PropOp34
 70
     1
102
RTVSPost2010Prop35
280
     0
102
RTVSPost2010PropOp35
 70
     1
102
RTVSPost2010Prop36
280
     0
102
RTVSPost2010PropOp36
 70
     1
102
RTVSPost2010Prop37
 90
       50
102
RTVSPost2010PropOp37
 70
     1
102
RTVSPost2010Prop38
140
0.0
102
RTVSPost2010PropOp38
 70
     1
102
RTVSPost2010Prop39
140
1.0
102
RTVSPost2010PropOp39
 70
     1
102
RTVSPost2010Prop40
 90
        0
102
RTVSPost2010PropOp40
 70
     1
102
RTVSPost2010Prop41ColorIndex
 90
      178
102
RTVSPost2010Prop41ColorRGB
 90
        0
102
RTVSPost2010PropOp41
 70
     1
102
RTVSPost2010Prop42
 90
       50
102
RTVSPost2010PropOp42
 70
     1
102
RTVSPost2010Prop43
 90
        3
102
RTVSPost2010PropOp43
 70
     1
102
RTVSPost2010Prop44ColorIndex
 90
        5
102
RTVSPost2010Prop44ColorRGB
 90
      255
102
RTVSPost2010PropOp44
 70
     1
102
RTVSPost2010Prop45
280
     0
102
RTVSPost2010PropOp45
 70
     1
102
RTVSPost2010Prop46
 90
       50
102
RTVSPost2010PropOp46
 70
     1
102
RTVSPost2010Prop47
 90
       50
102
RTVSPost2010PropOp47
 70
     1
102
RTVSPost2010Prop48
 90
       50
102
RTVSPost2010PropOp48
 70
     1
102
RTVSPost2010Prop49
280
     0
102
RTVSPost2010PropOp49
 70
     1
102
RTVSPost2010Prop50
 90
       50
102
RTVSPost2010PropOp50
 70
     1
102
RTVSPost2010Prop51ColorIndex
 90
      256
102
RTVSPost2010Prop51ColorRGB
 90
-16777216
102
RTVSPost2010PropOp51
 70
     0
102
RTVSPost2010Prop52
140
1.0
102
RTVSPost2010PropOp52
 70
     0
102
RTVSPost2010Prop53
 90
        2
102
RTVSPost2010PropOp53
 70
     1
102
RTVSPost2010Prop54
  1
strokes_ogs.tif
102
RTVSPost2010PropOp54
 70
     1
102
RTVSPost2010Prop55
280
     0
102
RTVSPost2010PropOp55
 70
     1
102
RTVSPost2010Prop56
140
1.0
102
RTVSPost2010PropOp56
 70
     1
102
RTVSPost2010Prop57
140
1.0
102
RTVSPost2010PropOp57
 70
     1
  0
XRECORD
  5
210
102
{ACAD_REACTORS
330
20F
102
}
330
20F
100
AcDbXrecord
280
     1
102
RTVSPropertyOp0
 70
     1
102
RTVSPropertyOp1
 70
     1
102
RTVSPropertyOp2
 70
     1
102
RTVSPropertyOp3
 70
     1
102
RTVSPropertyOp4
 70
     1
102
RTVSPropertyOp5
 70
     1
102
RTVSPropertyOp6
 70
     1
102
RTVSPropertyOp7
 70
     1
102
RTVSPropertyOp8
 70
     1
102
RTVSPropertyOp9
 70
     1
102
RTVSPropertyOp10
 70
     1
102
RTVSPropertyOp11
 70
     1
102
RTVSPropertyOp12
 70
     1
102
RTVSPropertyOp13
 70
     1
102
RTVSPropertyOp14
 70
     1
102
RTVSPropertyOp15
 70
     1
102
RTVSPropertyOp16
 70
     1
102
RTVSPropertyOp17
 70
     1
102
RTVSPropertyOp18
 70
     1
102
RTVSPropertyOp19
 70
     1
102
RTVSPropertyOp20
 70
     1
102
RTVSPropertyOp21
 70
     1
102
RTVSPropertyOp22
 70
     1
102
RTVSPropertyOp23
 70
     1
102
RTVSPropertyOp24
 70
     1
102
RTVSPropertyOp25
 70
     1
102
RTVSPropertyOp26
 70
     1
102
RTVSPropertyOp27
 70
     1
102
RTVSPropertyOp28
 70
     1
102
RTVSPropertyOp29
 70
     1
102
RTVSPropertyOp30
 70
     1
102
RTVSPropertyOp31
 70
     1
102
RTVSPropertyOp32
 70
     1
102
RTVSPropertyOp33
 70
     1
102
RTVSPropertyOp34
 70
     1
102
RTVSPropertyOp35
 70
     1
102
RTVSPropertyOp36
 70
     1
102
RTVSPropertyOp37
 70
     1
102
RTVSPropertyOp38
 70
     1
102
RTVSPropertyOp39
 70
     1
102
RTVSPropertyOp40
 70
     1
102
RTVSPropertyOp41
 70
     1
102
RTVSPropertyOp42
 70
     1
102
RTVSPropertyOp43
 70
     1
102
RTVSPropertyOp44
 70
     1
102
RTVSPropertyOp45
 70
     1
102
RTVSPropertyOp46
 70
     1
102
RTVSPropertyOp47
 70
     1
102
RTVSPropertyOp48
 70
     1
102
RTVSPropertyOp49
 70
     1
102
RTVSPropertyOp50
 70
     1
102
RTVSPropertyOp51
 70
     0
102
RTVSPropertyOp52
 70
     0
102
RTVSPropertyOp53
 70
     1
102
RTVSPropertyOp54
 70
     1
102
RTVSPropertyOp55
 70
     1
102
RTVSPropertyOp56
 70
     1
102
RTVSPropertyOp57
 70
     1
102
RTVSPost2010Prop28
280
     0
102
RTVSPost2010PropOp28
 70
     1
102
RTVSPost2010Prop29
280
     1
102
RTVSPost2010PropOp29
 70
     1
102
RTVSPost2010Prop30
280
     1
102
RTVSPost2010PropOp30
 70
     1
102
RTVSPost2010Prop31
280
     0
102
RTVSPost2010PropOp31
 70
     1
102
RTVSPost2010Prop32
280
     0
102
RTVSPost2010PropOp32
 70
     1
102
RTVSPost2010Prop33
280
     0
102
RTVSPost2010PropOp33
 70
     1
102
RTVSPost2010Prop34
280
     0
102
RTVSPost2010PropOp34
 70
     1
102
RTVSPost2010Prop35
280
     0
102
RTVSPost2010PropOp35
 70
     1
102
RTVSPost2010Prop36
280
     0
102
RTVSPost2010PropOp36
 70
     1
102
RTVSPost2010Prop37
 90
       50
102
RTVSPost2010PropOp37
 70
     1
102
RTVSPost2010Prop38
140
0.0
102
RTVSPost2010PropOp38
 70
     1
102
RTVSPost2010Prop39
140
1.0
102
RTVSPost2010PropOp39
 70
     1
102
RTVSPost2010Prop40
 90
        0
102
RTVSPost2010PropOp40
 70
     1
102
RTVSPost2010Prop41ColorIndex
 90
      178
102
RTVSPost2010Prop41ColorRGB
 90
        0
102
RTVSPost2010PropOp41
 70
     1
102
RTVSPost2010Prop42
 90
       50
102
RTVSPost2010PropOp42
 70
     1
102
RTVSPost2010Prop43
 90
        3
102
RTVSPost2010PropOp43
 70
     1
102
RTVSPost2010Prop44ColorIndex
 90
        5
102
RTVSPost2010Prop44ColorRGB
 90
      255
102
RTVSPost2010PropOp44
 70
     1
102
RTVSPost2010Prop45
280
     0
102
RTVSPost2010PropOp45
 70
     1
102
RTVSPost2010Prop46
 90
       50
102
RTVSPost2010PropOp46
 70
     1
102
RTVSPost2010Prop47
 90
       50
102
RTVSPost2010PropOp47
 70
     1
102
RTVSPost2010Prop48
 90
       50
102
RTVSPost2010PropOp48
 70
     1
102
RTVSPost2010Prop49
280
     0
102
RTVSPost2010PropOp49
 70
     1
102
RTVSPost2010Prop50
 90
       50
102
RTVSPost2010PropOp50
 70
     1
102
RTVSPost2010Prop51ColorIndex
 90
      256
102
RTVSPost2010Prop51ColorRGB
 90
-16777216
102
RTVSPost2010PropOp51
 70
     0
102
RTVSPost2010Prop52
140
1.0
102
RTVSPost2010PropOp52
 70
     0
102
RTVSPost2010Prop53
 90
        2
102
RTVSPost2010PropOp53
 70
     1
102
RTVSPost2010Prop54
  1
strokes_ogs.tif
102
RTVSPost2010PropOp54
 70
     1
102
RTVSPost2010Prop55
280
     0
102
RTVSPost2010PropOp55
 70
     1
102
RTVSPost2010Prop56
140
1.0
102
RTVSPost2010PropOp56
 70
     1
102
RTVSPost2010Prop57
140
1.0
102
RTVSPost2010PropOp57
 70
     1
  0
XRECORD
  5
212
102
{ACAD_REACTORS
330
211
102
}
330
211
100
AcDbXrecord
280
     1
102
RTVSPropertyOp0
 70
     1
102
RTVSPropertyOp1
 70
     1
102
RTVSPropertyOp2
 70
     1
102
RTVSPropertyOp3
 70
     1
102
RTVSPropertyOp4
 70
     1
102
RTVSPropertyOp5
 70
     1
102
RTVSPropertyOp6
 70
     1
102
RTVSPropertyOp7
 70
     1
102
RTVSPropertyOp8
 70
     1
102
RTVSPropertyOp9
 70
     1
102
RTVSPropertyOp10
 70
     1
102
RTVSPropertyOp11
 70
     1
102
RTVSPropertyOp12
 70
     1
102
RTVSPropertyOp13
 70
     1
102
RTVSPropertyOp14
 70
     1
102
RTVSPropertyOp15
 70
     1
102
RTVSPropertyOp16
 70
     1
102
RTVSPropertyOp17
 70
     1
102
RTVSPropertyOp18
 70
     1
102
RTVSPropertyOp19
 70
     1
102
RTVSPropertyOp20
 70
     1
102
RTVSPropertyOp21
 70
     1
102
RTVSPropertyOp22
 70
     1
102
RTVSPropertyOp23
 70
     1
102
RTVSPropertyOp24
 70
     1
102
RTVSPropertyOp25
 70
     1
102
RTVSPropertyOp26
 70
     1
102
RTVSPropertyOp27
 70
     1
102
RTVSPropertyOp28
 70
     1
102
RTVSPropertyOp29
 70
     1
102
RTVSPropertyOp30
 70
     1
102
RTVSPropertyOp31
 70
     1
102
RTVSPropertyOp32
 70
     1
102
RTVSPropertyOp33
 70
     1
102
RTVSPropertyOp34
 70
     1
102
RTVSPropertyOp35
 70
     1
102
RTVSPropertyOp36
 70
     1
102
RTVSPropertyOp37
 70
     1
102
RTVSPropertyOp38
 70
     1
102
RTVSPropertyOp39
 70
     1
102
RTVSPropertyOp40
 70
     1
102
RTVSPropertyOp41
 70
     1
102
RTVSPropertyOp42
 70
     1
102
RTVSPropertyOp43
 70
     1
102
RTVSPropertyOp44
 70
     1
102
RTVSPropertyOp45
 70
     1
102
RTVSPropertyOp46
 70
     1
102
RTVSPropertyOp47
 70
     1
102
RTVSPropertyOp48
 70
     1
102
RTVSPropertyOp49
 70
     1
102
RTVSPropertyOp50
 70
     1
102
RTVSPropertyOp51
 70
     0
102
RTVSPropertyOp52
 70
     0
102
RTVSPropertyOp53
 70
     1
102
RTVSPropertyOp54
 70
     1
102
RTVSPropertyOp55
 70
     1
102
RTVSPropertyOp56
 70
     1
102
RTVSPropertyOp57
 70
     1
102
RTVSPost2010Prop28
280
     0
102
RTVSPost2010PropOp28
 70
     1
102
RTVSPost2010Prop29
280
     1
102
RTVSPost2010PropOp29
 70
     1
102
RTVSPost2010Prop30
280
     1
102
RTVSPost2010PropOp30
 70
     1
102
RTVSPost2010Prop31
280
     0
102
RTVSPost2010PropOp31
 70
     1
102
RTVSPost2010Prop32
280
     0
102
RTVSPost2010PropOp32
 70
     1
102
RTVSPost2010Prop33
280
     0
102
RTVSPost2010PropOp33
 70
     1
102
RTVSPost2010Prop34
280
     0
102
RTVSPost2010PropOp34
 70
     1
102
RTVSPost2010Prop35
280
     0
102
RTVSPost2010PropOp35
 70
     1
102
RTVSPost2010Prop36
280
     0
102
RTVSPost2010PropOp36
 70
     1
102
RTVSPost2010Prop37
 90
       50
102
RTVSPost2010PropOp37
 70
     1
102
RTVSPost2010Prop38
140
0.0
102
RTVSPost2010PropOp38
 70
     1
102
RTVSPost2010Prop39
140
1.0
102
RTVSPost2010PropOp39
 70
     1
102
RTVSPost2010Prop40
 90
        0
102
RTVSPost2010PropOp40
 70
     1
102
RTVSPost2010Prop41ColorIndex
 90
      178
102
RTVSPost2010Prop41ColorRGB
 90
        0
102
RTVSPost2010PropOp41
 70
     1
102
RTVSPost2010Prop42
 90
       50
102
RTVSPost2010PropOp42
 70
     1
102
RTVSPost2010Prop43
 90
        3
102
RTVSPost2010PropOp43
 70
     1
102
RTVSPost2010Prop44ColorIndex
 90
        5
102
RTVSPost2010Prop44ColorRGB
 90
      255
102
RTVSPost2010PropOp44
 70
     1
102
RTVSPost2010Prop45
280
     0
102
RTVSPost2010PropOp45
 70
     1
102
RTVSPost2010Prop46
 90
       50
102
RTVSPost2010PropOp46
 70
     1
102
RTVSPost2010Prop47
 90
       50
102
RTVSPost2010PropOp47
 70
     1
102
RTVSPost2010Prop48
 90
       50
102
RTVSPost2010PropOp48
 70
     1
102
RTVSPost2010Prop49
280
     0
102
RTVSPost2010PropOp49
 70
     1
102
RTVSPost2010Prop50
 90
       50
102
RTVSPost2010PropOp50
 70
     1
102
RTVSPost2010Prop51ColorIndex
 90
      256
102
RTVSPost2010Prop51ColorRGB
 90
-16777216
102
RTVSPost2010PropOp51
 70
     0
102
RTVSPost2010Prop52
140
1.0
102
RTVSPost2010PropOp52
 70
     0
102
RTVSPost2010Prop53
 90
        2
102
RTVSPost2010PropOp53
 70
     1
102
RTVSPost2010Prop54
  1
strokes_ogs.tif
102
RTVSPost2010PropOp54
 70
     1
102
RTVSPost2010Prop55
280
     0
102
RTVSPost2010PropOp55
 70
     1
102
RTVSPost2010Prop56
140
1.0
102
RTVSPost2010PropOp56
 70
     1
102
RTVSPost2010Prop57
140
1.0
102
RTVSPost2010PropOp57
 70
     1
  0
XRECORD
  5
202
102
{ACAD_REACTORS
330
201
102
}
330
201
100
AcDbXrecord
280
     1
102
RTVSPropertyOp0
 70
     1
102
RTVSPropertyOp1
 70
     1
102
RTVSPropertyOp2
 70
     1
102
RTVSPropertyOp3
 70
     1
102
RTVSPropertyOp4
 70
     1
102
RTVSPropertyOp5
 70
     1
102
RTVSPropertyOp6
 70
     1
102
RTVSPropertyOp7
 70
     1
102
RTVSPropertyOp8
 70
     1
102
RTVSPropertyOp9
 70
     1
102
RTVSPropertyOp10
 70
     1
102
RTVSPropertyOp11
 70
     1
102
RTVSPropertyOp12
 70
     1
102
RTVSPropertyOp13
 70
     1
102
RTVSPropertyOp14
 70
     1
102
RTVSPropertyOp15
 70
     1
102
RTVSPropertyOp16
 70
     1
102
RTVSPropertyOp17
 70
     1
102
RTVSPropertyOp18
 70
     1
102
RTVSPropertyOp19
 70
     1
102
RTVSPropertyOp20
 70
     1
102
RTVSPropertyOp21
 70
     1
102
RTVSPropertyOp22
 70
     1
102
RTVSPropertyOp23
 70
     1
102
RTVSPropertyOp24
 70
     1
102
RTVSPropertyOp25
 70
     1
102
RTVSPropertyOp26
 70
     1
102
RTVSPropertyOp27
 70
     1
102
RTVSPropertyOp28
 70
     1
102
RTVSPropertyOp29
 70
     1
102
RTVSPropertyOp30
 70
     1
102
RTVSPropertyOp31
 70
     1
102
RTVSPropertyOp32
 70
     1
102
RTVSPropertyOp33
 70
     1
102
RTVSPropertyOp34
 70
     1
102
RTVSPropertyOp35
 70
     1
102
RTVSPropertyOp36
 70
     1
102
RTVSPropertyOp37
 70
     1
102
RTVSPropertyOp38
 70
     1
102
RTVSPropertyOp39
 70
     1
102
RTVSPropertyOp40
 70
     1
102
RTVSPropertyOp41
 70
     1
102
RTVSPropertyOp42
 70
     1
102
RTVSPropertyOp43
 70
     1
102
RTVSPropertyOp44
 70
     1
102
RTVSPropertyOp45
 70
     1
102
RTVSPropertyOp46
 70
     1
102
RTVSPropertyOp47
 70
     1
102
RTVSPropertyOp48
 70
     1
102
RTVSPropertyOp49
 70
     1
102
RTVSPropertyOp50
 70
     1
102
RTVSPropertyOp51
 70
     0
102
RTVSPropertyOp52
 70
     0
102
RTVSPropertyOp53
 70
     1
102
RTVSPropertyOp54
 70
     1
102
RTVSPropertyOp55
 70
     1
102
RTVSPropertyOp56
 70
     1
102
RTVSPropertyOp57
 70
     1
102
RTVSPost2010Prop28
280
     0
102
RTVSPost2010PropOp28
 70
     1
102
RTVSPost2010Prop29
280
     1
102
RTVSPost2010PropOp29
 70
     1
102
RTVSPost2010Prop30
280
     1
102
RTVSPost2010PropOp30
 70
     1
102
RTVSPost2010Prop31
280
     0
102
RTVSPost2010PropOp31
 70
     1
102
RTVSPost2010Prop32
280
     0
102
RTVSPost2010PropOp32
 70
     1
102
RTVSPost2010Prop33
280
     0
102
RTVSPost2010PropOp33
 70
     1
102
RTVSPost2010Prop34
280
     0
102
RTVSPost2010PropOp34
 70
     1
102
RTVSPost2010Prop35
280
     0
102
RTVSPost2010PropOp35
 70
     1
102
RTVSPost2010Prop36
280
     0
102
RTVSPost2010PropOp36
 70
     1
102
RTVSPost2010Prop37
 90
       50
102
RTVSPost2010PropOp37
 70
     1
102
RTVSPost2010Prop38
140
0.0
102
RTVSPost2010PropOp38
 70
     1
102
RTVSPost2010Prop39
140
1.0
102
RTVSPost2010PropOp39
 70
     1
102
RTVSPost2010Prop40
 90
        0
102
RTVSPost2010PropOp40
 70
     1
102
RTVSPost2010Prop41ColorIndex
 90
      178
102
RTVSPost2010Prop41ColorRGB
 90
        0
102
RTVSPost2010PropOp41
 70
     1
102
RTVSPost2010Prop42
 90
       50
102
RTVSPost2010PropOp42
 70
     1
102
RTVSPost2010Prop43
 90
        3
102
RTVSPost2010PropOp43
 70
     1
102
RTVSPost2010Prop44ColorIndex
 90
        5
102
RTVSPost2010Prop44ColorRGB
 90
      255
102
RTVSPost2010PropOp44
 70
     1
102
RTVSPost2010Prop45
280
     0
102
RTVSPost2010PropOp45
 70
     1
102
RTVSPost2010Prop46
 90
       50
102
RTVSPost2010PropOp46
 70
     1
102
RTVSPost2010Prop47
 90
       50
102
RTVSPost2010PropOp47
 70
     1
102
RTVSPost2010Prop48
 90
       50
102
RTVSPost2010PropOp48
 70
     1
102
RTVSPost2010Prop49
280
     0
102
RTVSPost2010PropOp49
 70
     1
102
RTVSPost2010Prop50
 90
       50
102
RTVSPost2010PropOp50
 70
     1
102
RTVSPost2010Prop51ColorIndex
 90
      256
102
RTVSPost2010Prop51ColorRGB
 90
-16777216
102
RTVSPost2010PropOp51
 70
     0
102
RTVSPost2010Prop52
140
1.0
102
RTVSPost2010PropOp52
 70
     0
102
RTVSPost2010Prop53
 90
        2
102
RTVSPost2010PropOp53
 70
     1
102
RTVSPost2010Prop54
  1
strokes_ogs.tif
102
RTVSPost2010PropOp54
 70
     1
102
RTVSPost2010Prop55
280
     0
102
RTVSPost2010PropOp55
 70
     1
102
RTVSPost2010Prop56
140
1.0
102
RTVSPost2010PropOp56
 70
     1
102
RTVSPost2010Prop57
140
1.0
102
RTVSPost2010PropOp57
 70
     1
  0
XRECORD
  5
1F4
102
{ACAD_REACTORS
330
1F3
102
}
330
1F3
100
AcDbXrecord
280
     1
102
RTVSPropertyOp0
 70
     1
102
RTVSPropertyOp1
 70
     1
102
RTVSPropertyOp2
 70
     1
102
RTVSPropertyOp3
 70
     1
102
RTVSPropertyOp4
 70
     1
102
RTVSPropertyOp5
 70
     1
102
RTVSPropertyOp6
 70
     1
102
RTVSPropertyOp7
 70
     1
102
RTVSPropertyOp8
 70
     1
102
RTVSPropertyOp9
 70
     1
102
RTVSPropertyOp10
 70
     1
102
RTVSPropertyOp11
 70
     1
102
RTVSPropertyOp12
 70
     1
102
RTVSPropertyOp13
 70
     1
102
RTVSPropertyOp14
 70
     1
102
RTVSPropertyOp15
 70
     1
102
RTVSPropertyOp16
 70
     1
102
RTVSPropertyOp17
 70
     1
102
RTVSPropertyOp18
 70
     1
102
RTVSPropertyOp19
 70
     1
102
RTVSPropertyOp20
 70
     1
102
RTVSPropertyOp21
 70
     1
102
RTVSPropertyOp22
 70
     1
102
RTVSPropertyOp23
 70
     1
102
RTVSPropertyOp24
 70
     1
102
RTVSPropertyOp25
 70
     1
102
RTVSPropertyOp26
 70
     1
102
RTVSPropertyOp27
 70
     1
102
RTVSPropertyOp28
 70
     1
102
RTVSPropertyOp29
 70
     1
102
RTVSPropertyOp30
 70
     1
102
RTVSPropertyOp31
 70
     1
102
RTVSPropertyOp32
 70
     1
102
RTVSPropertyOp33
 70
     1
102
RTVSPropertyOp34
 70
     1
102
RTVSPropertyOp35
 70
     1
102
RTVSPropertyOp36
 70
     1
102
RTVSPropertyOp37
 70
     1
102
RTVSPropertyOp38
 70
     1
102
RTVSPropertyOp39
 70
     1
102
RTVSPropertyOp40
 70
     1
102
RTVSPropertyOp41
 70
     1
102
RTVSPropertyOp42
 70
     1
102
RTVSPropertyOp43
 70
     1
102
RTVSPropertyOp44
 70
     1
102
RTVSPropertyOp45
 70
     1
102
RTVSPropertyOp46
 70
     1
102
RTVSPropertyOp47
 70
     1
102
RTVSPropertyOp48
 70
     1
102
RTVSPropertyOp49
 70
     1
102
RTVSPropertyOp50
 70
     1
102
RTVSPropertyOp51
 70
     0
102
RTVSPropertyOp52
 70
     0
102
RTVSPropertyOp53
 70
     1
102
RTVSPropertyOp54
 70
     1
102
RTVSPropertyOp55
 70
     1
102
RTVSPropertyOp56
 70
     1
102
RTVSPropertyOp57
 70
     1
102
RTVSPost2010Prop28
280
     0
102
RTVSPost2010PropOp28
 70
     1
102
RTVSPost2010Prop29
280
     1
102
RTVSPost2010PropOp29
 70
     1
102
RTVSPost2010Prop30
280
     1
102
RTVSPost2010PropOp30
 70
     1
102
RTVSPost2010Prop31
280
     0
102
RTVSPost2010PropOp31
 70
     1
102
RTVSPost2010Prop32
280
     0
102
RTVSPost2010PropOp32
 70
     1
102
RTVSPost2010Prop33
280
     0
102
RTVSPost2010PropOp33
 70
     1
102
RTVSPost2010Prop34
280
     0
102
RTVSPost2010PropOp34
 70
     1
102
RTVSPost2010Prop35
280
     0
102
RTVSPost2010PropOp35
 70
     1
102
RTVSPost2010Prop36
280
     0
102
RTVSPost2010PropOp36
 70
     1
102
RTVSPost2010Prop37
 90
       50
102
RTVSPost2010PropOp37
 70
     1
102
RTVSPost2010Prop38
140
0.0
102
RTVSPost2010PropOp38
 70
     1
102
RTVSPost2010Prop39
140
1.0
102
RTVSPost2010PropOp39
 70
     1
102
RTVSPost2010Prop40
 90
        0
102
RTVSPost2010PropOp40
 70
     1
102
RTVSPost2010Prop41ColorIndex
 90
      178
102
RTVSPost2010Prop41ColorRGB
 90
        0
102
RTVSPost2010PropOp41
 70
     1
102
RTVSPost2010Prop42
 90
       50
102
RTVSPost2010PropOp42
 70
     1
102
RTVSPost2010Prop43
 90
        3
102
RTVSPost2010PropOp43
 70
     1
102
RTVSPost2010Prop44ColorIndex
 90
        5
102
RTVSPost2010Prop44ColorRGB
 90
      255
102
RTVSPost2010PropOp44
 70
     1
102
RTVSPost2010Prop45
280
     0
102
RTVSPost2010PropOp45
 70
     1
102
RTVSPost2010Prop46
 90
       50
102
RTVSPost2010PropOp46
 70
     1
102
RTVSPost2010Prop47
 90
       50
102
RTVSPost2010PropOp47
 70
     1
102
RTVSPost2010Prop48
 90
       50
102
RTVSPost2010PropOp48
 70
     1
102
RTVSPost2010Prop49
280
     0
102
RTVSPost2010PropOp49
 70
     1
102
RTVSPost2010Prop50
 90
       50
102
RTVSPost2010PropOp50
 70
     1
102
RTVSPost2010Prop51ColorIndex
 90
      256
102
RTVSPost2010Prop51ColorRGB
 90
-16777216
102
RTVSPost2010PropOp51
 70
     0
102
RTVSPost2010Prop52
140
1.0
102
RTVSPost2010PropOp52
 70
     0
102
RTVSPost2010Prop53
 90
        2
102
RTVSPost2010PropOp53
 70
     1
102
RTVSPost2010Prop54
  1
strokes_ogs.tif
102
RTVSPost2010PropOp54
 70
     1
102
RTVSPost2010Prop55
280
     0
102
RTVSPost2010PropOp55
 70
     1
102
RTVSPost2010Prop56
140
1.0
102
RTVSPost2010PropOp56
 70
     1
102
RTVSPost2010Prop57
140
1.0
102
RTVSPost2010PropOp57
 70
     1
  0
XRECORD
  5
214
102
{ACAD_REACTORS
330
213
102
}
330
213
100
AcDbXrecord
280
     1
102
RTVSPropertyOp0
 70
     1
102
RTVSPropertyOp1
 70
     1
102
RTVSPropertyOp2
 70
     1
102
RTVSPropertyOp3
 70
     1
102
RTVSPropertyOp4
 70
     1
102
RTVSPropertyOp5
 70
     1
102
RTVSPropertyOp6
 70
     1
102
RTVSPropertyOp7
 70
     1
102
RTVSPropertyOp8
 70
     1
102
RTVSPropertyOp9
 70
     1
102
RTVSPropertyOp10
 70
     1
102
RTVSPropertyOp11
 70
     1
102
RTVSPropertyOp12
 70
     1
102
RTVSPropertyOp13
 70
     1
102
RTVSPropertyOp14
 70
     1
102
RTVSPropertyOp15
 70
     1
102
RTVSPropertyOp16
 70
     1
102
RTVSPropertyOp17
 70
     1
102
RTVSPropertyOp18
 70
     1
102
RTVSPropertyOp19
 70
     1
102
RTVSPropertyOp20
 70
     1
102
RTVSPropertyOp21
 70
     1
102
RTVSPropertyOp22
 70
     1
102
RTVSPropertyOp23
 70
     1
102
RTVSPropertyOp24
 70
     1
102
RTVSPropertyOp25
 70
     1
102
RTVSPropertyOp26
 70
     1
102
RTVSPropertyOp27
 70
     1
102
RTVSPropertyOp28
 70
     1
102
RTVSPropertyOp29
 70
     1
102
RTVSPropertyOp30
 70
     1
102
RTVSPropertyOp31
 70
     1
102
RTVSPropertyOp32
 70
     1
102
RTVSPropertyOp33
 70
     1
102
RTVSPropertyOp34
 70
     1
102
RTVSPropertyOp35
 70
     1
102
RTVSPropertyOp36
 70
     1
102
RTVSPropertyOp37
 70
     1
102
RTVSPropertyOp38
 70
     1
102
RTVSPropertyOp39
 70
     1
102
RTVSPropertyOp40
 70
     1
102
RTVSPropertyOp41
 70
     1
102
RTVSPropertyOp42
 70
     1
102
RTVSPropertyOp43
 70
     1
102
RTVSPropertyOp44
 70
     1
102
RTVSPropertyOp45
 70
     1
102
RTVSPropertyOp46
 70
     1
102
RTVSPropertyOp47
 70
     1
102
RTVSPropertyOp48
 70
     1
102
RTVSPropertyOp49
 70
     1
102
RTVSPropertyOp50
 70
     1
102
RTVSPropertyOp51
 70
     0
102
RTVSPropertyOp52
 70
     0
102
RTVSPropertyOp53
 70
     1
102
RTVSPropertyOp54
 70
     1
102
RTVSPropertyOp55
 70
     1
102
RTVSPropertyOp56
 70
     1
102
RTVSPropertyOp57
 70
     1
102
RTVSPost2010Prop28
280
     0
102
RTVSPost2010PropOp28
 70
     1
102
RTVSPost2010Prop29
280
     1
102
RTVSPost2010PropOp29
 70
     1
102
RTVSPost2010Prop30
280
     1
102
RTVSPost2010PropOp30
 70
     1
102
RTVSPost2010Prop31
280
     0
102
RTVSPost2010PropOp31
 70
     1
102
RTVSPost2010Prop32
280
     0
102
RTVSPost2010PropOp32
 70
     1
102
RTVSPost2010Prop33
280
     0
102
RTVSPost2010PropOp33
 70
     1
102
RTVSPost2010Prop34
280
     0
102
RTVSPost2010PropOp34
 70
     1
102
RTVSPost2010Prop35
280
     0
102
RTVSPost2010PropOp35
 70
     1
102
RTVSPost2010Prop36
280
     0
102
RTVSPost2010PropOp36
 70
     1
102
RTVSPost2010Prop37
 90
       50
102
RTVSPost2010PropOp37
 70
     1
102
RTVSPost2010Prop38
140
0.0
102
RTVSPost2010PropOp38
 70
     1
102
RTVSPost2010Prop39
140
1.0
102
RTVSPost2010PropOp39
 70
     1
102
RTVSPost2010Prop40
 90
        0
102
RTVSPost2010PropOp40
 70
     1
102
RTVSPost2010Prop41ColorIndex
 90
      178
102
RTVSPost2010Prop41ColorRGB
 90
        0
102
RTVSPost2010PropOp41
 70
     1
102
RTVSPost2010Prop42
 90
       50
102
RTVSPost2010PropOp42
 70
     1
102
RTVSPost2010Prop43
 90
        3
102
RTVSPost2010PropOp43
 70
     1
102
RTVSPost2010Prop44ColorIndex
 90
        5
102
RTVSPost2010Prop44ColorRGB
 90
      255
102
RTVSPost2010PropOp44
 70
     1
102
RTVSPost2010Prop45
280
     0
102
RTVSPost2010PropOp45
 70
     1
102
RTVSPost2010Prop46
 90
       50
102
RTVSPost2010PropOp46
 70
     1
102
RTVSPost2010Prop47
 90
       50
102
RTVSPost2010PropOp47
 70
     1
102
RTVSPost2010Prop48
 90
       50
102
RTVSPost2010PropOp48
 70
     1
102
RTVSPost2010Prop49
280
     0
102
RTVSPost2010PropOp49
 70
     1
102
RTVSPost2010Prop50
 90
       50
102
RTVSPost2010PropOp50
 70
     1
102
RTVSPost2010Prop51ColorIndex
 90
      256
102
RTVSPost2010Prop51ColorRGB
 90
-16777216
102
RTVSPost2010PropOp51
 70
     0
102
RTVSPost2010Prop52
140
1.0
102
RTVSPost2010PropOp52
 70
     0
102
RTVSPost2010Prop53
 90
        2
102
RTVSPost2010PropOp53
 70
     1
102
RTVSPost2010Prop54
  1
strokes_ogs.tif
102
RTVSPost2010PropOp54
 70
     1
102
RTVSPost2010Prop55
280
     0
102
RTVSPost2010PropOp55
 70
     1
102
RTVSPost2010Prop56
140
1.0
102
RTVSPost2010PropOp56
 70
     1
102
RTVSPost2010Prop57
140
1.0
102
RTVSPost2010PropOp57
 70
     1
  0
ENDSEC
  0
EOF
