0
SECTION
2
HEADER
9
$INSUNITS
70
4
9
$ACADVER
1
AC1014
9
$HANDSEED
5
FFFF
0
ENDSEC
0
SECTION
2
TABLES
0
TABLE
2
VPORT
5
8
100
AcDbSymbolTable
0
ENDTAB
0
TABLE
2
LTYPE
5
5
100
AcDbSymbolTable
0
LTYPE
5
14
100
AcDbSymbolTableRecord
100
AcDbLinetypeTableRecord
2
BYBLOCK
70
0
0
LTYPE
5
15
100
AcDbSymbolTableRecord
100
AcDbLinetypeTableRecord
2
BYLAYER
70
0
0
ENDTAB
0
TABLE
2
LAYER
5
2
100
AcDbSymbolTable
70
2
0
LAYER
5
50
100
AcDbSymbolTableRecord
100
AcDbLayerTableRecord
2
0
70
0
6
CONTINUOUS
0
ENDTAB
0
TABLE
2
STYLE
5
3
100
AcDbSymbolTable
70
1
0
STYLE
5
11
100
AcDbSymbolTableRecord
100
AcDbTextStyleTableRecord
2
STANDARD
70
0
0
ENDTAB
0
TABLE
2
VIEW
5
6
100
AcDbSymbolTable
70
0
0
ENDTAB
0
TABLE
2
UCS
5
7
100
AcDbSymbolTable
70
0
0
ENDTAB
0
TABLE
2
APPID
5
9
100
AcDbSymbolTable
70
2
0
APPID
5
12
100
AcDbSymbolTableRecord
100
AcDbRegAppTableRecord
2
ACAD
70
0
0
ENDTAB
0
TABLE
2
DIMSTYLE
5
A
100
AcDbSymbolTable
70
1
0
ENDTAB
0
TABLE
2
BLOCK_RECORD
5
1
100
AcDbSymbolTable
70
1
0
BLOCK_RECORD
5
1F
100
AcDbSymbolTableRecord
100
AcDbBlockTableRecord
2
*MODEL_SPACE
0
BLOCK_RECORD
5
1B
100
AcDbSymbolTableRecord
100
AcDbBlockTableRecord
2
*PAPER_SPACE
0
ENDTAB
0
ENDSEC
0
SECTION
2
BLOCKS
0
BLOCK
5
20
100
AcDbEntity
100
AcDbBlockBegin
2
*MODEL_SPACE
0
ENDBLK
5
21
100
AcDbEntity
100
AcDbBlockEnd
0
BLOCK
5
1C
100
AcDbEntity
100
AcDbBlockBegin
2
*PAPER_SPACE
0
ENDBLK
5
1D
100
AcDbEntity
100
AcDbBlockEnd
0
ENDSEC
0
SECTION
2
ENTITIES
0
LINE
5
100
100
AcDbEntity
8
0
100
AcDbLine
10
-499.99999999999994
20
320
30
0
11
1.6419715545541365e-14
21
320
31
0
0
LINE
5
101
100
AcDbEntity
8
0
100
AcDbLine
10
1.6419715545541365e-14
20
320
30
0
11
-1.6419814744466524e-14
21
-320
31
0
0
LINE
5
102
100
AcDbEntity
8
0
100
AcDbLine
10
-400
20
191.24670979421566
30
0
11
-248.50338234096927
21
191.24670979421563
31
0
0
ARC
5
103
100
AcDbEntity
8
0
100
AcDbCircle
10
-248.50338234096927
20
91.246709794215633
30
0
40
100
210
0
220
0
230
1
100
AcDbArc
50
0
51
90
0
LINE
5
104
100
AcDbEntity
8
0
100
AcDbLine
10
-148.50338234096927
20
91.246709794215633
30
0
11
-148.50338234096935
21
-85.93516218477734
31
0
0
ARC
5
105
100
AcDbEntity
8
0
100
AcDbCircle
10
-248.50338234096881
20
-85.93516218477734
30
0
40
99.999999999999588
210
0
220
0
230
1
100
AcDbArc
50
-76.021396976203903
51
0
0
LINE
5
106
100
AcDbEntity
8
0
100
AcDbLine
10
-224.34742993636763
20
-182.97376256332032
30
0
11
-499.99987531968145
21
-251.5923053382229
31
0
0
LINE
5
107
100
AcDbEntity
8
0
100
AcDbLine
10
-499.99999999999994
20
320
30
0
11
-500
21
291.24670979421569
31
0
0
LINE
5
108
100
AcDbEntity
8
0
100
AcDbLine
10
-499.99987531968145
20
-251.5923053382229
30
0
11
-499.99987531968111
21
-319.99999999998795
31
0
0
ARC
5
109
100
AcDbEntity
8
0
100
AcDbCircle
10
-400
20
291.24670979421569
30
0
40
100
210
0
220
0
230
1
100
AcDbArc
50
180
51
270
0
LINE
5
110
100
AcDbEntity
8
0
100
AcDbLine
10
-499.99987531968111
20
-319.99999999998795
30
0
11
-399.99987531968111
21
-319.99999999998812
31
0
0
LINE
5
111
100
AcDbEntity
8
0
100
AcDbLine
10
-399.99987531968111
20
-319.99999999998812
30
0
11
-399.999875319681
21
-310.00000000000011
31
0
0
LINE
5
112
100
AcDbEntity
8
0
100
AcDbLine
10
-389.99987531968111
20
-300.00000000000023
30
0
11
-109.99999999999989
21
-300.00000000000006
31
0
0
LINE
5
113
100
AcDbEntity
8
0
100
AcDbLine
10
-99.999999999999915
20
-310.00000000000011
30
0
11
-100.00000000000001
21
-320
31
0
0
LINE
5
114
100
AcDbEntity
8
0
100
AcDbLine
10
-100.00000000000001
20
-320
30
0
11
-1.6419814744466524e-14
21
-320
31
0
0
ARC
5
115
100
AcDbEntity
8
0
100
AcDbCircle
10
-389.99987531968111
20
-310.00000000000011
30
0
40
9.9999999999999289
210
0
220
-0
230
1
100
AcDbArc
50
90
51
180
0
ARC
5
116
100
AcDbEntity
8
0
100
AcDbCircle
10
-109.99999999999991
20
-310.00000000000006
30
0
40
10
210
-0
220
0
230
1
100
AcDbArc
50
0
51
89.999999999999844
0
LWPOLYLINE
5
117
100
AcDbEntity
8
0
100
AcDbPolyline
90
4
70
1
43
0.0
10
-327.99999999999989
20
320
10
-399.99999999999994
20
320
10
-399.99999999999994
20
329
10
-327.99999999999989
20
329.00000000000006
0
LWPOLYLINE
5
118
100
AcDbEntity
8
0
100
AcDbPolyline
90
4
70
1
43
0.0
10
-99.999999999999986
20
320
10
-172.00000000000003
20
320
10
-172.00000000000003
20
328.99999999999989
10
-99.999999999999986
20
328.99999999999989
0
LWPOLYLINE
5
119
100
AcDbEntity
8
0
100
AcDbPolyline
90
4
70
1
43
0.0
10
-17.999999999999993
20
280
10
1.4367294501878452e-14
20
280
10
1.1102230246251565e-14
20
208
10
-17.999999999999989
20
208
0
LWPOLYLINE
5
120
100
AcDbEntity
8
0
100
AcDbPolyline
90
4
70
1
43
0.0
10
-18.000000000000014
20
-280
10
-1.4367294501878449e-14
20
-280
10
-1.1102230246251565e-14
20
-208
10
-18.000000000000011
20
-208
0
LWPOLYLINE
5
121
100
AcDbEntity
8
0
100
AcDbPolyline
90
4
70
1
43
0.0
10
-17.999999999999993
20
262
10
1.3389921440357231e-14
20
262
10
1.3322676295501878e-14
20
226
10
-17.999999999999989
20
226
0
LWPOLYLINE
5
122
100
AcDbEntity
8
0
100
AcDbPolyline
90
4
70
1
43
0.0
10
-18.000000000000011
20
-226
10
-1.2116412381168351e-14
20
-226
10
-1.1102230246251565e-14
20
-262
10
-18.000000000000014
20
-262
0
ENDSEC
0
SECTION
2
OBJECTS
0
DICTIONARY
5
C
100
AcDbDictionary
3
ACAD_GROUP
350
D
3
ACAD_MLINESTYLE
350
17
0
DICTIONARY
5
D
100
AcDbDictionary
0
DICTIONARY
5
1A
330
C
100
AcDbDictionary
0
DICTIONARY
5
17
100
AcDbDictionary
0
ENDSEC
0
EOF
